  0
SECTION
  2
HEADER
  9
$ACADVER
  1
AC1024
  9
$DWGCODEPAGE
  3
ANSI_1252
  9
$EXTMAX
 10
297.0
 20
210.0
 30
0.0
  9
$EXTMIN
 10
0.0
 20
0.0
 30
0.0
  9
$LIMMIN
 10
0.0
 20
0.0
  9
$LIMMAX
 10
297.0
 20
210.0
  9
$VIEWCTR
 10
148.5
 20
105.0
  9
$VIEWSIZE
 40
210.0
  9
$CLAYER
  8
0
  9
$LTSCALE
 40
16.335
  9
$CELTYPE
  6
BYLAYER
  9
$DIMSCALE
 40
1.0
  9
$DIMASZ
 40
3.0
  9
$DIMEXO
 40
0.5
  9
$DIMDLI
 40
11.286
  9
$DIMEXE
 40
1.5
  9
$DIMCEN
 40
2.673
  9
$DIMLFAC
 40
1.0
  9
$DIMBLK
  1
_FILLED
  9
$DIMALT
 70
0
  9
$DIMALTF
 40
0.0393700787
  9
$DIMTXT
 40
3.0
  9
$DIMTOL
 70
1
  9
$DIMLIM
 70
0
  9
$DIMTFAC
 40
1.0
  9
$DIMTP
 40
0.01
  9
$DIMTM
 40
0.01
  9
$DIMGAP
 40
0.625
  9
$DIMDSEP
 70
44
  9
$AUNITS
 70
0
  9
$PDMODE
 70
3
  9
$PDSIZE
 40
3.0
  9
$HANDSEED
  5
38C
  9
$TILEMODE
 70
1
  9
$MEASUREMENT
 70
1
  9
$INSUNITS
 70
4
  0
ENDSEC
  0
SECTION
  2
CLASSES
  0
CLASS
  1
ACDBDICTIONARYWDFLT
  2
AcDbDictionaryWithDefault
  3
AutoCAD 2000
 90
0
 91
1
280
0
281
0
  0
CLASS
  1
ACDBPLACEHOLDER
  2
AcDbPlaceHolder
  3
AutoCAD 2000
 90
0
 91
1
280
0
281
0
  0
CLASS
  1
LAYOUT
  2
AcDbLayout
  3
AutoCAD 2000
 90
0
 91
0
280
0
281
0
  0
ENDSEC
  0
SECTION
  2
TABLES
  0
TABLE
  2
VPORT
  5
8
100
AcDbSymbolTable
 70
2
  0
VPORT
  5
1F4
100
AcDbSymbolTableRecord
100
AcDbViewportTableRecord
  2
*ACTIVE
 70
0
 10
0.0
 20
0.0
 11
1.0
 21
1.0
 12
148.5
 22
105.0
 13
0.0
 23
0.0
 14
1.0
 24
1.0
 15
0.0
 25
0.0
 16
0.0
 26
0.0
 36
1.0
 17
0.0
 27
0.0
 37
0.0
 40
210.0
 41
1.4142857143
 42
50.0
 43
0.0
 44
0.0
 50
0.0
 51
0.0
 71
0
 72
100
 73
1
 74
1
 75
0
 76
0
 77
0
 78
0
  0
ENDTAB
  0
TABLE
  2
LTYPE
  5
5
100
AcDbSymbolTable
 70
6
  0
LTYPE
  5
14
100
AcDbSymbolTableRecord
100
AcDbLinetypeTableRecord
  2
BYBLOCK
 70
0
  3

 72
65
 73
0
 40
0.0
  0
LTYPE
  5
15
100
AcDbSymbolTableRecord
100
AcDbLinetypeTableRecord
  2
BYLAYER
 70
0
  3

 72
65
 73
0
 40
0.0
  0
LTYPE
  5
16
100
AcDbSymbolTableRecord
100
AcDbLinetypeTableRecord
  2
CONTINUOUS
 70
64
  3
Solid line
 72
65
 73
0
 40
0.0
  0
LTYPE
  5
1F5
100
AcDbSymbolTableRecord
100
AcDbLinetypeTableRecord
  2
CENTER
 70
64
  3
____ _ ____ _ ____ _ ____ _ ____ _ ____ _ ____
 72
65
 73
4
 40
0.6
 49
0.375
 74
0
 49
-0.075
 74
0
 49
0.075
 74
0
 49
-0.075
 74
0
  0
LTYPE
  5
1F6
100
AcDbSymbolTableRecord
100
AcDbLinetypeTableRecord
  2
HIDDEN
 70
64
  3
- - - - - - - - - - - - - - - - - - - -
 72
65
 73
2
 40
0.2
 49
0.1
 74
0
 49
-0.1
 74
0
  0
LTYPE
  5
1F7
100
AcDbSymbolTableRecord
100
AcDbLinetypeTableRecord
  2
PHANTOM
 70
64
  3
_____ _ _ _____ _ _ _____ _ _ _____
 72
65
 73
6
 40
0.8
 49
0.45
 74
0
 49
-0.05
 74
0
 49
0.1
 74
0
 49
-0.05
 74
0
 49
0.1
 74
0
 49
-0.05
 74
0
  0
LTYPE
  5
1F8
100
AcDbSymbolTableRecord
100
AcDbLinetypeTableRecord
  2
DOT
 70
64
  3
. . . . . . . . . . . . . . . . . . . .
 72
65
 73
2
 40
0.2
 49
0.1
 74
0
 49
-0.1
 74
0
  0
LTYPE
  5
1F9
100
AcDbSymbolTableRecord
100
AcDbLinetypeTableRecord
  2
DASHED
 70
64
  3
- - - - - - - - - - - - - - - - - - - -
 72
65
 73
2
 40
0.2
 49
0.1
 74
0
 49
-0.1
 74
0
  0
ENDTAB
  0
TABLE
  2
LAYER
  5
2
100
AcDbSymbolTable
 70
36
  0
LAYER
  5
10
100
AcDbSymbolTableRecord
100
AcDbLayerTableRecord
  2
0
 70
0
 62
7
  6
CONTINUOUS
370
-3
390
F
  0
LAYER
  5
1FA
100
AcDbSymbolTableRecord
100
AcDbLayerTableRecord
  2
DEFAULT_1
 70
0
 62
7
  6
CENTER
370
-3
390
F
  0
LAYER
  5
1FB
100
AcDbSymbolTableRecord
100
AcDbLayerTableRecord
  2
DEFAULT_2
 70
0
 62
7
  6
HIDDEN
370
-3
390
F
  0
LAYER
  5
1FC
100
AcDbSymbolTableRecord
100
AcDbLayerTableRecord
  2
DEFAULT_3
 70
0
 62
7
  6
PHANTOM
370
-3
390
F
  0
LAYER
  5
1FD
100
AcDbSymbolTableRecord
100
AcDbLayerTableRecord
  2
9
 70
0
 62
7
  6
CONTINUOUS
370
-3
390
F
  0
LAYER
  5
1FE
100
AcDbSymbolTableRecord
100
AcDbLayerTableRecord
  2
ASSI
 70
0
 62
7
  6
CONTINUOUS
370
-3
390
F
  0
LAYER
  5
1FF
100
AcDbSymbolTableRecord
100
AcDbLayerTableRecord
  2
COORDINATE
 70
0
 62
7
  6
CONTINUOUS
370
-3
390
F
  0
LAYER
  5
200
100
AcDbSymbolTableRecord
100
AcDbLayerTableRecord
  2
COPY_PUBLISH
 70
0
 62
7
  6
CONTINUOUS
370
-3
390
F
  0
LAYER
  5
201
100
AcDbSymbolTableRecord
100
AcDbLayerTableRecord
  2
COSMETICI
 70
0
 62
7
  6
CONTINUOUS
370
-3
390
F
  0
LAYER
  5
202
100
AcDbSymbolTableRecord
100
AcDbLayerTableRecord
  2
CURVE
 70
0
 62
7
  6
CONTINUOUS
370
-3
390
F
  0
LAYER
  5
203
100
AcDbSymbolTableRecord
100
AcDbLayerTableRecord
  2
DRAFT
 70
0
 62
7
  6
CONTINUOUS
370
-3
390
F
  0
LAYER
  5
204
100
AcDbSymbolTableRecord
100
AcDbLayerTableRecord
  2
IMPORT_IGES
 70
0
 62
7
  6
CONTINUOUS
370
-3
390
F
  0
LAYER
  5
205
100
AcDbSymbolTableRecord
100
AcDbLayerTableRecord
  2
INTF_1
 70
0
 62
7
  6
CONTINUOUS
370
-3
390
F
  0
LAYER
  5
206
100
AcDbSymbolTableRecord
100
AcDbLayerTableRecord
  2
INTF_10
 70
0
 62
7
  6
CONTINUOUS
370
-3
390
F
  0
LAYER
  5
207
100
AcDbSymbolTableRecord
100
AcDbLayerTableRecord
  2
INTF_17
 70
0
 62
7
  6
CONTINUOUS
370
-3
390
F
  0
LAYER
  5
208
100
AcDbSymbolTableRecord
100
AcDbLayerTableRecord
  2
INTF_2
 70
0
 62
7
  6
CONTINUOUS
370
-3
390
F
  0
LAYER
  5
209
100
AcDbSymbolTableRecord
100
AcDbLayerTableRecord
  2
INTF_3
 70
0
 62
7
  6
CONTINUOUS
370
-3
390
F
  0
LAYER
  5
20A
100
AcDbSymbolTableRecord
100
AcDbLayerTableRecord
  2
INTF_4
 70
0
 62
7
  6
CONTINUOUS
370
-3
390
F
  0
LAYER
  5
20B
100
AcDbSymbolTableRecord
100
AcDbLayerTableRecord
  2
INTF_5
 70
0
 62
7
  6
CONTINUOUS
370
-3
390
F
  0
LAYER
  5
20C
100
AcDbSymbolTableRecord
100
AcDbLayerTableRecord
  2
INTF_6
 70
0
 62
7
  6
CONTINUOUS
370
-3
390
F
  0
LAYER
  5
20D
100
AcDbSymbolTableRecord
100
AcDbLayerTableRecord
  2
INTF_7
 70
0
 62
7
  6
CONTINUOUS
370
-3
390
F
  0
LAYER
  5
20E
100
AcDbSymbolTableRecord
100
AcDbLayerTableRecord
  2
INTF_9
 70
0
 62
7
  6
CONTINUOUS
370
-3
390
F
  0
LAYER
  5
20F
100
AcDbSymbolTableRecord
100
AcDbLayerTableRecord
  2
INTF_BLANK
 70
0
 62
7
  6
CONTINUOUS
370
-3
390
F
  0
LAYER
  5
210
100
AcDbSymbolTableRecord
100
AcDbLayerTableRecord
  2
INTF_RED
 70
0
 62
7
  6
CONTINUOUS
370
-3
390
F
  0
LAYER
  5
211
100
AcDbSymbolTableRecord
100
AcDbLayerTableRecord
  2
NOTE
 70
0
 62
7
  6
CONTINUOUS
370
-3
390
F
  0
LAYER
  5
212
100
AcDbSymbolTableRecord
100
AcDbLayerTableRecord
  2
PIANI
 70
0
 62
7
  6
CONTINUOUS
370
-3
390
F
  0
LAYER
  5
213
100
AcDbSymbolTableRecord
100
AcDbLayerTableRecord
  2
PUNTI
 70
0
 62
7
  6
CONTINUOUS
370
-3
390
F
  0
LAYER
  5
214
100
AcDbSymbolTableRecord
100
AcDbLayerTableRecord
  2
RACCORDO
 70
0
 62
7
  6
CONTINUOUS
370
-3
390
F
  0
LAYER
  5
215
100
AcDbSymbolTableRecord
100
AcDbLayerTableRecord
  2
RGB____0____0____0__
 70
0
 62
7
  6
CONTINUOUS
370
-3
390
F
  0
LAYER
  5
216
100
AcDbSymbolTableRecord
100
AcDbLayerTableRecord
  2
SIMBOLI
 70
0
 62
7
  6
CONTINUOUS
370
-3
390
F
  0
LAYER
  5
217
100
AcDbSymbolTableRecord
100
AcDbLayerTableRecord
  2
SMUSSO
 70
0
 62
7
  6
CONTINUOUS
370
-3
390
F
  0
LAYER
  5
218
100
AcDbSymbolTableRecord
100
AcDbLayerTableRecord
  2
SNAPLINE
 70
0
 62
7
  6
CONTINUOUS
370
-3
390
F
  0
LAYER
  5
219
100
AcDbSymbolTableRecord
100
AcDbLayerTableRecord
  2
SUPERFICI
 70
0
 62
7
  6
CONTINUOUS
370
-3
390
F
  0
LAYER
  5
21A
100
AcDbSymbolTableRecord
100
AcDbLayerTableRecord
  2
TRASH
 70
0
 62
7
  6
CONTINUOUS
370
-3
390
F
  0
ENDTAB
  0
TABLE
  2
STYLE
  5
3
100
AcDbSymbolTable
 70
1
  0
STYLE
  5
11
100
AcDbSymbolTableRecord
100
AcDbTextStyleTableRecord
  2
STANDARD
 70
0
 40
0.0
 41
0.8
 50
0.0
 71
0
 42
0.2
  3
txt
  4

  0
STYLE
  5
21B
100
AcDbSymbolTableRecord
100
AcDbTextStyleTableRecord
  2
TEXTSTYLE_1
 70
0
 40
0.0
 41
0.8
 50
0.0
 71
0
 42
0.2
  3
gdt
  4

  0
ENDTAB
  0
TABLE
  2
VIEW
  5
6
100
AcDbSymbolTable
 70
0
  0
ENDTAB
  0
TABLE
  2
UCS
  5
7
100
AcDbSymbolTable
 70
0
  0
ENDTAB
  0
TABLE
  2
APPID
  5
9
100
AcDbSymbolTable
 70
1
  0
APPID
  5
21C
100
AcDbSymbolTableRecord
100
AcDbRegAppTableRecord
  2
ACAD
 70
0
  0
ENDTAB
  0
TABLE
  2
BLOCK_RECORD
  5
1
100
AcDbSymbolTable
 70
0
  0
BLOCK_RECORD
  5
21D
100
AcDbSymbolTableRecord
100
AcDbBlockTableRecord
  2
*Model_Space
  0
BLOCK_RECORD
  5
21E
100
AcDbSymbolTableRecord
100
AcDbBlockTableRecord
  2
*Paper_Space
  0
BLOCK_RECORD
  5
21F
100
AcDbSymbolTableRecord
100
AcDbBlockTableRecord
  2
_FILLED
  0
ENDTAB
  0
TABLE
  2
DIMSTYLE
  5
A
100
AcDbSymbolTable
 70
1
100
AcDbDimStyleTable
 71
0
  0
DIMSTYLE
105
220
100
AcDbSymbolTableRecord
100
AcDbDimStyleTableRecord
  2
STANDARD
 70
0
  3

  4

 40
1.0
 41
3.0
 42
0.5
 43
0.38
 44
1.5
 45
0.0
 46
0.0
 47
0.01
 48
0.01
140
3.0
141
0.09
142
0.0
143
25.4
144
1.0
145
0.0
146
1.0
147
0.625
 71
1
 72
0
 73
0
 74
0
 75
0
 76
0
 77
1
 78
8
 79
2
170
0
171
1
172
0
173
0
174
0
175
0
176
0
177
0
178
0
270
2
179
2
271
2
272
2
273
2
274
2
275
0
280
0
281
0
282
0
283
1
284
8
285
0
286
0
287
3
288
0
340
11
278
44
341
21F
342
21F
343
21F
344
21F
  0
ENDTAB
  0
ENDSEC
  0
SECTION
  2
BLOCKS
  0
BLOCK
  5
20
100
AcDbEntity
  8
0
100
AcDbBlockBegin
  2
*Model_Space
 70
0
 10
0.0
 20
0.0
 30
0.0
  3
*Model_Space
  1

  0
ENDBLK
  5
21
100
AcDbEntity
  8
0
100
AcDbBlockEnd
  0
BLOCK
  5
1C
100
AcDbEntity
  8
0
100
AcDbBlockBegin
  2
*Paper_Space
 70
0
 10
0.0
 20
0.0
 30
0.0
  3
*Paper_Space
  1

  0
ENDBLK
  5
1D
100
AcDbEntity
  8
0
100
AcDbBlockEnd
  0
BLOCK
  5
221
100
AcDbEntity
  8
0
100
AcDbBlockBegin
  2
_FILLED
 70
64
 10
0.0
 20
0.0
  3
_FILLED
  1

  0
SOLID
  5
222
100
AcDbEntity
  8
0
  6
BYBLOCK
 62
0
100
AcDbTrace
 10
0.0
 20
0.0
 11
-1.0
 21
0.3166666667
 12
-1.0
 22
-0.3166666667
 13
-1.0
 23
-0.3166666667
  0
ENDBLK
  5
223
100
AcDbEntity
  8
0
  6
BYBLOCK
 62
0
100
AcDbBlockEnd
  0
ENDSEC
  0
SECTION
  2
ENTITIES
  0
LINE
  5
224
100
AcDbEntity
  8
RACCORDO
100
AcDbLine
 62
7
  6
CONTINUOUS
 10
-113.7017741935
 20
50.6678128845
 11
-112.6561513859
 21
51.3364765479
  0
LINE
  5
225
100
AcDbEntity
  8
RACCORDO
100
AcDbLine
 62
250
  6
CONTINUOUS
 10
-113.4416551923
 20
50.6493309234
 11
-112.3997567851
 21
51.315612876
  0
LWPOLYLINE
  5
226
100
AcDbEntity
  8
RACCORDO
100
AcDbPolyline
 62
250
  6
CONTINUOUS
 90
11
 70
0
 10
-113.7017707936
 20
50.6678150586
 10
-113.6950059457
 20
50.6719177364
 10
-113.6721747896
 20
50.6828377107
 10
-113.6475220732
 20
50.6904320705
 10
-113.6212305656
 20
50.6946457236
 10
-113.5934746122
 20
50.6954456483
 10
-113.5644892297
 20
50.6928202535
 10
-113.5345718019
 20
50.6868088113
 10
-113.5039821237
 20
50.6774914086
 10
-113.4729311865
 20
50.6649594176
 10
-113.4416551923
 20
50.6493309234
  0
LINE
  5
227
100
AcDbEntity
  8
RACCORDO
100
AcDbLine
 62
250
  6
CONTINUOUS
 10
-81.5656066132
 20
33.5123610094
 11
-82.6635384472
 21
32.8784320552
  0
LINE
  5
228
100
AcDbEntity
  8
RACCORDO
100
AcDbLine
 62
250
  6
CONTINUOUS
 10
-81.2121743765
 20
32.900198419
 11
-82.3101062105
 21
32.2662694649
  0
LWPOLYLINE
  5
229
100
AcDbEntity
  8
RACCORDO
100
AcDbPolyline
 62
250
  6
CONTINUOUS
 90
19
 70
0
 10
-82.3101062105
 20
32.2662694649
 10
-82.3425070724
 20
32.2499851676
 10
-82.3772094252
 20
32.2353666218
 10
-82.4139571766
 20
32.2225217676
 10
-82.452479235
 20
32.2115454296
 10
-82.4924911936
 20
32.2025187092
 10
-82.5336973916
 20
32.1955083315
 10
-82.5757964023
 20
32.1905657881
 10
-82.618474809
 20
32.1877280807
 10
-82.6614088717
 20
32.1870160828
 10
-82.7042758079
 20
32.188433416
 10
-82.746765532
 20
32.191968095
 10
-82.7885739076
 20
32.1975941963
 10
-82.8294281432
 20
32.2052779511
 10
-82.8689893461
 20
32.2149586345
 10
-82.9068752595
 20
32.2265343612
 10
-82.9427915163
 20
32.239894854
 10
-82.9765216852
 20
32.2549382783
 10
-83.007836889
 20
32.2715432036
  0
LWPOLYLINE
  5
22A
100
AcDbEntity
  8
RACCORDO
100
AcDbPolyline
 62
250
  6
CONTINUOUS
 90
19
 70
0
 10
-82.6635384472
 20
32.8784320552
 10
-82.6937959192
 20
32.8585442536
 10
-82.7237626119
 20
32.8358388865
 10
-82.7532179949
 20
32.8104830471
 10
-82.7819453008
 20
32.7826633336
 10
-82.8097331197
 20
32.7525844765
 10
-82.836376956
 20
32.7204678317
 10
-82.8616807327
 20
32.6865497516
 10
-82.8854582347
 20
32.6510798457
 10
-82.9075344789
 20
32.6143191434
 10
-82.9277470023
 20
32.5765381734
 10
-82.9459470571
 20
32.5380149731
 10
-82.9620007056
 20
32.4990330419
 10
-82.9757898061
 20
32.459879255
 10
-82.987212882
 20
32.4208417524
 10
-82.9961858689
 20
32.3822078184
 10
-83.0026427328
 20
32.3442617671
 10
-83.0065359565
 20
32.3072828506
 10
-83.007836889
 20
32.2715432036
  0
LINE
  5
22B
100
AcDbEntity
  8
0
100
AcDbLine
 62
7
  6
CONTINUOUS
 10
-102.2881597184
 20
10.1221242015
 11
-102.2937710649
 21
10.1182431012
  0
LWPOLYLINE
  5
22C
100
AcDbEntity
  8
0
100
AcDbPolyline
 62
7
  6
CONTINUOUS
 90
7
 70
0
 10
-100.0116875843
 20
10.744344486
 10
-100.013491346
 20
10.7432596459
 10
-100.019103302
 20
10.7391778457
 10
-100.0242666565
 20
10.7343019172
 10
-100.0289598892
 20
10.7286393395
 10
-100.0328726073
 20
10.722294706
 10
-100.0359013466
 20
10.7153028811
  0
LINE
  5
22D
100
AcDbEntity
  8
0
100
AcDbLine
 62
7
  6
CONTINUOUS
 10
-100.0116868213
 20
10.7443429692
 11
-100.0073322811
 21
10.7465880099
  0
LWPOLYLINE
  5
22E
100
AcDbEntity
  8
RACCORDO
100
AcDbPolyline
 62
250
  6
CONTINUOUS
 90
16
 70
0
 10
-82.3101062105
 20
19.9569411919
 10
-82.3492109361
 20
19.9376232076
 10
-82.3915477116
 20
19.9207284601
 10
-82.4366680046
 20
19.9064359387
 10
-82.4840937931
 20
19.8948970635
 10
-82.5333226304
 20
19.886234081
 10
-82.5838329682
 20
19.8805387688
 10
-82.6350896812
 20
19.8778714645
 10
-82.6865497368
 20
19.8782604261
 10
-82.7376679495
 20
19.8817015323
 10
-82.7879027543
 20
19.8881583259
 10
-82.8367219457
 20
19.8975624009
 10
-82.883608317
 20
19.9098141275
 10
-82.9280651374
 20
19.9247837062
 10
-82.9696214154
 20
19.9423125431
 10
-83.007836889
 20
19.9622149306
  0
LINE
  5
22F
100
AcDbEntity
  8
0
100
AcDbLine
 62
7
  6
CONTINUOUS
 10
-102.2881597465
 20
10.1221242581
 11
-102.2819308037
 21
10.1249315724
  0
LWPOLYLINE
  5
230
100
AcDbEntity
  8
0
100
AcDbPolyline
 62
7
  6
CONTINUOUS
 90
7
 70
0
 10
-100.7737972283
 20
9.1820026144
 10
-100.7671678778
 20
9.1848702768
 10
-100.759889238
 20
9.1867044612
 10
-100.7524369951
 20
9.1875195236
 10
-100.744839326
 20
9.1872817438
 10
-100.7370680536
 20
9.1860248421
 10
-100.7295143329
 20
9.1838643351
  0
LINE
  5
231
100
AcDbEntity
  8
0
100
AcDbLine
 62
7
  6
CONTINUOUS
 10
-101.3872300898
 20
7.1772426067
 11
-102.018920921
 21
6.9205888552
  0
LINE
  5
232
100
AcDbEntity
  8
0
100
AcDbLine
 62
7
  6
CONTINUOUS
 10
-100.0010550825
 20
10.7489925024
 11
-100.0073597426
 21
10.7465738518
  0
LINE
  5
233
100
AcDbEntity
  8
RACCORDO
100
AcDbLine
 62
7
  6
CONTINUOUS
 10
-80.0332413408
 20
14.4430796484
 11
-81.2121743765
 21
14.0121086671
  0
LINE
  5
234
100
AcDbEntity
  8
RACCORDO
100
AcDbLine
 62
250
  6
CONTINUOUS
 10
-79.9400160948
 20
14.4302297765
 11
-81.2121743765
 21
13.9651793568
  0
LINE
  5
235
100
AcDbEntity
  8
0
100
AcDbLine
 62
7
  6
CONTINUOUS
 10
-102.3032183515
 20
10.1077878118
 11
-102.2988369254
 21
10.1133539656
  0
LINE
  5
236
100
AcDbEntity
  8
0
100
AcDbLine
 62
7
  6
CONTINUOUS
 10
-101.5370980257
 20
9.0519202884
 11
-101.5321277021
 21
9.0568252151
  0
LINE
  5
237
100
AcDbEntity
  8
0
100
AcDbLine
 62
7
  6
CONTINUOUS
 10
-102.2988369254
 20
10.1133539656
 11
-102.2937687397
 21
10.1182447094
  0
LWPOLYLINE
  5
238
100
AcDbEntity
  8
0
100
AcDbPolyline
 62
7
  6
CONTINUOUS
 90
3
 70
0
 10
-102.0324429072
 20
6.9115366051
 10
-102.0261223135
 20
6.9167898205
 10
-102.0235707313
 20
6.9183591633
  0
LWPOLYLINE
  5
239
100
AcDbEntity
  8
0
100
AcDbPolyline
 62
7
  6
CONTINUOUS
 90
3
 70
0
 10
-97.4039145288
 20
7.1316408806
 10
-97.4093917971
 20
7.1274146128
 10
-97.4145372783
 20
7.1223340843
  0
LINE
  5
23A
100
AcDbEntity
  8
0
100
AcDbLine
 62
7
  6
CONTINUOUS
 10
-99.9043788906
 20
5.1948510383
 11
-99.9015277441
 21
5.1970286002
  0
LINE
  5
23B
100
AcDbEntity
  8
0
100
AcDbLine
 62
7
  6
CONTINUOUS
 10
-98.7187423911
 20
6.3112205774
 11
-98.7780377582
 21
6.2679031094
  0
LWPOLYLINE
  5
23C
100
AcDbEntity
  8
0
100
AcDbPolyline
 62
7
  6
CONTINUOUS
 90
3
 70
0
 10
-101.5370994843
 20
9.0519233861
 10
-101.5428224739
 20
9.047830432
 10
-101.5440995688
 20
9.0470698459
  0
LWPOLYLINE
  5
23D
100
AcDbEntity
  8
0
100
AcDbPolyline
 62
7
  6
CONTINUOUS
 90
4
 70
0
 10
-100.7749688469
 20
9.1813436959
 10
-100.779990034
 20
9.1778401658
 10
-100.7849825642
 20
9.1729986217
 10
-100.7893139858
 20
9.1671841178
  0
LWPOLYLINE
  5
23E
100
AcDbEntity
  8
0
100
AcDbPolyline
 62
7
  6
CONTINUOUS
 90
3
 70
0
 10
-98.5366630218
 20
5.7135169774
 10
-98.4817996417
 20
5.7484929166
 10
-98.4303754513
 20
5.7868955347
  0
LINE
  5
23F
100
AcDbEntity
  8
0
100
AcDbLine
 62
7
  6
CONTINUOUS
 10
-96.5414744473
 20
6.3196674421
 11
-96.5384504919
 21
6.3215674373
  0
LINE
  5
240
100
AcDbEntity
  8
0
100
AcDbLine
 62
7
  6
CONTINUOUS
 10
-97.4041324903
 20
7.1314935706
 11
-97.4009627895
 21
7.1334830206
  0
LINE
  5
241
100
AcDbEntity
  8
0
100
AcDbLine
 62
7
  6
CONTINUOUS
 10
-97.9477034996
 20
5.1802674594
 11
-97.9447922289
 21
5.1820927267
  0
LWPOLYLINE
  5
242
100
AcDbEntity
  8
0
100
AcDbPolyline
 62
7
  6
CONTINUOUS
 90
9
 70
0
 10
-99.8984407247
 20
5.1989627802
 10
-99.9016913841
 20
5.1969260711
 10
-99.9071706319
 20
5.1926955254
 10
-99.9120851515
 20
5.1878012383
 10
-99.9164521939
 20
5.1822154134
 10
-99.9200766571
 20
5.1760371578
 10
-99.922893507
 20
5.1692995074
 10
-99.9249677776
 20
5.1619694263
 10
-99.9262994689
 20
5.1540469146
  0
LINE
  5
243
100
AcDbEntity
  8
0
100
AcDbLine
 62
7
  6
CONTINUOUS
 10
-99.6096697587
 20
3.9434886547
 11
-99.6065827393
 21
3.9454228347
  0
LINE
  5
244
100
AcDbEntity
  8
0
100
AcDbLine
 62
7
  6
CONTINUOUS
 10
-98.8051569935
 20
6.25142189
 11
-98.77452635
 21
6.2702772461
  0
LINE
  5
245
100
AcDbEntity
  8
0
100
AcDbLine
 62
7
  6
CONTINUOUS
 10
-102.0190965968
 20
6.9208931156
 11
-102.0235516368
 21
6.9183208314
  0
LINE
  5
246
100
AcDbEntity
  8
0
100
AcDbLine
 62
250
  6
CONTINUOUS
 10
-101.1440983481
 20
6.6273271309
 11
-101.1485465112
 21
6.6247588172
  0
LINE
  5
247
100
AcDbEntity
  8
0
100
AcDbLine
 62
250
  6
CONTINUOUS
 10
-97.9427623144
 20
5.1831203257
 11
-97.947704068
 21
5.1802670191
  0
LWPOLYLINE
  5
248
100
AcDbEntity
  8
0
100
AcDbPolyline
 62
7
  6
CONTINUOUS
 90
7
 70
0
 10
-97.4009627895
 20
7.1334830206
 10
-97.3983345581
 20
7.1349034748
 10
-97.3921920576
 20
7.1374595273
 10
-97.3858629536
 20
7.1389821042
 10
-97.379399901
 20
7.139411331
 10
-97.3727502447
 20
7.1388070823
 10
-97.365913985
 20
7.1371693581
  0
LINE
  5
249
100
AcDbEntity
  8
0
100
AcDbLine
 62
7
  6
CONTINUOUS
 10
-96.5414752218
 20
6.3196689777
 11
-96.5441034532
 21
6.3182485235
  0
LINE
  5
24A
100
AcDbEntity
  8
0
100
AcDbLine
 62
7
  6
CONTINUOUS
 10
-99.8984395715
 20
5.1989604881
 11
-99.8953906932
 21
5.2005974163
  0
LWPOLYLINE
  5
24B
100
AcDbEntity
  8
0
100
AcDbPolyline
 62
7
  6
CONTINUOUS
 90
19
 70
0
 10
-98.805127053
 20
6.251362468
 10
-98.8403936427
 20
6.2325015246
 10
-98.9066240765
 20
6.2043237352
 10
-98.9757177079
 20
6.1839687215
 10
-99.0477361387
 20
6.1715856594
 10
-99.1226177672
 20
6.167025373
 10
-99.1991664373
 20
6.1704393144
 10
-99.277466486
 20
6.1820270067
 10
-99.3574335764
 20
6.2015889268
 10
-99.437618541
 20
6.228677958
 10
-99.5179494887
 20
6.2633649194
 10
-99.5984983106
 20
6.305578992
 10
-99.678031513
 20
6.3546606015
 10
-99.7565630153
 20
6.4107275737
 10
-99.834078898
 20
6.4736620827
 10
-99.9093039085
 20
6.5424510777
 10
-99.9821976539
 20
6.6171698087
 10
-100.0528005272
 20
6.6977430255
 10
-100.1199584542
 20
6.7829319263
  0
LWPOLYLINE
  5
24C
100
AcDbEntity
  8
0
100
AcDbPolyline
 62
7
  6
CONTINUOUS
 90
16
 70
0
 10
-97.9447922289
 20
5.1820927267
 10
-97.942405194
 20
5.18330111
 10
-97.9366142264
 20
5.1853308625
 10
-97.9303305967
 20
5.186356717
 10
-97.9234370117
 20
5.1863352982
 10
-97.9160507646
 20
5.1853099814
 10
-97.9085237354
 20
5.1834108927
 10
-97.9008574992
 20
5.1806210572
 10
-97.8930504809
 20
5.1769574499
 10
-97.8854498343
 20
5.1726011221
 10
-97.878086597
 20
5.1675764533
 10
-97.8709297315
 20
5.1618590639
 10
-97.8642332795
 20
5.1555568667
 10
-97.8580819215
 20
5.1487058325
 10
-97.852390977
 20
5.1412699904
 10
-97.8471604461
 20
5.1332493405
  0
LWPOLYLINE
  5
24D
100
AcDbEntity
  8
0
100
AcDbPolyline
 62
7
  6
CONTINUOUS
 90
3
 70
0
 10
-97.5269499297
 20
3.9198331722
 10
-97.5293369646
 20
3.9186247889
 10
-97.5351279323
 20
3.9165950364
  0
LINE
  5
24E
100
AcDbEntity
  8
0
100
AcDbLine
 62
7
  6
CONTINUOUS
 10
-101.1485465101
 20
6.6247588177
 11
-101.143915399
 21
6.6270103041
  0
LINE
  5
24F
100
AcDbEntity
  8
0
100
AcDbLine
 62
7
  6
CONTINUOUS
 10
-102.018920921
 20
6.9205888552
 11
-102.0235707716
 21
6.9183592447
  0
LINE
  5
250
100
AcDbEntity
  8
0
100
AcDbLine
 62
7
  6
CONTINUOUS
 10
-99.8891966215
 20
5.2031676898
 11
-99.8955371557
 21
5.2005187812
  0
LINE
  5
251
100
AcDbEntity
  8
0
100
AcDbLine
 62
7
  6
CONTINUOUS
 10
-96.5441034532
 20
6.3182485235
 11
-96.5502459536
 21
6.3156924711
  0
LINE
  5
252
100
AcDbEntity
  8
0
100
AcDbLine
 62
7
  6
CONTINUOUS
 10
-97.3920243967
 20
7.1375152416
 11
-97.3981353563
 21
7.1350051914
  0
LINE
  5
253
100
AcDbEntity
  8
0
100
AcDbLine
 62
7
  6
CONTINUOUS
 10
-96.5504136145
 20
6.3156367567
 11
-96.5443026549
 21
6.3181468069
  0
LINE
  5
254
100
AcDbEntity
  8
0
100
AcDbLine
 62
7
  6
CONTINUOUS
 10
-101.7802567005
 20
6.3679543683
 11
-101.1485465101
 21
6.6247588177
  0
LWPOLYLINE
  5
255
100
AcDbEntity
  8
0
100
AcDbPolyline
 62
7
  6
CONTINUOUS
 90
7
 70
0
 10
-98.6067466367
 20
5.6774182155
 10
-98.6792986022
 20
5.6479487578
 10
-98.7543189403
 20
5.6251085876
 10
-98.8320757127
 20
5.608828056
 10
-98.9123008576
 20
5.5991768118
 10
-98.9941901902
 20
5.5963638015
 10
-99.0777530365
 20
5.600507652
  0
LINE
  5
256
100
AcDbEntity
  8
RACCORDO
100
AcDbLine
 62
250
  6
CONTINUOUS
 10
-79.5472598651
 20
14.2034572518
 11
-81.2121743765
 21
13.5671884655
  0
LINE
  5
257
100
AcDbEntity
  8
RACCORDO
100
AcDbLine
 62
250
  6
CONTINUOUS
 10
-79.429167336
 20
13.9475255273
 11
-81.2121743765
 21
13.2661261414
  0
LINE
  5
258
100
AcDbEntity
  8
RACCORDO
100
AcDbLine
 62
250
  6
CONTINUOUS
 10
-114.1880136531
 20
24.6997068906
 11
-114.1115567021
 21
25.842906837
  0
LINE
  5
259
100
AcDbEntity
  8
RACCORDO
100
AcDbLine
 62
250
  6
CONTINUOUS
 10
-114.2725764211
 20
23.5296833917
 11
-114.1880136531
 21
24.6997068906
  0
LINE
  5
25A
100
AcDbEntity
  8
RACCORDO
100
AcDbLine
 62
250
  6
CONTINUOUS
 10
-114.3658635405
 20
22.3159334584
 11
-114.2725764211
 21
23.5296833917
  0
LINE
  5
25B
100
AcDbEntity
  8
RACCORDO
100
AcDbLine
 62
250
  6
CONTINUOUS
 10
-114.5051167935
 20
20.5995834315
 11
-114.3658635405
 21
22.3159334584
  0
LINE
  5
25C
100
AcDbEntity
  8
RACCORDO
100
AcDbLine
 62
7
  6
CONTINUOUS
 10
-115.7690039985
 20
7.5154046049
 11
-114.689326148
 21
20.3524918851
  0
LINE
  5
25D
100
AcDbEntity
  8
RACCORDO
100
AcDbLine
 62
250
  6
CONTINUOUS
 10
-115.6223797199
 20
7.3131526697
 11
-114.5051167935
 21
20.5995834315
  0
LWPOLYLINE
  5
25E
100
AcDbEntity
  8
0
100
AcDbPolyline
 62
7
  6
CONTINUOUS
 90
4
 70
0
 10
-102.0378856158
 20
6.9048250323
 10
-102.0425826405
 20
6.8964513559
 10
-102.0463984621
 20
6.8866228735
 10
-102.0489194825
 20
6.8759679554
  0
LINE
  5
25F
100
AcDbEntity
  8
0
100
AcDbLine
 62
7
  6
CONTINUOUS
 10
-102.306865721
 20
10.1016591733
 11
-102.3032183515
 21
10.1077878118
  0
LINE
  5
260
100
AcDbEntity
  8
0
100
AcDbLine
 62
7
  6
CONTINUOUS
 10
-100.4342076767
 20
8.7262602768
 11
-100.3916077862
 21
8.7940208224
  0
LINE
  5
261
100
AcDbEntity
  8
0
100
AcDbLine
 62
7
  6
CONTINUOUS
 10
-101.5321238884
 20
9.0568305142
 11
-101.528010198
 21
9.0625464023
  0
LWPOLYLINE
  5
262
100
AcDbEntity
  8
0
100
AcDbPolyline
 62
7
  6
CONTINUOUS
 90
3
 70
0
 10
-100.7893138588
 20
9.1671844027
 10
-100.7847909378
 20
9.1731572847
 10
-100.7796187277
 20
9.1780966886
  0
LINE
  5
263
100
AcDbEntity
  8
0
100
AcDbLine
 62
7
  6
CONTINUOUS
 10
-99.5961243944
 20
3.9545515419
 11
-99.5917242692
 21
3.9601516278
  0
LINE
  5
264
100
AcDbEntity
  8
0
100
AcDbLine
 62
7
  6
CONTINUOUS
 10
-97.4145372783
 20
7.1223340843
 11
-97.4191112077
 21
7.1165899738
  0
LINE
  5
265
100
AcDbEntity
  8
0
100
AcDbLine
 62
7
  6
CONTINUOUS
 10
-102.0378827018
 20
6.904829209
 11
-102.0324429072
 21
6.9115366051
  0
LINE
  5
266
100
AcDbEntity
  8
0
100
AcDbLine
 62
7
  6
CONTINUOUS
 10
-98.16149106
 20
5.0121044727
 11
-98.1571511241
 21
5.0174094886
  0
LWPOLYLINE
  5
267
100
AcDbEntity
  8
0
100
AcDbPolyline
 62
7
  6
CONTINUOUS
 90
19
 70
0
 10
-98.6670329227
 20
6.3583939892
 10
-98.6192237894
 20
6.4118592717
 10
-98.5758532482
 20
6.471121864
 10
-98.536914631
 20
6.5364834212
 10
-98.5024146059
 20
6.6076422881
 10
-98.4729114345
 20
6.6831989386
 10
-98.448531926
 20
6.7630297983
 10
-98.4291492713
 20
6.8472584416
 10
-98.4149413049
 20
6.9348560653
 10
-98.4059422383
 20
7.0260048416
 10
-98.4021178601
 20
7.1205225984
 10
-98.4035433698
 20
7.216834016
 10
-98.4102877184
 20
7.3148239676
 10
-98.4222819549
 20
7.41460758
 10
-98.4393944268
 20
7.5149549143
 10
-98.4617629198
 20
7.6160052603
 10
-98.4892496482
 20
7.7176193282
 10
-98.5213096021
 20
7.8181493092
 10
-98.5577611116
 20
7.9170459336
  0
LINE
  5
268
100
AcDbEntity
  8
0
100
AcDbLine
 62
7
  6
CONTINUOUS
 10
-99.6010476261
 20
3.9496726963
 11
-99.5961243944
 21
3.9545515419
  0
LINE
  5
269
100
AcDbEntity
  8
0
100
AcDbLine
 62
7
  6
CONTINUOUS
 10
-98.1522082471
 20
5.0218451839
 11
-98.1571523866
 21
5.0174077838
  0
LINE
  5
26A
100
AcDbEntity
  8
0
100
AcDbLine
 62
7
  6
CONTINUOUS
 10
-97.3195339115
 20
4.080080715
 11
-97.314589772
 21
4.0845181151
  0
LINE
  5
26B
100
AcDbEntity
  8
0
100
AcDbLine
 62
7
  6
CONTINUOUS
 10
-97.9477031304
 20
5.1802677455
 11
-98.1522082471
 21
5.0218451839
  0
LINE
  5
26C
100
AcDbEntity
  8
0
100
AcDbLine
 62
7
  6
CONTINUOUS
 10
-97.5240390283
 20
3.9216581534
 11
-97.3195339115
 21
4.080080715
  0
LINE
  5
26D
100
AcDbEntity
  8
0
100
AcDbLine
 62
7
  6
CONTINUOUS
 10
-99.6037315928
 20
3.9476003966
 11
-99.6010476261
 21
3.9496726963
  0
LWPOLYLINE
  5
26E
100
AcDbEntity
  8
0
100
AcDbPolyline
 62
7
  6
CONTINUOUS
 90
4
 70
0
 10
-96.5384504919
 20
6.3215674373
 10
-96.5330462141
 20
6.3257373856
 10
-96.5279007329
 20
6.330817914
 10
-96.5233268036
 20
6.3365620245
  0
LINE
  5
26F
100
AcDbEntity
  8
0
100
AcDbLine
 62
7
  6
CONTINUOUS
 10
-99.601147971
 20
3.9495736366
 11
-99.6066633264
 21
3.9453612864
  0
LWPOLYLINE
  5
270
100
AcDbEntity
  8
RACCORDO
100
AcDbPolyline
 62
250
  6
CONTINUOUS
 90
7
 70
0
 10
-79.2554014252
 20
13.8084024631
 10
-79.238412854
 20
13.8197778967
 10
-79.2241250801
 20
13.8323304335
 10
-79.2127799391
 20
13.8458477268
 10
-79.2045694866
 20
13.8601011022
 10
-79.1996327594
 20
13.8748494029
 10
-79.1980515587
 20
13.8892653925
  0
LWPOLYLINE
  5
271
100
AcDbEntity
  8
RACCORDO
100
AcDbPolyline
 62
250
  6
CONTINUOUS
 90
7
 70
0
 10
-79.2554014252
 20
12.0914156965
 10
-79.2384119857
 20
12.102791802
 10
-79.2241238001
 20
12.1153449825
 10
-79.2127786382
 20
12.1288628262
 10
-79.2045684711
 20
12.1431165981
 10
-79.1996322227
 20
12.1578651109
 10
-79.198051515
 20
12.1723549415
  0
LINE
  5
272
100
AcDbEntity
  8
0
100
AcDbLine
 62
7
  6
CONTINUOUS
 10
-97.524038659
 20
3.9216584395
 11
-97.5269499297
 21
3.9198331722
  0
LWPOLYLINE
  5
273
100
AcDbEntity
  8
RACCORDO
100
AcDbPolyline
 62
250
  6
CONTINUOUS
 90
16
 70
0
 10
-83.1095934013
 20
2.353835795
 10
-83.1484975057
 20
2.3390163562
 10
-83.1906363861
 20
2.3265729379
 10
-83.2355635249
 20
2.3166373947
 10
-83.2828028592
 20
2.3093150069
 10
-83.3318538254
 20
2.3046833651
 10
-83.3821966632
 20
2.3027915475
 10
-83.433297923
 20
2.3036596006
 10
-83.4846161192
 20
2.3072783261
 10
-83.5356074669
 20
2.3136093788
 10
-83.5857316449
 20
2.3225856729
 10
-83.6344575208
 20
2.3341120924
 10
-83.6812687792
 20
2.3480664997
 10
-83.7256693922
 20
2.3643010292
 10
-83.7671888763
 20
2.3826436544
 10
-83.8053872773
 20
2.4029000109
  0
LINE
  5
274
100
AcDbEntity
  8
RACCORDO
100
AcDbLine
 62
7
  6
CONTINUOUS
 10
-81.2121743765
 20
3.5842751786
 11
-80.3496639252
 21
3.9008800035
  0
LWPOLYLINE
  5
275
100
AcDbEntity
  8
RACCORDO
100
AcDbPolyline
 62
250
  6
CONTINUOUS
 90
9
 70
0
 10
-114.689326148
 20
20.3524918851
 10
-114.6886561727
 20
20.3240996554
 10
-114.6825672271
 20
20.2974732799
 10
-114.6712703767
 20
20.2709858708
 10
-114.6548853275
 20
20.2449180974
 10
-114.6335857011
 20
20.2195461809
 10
-114.6075971958
 20
20.1951389704
 10
-114.5771951945
 20
20.1719550934
 10
-114.5427018472
 20
20.1502402145
  0
LWPOLYLINE
  5
276
100
AcDbEntity
  8
RACCORDO
100
AcDbPolyline
 62
250
  6
CONTINUOUS
 90
11
 70
0
 10
-113.9324002434
 20
50.2465793685
 10
-113.9323426244
 20
50.2421967093
 10
-113.9298377992
 20
50.2173891445
 10
-113.9236438723
 20
50.1927871274
 10
-113.9138227033
 20
50.168616205
 10
-113.9004609189
 20
50.1450523796
 10
-113.8836714982
 20
50.1222676261
 10
-113.8636327429
 20
50.1004666455
 10
-113.8405381983
 20
50.0798119058
 10
-113.8145734841
 20
50.0604279888
 10
-113.785953634
 20
50.0424420718
  0
LINE
  5
277
100
AcDbEntity
  8
RACCORDO
100
AcDbLine
 62
7
  6
CONTINUOUS
 10
-113.9324002434
 20
37.9372510955
 11
-113.9324002434
 21
50.2465793685
  0
LINE
  5
278
100
AcDbEntity
  8
RACCORDO
100
AcDbLine
 62
250
  6
CONTINUOUS
 10
-113.7876828331
 20
36.5458532716
 11
-113.785953634
 21
50.0424420718
  0
LWPOLYLINE
  5
279
100
AcDbEntity
  8
RACCORDO
100
AcDbPolyline
 62
7
  6
CONTINUOUS
 90
10
 70
0
 10
-113.9324002433
 20
37.9372572142
 10
-113.9369277373
 20
36.055941293
 10
-113.9539262711
 20
34.1116274596
 10
-113.9888694309
 20
32.1616414718
 10
-114.0468191184
 20
30.2032450334
 10
-114.1322723343
 20
28.2342241342
 10
-114.2448639532
 20
26.2547596091
 10
-114.3797255981
 20
24.2678589752
 10
-114.5316275833
 20
22.276446358
 10
-114.6893261295
 20
20.3524921055
  0
LINE
  5
27A
100
AcDbEntity
  8
RACCORDO
100
AcDbLine
 62
250
  6
CONTINUOUS
 10
-113.7927641588
 20
35.4551594407
 11
-113.7876828331
 21
36.5458532716
  0
LINE
  5
27B
100
AcDbEntity
  8
RACCORDO
100
AcDbLine
 62
250
  6
CONTINUOUS
 10
-113.8011067628
 20
34.4562602769
 11
-113.7927641588
 21
35.4551594407
  0
LINE
  5
27C
100
AcDbEntity
  8
RACCORDO
100
AcDbLine
 62
250
  6
CONTINUOUS
 10
-113.8126318207
 20
33.533149796
 11
-113.8011067628
 21
34.4562602769
  0
LINE
  5
27D
100
AcDbEntity
  8
RACCORDO
100
AcDbLine
 62
250
  6
CONTINUOUS
 10
-113.82722587
 20
32.671338675
 11
-113.8126318207
 21
33.533149796
  0
LINE
  5
27E
100
AcDbEntity
  8
RACCORDO
100
AcDbLine
 62
250
  6
CONTINUOUS
 10
-113.8446940178
 20
31.8612397618
 11
-113.82722587
 21
32.671338675
  0
LWPOLYLINE
  5
27F
100
AcDbEntity
  8
RACCORDO
100
AcDbPolyline
 62
250
  6
CONTINUOUS
 90
11
 70
0
 10
-115.7690039985
 20
7.5154046049
 10
-115.7693954587
 20
7.5000459477
 10
-115.7668362619
 20
7.477875184
 10
-115.7606207371
 20
7.4556756421
 10
-115.7507945119
 20
7.4336073395
 10
-115.7374190962
 20
7.4118174431
 10
-115.7205989248
 20
7.3904827247
 10
-115.7005013877
 20
7.3698012144
 10
-115.6773099837
 20
7.3499338397
 10
-115.6512003117
 20
7.3310069678
 10
-115.6223797199
 20
7.3131526697
  0
LINE
  5
280
100
AcDbEntity
  8
RACCORDO
100
AcDbLine
 62
250
  6
CONTINUOUS
 10
-113.8650487462
 20
31.0883156236
 11
-113.8446940178
 21
31.8612397618
  0
LINE
  5
281
100
AcDbEntity
  8
RACCORDO
100
AcDbLine
 62
250
  6
CONTINUOUS
 10
-113.8885146605
 20
30.3378639671
 11
-113.8650487462
 21
31.0883156236
  0
LWPOLYLINE
  5
282
100
AcDbEntity
  8
RACCORDO
100
AcDbPolyline
 62
250
  6
CONTINUOUS
 90
19
 70
0
 10
-113.785953634
 20
50.0424420718
 10
-113.7846527015
 20
50.0781817188
 10
-113.7807594779
 20
50.1151606353
 10
-113.774302614
 20
50.1531066866
 10
-113.7653296271
 20
50.1917406206
 10
-113.7539065511
 20
50.2307781232
 10
-113.7401174506
 20
50.2699319101
 10
-113.7240638021
 20
50.3089138413
 10
-113.7058637474
 20
50.3474370416
 10
-113.685651224
 20
50.3852180115
 10
-113.6635749797
 20
50.4219787139
 10
-113.6397974778
 20
50.4574486198
 10
-113.6144937011
 20
50.4913666999
 10
-113.5878498647
 20
50.5234833447
 10
-113.5600620458
 20
50.5535622018
 10
-113.53133474
 20
50.5813819153
 10
-113.5018793569
 20
50.6067377547
 10
-113.4719126642
 20
50.6294431218
 10
-113.4416551923
 20
50.6493309234
  0
LINE
  5
283
100
AcDbEntity
  8
RACCORDO
100
AcDbLine
 62
250
  6
CONTINUOUS
 10
-113.9153698645
 20
29.6001901746
 11
-113.8885146605
 21
30.3378639671
  0
LINE
  5
284
100
AcDbEntity
  8
RACCORDO
100
AcDbLine
 62
250
  6
CONTINUOUS
 10
-113.9463728118
 20
28.8586619906
 11
-113.9153698645
 21
29.6001901746
  0
LINE
  5
285
100
AcDbEntity
  8
RACCORDO
100
AcDbLine
 62
250
  6
CONTINUOUS
 10
-113.9817999353
 20
28.1099505537
 11
-113.9463728118
 21
28.8586619906
  0
LINE
  5
286
100
AcDbEntity
  8
RACCORDO
100
AcDbLine
 62
250
  6
CONTINUOUS
 10
-114.0214880581
 20
27.3543086857
 11
-113.9817999353
 21
28.1099505537
  0
LINE
  5
287
100
AcDbEntity
  8
RACCORDO
100
AcDbLine
 62
250
  6
CONTINUOUS
 10
-114.0647979519
 20
26.5992589041
 11
-114.0214880581
 21
27.3543086857
  0
LINE
  5
288
100
AcDbEntity
  8
RACCORDO
100
AcDbLine
 62
250
  6
CONTINUOUS
 10
-114.1115567021
 20
25.842906837
 11
-114.0647979519
 21
26.5992589041
  0
LWPOLYLINE
  5
289
100
AcDbEntity
  8
0
100
AcDbPolyline
 62
7
  6
CONTINUOUS
 90
3
 70
0
 10
-101.521979507
 20
9.0764626051
 10
-101.524617609
 20
9.0691004212
 10
-101.5279970519
 20
9.0625583807
  0
LWPOLYLINE
  5
28A
100
AcDbEntity
  8
0
100
AcDbPolyline
 62
7
  6
CONTINUOUS
 90
3
 70
0
 10
-100.3838945743
 20
8.8098199778
 10
-100.3872558864
 20
8.801429501
 10
-100.3916077347
 20
8.7940209498
  0
LINE
  5
28B
100
AcDbEntity
  8
0
100
AcDbLine
 62
7
  6
CONTINUOUS
 10
-101.1247361682
 20
6.6489208354
 11
-101.1217033932
 21
6.6564081013
  0
LWPOLYLINE
  5
28C
100
AcDbEntity
  8
0
100
AcDbPolyline
 62
7
  6
CONTINUOUS
 90
3
 70
0
 10
-102.3068660916
 20
10.1016582152
 10
-102.3098260731
 20
10.0948548086
 10
-102.3120987608
 20
10.0873770011
  0
LINE
  5
28D
100
AcDbEntity
  8
0
100
AcDbLine
 62
7
  6
CONTINUOUS
 10
-100.8697700666
 20
9.0047450641
 11
-100.8318890856
 21
9.0881778859
  0
LWPOLYLINE
  5
28E
100
AcDbEntity
  8
0
100
AcDbPolyline
 62
7
  6
CONTINUOUS
 90
19
 70
0
 10
-100.4319112475
 20
8.7304641611
 10
-100.467404587
 20
8.6620237333
 10
-100.4980877534
 20
8.5886996664
 10
-100.5241019051
 20
8.5100382474
 10
-100.5453058836
 20
8.4264931893
 10
-100.561276213
 20
8.3394256314
 10
-100.5719048572
 20
8.2488561773
 10
-100.5772998523
 20
8.1547642234
 10
-100.5773618304
 20
8.0584490975
 10
-100.5720035285
 20
7.9597801021
 10
-100.5613122095
 20
7.8588879347
 10
-100.5454502946
 20
7.7574640156
 10
-100.5243765264
 20
7.6556562732
 10
-100.4981321622
 20
7.5533167791
 10
-100.4670033949
 20
7.4516931681
 10
-100.4308403958
 20
7.3506398893
 10
-100.3897929938
 20
7.2503024936
 10
-100.3445968681
 20
7.1523652684
 10
-100.2953039356
 20
7.0570088493
  0
LWPOLYLINE
  5
28F
100
AcDbEntity
  8
0
100
AcDbPolyline
 62
7
  6
CONTINUOUS
 90
15
 70
0
 10
-100.7893139858
 20
9.1671841178
 10
-100.8345918336
 20
9.0826513035
 10
-100.874501187
 20
8.9931790664
 10
-100.9090420458
 20
8.8987674064
 10
-100.9383292269
 20
8.7990057283
 10
-100.9622479135
 20
8.6943046273
 10
-100.9804536551
 20
8.5858958896
 10
-100.9928581369
 20
8.4736681766
 10
-100.9995496737
 20
8.3577328268
 10
-101.00044876
 20
8.239655642
 10
-100.9954809322
 20
8.1195565551
 10
-100.984720654
 20
7.9973156333
 10
-100.9683118101
 20
7.8741388794
 10
-100.9461918662
 20
7.7498987655
 10
-100.9165932719
 20
7.6169998529
  0
LWPOLYLINE
  5
290
100
AcDbEntity
  8
0
100
AcDbPolyline
 62
7
  6
CONTINUOUS
 90
6
 70
0
 10
-101.1247390801
 20
6.6489145724
 10
-101.1285338323
 20
6.6421498921
 10
-101.1328372339
 20
6.636329699
 10
-101.1375650096
 20
6.6315282515
 10
-101.1428014348
 20
6.6276712911
 10
-101.1439152862
 20
6.6270100789
  0
LINE
  5
291
100
AcDbEntity
  8
0
100
AcDbLine
 62
7
  6
CONTINUOUS
 10
-99.5917242692
 20
3.9601516278
 11
-99.5880807152
 21
3.9663343503
  0
LINE
  5
292
100
AcDbEntity
  8
0
100
AcDbLine
 62
7
  6
CONTINUOUS
 10
-98.1614931713
 20
5.0121011626
 11
-98.1652306011
 21
5.0059253204
  0
LINE
  5
293
100
AcDbEntity
  8
0
100
AcDbLine
 62
7
  6
CONTINUOUS
 10
-97.3102489873
 20
4.0898247363
 11
-97.3065115575
 21
4.0960005785
  0
LINE
  5
294
100
AcDbEntity
  8
0
100
AcDbLine
 62
7
  6
CONTINUOUS
 10
-97.3102510986
 20
4.0898214263
 11
-97.3145910345
 21
4.0845164103
  0
LWPOLYLINE
  5
295
100
AcDbEntity
  8
RACCORDO
100
AcDbPolyline
 62
250
  6
CONTINUOUS
 90
19
 70
0
 10
-79.429167336
 20
11.7480990055
 10
-79.4105546798
 20
11.7640416333
 10
-79.3928263632
 20
11.7810186366
 10
-79.3759823861
 20
11.7990300153
 10
-79.3598786438
 20
11.8184059275
 10
-79.344659241
 20
11.8388162152
 10
-79.3307564925
 20
11.8592704041
 10
-79.3183419127
 20
11.8796104765
 10
-79.3072439871
 20
11.8999944502
 10
-79.2973804872
 20
11.9199059043
 10
-79.2888344355
 20
11.9390358711
 10
-79.2815228094
 20
11.9576933184
 10
-79.2751143128
 20
11.9762887293
 10
-79.2694824037
 20
11.9948094387
 10
-79.2647536241
 20
12.0132681116
 10
-79.2609763035
 20
12.0321132261
 10
-79.2581665517
 20
12.0514942747
 10
-79.256308259
 20
12.0712617649
 10
-79.2554014252
 20
12.0914156965
  0
LWPOLYLINE
  5
296
100
AcDbEntity
  8
RACCORDO
100
AcDbPolyline
 62
7
  6
CONTINUOUS
 90
15
 70
0
 10
-79.4476482241
 20
11.6722519018
 10
-79.4154590868
 20
11.6997702955
 10
-79.3863956985
 20
11.7283061689
 10
-79.3588302845
 20
11.7590720704
 10
-79.3329054816
 20
11.7918784063
 10
-79.3088473539
 20
11.8263804804
 10
-79.286739527
 20
11.8624393107
 10
-79.2666998065
 20
11.8998771303
 10
-79.2489891373
 20
11.9382410039
 10
-79.2336994991
 20
11.9773610441
 10
-79.2209365847
 20
12.0170803847
 10
-79.2108803043
 20
12.0570164497
 10
-79.2036379911
 20
12.0970010526
 10
-79.1993158619
 20
12.1369712827
 10
-79.1980515207
 20
12.1723824222
  0
LINE
  5
297
100
AcDbEntity
  8
RACCORDO
100
AcDbLine
 62
250
  6
CONTINUOUS
 10
-81.2121743765
 20
10.3342734275
 11
-79.429167336
 21
11.7480990055
  0
LINE
  5
298
100
AcDbEntity
  8
RACCORDO
100
AcDbLine
 62
7
  6
CONTINUOUS
 10
-81.2121743765
 20
10.2730804354
 11
-79.4475538021
 21
11.6723265668
  0
LINE
  5
299
100
AcDbEntity
  8
DRAFT
100
AcDbLine
 62
7
  6
CONTINUOUS
 10
-80.3656723413
 20
3.3933261961
 11
-81.2121743765
 21
2.9900801253
  0
LINE
  5
29A
100
AcDbEntity
  8
DRAFT
100
AcDbLine
 62
7
  6
CONTINUOUS
 10
-79.6312181101
 20
3.3706376862
 11
-79.8079948054
 21
3.2864270112
  0
LWPOLYLINE
  5
29B
100
AcDbEntity
  8
RACCORDO
100
AcDbPolyline
 62
250
  6
CONTINUOUS
 90
9
 70
0
 10
-113.9324002434
 20
37.9372510955
 10
-113.9313580526
 20
37.9186210225
 10
-113.925398262
 20
37.8891060033
 10
-113.91421547
 20
37.8601010509
 10
-113.8979281514
 20
37.8319134543
 10
-113.8767088598
 20
37.8048418432
 10
-113.8507824002
 20
37.7791730241
 10
-113.820423447
 20
37.755178942
 10
-113.785953634
 20
37.7331137988
  0
LINE
  5
29C
100
AcDbEntity
  8
0
100
AcDbLine
 62
7
  6
CONTINUOUS
 10
-100.0381495713
 20
10.7076290005
 11
-100.0396172814
 21
10.6992730641
  0
LWPOLYLINE
  5
29D
100
AcDbEntity
  8
0
100
AcDbPolyline
 62
7
  6
CONTINUOUS
 90
3
 70
0
 10
-100.3838929906
 20
8.8098258659
 10
-100.3815221737
 20
8.819200584
 10
-100.3800816301
 20
8.8297853258
  0
LINE
  5
29E
100
AcDbEntity
  8
0
100
AcDbLine
 62
7
  6
CONTINUOUS
 10
-102.3120987608
 20
10.0873770011
 11
-102.390585053
 21
9.7772387019
  0
LINE
  5
29F
100
AcDbEntity
  8
0
100
AcDbLine
 62
7
  6
CONTINUOUS
 10
-101.5219795411
 20
9.0764624705
 11
-101.4434931973
 21
9.3866009734
  0
LWPOLYLINE
  5
2A0
100
AcDbEntity
  8
0
100
AcDbPolyline
 62
7
  6
CONTINUOUS
 90
3
 70
0
 10
-99.5852169764
 20
3.9731519275
 10
-99.5831427058
 20
3.9804820086
 10
-99.5818110144
 20
3.9884045203
  0
LINE
  5
2A1
100
AcDbEntity
  8
0
100
AcDbLine
 62
7
  6
CONTINUOUS
 10
-98.1684330478
 20
4.9987805569
 11
-98.1710321397
 21
4.9907665723
  0
LINE
  5
2A2
100
AcDbEntity
  8
0
100
AcDbLine
 62
7
  6
CONTINUOUS
 10
-97.3033091108
 20
4.103145342
 11
-97.3007100189
 21
4.1111593266
  0
LINE
  5
2A3
100
AcDbEntity
  8
0
100
AcDbLine
 62
7
  6
CONTINUOUS
 10
-99.5880807152
 20
3.9663343503
 11
-99.5852545587
 21
3.9730620341
  0
LINE
  5
2A4
100
AcDbEntity
  8
0
100
AcDbLine
 62
7
  6
CONTINUOUS
 10
-98.1684305792
 20
4.998786918
 11
-98.1652280554
 21
5.0059301354
  0
LINE
  5
2A5
100
AcDbEntity
  8
0
100
AcDbLine
 62
7
  6
CONTINUOUS
 10
-97.3033115794
 20
4.1031389809
 11
-97.3065141032
 21
4.0959957635
  0
LINE
  5
2A6
100
AcDbEntity
  8
0
100
AcDbLine
 62
7
  6
CONTINUOUS
 10
-97.4231101296
 20
7.1101600532
 11
-97.4265374995
 21
7.1030665506
  0
LINE
  5
2A7
100
AcDbEntity
  8
0
100
AcDbLine
 62
7
  6
CONTINUOUS
 10
-96.5193278817
 20
6.3429919452
 11
-96.5159005117
 21
6.3500854479
  0
LINE
  5
2A8
100
AcDbEntity
  8
DRAFT
100
AcDbLine
 62
7
  6
CONTINUOUS
 10
-80.3656723413
 20
1.0877784516
 11
-81.2121743765
 21
0.5135051904
  0
LINE
  5
2A9
100
AcDbEntity
  8
DRAFT
100
AcDbLine
 62
7
  6
CONTINUOUS
 10
-79.6312181101
 20
1.1420471112
 11
-79.8079948054
 21
1.0221204896
  0
LWPOLYLINE
  5
2AA
100
AcDbEntity
  8
RACCORDO
100
AcDbPolyline
 62
250
  6
CONTINUOUS
 90
19
 70
0
 10
-84.2473364853
 20
-10.4497256245
 10
-84.2795948935
 20
-10.4622623656
 10
-84.3141639661
 20
-10.4731594192
 10
-84.35078888
 20
-10.4823355608
 10
-84.389205997
 20
-10.4897233291
 10
-84.4291256317
 20
-10.4952656734
 10
-84.4702318785
 20
-10.4989194992
 10
-84.5122019082
 20
-10.5006595887
 10
-84.5547416976
 20
-10.5004771532
 10
-84.5975686032
 20
-10.4983734304
 10
-84.6403979999
 20
-10.4943581877
 10
-84.6828809861
 20
-10.488459914
 10
-84.7246412252
 20
-10.4807330116
 10
-84.7653745516
 20
-10.4712401564
 10
-84.8047824809
 20
-10.4600574531
 10
-84.8425202019
 20
-10.4472946026
 10
-84.8783066174
 20
-10.4330658804
 10
-84.9119183332
 20
-10.4174802399
 10
-84.9431303613
 20
-10.4006614087
  0
LWPOLYLINE
  5
2AB
100
AcDbEntity
  8
RACCORDO
100
AcDbPolyline
 62
7
  6
CONTINUOUS
 90
6
 70
0
 10
-82.3715496
 20
-10.0776018157
 10
-82.3419711999
 20
-10.0677357916
 10
-82.3123555343
 20
-10.0566522702
 10
-82.2827414851
 20
-10.0443441301
 10
-82.2531538812
 20
-10.0308000992
 10
-82.2264266247
 20
-10.0174712067
  0
LWPOLYLINE
  5
2AC
100
AcDbEntity
  8
RACCORDO
100
AcDbPolyline
 62
250
  6
CONTINUOUS
 90
10
 70
0
 10
-82.1782239234
 20
-9.8103070083
 10
-82.1709887003
 20
-9.8079845409
 10
-82.1637315648
 20
-9.8054832301
 10
-82.156452517
 20
-9.802803076
 10
-82.1491495398
 20
-9.799943331
 10
-82.1418246502
 20
-9.7969047426
 10
-82.1344838991
 20
-9.7936895538
 10
-82.1271293033
 20
-9.7902985121
 10
-82.119758846
 20
-9.78673087
 10
-82.1123725271
 20
-9.7829866273
  0
LINE
  5
2AD
100
AcDbEntity
  8
RACCORDO
100
AcDbLine
 62
250
  6
CONTINUOUS
 10
-84.2473364853
 20
-10.4497256245
 11
-82.1782239234
 21
-9.8103070083
  0
LINE
  5
2AE
100
AcDbEntity
  8
RACCORDO
100
AcDbLine
 62
7
  6
CONTINUOUS
 10
-84.443887037
 20
-10.7180240686
 11
-82.3715496
 21
-10.0776018157
  0
LINE
  5
2AF
100
AcDbEntity
  8
0
100
AcDbLine
 62
7
  6
CONTINUOUS
 10
-100.3796318768
 20
8.8413397783
 11
-100.3800825695
 21
8.8297751164
  0
LWPOLYLINE
  5
2B0
100
AcDbEntity
  8
0
100
AcDbPolyline
 62
7
  6
CONTINUOUS
 90
16
 70
0
 10
-99.0449830931
 20
9.0394998917
 10
-99.0457758852
 20
9.0255913515
 10
-99.0459769744
 20
9.0115035123
 10
-99.0455863607
 20
8.997236374
 10
-99.044584312
 20
8.9827556096
 10
-99.0429905605
 20
8.9680955463
 10
-99.0408643016
 20
8.9533591647
 10
-99.0382167933
 20
8.9385464186
 10
-99.0350367776
 20
8.9236573544
 10
-99.0313496773
 20
8.908795092
 10
-99.0271635307
 20
8.8939551123
 10
-99.0224702993
 20
8.8791419344
 10
-99.0172712909
 20
8.8644722357
 10
-99.0115669412
 20
8.8499849087
 10
-99.0053568144
 20
8.835641061
 10
-98.9986409105
 20
8.8214406925
  0
LWPOLYLINE
  5
2B1
100
AcDbEntity
  8
0
100
AcDbPolyline
 62
7
  6
CONTINUOUS
 90
3
 70
0
 10
-102.392350381
 20
9.7606964262
 10
-102.3918549479
 20
9.7691751539
 10
-102.3905850569
 20
9.7772386866
  0
LWPOLYLINE
  5
2B2
100
AcDbEntity
  8
0
100
AcDbPolyline
 62
7
  6
CONTINUOUS
 90
4
 70
0
 10
-101.1174276522
 20
6.6829676413
 10
-101.1180590109
 20
6.6736546615
 10
-101.1195016694
 20
6.6646669571
 10
-101.1217058034
 20
6.6564009649
  0
LINE
  5
2B3
100
AcDbEntity
  8
0
100
AcDbLine
 62
7
  6
CONTINUOUS
 10
-100.0396172814
 20
10.6992730641
 11
-100.0693434167
 21
10.3555415777
  0
LINE
  5
2B4
100
AcDbEntity
  8
0
100
AcDbLine
 62
7
  6
CONTINUOUS
 10
-99.9262994689
 20
5.1540469146
 11
-100.0059278402
 21
4.233282137
  0
LINE
  5
2B5
100
AcDbEntity
  8
0
100
AcDbLine
 62
7
  6
CONTINUOUS
 10
-99.5818110144
 20
3.9884045203
 11
-99.5021826432
 21
4.9091692979
  0
LINE
  5
2B6
100
AcDbEntity
  8
0
100
AcDbLine
 62
7
  6
CONTINUOUS
 10
-98.992738253
 20
9.6436213603
 11
-99.0449830931
 21
9.0394998917
  0
LINE
  5
2B7
100
AcDbEntity
  8
0
100
AcDbLine
 62
7
  6
CONTINUOUS
 10
-98.611379811
 20
8.9013592529
 11
-98.5460769649
 21
9.6564740403
  0
LINE
  5
2B8
100
AcDbEntity
  8
0
100
AcDbLine
 62
7
  6
CONTINUOUS
 10
-102.0489194825
 20
6.8759679554
 11
-102.0499376353
 21
6.8643820069
  0
LWPOLYLINE
  5
2B9
100
AcDbEntity
  8
0
100
AcDbPolyline
 62
7
  6
CONTINUOUS
 90
3
 70
0
 10
-98.1728227615
 20
4.9821824673
 10
-98.1737332127
 20
4.9729839663
 10
-98.1738351938
 20
4.9632153448
  0
LINE
  5
2BA
100
AcDbEntity
  8
0
100
AcDbLine
 62
7
  6
CONTINUOUS
 10
-97.999317488
 20
6.6261263435
 11
-97.9882628398
 21
6.7111417655
  0
LWPOLYLINE
  5
2BB
100
AcDbEntity
  8
0
100
AcDbPolyline
 62
7
  6
CONTINUOUS
 90
3
 70
0
 10
-100.039617302
 20
10.699272826
 10
-100.0381584915
 20
10.7076157166
 10
-100.0359135797
 20
10.7152834571
  0
LWPOLYLINE
  5
2BC
100
AcDbEntity
  8
0
100
AcDbPolyline
 62
7
  6
CONTINUOUS
 90
14
 70
0
 10
-97.9992896719
 20
6.6263068605
 10
-98.0139613417
 20
6.5435934572
 10
-98.0321591948
 20
6.4631779001
 10
-98.0535396552
 20
6.3856510706
 10
-98.0780683294
 20
6.31112134
 10
-98.1057796108
 20
6.2394803371
 10
-98.1364331037
 20
6.1709938295
 10
-98.1700205093
 20
6.105606912
 10
-98.2065501263
 20
6.0433744899
 10
-98.2458064545
 20
5.9847270459
 10
-98.2877736352
 20
5.9296403308
 10
-98.3324675271
 20
5.8781385939
 10
-98.3797202063
 20
5.8307250654
 10
-98.4294756982
 20
5.7875674887
  0
LINE
  5
2BD
100
AcDbEntity
  8
0
100
AcDbLine
 62
7
  6
CONTINUOUS
 10
-98.1728213986
 20
4.9821911963
 11
-98.1710301625
 21
4.9907743794
  0
LINE
  5
2BE
100
AcDbEntity
  8
0
100
AcDbLine
 62
7
  6
CONTINUOUS
 10
-97.2989207601
 20
4.1197347026
 11
-97.3007119962
 21
4.1111515195
  0
LINE
  5
2BF
100
AcDbEntity
  8
RACCORDO
100
AcDbLine
 62
250
  6
CONTINUOUS
 10
-82.1123725271
 20
-9.7829866273
 11
-81.2121743765
 21
-9.3162736069
  0
LINE
  5
2C0
100
AcDbEntity
  8
RACCORDO
100
AcDbLine
 62
7
  6
CONTINUOUS
 10
-82.2264131475
 20
-10.0174642202
 11
-81.3222902639
 21
-9.5487163989
  0
LWPOLYLINE
  5
2C1
100
AcDbEntity
  8
0
100
AcDbPolyline
 62
7
  6
CONTINUOUS
 90
3
 70
0
 10
-100.0687569166
 20
10.3378325742
 10
-100.0694390045
 20
10.3468267533
 10
-100.0693434181
 20
10.3555415613
  0
LWPOLYLINE
  5
2C2
100
AcDbEntity
  8
0
100
AcDbPolyline
 62
7
  6
CONTINUOUS
 90
6
 70
0
 10
-97.9797389826
 20
7.0712365303
 10
-97.986354633
 20
7.1648459056
 10
-97.9963076568
 20
7.2592124361
 10
-98.0096114135
 20
7.3544581374
 10
-98.0260881851
 20
7.4500627728
 10
-98.0457186277
 20
7.5460541779
  0
LINE
  5
2C3
100
AcDbEntity
  8
0
100
AcDbLine
 62
7
  6
CONTINUOUS
 10
-98.1731396174
 20
4.9533164574
 11
-98.1738354887
 21
4.9632240464
  0
LWPOLYLINE
  5
2C4
100
AcDbEntity
  8
0
100
AcDbPolyline
 62
7
  6
CONTINUOUS
 90
4
 70
0
 10
-100.3796321403
 20
8.8413515318
 10
-100.3803560464
 20
8.8532135237
 10
-100.382378936
 20
8.8653666027
 10
-100.3855752214
 20
8.8778154676
  0
LINE
  5
2C5
100
AcDbEntity
  8
0
100
AcDbLine
 62
7
  6
CONTINUOUS
 10
-97.4320080799
 20
7.0708877084
 11
-97.4121034434
 21
6.7036269224
  0
LWPOLYLINE
  5
2C6
100
AcDbEntity
  8
0
100
AcDbPolyline
 62
7
  6
CONTINUOUS
 90
14
 70
0
 10
-98.5449362847
 20
9.6834379918
 10
-98.5461005949
 20
9.711314662
 10
-98.5495698954
 20
9.7401040507
 10
-98.555402279
 20
9.7703219678
 10
-98.5635396529
 20
9.8014526035
 10
-98.5738077391
 20
9.8319485286
 10
-98.5863645111
 20
9.8616655524
 10
-98.6010519953
 20
9.8907478656
 10
-98.6172219931
 20
9.9180806103
 10
-98.6349682826
 20
9.9435288305
 10
-98.6541970857
 20
9.9672274822
 10
-98.6739788696
 20
9.9884665764
 10
-98.6940037898
 20
10.0070094501
 10
-98.7145612303
 20
10.0230767747
  0
LINE
  5
2C7
100
AcDbEntity
  8
0
100
AcDbLine
 62
7
  6
CONTINUOUS
 10
-97.9797414929
 20
7.0712890926
 11
-97.9764752763
 21
6.97858292
  0
LWPOLYLINE
  5
2C8
100
AcDbEntity
  8
0
100
AcDbPolyline
 62
7
  6
CONTINUOUS
 90
3
 70
0
 10
-101.1174275438
 20
6.6829743898
 10
-101.1176698374
 20
6.6926257865
 10
-101.1187232388
 20
6.7026019952
  0
LINE
  5
2C9
100
AcDbEntity
  8
0
100
AcDbLine
 62
7
  6
CONTINUOUS
 10
-97.9767776772
 20
6.8875415764
 11
-97.9764740651
 21
6.9785063258
  0
LWPOLYLINE
  5
2CA
100
AcDbEntity
  8
0
100
AcDbPolyline
 62
7
  6
CONTINUOUS
 90
16
 70
0
 10
-100.0059278402
 20
4.233282137
 10
-100.0060493568
 20
4.2246412054
 10
-100.0053647569
 20
4.2156533867
 10
-100.0038740404
 20
4.2063186811
 10
-100.0015032931
 20
4.1964797718
 10
-99.9983264293
 20
4.1862939755
 10
-99.9945651915
 20
4.1762332425
 10
-99.9902154451
 20
4.166317038
 10
-99.9852813247
 20
4.1565258967
 10
-99.9799969776
 20
4.1472733738
 10
-99.9743922075
 20
4.1385958916
 10
-99.9684372107
 20
4.1304570278
 10
-99.9622767234
 20
4.1231610695
 10
-99.955958991
 20
4.1168094457
 10
-99.9494357682
 20
4.1113007275
 10
-99.9427070549
 20
4.1066349147
  0
LWPOLYLINE
  5
2CB
100
AcDbEntity
  8
0
100
AcDbPolyline
 62
7
  6
CONTINUOUS
 90
14
 70
0
 10
-99.5021826432
 20
4.9091692979
 10
-99.5020611266
 20
4.9178102295
 10
-99.5027457265
 20
4.9267980482
 10
-99.504236443
 20
4.9361327538
 10
-99.5066071903
 20
4.9459716631
 10
-99.5097840541
 20
4.9561574594
 10
-99.5135452918
 20
4.9662181924
 10
-99.5178950383
 20
4.9761343969
 10
-99.5228291587
 20
4.9859255382
 10
-99.5281135058
 20
4.9951780612
 10
-99.5337182759
 20
5.0038555433
 10
-99.5396732727
 20
5.0119944071
 10
-99.54583376
 20
5.0192903654
 10
-99.5520757612
 20
5.0255658518
  0
LWPOLYLINE
  5
2CC
100
AcDbEntity
  8
0
100
AcDbPolyline
 62
7
  6
CONTINUOUS
 90
10
 70
0
 10
-97.4320080404
 20
7.0708869796
 10
-97.4318751366
 20
7.0794275577
 10
-97.4309482524
 20
7.0875807973
 10
-97.429227388
 20
7.0953466986
 10
-97.4266420293
 20
7.1028109809
 10
-97.4232626904
 20
7.1098879248
 10
-97.4193009128
 20
7.1163203716
 10
-97.4147479205
 20
7.1220923866
 10
-97.4096124895
 20
7.1272199045
 10
-97.4041324903
 20
7.1314935706
  0
LWPOLYLINE
  5
2CD
100
AcDbEntity
  8
0
100
AcDbPolyline
 62
7
  6
CONTINUOUS
 90
10
 70
0
 10
-96.5104299709
 20
6.3822650175
 10
-96.5105628747
 20
6.37372444
 10
-96.5114897589
 20
6.3655712007
 10
-96.5132106233
 20
6.3578052998
 10
-96.5157959819
 20
6.3503410175
 10
-96.5191753209
 20
6.3432640736
 10
-96.5231370984
 20
6.3368316267
 10
-96.5276900908
 20
6.3310596118
 10
-96.5328255218
 20
6.3259320939
 10
-96.538305521
 20
6.3216584277
  0
LINE
  5
2CE
100
AcDbEntity
  8
0
100
AcDbLine
 62
7
  6
CONTINUOUS
 10
-98.5460769649
 20
9.6564740403
 11
-98.5449366984
 21
9.6834282135
  0
LINE
  5
2CF
100
AcDbEntity
  8
0
100
AcDbLine
 62
7
  6
CONTINUOUS
 10
-97.9767753377
 20
6.8876432651
 11
-97.9807272027
 21
6.798587503
  0
LINE
  5
2D0
100
AcDbEntity
  8
0
100
AcDbLine
 62
7
  6
CONTINUOUS
 10
-97.9882628398
 20
6.7111417655
 11
-97.9807359937
 21
6.7984589434
  0
LWPOLYLINE
  5
2D1
100
AcDbEntity
  8
0
100
AcDbPolyline
 62
7
  6
CONTINUOUS
 90
3
 70
0
 10
-97.2989193972
 20
4.1197434316
 10
-97.2980089459
 20
4.1289419326
 10
-97.2979069649
 20
4.1387105541
  0
LWPOLYLINE
  5
2D2
100
AcDbEntity
  8
RACCORDO
100
AcDbPolyline
 62
250
  6
CONTINUOUS
 90
5
 70
0
 10
-82.2615543939
 20
-10.0020476339
 10
-82.2876432108
 20
-10.0287813201
 10
-82.3162863304
 20
-10.0508593715
 10
-82.3471720995
 20
-10.0680415653
 10
-82.3747728548
 20
-10.0786049517
  0
LWPOLYLINE
  5
2D3
100
AcDbEntity
  8
0
100
AcDbPolyline
 62
7
  6
CONTINUOUS
 90
5
 70
0
 10
-101.4428244727
 20
9.4318326581
 10
-101.4411497489
 20
9.4192971407
 10
-101.4407164807
 20
9.4077437249
 10
-101.4414976302
 20
9.3968450025
 10
-101.4434931973
 20
9.3866009734
  0
LINE
  5
2D4
100
AcDbEntity
  8
0
100
AcDbLine
 62
7
  6
CONTINUOUS
 10
-97.2986025413
 20
4.1486094415
 11
-97.29790667
 21
4.1387018525
  0
LINE
  5
2D5
100
AcDbEntity
  8
0
100
AcDbLine
 62
7
  6
CONTINUOUS
 10
-96.5104299315
 20
6.3822642879
 11
-96.5300533957
 21
6.745681107
  0
LWPOLYLINE
  5
2D6
100
AcDbEntity
  8
RACCORDO
100
AcDbPolyline
 62
250
  6
CONTINUOUS
 90
3
 70
0
 10
-82.2181442296
 20
-9.9358243623
 10
-82.2383037402
 20
-9.9709491914
 10
-82.2615543939
 20
-10.0020476339
  0
LWPOLYLINE
  5
2D7
100
AcDbEntity
  8
0
100
AcDbPolyline
 62
7
  6
CONTINUOUS
 90
4
 70
0
 10
-101.1258426012
 20
6.7315521623
 10
-101.12280933
 20
6.7220642195
 10
-101.1204511995
 20
6.712461796
 10
-101.1187228233
 20
6.7025983065
  0
LWPOLYLINE
  5
2D8
100
AcDbEntity
  8
0
100
AcDbPolyline
 62
7
  6
CONTINUOUS
 90
5
 70
0
 10
-102.0424672837
 20
6.816058211
 10
-102.0459268106
 20
6.827812317
 10
-102.0483015748
 20
6.8396817425
 10
-102.0496614814
 20
6.8519809617
 10
-102.0499366253
 20
6.8643955004
  0
LWPOLYLINE
  5
2D9
100
AcDbEntity
  8
0
100
AcDbPolyline
 62
7
  6
CONTINUOUS
 90
3
 70
0
 10
-100.9184233566
 20
7.6247228196
 10
-100.8853377693
 20
7.5001996287
 10
-100.8469068948
 20
7.3765289978
  0
LWPOLYLINE
  5
2DA
100
AcDbEntity
  8
0
100
AcDbPolyline
 62
7
  6
CONTINUOUS
 90
5
 70
0
 10
-101.4428265489
 20
9.4318423803
 10
-101.4457177888
 20
9.4450362837
 10
-101.4497416925
 20
9.4579007662
 10
-101.4550673141
 20
9.4703616999
 10
-101.4615255993
 20
9.4824932126
  0
LWPOLYLINE
  5
2DB
100
AcDbEntity
  8
0
100
AcDbPolyline
 62
7
  6
CONTINUOUS
 90
13
 70
0
 10
-100.9429638872
 20
7.7336917732
 10
-100.9645341374
 20
7.8504948591
 10
-100.9811110456
 20
7.9662784225
 10
-100.9926663905
 20
8.0810565943
 10
-100.9992283933
 20
8.1948152436
 10
-101.0006887403
 20
8.3063812897
 10
-100.9969795719
 20
8.415752624
 10
-100.9881687478
 20
8.5229313551
 10
-100.9743515322
 20
8.6267507276
 10
-100.9554556316
 20
8.7271774716
 10
-100.9315533396
 20
8.8242448569
 10
-100.9029568017
 20
8.9168859373
 10
-100.8697700666
 20
9.0047450641
  0
LWPOLYLINE
  5
2DC
100
AcDbEntity
  8
0
100
AcDbPolyline
 62
7
  6
CONTINUOUS
 90
3
 70
0
 10
-97.4096594749
 20
6.6846592277
 10
-97.411254658
 20
6.6942083571
 10
-97.4121034434
 20
6.7036269223
  0
LINE
  5
2DD
100
AcDbEntity
  8
0
100
AcDbLine
 62
7
  6
CONTINUOUS
 10
-98.1731386905
 20
4.9533085298
 11
-98.1715841067
 21
4.9432644827
  0
LINE
  5
2DE
100
AcDbEntity
  8
0
100
AcDbLine
 62
7
  6
CONTINUOUS
 10
-97.2986034681
 20
4.1486173691
 11
-97.300158052
 21
4.1586614162
  0
LINE
  5
2DF
100
AcDbEntity
  8
RACCORDO
100
AcDbLine
 62
250
  6
CONTINUOUS
 10
-83.089855567
 20
13.3642607288
 11
-83.1141755181
 21
12.6195830184
  0
LINE
  5
2E0
100
AcDbEntity
  8
RACCORDO
100
AcDbLine
 62
250
  6
CONTINUOUS
 10
-83.1141755181
 20
12.6195830184
 11
-83.1426244306
 21
11.8725343913
  0
LINE
  5
2E1
100
AcDbEntity
  8
RACCORDO
100
AcDbLine
 62
250
  6
CONTINUOUS
 10
-83.1426244306
 20
11.8725343913
 11
-83.1751353277
 21
11.1306492212
  0
LWPOLYLINE
  5
2E2
100
AcDbEntity
  8
RACCORDO
100
AcDbPolyline
 62
250
  6
CONTINUOUS
 90
11
 70
0
 10
-84.9431303613
 20
-10.4006614087
 10
-84.9450585869
 20
-10.4416033841
 10
-84.9436110668
 20
-10.4806233973
 10
-84.9388016224
 20
-10.5173488742
 10
-84.9306761757
 20
-10.5514291498
 10
-84.9193123105
 20
-10.5825388157
 10
-84.9048185325
 20
-10.6103808281
 10
-84.8873332323
 20
-10.6346893434
 10
-84.8670233646
 20
-10.6552322574
 10
-84.8440828535
 20
-10.6718134204
 10
-84.8415258533
 20
-10.6733203164
  0
LINE
  5
2E3
100
AcDbEntity
  8
RACCORDO
100
AcDbLine
 62
250
  6
CONTINUOUS
 10
-83.1751353277
 20
11.1306492212
 11
-83.2119616849
 21
10.388673628
  0
LINE
  5
2E4
100
AcDbEntity
  8
RACCORDO
100
AcDbLine
 62
250
  6
CONTINUOUS
 10
-82.4779488475
 20
11.1030482122
 11
-82.5148527159
 21
10.35829679
  0
LINE
  5
2E5
100
AcDbEntity
  8
RACCORDO
100
AcDbLine
 62
250
  6
CONTINUOUS
 10
-83.2119616849
 20
10.388673628
 11
-83.2532022595
 21
9.6404719429
  0
LINE
  5
2E6
100
AcDbEntity
  8
RACCORDO
100
AcDbLine
 62
250
  6
CONTINUOUS
 10
-82.5148527159
 20
10.35829679
 11
-82.5562643831
 21
9.6074169304
  0
LINE
  5
2E7
100
AcDbEntity
  8
RACCORDO
100
AcDbLine
 62
250
  6
CONTINUOUS
 10
-83.2532022595
 20
9.6404719429
 11
-83.2996175272
 21
8.8706114745
  0
LINE
  5
2E8
100
AcDbEntity
  8
RACCORDO
100
AcDbLine
 62
250
  6
CONTINUOUS
 10
-82.5562643831
 20
9.6074169304
 11
-82.6028018959
 21
8.8350242233
  0
LINE
  5
2E9
100
AcDbEntity
  8
RACCORDO
100
AcDbLine
 62
250
  6
CONTINUOUS
 10
-83.2996175272
 20
8.8706114745
 11
-83.3522374916
 21
8.0639732884
  0
LINE
  5
2EA
100
AcDbEntity
  8
RACCORDO
100
AcDbLine
 62
250
  6
CONTINUOUS
 10
-82.6028018959
 20
8.8350242233
 11
-82.6556030949
 21
8.0259148252
  0
LINE
  5
2EB
100
AcDbEntity
  8
RACCORDO
100
AcDbLine
 62
250
  6
CONTINUOUS
 10
-83.3522374916
 20
8.0639732884
 11
-83.4119627315
 21
7.2104353625
  0
LINE
  5
2EC
100
AcDbEntity
  8
RACCORDO
100
AcDbLine
 62
250
  6
CONTINUOUS
 10
-82.6556030949
 20
8.0259148252
 11
-82.7154917625
 21
7.1700035817
  0
LINE
  5
2ED
100
AcDbEntity
  8
RACCORDO
100
AcDbLine
 62
250
  6
CONTINUOUS
 10
-82.7154917625
 20
7.1700035817
 11
-82.7838703706
 21
6.2520898614
  0
LINE
  5
2EE
100
AcDbEntity
  8
RACCORDO
100
AcDbLine
 62
250
  6
CONTINUOUS
 10
-83.4119627315
 20
7.2104353625
 11
-83.4801878355
 21
6.2947953441
  0
LINE
  5
2EF
100
AcDbEntity
  8
RACCORDO
100
AcDbLine
 62
250
  6
CONTINUOUS
 10
-83.4801878355
 20
6.2947953441
 11
-83.55840736
 21
5.3017911722
  0
LINE
  5
2F0
100
AcDbEntity
  8
RACCORDO
100
AcDbLine
 62
250
  6
CONTINUOUS
 10
-82.7838703706
 20
6.2520898614
 11
-82.8622777551
 21
5.2569700774
  0
LINE
  5
2F1
100
AcDbEntity
  8
RACCORDO
100
AcDbLine
 62
250
  6
CONTINUOUS
 10
-83.55840736
 20
5.3017911722
 11
-83.6476852492
 21
4.2212433673
  0
LINE
  5
2F2
100
AcDbEntity
  8
RACCORDO
100
AcDbLine
 62
250
  6
CONTINUOUS
 10
-82.8622777551
 20
5.2569700774
 11
-82.9516922273
 21
4.1745417423
  0
LINE
  5
2F3
100
AcDbEntity
  8
RACCORDO
100
AcDbLine
 62
250
  6
CONTINUOUS
 10
-83.6476852492
 20
4.2212433673
 11
-83.7496811319
 21
3.0346935344
  0
LINE
  5
2F4
100
AcDbEntity
  8
RACCORDO
100
AcDbLine
 62
250
  6
CONTINUOUS
 10
-82.9516922273
 20
4.1745417423
 11
-83.0538526177
 21
2.9863411749
  0
LINE
  5
2F5
100
AcDbEntity
  8
RACCORDO
100
AcDbLine
 62
250
  6
CONTINUOUS
 10
-83.7496811319
 20
3.0346935344
 11
-84.9431303613
 21
-10.4006614087
  0
LINE
  5
2F6
100
AcDbEntity
  8
RACCORDO
100
AcDbLine
 62
250
  6
CONTINUOUS
 10
-83.0538526177
 20
2.9863411749
 11
-84.2473364853
 21
-10.4497256245
  0
LWPOLYLINE
  5
2F7
100
AcDbEntity
  8
RACCORDO
100
AcDbPolyline
 62
250
  6
CONTINUOUS
 90
12
 70
0
 10
-84.2473364853
 20
-10.4497256245
 10
-84.2551892472
 20
-10.4872507975
 10
-84.2655905207
 20
-10.5229041198
 10
-84.278461368
 20
-10.5564155113
 10
-84.2937040482
 20
-10.5875309683
 10
-84.3112030221
 20
-10.6160150421
 10
-84.3308259579
 20
-10.6416524615
 10
-84.3524255978
 20
-10.6642502748
 10
-84.3758371012
 20
-10.6836355161
 10
-84.4008786543
 20
-10.6996588211
 10
-84.4273566397
 20
-10.7121992937
 10
-84.443887037
 20
-10.7180240686
  0
LWPOLYLINE
  5
2F8
100
AcDbEntity
  8
RACCORDO
100
AcDbPolyline
 62
250
  6
CONTINUOUS
 90
4
 70
0
 10
-82.1782239234
 20
-9.8103070083
 10
-82.1879400024
 20
-9.8550639105
 10
-82.2012952082
 20
-9.8970553254
 10
-82.2181442296
 20
-9.9358243623
  0
LWPOLYLINE
  5
2F9
100
AcDbEntity
  8
0
100
AcDbPolyline
 62
7
  6
CONTINUOUS
 90
3
 70
0
 10
-101.8696828725
 20
6.4191549519
 10
-101.874608305
 20
6.4274363658
 10
-101.878968363
 20
6.4361412759
  0
LINE
  5
2FA
100
AcDbEntity
  8
0
100
AcDbLine
 62
7
  6
CONTINUOUS
 10
-100.3897504813
 20
8.8898885368
 11
-100.3949970318
 21
8.9015526651
  0
LINE
  5
2FB
100
AcDbEntity
  8
0
100
AcDbLine
 62
7
  6
CONTINUOUS
 10
-98.1586398142
 20
4.9045672302
 11
-98.1627593853
 21
4.9137347898
  0
LWPOLYLINE
  5
2FC
100
AcDbEntity
  8
0
100
AcDbPolyline
 62
7
  6
CONTINUOUS
 90
5
 70
0
 10
-97.3131023444
 20
4.1973586687
 10
-97.3089827733
 20
4.1881911091
 10
-97.3054730075
 20
4.1787324066
 10
-97.3025100676
 20
4.1688392829
 10
-97.3001569331
 20
4.1586550163
  0
LINE
  5
2FD
100
AcDbEntity
  8
0
100
AcDbLine
 62
7
  6
CONTINUOUS
 10
-101.1295510122
 20
6.7409256224
 11
-101.2885184226
 21
7.1090556866
  0
LINE
  5
2FE
100
AcDbEntity
  8
0
100
AcDbLine
 62
7
  6
CONTINUOUS
 10
-102.037922995
 20
6.804419427
 11
-101.8789683683
 21
6.4361412881
  0
LWPOLYLINE
  5
2FF
100
AcDbEntity
  8
0
100
AcDbPolyline
 62
7
  6
CONTINUOUS
 90
20
 70
0
 10
-98.5987858467
 20
8.0148584711
 10
-98.553301988
 20
7.905550123
 10
-98.5155263623
 20
7.8011310565
 10
-98.4827576859
 20
7.6951945296
 10
-98.455165907
 20
7.5883243075
 10
-98.4332608692
 20
7.4822716867
 10
-98.4171807823
 20
7.3771119404
 10
-98.4067874367
 20
7.2727697953
 10
-98.4021760469
 20
7.1707707284
 10
-98.4034187892
 20
7.0711173907
 10
-98.4104434874
 20
6.9738071312
 10
-98.4231288278
 20
6.880357473
 10
-98.4415322606
 20
6.7907896479
 10
-98.4655963357
 20
6.7050824241
 10
-98.4950273888
 20
6.6246896303
 10
-98.5299384634
 20
6.5496862626
 10
-98.5702165159
 20
6.4799973248
 10
-98.6152287512
 20
6.4168516567
 10
-98.6650507819
 20
6.3604320294
 10
-98.7196069954
 20
6.3105556716
  0
LWPOLYLINE
  5
300
100
AcDbEntity
  8
0
100
AcDbPolyline
 62
7
  6
CONTINUOUS
 90
3
 70
0
 10
-98.228033455
 20
8.1183766678
 10
-98.1901521486
 20
8.0247608894
 10
-98.1552239949
 20
7.9300249072
  0
LWPOLYLINE
  5
301
100
AcDbEntity
  8
0
100
AcDbPolyline
 62
7
  6
CONTINUOUS
 90
22
 70
0
 10
-100.8031589425
 20
7.2535111218
 10
-100.7545100288
 20
7.1321351727
 10
-100.7008346169
 20
7.0121970852
 10
-100.6422582436
 20
6.8939009245
 10
-100.5795736355
 20
6.7788480588
 10
-100.5128498748
 20
6.6672316724
 10
-100.4420178793
 20
6.5588585809
 10
-100.3676631298
 20
6.4547505994
 10
-100.2895879296
 20
6.3547862614
 10
-100.2079899753
 20
6.2590870332
 10
-100.124047838
 20
6.1690391296
 10
-100.0378655163
 20
6.0848678499
 10
-99.9493390116
 20
6.0063478947
 10
-99.8593348991
 20
5.9341895798
 10
-99.7677276438
 20
5.8683772588
 10
-99.6746427808
 20
5.8089265781
 10
-99.5813234901
 20
5.7565947936
 10
-99.4878770844
 20
5.7115036937
 10
-99.3941962511
 20
5.6735314899
 10
-99.3012022327
 20
5.6430700732
 10
-99.2088276326
 20
5.6201565817
 10
-99.1171398474
 20
5.6047538771
  0
LINE
  5
302
100
AcDbEntity
  8
0
100
AcDbLine
 62
7
  6
CONTINUOUS
 10
-101.1258428715
 20
6.7315526281
 11
-101.1295510122
 21
6.7409256224
  0
LINE
  5
303
100
AcDbEntity
  8
0
100
AcDbLine
 62
7
  6
CONTINUOUS
 10
-102.037922994
 20
6.8044194247
 11
-102.0424670319
 21
6.8160575662
  0
LWPOLYLINE
  5
304
100
AcDbEntity
  8
0
100
AcDbPolyline
 62
7
  6
CONTINUOUS
 90
4
 70
0
 10
-98.1627593853
 20
4.9137347898
 10
-98.1662691512
 20
4.9231934923
 10
-98.169232091
 20
4.933086616
 10
-98.1715852256
 20
4.9432708826
  0
LINE
  5
305
100
AcDbEntity
  8
0
100
AcDbLine
 62
7
  6
CONTINUOUS
 10
-100.8031589425
 20
7.2535111218
 11
-100.8493458059
 21
7.3840251724
  0
LINE
  5
306
100
AcDbEntity
  8
0
100
AcDbLine
 62
7
  6
CONTINUOUS
 10
-100.3897471208
 20
8.8898801999
 11
-100.3855721827
 21
8.8778052825
  0
LWPOLYLINE
  5
307
100
AcDbEntity
  8
0
100
AcDbPolyline
 62
7
  6
CONTINUOUS
 90
3
 70
0
 10
-98.0943788703
 20
7.7385100469
 10
-98.123273869
 20
7.8343876557
 10
-98.1552221954
 20
7.930020455
  0
LWPOLYLINE
  5
308
100
AcDbEntity
  8
0
100
AcDbPolyline
 62
7
  6
CONTINUOUS
 90
3
 70
0
 10
-98.094378062
 20
7.7385072111
 10
-98.0685210414
 20
7.6424000044
 10
-98.0457177843
 20
7.5460491803
  0
LWPOLYLINE
  5
309
100
AcDbEntity
  8
RACCORDO
100
AcDbPolyline
 62
250
  6
CONTINUOUS
 90
19
 70
0
 10
-82.3101062105
 20
32.2662694649
 10
-82.3122511864
 20
32.3022670453
 10
-82.317012392
 20
32.3395963236
 10
-82.3243545828
 20
32.3779723134
 10
-82.3342251041
 20
32.4171102062
 10
-82.3465482115
 20
32.4567025254
 10
-82.3612204895
 20
32.4964207772
 10
-82.3781168077
 20
32.5359402834
 10
-82.3971120924
 20
32.574980688
 10
-82.4180791419
 20
32.6132808057
 10
-82.4408822652
 20
32.6505808277
 10
-82.4653307197
 20
32.686557741
 10
-82.4911907846
 20
32.7208727575
 10
-82.5182600169
 20
32.7532716161
 10
-82.5463267484
 20
32.7835146649
 10
-82.5751179774
 20
32.8113302442
 10
-82.6043903902
 20
32.8365170113
 10
-82.633938049
 20
32.8589306975
 10
-82.6635384487
 20
32.8784320544
  0
LINE
  5
30A
100
AcDbEntity
  8
RACCORDO
100
AcDbLine
 62
7
  6
CONTINUOUS
 10
-81.2121743765
 20
32.900198419
 11
-81.2121743765
 21
-9.3162736069
  0
LINE
  5
30B
100
AcDbEntity
  8
DRAFT
100
AcDbLine
 62
7
  6
CONTINUOUS
 10
-80.3656723413
 20
3.3933261961
 11
-80.3656723413
 21
1.0877784516
  0
LINE
  5
30C
100
AcDbEntity
  8
DRAFT
100
AcDbLine
 62
7
  6
CONTINUOUS
 10
-79.8079948054
 20
3.2864270112
 11
-79.8079948054
 21
1.0221204896
  0
LINE
  5
30D
100
AcDbEntity
  8
RACCORDO
100
AcDbLine
 62
7
  6
CONTINUOUS
 10
-79.6312181101
 20
3.6211037538
 11
-79.6312181101
 21
3.3706376862
  0
LINE
  5
30E
100
AcDbEntity
  8
DRAFT
100
AcDbLine
 62
7
  6
CONTINUOUS
 10
-79.6312181101
 20
3.3706376862
 11
-79.6312181101
 21
1.1420471112
  0
LINE
  5
30F
100
AcDbEntity
  8
RACCORDO
100
AcDbLine
 62
250
  6
CONTINUOUS
 10
-79.2554014252
 20
12.0914156965
 11
-79.2554014252
 21
13.8084024631
  0
LINE
  5
310
100
AcDbEntity
  8
RACCORDO
100
AcDbLine
 62
7
  6
CONTINUOUS
 10
-79.198051515
 20
12.1723549415
 11
-79.198051515
 21
13.8893416829
  0
LINE
  5
311
100
AcDbEntity
  8
RACCORDO
100
AcDbLine
 62
250
  6
CONTINUOUS
 10
-83.007836889
 20
32.2715432036
 11
-83.008756215
 21
19.1104420519
  0
LINE
  5
312
100
AcDbEntity
  8
RACCORDO
100
AcDbLine
 62
250
  6
CONTINUOUS
 10
-82.3101062105
 20
32.2662694649
 11
-82.3110111571
 21
19.1041647
  0
LINE
  5
313
100
AcDbEntity
  8
RACCORDO
100
AcDbLine
 62
250
  6
CONTINUOUS
 10
-83.008756215
 20
19.1104420519
 11
-83.0137080608
 21
17.8879066721
  0
LINE
  5
314
100
AcDbEntity
  8
RACCORDO
100
AcDbLine
 62
250
  6
CONTINUOUS
 10
-82.3110111571
 20
19.1041647
 11
-82.3159723305
 21
17.87984158
  0
LINE
  5
315
100
AcDbEntity
  8
RACCORDO
100
AcDbLine
 62
250
  6
CONTINUOUS
 10
-83.0137080608
 20
17.8879066721
 11
-83.0196210427
 21
17.1036296426
  0
LINE
  5
316
100
AcDbEntity
  8
RACCORDO
100
AcDbLine
 62
250
  6
CONTINUOUS
 10
-82.3159723305
 20
17.87984158
 11
-82.3219159089
 21
17.0941362511
  0
LINE
  5
317
100
AcDbEntity
  8
RACCORDO
100
AcDbLine
 62
250
  6
CONTINUOUS
 10
-83.0196210427
 20
17.1036296426
 11
-83.0278865274
 21
16.3387260003
  0
LINE
  5
318
100
AcDbEntity
  8
RACCORDO
100
AcDbLine
 62
250
  6
CONTINUOUS
 10
-82.3219159089
 20
17.0941362511
 11
-82.3301917403
 21
16.3276147668
  0
LINE
  5
319
100
AcDbEntity
  8
RACCORDO
100
AcDbLine
 62
250
  6
CONTINUOUS
 10
-82.3301917403
 20
16.3276147668
 11
-82.3410756988
 21
15.5746240858
  0
LINE
  5
31A
100
AcDbEntity
  8
RACCORDO
100
AcDbLine
 62
250
  6
CONTINUOUS
 10
-83.0278865274
 20
16.3387260003
 11
-83.0387545237
 21
15.5875437659
  0
LINE
  5
31B
100
AcDbEntity
  8
RACCORDO
100
AcDbLine
 62
250
  6
CONTINUOUS
 10
-83.0387545237
 20
15.5875437659
 11
-83.052506477
 21
14.8443983134
  0
LINE
  5
31C
100
AcDbEntity
  8
RACCORDO
100
AcDbLine
 62
250
  6
CONTINUOUS
 10
-82.3410756988
 20
15.5746240858
 11
-82.3548754866
 21
14.8294841515
  0
LINE
  5
31D
100
AcDbEntity
  8
RACCORDO
100
AcDbLine
 62
250
  6
CONTINUOUS
 10
-83.052506477
 20
14.8443983134
 11
-83.069408242
 21
14.1054959694
  0
LINE
  5
31E
100
AcDbEntity
  8
RACCORDO
100
AcDbLine
 62
250
  6
CONTINUOUS
 10
-82.3548754866
 20
14.8294841515
 11
-82.3718232255
 21
14.0884208625
  0
LINE
  5
31F
100
AcDbEntity
  8
RACCORDO
100
AcDbLine
 62
250
  6
CONTINUOUS
 10
-83.069408242
 20
14.1054959694
 11
-83.089855567
 21
13.3642607288
  0
LINE
  5
320
100
AcDbEntity
  8
RACCORDO
100
AcDbLine
 62
250
  6
CONTINUOUS
 10
-82.3718232255
 20
14.0884208625
 11
-82.3923194441
 21
13.3448445068
  0
LINE
  5
321
100
AcDbEntity
  8
RACCORDO
100
AcDbLine
 62
250
  6
CONTINUOUS
 10
-82.3923194441
 20
13.3448445068
 11
-82.416756287
 21
12.5976023975
  0
LINE
  5
322
100
AcDbEntity
  8
RACCORDO
100
AcDbLine
 62
250
  6
CONTINUOUS
 10
-82.416756287
 20
12.5976023975
 11
-82.4452849585
 21
11.8478356874
  0
LINE
  5
323
100
AcDbEntity
  8
RACCORDO
100
AcDbLine
 62
250
  6
CONTINUOUS
 10
-82.4452849585
 20
11.8478356874
 11
-82.4779488475
 21
11.1030482122
  0
LWPOLYLINE
  5
324
100
AcDbEntity
  8
RACCORDO
100
AcDbPolyline
 62
250
  6
CONTINUOUS
 90
9
 70
0
 10
-82.1123725271
 20
-9.7829866273
 10
-82.1152479499
 20
-9.8250228223
 10
-82.1218594886
 20
-9.8643065096
 10
-82.132134769
 20
-9.9004076641
 10
-82.1459613109
 20
-9.9329310986
 10
-82.1631877599
 20
-9.9615207901
 10
-82.1836255439
 20
-9.9858637771
 10
-82.2070509375
 20
-10.0056935849
 10
-82.2264131475
 20
-10.0174642202
  0
LWPOLYLINE
  5
325
100
AcDbEntity
  8
RACCORDO
100
AcDbPolyline
 62
250
  6
CONTINUOUS
 90
13
 70
0
 10
-79.429167336
 20
13.9475255273
 10
-79.4272112312
 20
13.9710518533
 10
-79.4277246137
 20
13.9955586386
 10
-79.4306987162
 20
14.0206273727
 10
-79.4360827491
 20
14.0458299487
 10
-79.4437847673
 20
14.0707359739
 10
-79.4536732412
 20
14.09492012
 10
-79.4655793019
 20
14.1179693865
 10
-79.4792996257
 20
14.1394901534
 10
-79.4945999068
 20
14.1591149034
 10
-79.5112188575
 20
14.176508498
 10
-79.5288726702
 20
14.1913739013
 10
-79.5472598651
 20
14.2034572518
  0
LWPOLYLINE
  5
326
100
AcDbEntity
  8
RACCORDO
100
AcDbPolyline
 62
250
  6
CONTINUOUS
 90
10
 70
0
 10
-115.5233322121
 20
7.0420006579
 10
-115.5462727232
 20
7.058581821
 10
-115.5665825909
 20
7.0791247349
 10
-115.5840678911
 20
7.1034332503
 10
-115.5985616691
 20
7.1312752627
 10
-115.6099255343
 20
7.1623849286
 10
-115.618050981
 20
7.1964652041
 10
-115.6228604254
 20
7.2331906811
 10
-115.6243079455
 20
7.2722106943
 10
-115.6223797199
 20
7.3131526697
  0
LWPOLYLINE
  5
327
100
AcDbEntity
  8
0
100
AcDbPolyline
 62
7
  6
CONTINUOUS
 90
20
 70
0
 10
-100.1240658734
 20
6.7886322339
 10
-100.0597111232
 20
6.7061681159
 10
-99.9929876452
 20
6.6287954974
 10
-99.92403172
 20
6.5568140472
 10
-99.8527070669
 20
6.4899240966
 10
-99.7798049098
 20
6.4287755875
 10
-99.7051222603
 20
6.3732690259
 10
-99.6288621068
 20
6.3235039057
 10
-99.5524246386
 20
6.2804286514
 10
-99.4760022666
 20
6.2442461913
 10
-99.3994025798
 20
6.2147535969
 10
-99.3234485351
 20
6.1922905068
 10
-99.2479031221
 20
6.1768910487
 10
-99.1730033511
 20
6.1685210948
 10
-99.1002832096
 20
6.1674179002
 10
-99.0300340328
 20
6.1737588689
 10
-98.9619644854
 20
6.1873665969
 10
-98.8967345493
 20
6.2079461274
 10
-98.834210644
 20
6.2356257855
 10
-98.8051569935
 20
6.25142189
  0
LWPOLYLINE
  5
328
100
AcDbEntity
  8
0
100
AcDbPolyline
 62
7
  6
CONTINUOUS
 90
3
 70
0
 10
-97.613678284
 20
3.9532436466
 10
-97.6193511816
 20
3.9606559085
 10
-97.6245817125
 20
3.9686765585
  0
LINE
  5
329
100
AcDbEntity
  8
0
100
AcDbLine
 62
7
  6
CONTINUOUS
 10
-100.1848518296
 20
6.874638903
 11
-100.1199584542
 21
6.7829319263
  0
LINE
  5
32A
100
AcDbEntity
  8
0
100
AcDbLine
 62
7
  6
CONTINUOUS
 10
-97.3905936307
 20
6.6357885387
 11
-97.3847287407
 21
6.6267815228
  0
LINE
  5
32B
100
AcDbEntity
  8
0
100
AcDbLine
 62
7
  6
CONTINUOUS
 10
-100.183610128
 20
6.8728785601
 11
-100.2438168556
 21
6.9674408779
  0
LWPOLYLINE
  5
32C
100
AcDbEntity
  8
0
100
AcDbPolyline
 62
7
  6
CONTINUOUS
 90
19
 70
0
 10
-100.2418622796
 20
6.9640526006
 10
-100.2996084845
 20
7.0649539308
 10
-100.3509115309
 20
7.1654036797
 10
-100.3977994786
 20
7.2688041638
 10
-100.4395226259
 20
7.3735325519
 10
-100.475995373
 20
7.4796187972
 10
-100.5073033198
 20
7.5870329465
 10
-100.5329535641
 20
7.6940623095
 10
-100.5528426929
 20
7.8006966466
 10
-100.5670741193
 20
7.9069461974
 10
-100.5754651804
 20
8.0111289903
 10
-100.5779457228
 20
8.1132137475
 10
-100.5745858999
 20
8.2132317469
 10
-100.5654135098
 20
8.3095948503
 10
-100.550317932
 20
8.4022856617
 10
-100.5294097869
 20
8.4913215772
 10
-100.5030487339
 20
8.575166646
 10
-100.4713546593
 20
8.6533088847
 10
-100.4342076767
 20
8.7262602768
  0
LINE
  5
32D
100
AcDbEntity
  8
0
100
AcDbLine
 62
7
  6
CONTINUOUS
 10
-98.153910439
 20
4.8956908156
 11
-97.6245817173
 21
3.9686765668
  0
LINE
  5
32E
100
AcDbEntity
  8
0
100
AcDbLine
 62
7
  6
CONTINUOUS
 10
-97.3178317196
 20
4.2062350833
 11
-97.8471604413
 21
5.1332493321
  0
LWPOLYLINE
  5
32F
100
AcDbEntity
  8
0
100
AcDbPolyline
 62
7
  6
CONTINUOUS
 90
6
 70
0
 10
-97.3905979437
 20
6.6357958611
 10
-97.3958147658
 20
6.6451570675
 10
-97.4003299252
 20
6.6549060015
 10
-97.4041971085
 20
6.6650080499
 10
-97.4073178942
 20
6.674979534
 10
-97.4096585432
 20
6.684655376
  0
LINE
  5
330
100
AcDbEntity
  8
0
100
AcDbLine
 62
7
  6
CONTINUOUS
 10
-98.1586394229
 20
4.9045666447
 11
-98.153910439
 21
4.8956908156
  0
LINE
  5
331
100
AcDbEntity
  8
0
100
AcDbLine
 62
7
  6
CONTINUOUS
 10
-97.3131027357
 20
4.1973592543
 11
-97.3178317196
 21
4.2062350833
  0
LINE
  5
332
100
AcDbEntity
  8
0
100
AcDbLine
 62
7
  6
CONTINUOUS
 10
-98.9986409105
 20
8.8214406925
 11
-98.6443839315
 21
8.1115871706
  0
LINE
  5
333
100
AcDbEntity
  8
0
100
AcDbLine
 62
7
  6
CONTINUOUS
 10
-98.3127309848
 20
8.3029050542
 11
-98.611379811
 21
8.9013592529
  0
LINE
  5
334
100
AcDbEntity
  8
0
100
AcDbLine
 62
7
  6
CONTINUOUS
 10
-98.6443838073
 20
8.1115869217
 11
-98.5962545111
 21
8.0090354943
  0
LWPOLYLINE
  5
335
100
AcDbEntity
  8
0
100
AcDbPolyline
 62
7
  6
CONTINUOUS
 90
3
 70
0
 10
-98.2280310152
 20
8.1183702606
 10
-98.2688915085
 20
8.2110872668
 10
-98.3127309848
 20
8.3029050542
  0
LWPOLYLINE
  5
336
100
AcDbEntity
  8
RACCORDO
100
AcDbPolyline
 62
250
  6
CONTINUOUS
 90
7
 70
0
 10
-79.429167336
 20
11.7480990055
 10
-79.4272112662
 20
11.7296855255
 10
-79.4277245093
 20
11.7129684784
 10
-79.4306983572
 20
11.698233371
 10
-79.4360820845
 20
11.685731872
 10
-79.4437838073
 20
11.6756775262
 10
-79.4475538021
 20
11.6723265668
  0
LWPOLYLINE
  5
337
100
AcDbEntity
  8
RACCORDO
100
AcDbPolyline
 62
250
  6
CONTINUOUS
 90
16
 70
0
 10
-79.2554014252
 20
13.8084024631
 10
-79.2564261474
 20
13.8308736149
 10
-79.2591124461
 20
13.8516820666
 10
-79.2634603214
 20
13.8708278183
 10
-79.269515318
 20
13.8883875965
 10
-79.2772318911
 20
13.9042846745
 10
-79.2864734065
 20
13.9182888729
 10
-79.2972591487
 20
13.9304315392
 10
-79.3095698332
 20
13.9406813258
 10
-79.3232109732
 20
13.9487140094
 10
-79.3382451865
 20
13.9545021445
 10
-79.3546098552
 20
13.9580731766
 10
-79.3719226386
 20
13.9591852196
 10
-79.3900560897
 20
13.9577576447
 10
-79.4091376555
 20
13.9538710806
 10
-79.429167336
 20
13.9475255273
  0
LWPOLYLINE
  5
338
100
AcDbEntity
  8
RACCORDO
100
AcDbPolyline
 62
7
  6
CONTINUOUS
 90
11
 70
0
 10
-79.1980515587
 20
13.8892653926
 10
-79.1982417351
 20
13.9027906872
 10
-79.2014012187
 20
13.9450273406
 10
-79.2084271566
 20
13.985630538
 10
-79.2193246528
 20
14.0243668434
 10
-79.2340665795
 20
14.0609485812
 10
-79.2526057733
 20
14.0951349064
 10
-79.2748001847
 20
14.1265252492
 10
-79.3002354957
 20
14.1545378394
 10
-79.3284673285
 20
14.1788382328
 10
-79.3596586461
 20
14.1995638865
  0
LINE
  5
339
100
AcDbEntity
  8
RACCORDO
100
AcDbLine
 62
7
  6
CONTINUOUS
 10
-84.8415258533
 20
-10.6733203164
 11
-115.5207752119
 21
7.040493762
  0
LINE
  5
33A
100
AcDbEntity
  8
RACCORDO
100
AcDbLine
 62
250
  6
CONTINUOUS
 10
-84.9431303613
 20
-10.4006614087
 11
-115.6223797199
 21
7.3131526697
  0
LINE
  5
33B
100
AcDbEntity
  8
RACCORDO
100
AcDbLine
 62
250
  6
CONTINUOUS
 10
-115.5207752119
 20
7.040493762
 11
-115.5233322121
 21
7.0420006579
  0
LWPOLYLINE
  5
33C
100
AcDbEntity
  8
0
100
AcDbPolyline
 62
7
  6
CONTINUOUS
 90
3
 70
0
 10
-99.5521514924
 20
5.0256419892
 10
-99.5586747152
 20
5.0311507074
 10
-99.5654034285
 20
5.0358165202
  0
LWPOLYLINE
  5
33D
100
AcDbEntity
  8
0
100
AcDbPolyline
 62
7
  6
CONTINUOUS
 90
14
 70
0
 10
-99.943913106
 20
6.0018046299
 10
-100.026950178
 20
6.0747761826
 10
-100.1081745106
 20
6.1529968931
 10
-100.1875970089
 20
6.2364075275
 10
-100.2643707461
 20
6.3241587106
 10
-100.3384575349
 20
6.416319897
 10
-100.4098955626
 20
6.5128216321
 10
-100.4779524647
 20
6.6126061763
 10
-100.542567575
 20
6.7156696605
 10
-100.6038015596
 20
6.822015954
 10
-100.6611040523
 20
6.9305989252
 10
-100.7144643263
 20
7.0414393033
 10
-100.7638931083
 20
7.1545163592
 10
-100.8088722125
 20
7.268721774
  0
LWPOLYLINE
  5
33E
100
AcDbEntity
  8
0
100
AcDbPolyline
 62
7
  6
CONTINUOUS
 90
14
 70
0
 10
-102.3417109131
 20
9.6444187073
 10
-102.3480528659
 20
9.6502896219
 10
-102.3541046791
 20
9.6569666227
 10
-102.3598663528
 20
9.6644497096
 10
-102.3654019814
 20
9.6728900216
 10
-102.3706474705
 20
9.6821364197
 10
-102.3754105362
 20
9.6917354873
 10
-102.3796788261
 20
9.7016884364
 10
-102.3834646925
 20
9.7119940551
 10
-102.386612909
 20
9.7221952908
 10
-102.3891167719
 20
9.7322530475
 10
-102.3909829847
 20
9.7422064213
 10
-102.3920764312
 20
9.7517156485
 10
-102.3923520727
 20
9.7606674745
  0
LWPOLYLINE
  5
33F
100
AcDbEntity
  8
0
100
AcDbPolyline
 62
7
  6
CONTINUOUS
 90
4
 70
0
 10
-97.3647614264
 20
6.6042936924
 10
-97.3718148869
 20
6.6110366848
 10
-97.3784798526
 20
6.6185126303
 10
-97.3847331456
 20
6.6267877691
  0
LWPOLYLINE
  5
340
100
AcDbEntity
  8
0
100
AcDbPolyline
 62
7
  6
CONTINUOUS
 90
4
 70
0
 10
-101.4837647334
 20
9.5118288495
 10
-101.4758715595
 20
9.5032232867
 10
-101.4685221051
 20
9.4935261752
 10
-101.4615198422
 20
9.4824828425
  0
LWPOLYLINE
  5
341
100
AcDbEntity
  8
0
100
AcDbPolyline
 62
7
  6
CONTINUOUS
 90
9
 70
0
 10
-99.6598802611
 20
3.9433342686
 10
-99.6530209476
 20
3.9401239797
 10
-99.6461648868
 20
3.9379302806
 10
-99.6393120787
 20
3.9367531714
 10
-99.6323634004
 20
3.9366401704
 10
-99.6254179748
 20
3.9375437593
 10
-99.6187731703
 20
3.9393213831
 10
-99.6124458243
 20
3.941986356
 10
-99.6096697587
 20
3.9434886547
  0
LWPOLYLINE
  5
342
100
AcDbEntity
  8
0
100
AcDbPolyline
 62
7
  6
CONTINUOUS
 90
3
 70
0
 10
-99.8482302223
 20
5.1991171663
 10
-99.8550895358
 20
5.2023274553
 10
-99.8619298079
 20
5.2045161025
  0
LINE
  5
343
100
AcDbEntity
  8
0
100
AcDbLine
 62
7
  6
CONTINUOUS
 10
-97.3434635093
 20
6.5896698879
 11
-97.3505857376
 21
6.593610294
  0
LINE
  5
344
100
AcDbEntity
  8
0
100
AcDbLine
 62
7
  6
CONTINUOUS
 10
-99.9427070549
 20
4.1066349147
 11
-99.6598802611
 21
3.9433342686
  0
LINE
  5
345
100
AcDbEntity
  8
0
100
AcDbLine
 62
7
  6
CONTINUOUS
 10
-99.5654034285
 20
5.0358165202
 11
-99.8482302223
 21
5.1991171663
  0
LWPOLYLINE
  5
346
100
AcDbEntity
  8
0
100
AcDbPolyline
 62
7
  6
CONTINUOUS
 90
3
 70
0
 10
-102.2384523264
 20
10.1193490652
 10
-102.2312847114
 20
10.115051086
 10
-102.2242176696
 20
10.1098404491
  0
LWPOLYLINE
  5
347
100
AcDbEntity
  8
0
100
AcDbPolyline
 62
7
  6
CONTINUOUS
 90
14
 70
0
 10
-100.0061368335
 20
10.2287449998
 10
-100.0128009166
 20
10.2333201465
 10
-100.0193069318
 20
10.2388124541
 10
-100.0256548789
 20
10.2452219227
 10
-100.0319251768
 20
10.2526921437
 10
-100.0380374066
 20
10.2610795256
 10
-100.0437503118
 20
10.2699532942
 10
-100.049052446
 20
10.2793176156
 10
-100.0539552555
 20
10.2891683237
 10
-100.0582518229
 20
10.2990621458
 10
-100.0619303196
 20
10.3089588195
 10
-100.0650025741
 20
10.3188986073
 10
-100.0672971545
 20
10.3285590238
 10
-100.0687569166
 20
10.3378325742
  0
LINE
  5
348
100
AcDbEntity
  8
0
100
AcDbLine
 62
7
  6
CONTINUOUS
 10
-97.3505857376
 20
6.593610294
 11
-97.3576484861
 21
6.5984647712
  0
LWPOLYLINE
  5
349
100
AcDbEntity
  8
0
100
AcDbPolyline
 62
7
  6
CONTINUOUS
 90
3
 70
0
 10
-100.70854966
 20
9.1720767193
 10
-100.7156381147
 20
9.1770619372
 10
-100.7228795103
 20
9.1810784671
  0
LWPOLYLINE
  5
34A
100
AcDbEntity
  8
0
100
AcDbPolyline
 62
7
  6
CONTINUOUS
 90
11
 70
0
 10
-101.6098606261
 20
9.0539989772
 10
-101.6035240507
 20
9.0495386216
 10
-101.5970031454
 20
9.0459316873
 10
-101.5902979102
 20
9.0431781742
 10
-101.5833085915
 20
9.0412769676
 10
-101.576134943
 20
9.0402291822
 10
-101.5690762252
 20
9.0400381624
 10
-101.5621436097
 20
9.0407074526
 10
-101.5553259251
 20
9.0422335084
 10
-101.5488889174
 20
9.0446090414
 10
-101.5440988956
 20
9.0470685164
  0
LINE
  5
34B
100
AcDbEntity
  8
0
100
AcDbLine
 62
7
  6
CONTINUOUS
 10
-100.7153203157
 20
9.1769095161
 11
-100.7085496344
 21
9.1720766987
  0
LINE
  5
34C
100
AcDbEntity
  8
0
100
AcDbLine
 62
7
  6
CONTINUOUS
 10
-101.4922016193
 20
9.5193428574
 11
-102.2242176694
 21
10.1098404489
  0
LINE
  5
34D
100
AcDbEntity
  8
0
100
AcDbLine
 62
7
  6
CONTINUOUS
 10
-102.3417113796
 20
9.6444190837
 11
-101.6098606261
 21
9.0539989772
  0
LINE
  5
34E
100
AcDbEntity
  8
0
100
AcDbLine
 62
7
  6
CONTINUOUS
 10
-100.4307293281
 20
8.9479427654
 11
-100.70854966
 21
9.1720767193
  0
LINE
  5
34F
100
AcDbEntity
  8
0
100
AcDbLine
 62
7
  6
CONTINUOUS
 10
-97.3647590707
 20
6.6042914703
 11
-97.3576470554
 21
6.5984637007
  0
LINE
  5
350
100
AcDbEntity
  8
0
100
AcDbLine
 62
7
  6
CONTINUOUS
 10
-101.4837651908
 20
9.5118292569
 11
-101.4922016193
 21
9.5193428574
  0
LWPOLYLINE
  5
351
100
AcDbEntity
  8
0
100
AcDbPolyline
 62
7
  6
CONTINUOUS
 90
6
 70
0
 10
-100.430729331
 20
8.9479427678
 10
-100.4226302274
 20
8.9406369184
 10
-100.4150386178
 20
8.9323825709
 10
-100.4079545024
 20
8.9231797253
 10
-100.4012205662
 20
8.9128373835
 10
-100.3949941241
 20
8.9015465436
  0
LINE
  5
352
100
AcDbEntity
  8
0
100
AcDbLine
 62
7
  6
CONTINUOUS
 10
-99.8825873546
 20
5.204921356
 11
-99.8891966215
 21
5.2031676898
  0
LWPOLYLINE
  5
353
100
AcDbEntity
  8
0
100
AcDbPolyline
 62
7
  6
CONTINUOUS
 90
14
 70
0
 10
-101.7802562417
 20
6.3679545549
 10
-101.7861955624
 20
6.366393979
 10
-101.7925186809
 20
6.3658967882
 10
-101.7992255972
 20
6.3664629824
 10
-101.8064348094
 20
6.368163931
 10
-101.8140278194
 20
6.3709282647
 10
-101.8216491327
 20
6.3745418751
 10
-101.8292938928
 20
6.3790198038
 10
-101.836966956
 20
6.3843470093
 10
-101.8443273975
 20
6.3902642584
 10
-101.8513458262
 20
6.3967406559
 10
-101.8580516331
 20
6.403807097
 10
-101.8641920655
 20
6.4112970342
 10
-101.8696828725
 20
6.4191549519
  0
LWPOLYLINE
  5
354
100
AcDbEntity
  8
0
100
AcDbPolyline
 62
7
  6
CONTINUOUS
 90
16
 70
0
 10
-101.3872305489
 20
7.1772424202
 10
-101.3812912285
 20
7.178802996
 10
-101.3749681102
 20
7.1793001868
 10
-101.368261194
 20
7.1787339926
 10
-101.3610519818
 20
7.177033044
 10
-101.3534589718
 20
7.1742687103
 10
-101.3458376585
 20
7.1706550999
 10
-101.3381928984
 20
7.1661771712
 10
-101.3305198351
 20
7.1608499657
 10
-101.3231593937
 20
7.1549327166
 10
-101.3161409649
 20
7.1484563191
 10
-101.3094351581
 20
7.1413898781
 10
-101.3032947257
 20
7.1338999408
 10
-101.2978039186
 20
7.126042023
 10
-101.292878486
 20
7.117760609
 10
-101.2885184279
 20
7.1090556987
  0
LWPOLYLINE
  5
355
100
AcDbEntity
  8
0
100
AcDbPolyline
 62
7
  6
CONTINUOUS
 90
3
 70
0
 10
-96.5502459536
 20
6.3156924711
 10
-96.5565750576
 20
6.3141698941
 10
-96.5617241806
 20
6.3138279286
  0
LWPOLYLINE
  5
356
100
AcDbEntity
  8
0
100
AcDbPolyline
 62
7
  6
CONTINUOUS
 90
12
 70
0
 10
-97.5351279323
 20
3.9165950364
 10
-97.541411562
 20
3.9155691819
 10
-97.548305147
 20
3.9155906007
 10
-97.555691394
 20
3.9166159175
 10
-97.5632184233
 20
3.9185150062
 10
-97.5708846594
 20
3.9213048417
 10
-97.5786916778
 20
3.924968449
 10
-97.5862923243
 20
3.9293247768
 10
-97.5936555616
 20
3.9343494456
 10
-97.6008124272
 20
3.940066835
 10
-97.6075088792
 20
3.9463690322
 10
-97.6136602371
 20
3.9532200664
  0
LINE
  5
357
100
AcDbEntity
  8
0
100
AcDbLine
 62
7
  6
CONTINUOUS
 10
-99.8756290148
 20
5.2058093445
 11
-99.8825873546
 21
5.204921356
  0
LWPOLYLINE
  5
358
100
AcDbEntity
  8
0
100
AcDbPolyline
 62
7
  6
CONTINUOUS
 90
7
 70
0
 10
-99.0272623101
 20
5.5971424358
 10
-98.9392582443
 20
5.5974947973
 10
-98.8530644263
 20
5.605638422
 10
-98.7696146189
 20
5.6213361667
 10
-98.689220076
 20
5.6445089836
 10
-98.6115695437
 20
5.6752359205
 10
-98.5366630218
 20
5.7135169774
  0
LINE
  5
359
100
AcDbEntity
  8
0
100
AcDbLine
 62
7
  6
CONTINUOUS
 10
-99.8687114047
 20
5.2056833195
 11
-99.8756290148
 21
5.2058093445
  0
LINE
  5
35A
100
AcDbEntity
  8
0
100
AcDbLine
 62
7
  6
CONTINUOUS
 10
-99.1171398474
 20
5.6047538771
 11
-99.0272623101
 21
5.5971424358
  0
LINE
  5
35B
100
AcDbEntity
  8
0
100
AcDbLine
 62
7
  6
CONTINUOUS
 10
-96.5630381103
 20
6.3137406673
 11
-96.5696877666
 21
6.3143449161
  0
LINE
  5
35C
100
AcDbEntity
  8
DRAFT
100
AcDbLine
 62
7
  6
CONTINUOUS
 10
-79.8079948054
 20
1.0221204896
 11
-80.3656723413
 21
1.0877784516
  0
LWPOLYLINE
  5
35D
100
AcDbEntity
  8
0
100
AcDbPolyline
 62
7
  6
CONTINUOUS
 90
9
 70
0
 10
-99.0777530365
 20
5.600507652
 10
-99.1629800705
 20
5.6114897364
 10
-99.2490391291
 20
5.6291631203
 10
-99.3359449941
 20
5.6536019322
 10
-99.4236828838
 20
5.6847320436
 10
-99.5113762901
 20
5.7221841351
 10
-99.5990256134
 20
5.7659885609
 10
-99.6866304533
 20
5.8161149667
 10
-99.7733131006
 20
5.87210297
  0
LWPOLYLINE
  5
35E
100
AcDbEntity
  8
0
100
AcDbPolyline
 62
7
  6
CONTINUOUS
 90
3
 70
0
 10
-97.5559928083
 20
3.916679329
 10
-97.5485527636
 20
3.9156085275
 10
-97.5416005212
 20
3.9155560894
  0
LWPOLYLINE
  5
35F
100
AcDbEntity
  8
0
100
AcDbPolyline
 62
7
  6
CONTINUOUS
 90
3
 70
0
 10
-97.9157493503
 20
5.1852465699
 10
-97.923189395
 20
5.1863173714
 10
-97.9301416374
 20
5.1863698095
  0
LINE
  5
360
100
AcDbEntity
  8
0
100
AcDbLine
 62
7
  6
CONTINUOUS
 10
-99.8619298079
 20
5.2045161025
 11
-99.8687114047
 21
5.2056833195
  0
LINE
  5
361
100
AcDbEntity
  8
DRAFT
100
AcDbLine
 62
7
  6
CONTINUOUS
 10
-79.8079948054
 20
3.2864270112
 11
-80.3656723413
 21
3.3933261961
  0
LINE
  5
362
100
AcDbEntity
  8
0
100
AcDbLine
 62
7
  6
CONTINUOUS
 10
-96.5696877666
 20
6.3143449161
 11
-96.5765240264
 21
6.3159826403
  0
LINE
  5
363
100
AcDbEntity
  8
0
100
AcDbLine
 62
7
  6
CONTINUOUS
 10
-97.3362818021
 20
6.5866435534
 11
-96.5765240403
 21
6.3159826452
  0
LINE
  5
364
100
AcDbEntity
  8
0
100
AcDbLine
 62
7
  6
CONTINUOUS
 10
-96.608980282
 20
6.8673798282
 11
-97.3659139711
 21
7.1371693531
  0
LINE
  5
365
100
AcDbEntity
  8
0
100
AcDbLine
 62
7
  6
CONTINUOUS
 10
-101.8143554102
 20
6.3710699951
 11
-101.8067095656
 21
6.3682463857
  0
LINE
  5
366
100
AcDbEntity
  8
0
100
AcDbLine
 62
7
  6
CONTINUOUS
 10
-101.353131381
 20
7.1741269799
 11
-101.3607772256
 21
7.1769505893
  0
LWPOLYLINE
  5
367
100
AcDbEntity
  8
0
100
AcDbPolyline
 62
7
  6
CONTINUOUS
 90
9
 70
0
 10
-100.7228817987
 20
9.1810797363
 10
-100.7302807121
 20
9.1841301166
 10
-100.7379680999
 20
9.1862281838
 10
-100.745810717
 20
9.1873588323
 10
-100.7534088286
 20
9.1874767448
 10
-100.7607680574
 20
9.1865535571
 10
-100.7678827807
 20
9.1846176335
 10
-100.7743363954
 20
9.1817087502
 10
-100.7749688469
 20
9.1813436959
  0
LWPOLYLINE
  5
368
100
AcDbEntity
  8
0
100
AcDbPolyline
 62
7
  6
CONTINUOUS
 90
3
 70
0
 10
-100.7295143329
 20
9.1838643351
 10
-100.7223085485
 20
9.1808387283
 10
-100.7153203157
 20
9.1769095161
  0
LINE
  5
369
100
AcDbEntity
  8
0
100
AcDbLine
 62
7
  6
CONTINUOUS
 10
-97.3434631785
 20
6.5896698539
 11
-97.3362818021
 21
6.5866435534
  0
LWPOLYLINE
  5
36A
100
AcDbEntity
  8
0
100
AcDbPolyline
 62
7
  6
CONTINUOUS
 90
3
 70
0
 10
-102.2384559021
 20
10.1193508107
 10
-102.2457253257
 20
10.1227363463
 10
-102.2532169148
 20
10.1252734771
  0
LWPOLYLINE
  5
36B
100
AcDbEntity
  8
0
100
AcDbPolyline
 62
7
  6
CONTINUOUS
 90
4
 70
0
 10
-99.9615338191
 20
10.7444903495
 10
-99.9679984073
 20
10.7475885066
 10
-99.974515099
 20
10.749746787
 10
-99.9810294828
 20
10.7509550984
  0
LINE
  5
36C
100
AcDbEntity
  8
0
100
AcDbLine
 62
7
  6
CONTINUOUS
 10
-100.0061373398
 20
10.2287452921
 11
-98.992738253
 21
9.6436213603
  0
LINE
  5
36D
100
AcDbEntity
  8
0
100
AcDbLine
 62
7
  6
CONTINUOUS
 10
-98.7357125725
 20
10.0367165248
 11
-99.9615338191
 21
10.7444903495
  0
LINE
  5
36E
100
AcDbEntity
  8
RACCORDO
100
AcDbLine
 62
250
  6
CONTINUOUS
 10
-114.5427018472
 20
20.1502402145
 11
-83.8053872773
 21
2.4029000109
  0
LINE
  5
36F
100
AcDbEntity
  8
RACCORDO
100
AcDbLine
 62
250
  6
CONTINUOUS
 10
-79.6312181101
 20
3.4860583941
 11
-80.3496639252
 21
3.9008800035
  0
LINE
  5
370
100
AcDbEntity
  8
0
100
AcDbLine
 62
7
  6
CONTINUOUS
 10
-98.7357125807
 20
10.0367165296
 11
-98.7145544863
 21
10.0230724257
  0
LINE
  5
371
100
AcDbEntity
  8
0
100
AcDbLine
 62
7
  6
CONTINUOUS
 10
-99.9944977299
 20
10.7505415017
 11
-100.0010550825
 21
10.7489925024
  0
LINE
  5
372
100
AcDbEntity
  8
0
100
AcDbLine
 62
7
  6
CONTINUOUS
 10
-99.9877070555
 20
10.7512166161
 11
-99.9944977299
 21
10.7505415017
  0
LWPOLYLINE
  5
373
100
AcDbEntity
  8
0
100
AcDbPolyline
 62
7
  6
CONTINUOUS
 90
3
 70
0
 10
-102.2681348254
 20
10.1274143713
 10
-102.2751681825
 20
10.1267256437
 10
-102.2819358623
 20
10.1249297423
  0
LINE
  5
374
100
AcDbEntity
  8
0
100
AcDbLine
 62
7
  6
CONTINUOUS
 10
-99.9810294828
 20
10.7509550984
 11
-99.9877070555
 21
10.7512166161
  0
LWPOLYLINE
  5
375
100
AcDbEntity
  8
0
100
AcDbPolyline
 62
7
  6
CONTINUOUS
 90
3
 70
0
 10
-102.2681285178
 20
10.127414404
 10
-102.2608025042
 20
10.1268967072
 10
-102.2532112228
 20
10.1252718757
  0
LINE
  5
376
100
AcDbEntity
  8
RACCORDO
100
AcDbLine
 62
7
  6
CONTINUOUS
 10
-79.6312181101
 20
3.6211528072
 11
-80.1051002741
 21
3.8947664295
  0
LWPOLYLINE
  5
377
100
AcDbEntity
  8
RACCORDO
100
AcDbPolyline
 62
250
  6
CONTINUOUS
 90
8
 70
0
 10
-79.7796132497
 20
14.4385337178
 10
-79.7988886491
 20
14.4440481088
 10
-79.8189802561
 20
14.4474826813
 10
-79.8398142086
 20
14.448856771
 10
-79.862267354
 20
14.4481109639
 10
-79.8866521969
 20
14.4449289947
 10
-79.9125974184
 20
14.4390504017
 10
-79.9400160948
 20
14.4302297765
  0
LINE
  5
378
100
AcDbEntity
  8
RACCORDO
100
AcDbLine
 62
250
  6
CONTINUOUS
 10
-79.7615230997
 20
14.4310427629
 11
-79.770457851
 21
14.4357737059
  0
LWPOLYLINE
  5
379
100
AcDbEntity
  8
RACCORDO
100
AcDbPolyline
 62
250
  6
CONTINUOUS
 90
7
 70
0
 10
-79.9400160948
 20
14.4302297765
 10
-79.9585105102
 20
14.4394414041
 10
-79.9771084678
 20
14.4455073177
 10
-79.9954923643
 20
14.4483239277
 10
-80.0133482518
 20
14.4478431341
 10
-80.0303711995
 20
14.4440731474
 10
-80.0332337455
 20
14.4430824246
  0
LWPOLYLINE
  5
37A
100
AcDbEntity
  8
RACCORDO
100
AcDbPolyline
 62
7
  6
CONTINUOUS
 90
10
 70
0
 10
-79.7499058311
 20
14.4248914294
 10
-79.770457851
 20
14.4357737059
 10
-79.7996028639
 20
14.4479723782
 10
-79.8303933185
 20
14.4572312757
 10
-79.8625059355
 20
14.4633318316
 10
-79.8955012691
 20
14.4661282396
 10
-79.9291099719
 20
14.4655714595
 10
-79.9631033648
 20
14.461641735
 10
-79.9971658058
 20
14.4543839759
 10
-80.0332337453
 20
14.4430824247
  0
LWPOLYLINE
  5
37B
100
AcDbEntity
  8
RACCORDO
100
AcDbPolyline
 62
250
  6
CONTINUOUS
 90
8
 70
0
 10
-79.3596289131
 20
14.1995517922
 10
-79.3700440086
 20
14.2050789674
 10
-79.3952101389
 20
14.2148848463
 10
-79.422445733
 20
14.2208044122
 10
-79.45151616
 20
14.2226961415
 10
-79.4821773185
 20
14.2204674008
 10
-79.5141840579
 20
14.2140609084
 10
-79.5472598368
 20
14.2034572355
  0
LINE
  5
37C
100
AcDbEntity
  8
RACCORDO
100
AcDbLine
 62
250
  6
CONTINUOUS
 10
-79.9400160948
 20
14.4302297765
 11
-79.5472598651
 21
14.2034572518
  0
LINE
  5
37D
100
AcDbEntity
  8
RACCORDO
100
AcDbLine
 62
7
  6
CONTINUOUS
 10
-79.7504102402
 20
14.4251840328
 11
-79.3596290609
 21
14.1995518775
  0
LINE
  5
37E
100
AcDbEntity
  8
RACCORDO
100
AcDbLine
 62
250
  6
CONTINUOUS
 10
-113.785953634
 20
37.7331137988
 11
-83.007836889
 21
19.9622149306
  0
LINE
  5
37F
100
AcDbEntity
  8
RACCORDO
100
AcDbLine
 62
250
  6
CONTINUOUS
 10
-83.007836889
 20
32.2715432036
 11
-113.785953634
 21
50.0424420718
  0
LINE
  5
380
100
AcDbEntity
  8
RACCORDO
100
AcDbLine
 62
250
  6
CONTINUOUS
 10
-82.6635384472
 20
32.8784320552
 11
-113.4416551923
 21
50.6493309234
  0
LINE
  5
381
100
AcDbEntity
  8
RACCORDO
100
AcDbLine
 62
7
  6
CONTINUOUS
 10
-112.3997567851
 20
51.315612876
 11
-81.5656066132
 21
33.5123610094
  0
ARC
  5
382
100
AcDbEntity
  8
RACCORDO
100
AcDbCircle
 62
7
  6
CONTINUOUS
 10
-115.2707631318
 20
7.4734994892
 40
0.5
100
AcDbArc
 50
175.1839975092
 51
239.9984015652
  0
ARC
  5
383
100
AcDbEntity
  8
RACCORDO
100
AcDbCircle
 62
7
  6
CONTINUOUS
 10
-113.4324002434
 20
50.2465793685
 40
0.5
100
AcDbArc
 50
122.5979811496
 51
179.9999236265
  0
ARC
  5
384
100
AcDbEntity
  8
RACCORDO
100
AcDbCircle
 62
7
  6
CONTINUOUS
 10
-84.5915137732
 20
-10.2403145892
 40
0.5
100
AcDbArc
 50
239.9984015652
 51
287.1696386884
  0
ELLIPSE
  5
385
100
AcDbEntity
  8
RACCORDO
100
AcDbEllipse
 62
7
  6
CONTINUOUS
 10
-80.3840439821
 20
3.4784654616
 30
0.0
 11
0.2984123604
 21
0.4035436801
 31
0.0
 40
0.639288975
 41
0.0724911956
 42
0.7706710139
  0
ELLIPSE
  5
386
100
AcDbEntity
  8
0
100
AcDbEllipse
 62
7
  6
CONTINUOUS
 10
-96.6038187795
 20
6.771986505
 30
0.0
 11
-0.0427354314
 21
0.0951672576
 31
0.0
 40
0.634096402
 41
-2.1172798052
 42
-0.5463378271
  0
ELLIPSE
  5
387
100
AcDbEntity
  8
RACCORDO
100
AcDbEllipse
 62
7
  6
CONTINUOUS
 10
-81.5658489625
 20
-9.1117865016
 30
0.0
 11
-0.2501834304
 21
0.4333025529
 31
0.0
 40
0.5769361983
 41
-3.16775339
 42
-2.3565853618
  0
ELLIPSE
  5
388
100
AcDbEntity
  8
RACCORDO
100
AcDbEllipse
 62
7
  6
CONTINUOUS
 10
-81.5658489625
 20
33.1041258605
 30
0.0
 11
-0.2500121049
 21
0.4330057129
 31
0.0
 40
0.5777274115
 41
-2.3559002616
 42
-0.7857891675
  0
ELLIPSE
  5
389
100
AcDbEntity
  8
RACCORDO
100
AcDbEllipse
 62
7
  6
CONTINUOUS
 10
-112.3995144357
 20
50.9070978681
 30
0.0
 11
-0.2501834304
 21
0.4333025529
 31
0.0
 40
0.5769361983
 41
-0.7851038024
 42
0.0261607363
  0
ENDSEC
  0
SECTION
  2
OBJECTS
  0
DICTIONARY
  5
C
100
AcDbDictionary
280
0
281
1
  3
ACAD_GROUP
350
D
  3
ACAD_MLINESTYLE
350
17
  3
ACAD_LAYOUT
350
1A
  3
ACAD_PLOTSETTINGS
350
19
  3
ACAD_PLOTSTYLENAME
350
E
  0
DICTIONARY
  5
D
102
{ACAD_REACTORS
330
C
102
}
100
AcDbDictionary
280
0
281
1
  0
ACDBDICTIONARYWDFLT
  5
E
102
{ACAD_REACTORS
330
C
102
}
100
AcDbDictionary
281
1
  3
Normal
350
F
100
AcDbDictionaryWithDefault
340
F
  0
DICTIONARY
  5
17
102
{ACAD_REACTORS
330
C
102
}
100
AcDbDictionary
280
0
281
1
  3
Standard
350
18
  0
DICTIONARY
  5
19
102
{ACAD_REACTORS
330
C
102
}
100
AcDbDictionary
281
1
  0
DICTIONARY
  5
1A
102
{ACAD_REACTORS
330
C
102
}
100
AcDbDictionary
281
1
  3
Model
350
38A
  3
Layout1
350
38B
  0
ACDBPLACEHOLDER
  5
F
102
{ACAD_REACTORS
330
E
102
}
  0
MLINESTYLE
  5
18
102
{ACAD_REACTORS
330
17
102
}
100
AcDbMlineStyle
  2
STANDARD
 70
0
  3

 62
256
 51
90.0
 52
90.0
 71
2
 49
0.5
 62
256
  6
BYLAYER
 49
-0.5
 62
256
  6
BYLAYER
  0
LAYOUT
  5
38A
102
{ACAD_REACTORS
330
1A
102
}
100
AcDbPlotSettings
  1

  2
none_device
  4
ISO_A4_(297.00_x_210.00_MM)
  6

 40
0.0
 41
0.0
 42
0.0
 43
0.0
 44
297.0
 45
210.0
 46
0.0
 47
0.0
 48
0.0
 49
0.0
140
0.0
141
0.0
142
1.0
143
1.0
 70
1024
 72
1
 73
0
 74
0
  7

 75
0
147
1.0
148
0.0
149
0.0
100
AcDbLayout
  1
Model
 70
0
 71
0
 10
0.0
 20
0.0
 11
297.0
 21
210.0
 12
0.0
 22
0.0
 32
0.0
 14
0.0
 24
0.0
 34
0.0
 15
0.0
 25
0.0
 35
0.0
146
0.0
 13
0.0
 23
0.0
 33
0.0
 16
1.0
 26
0.0
 36
0.0
 17
0.0
 27
1.0
 37
0.0
 76
0
330
21D
345
0
346
0
  0
LAYOUT
  5
38B
102
{ACAD_REACTORS
330
1A
102
}
100
AcDbPlotSettings
  1

  2
none_device
  4
ISO_A4_(297.00_x_210.00_MM)
  6

 40
0.0
 41
0.0
 42
0.0
 43
0.0
 44
297.0
 45
210.0
 46
0.0
 47
0.0
 48
0.0
 49
0.0
140
0.0
141
0.0
142
1.0
143
1.0
 70
0
 72
1
 73
0
 74
0
  7

 75
0
147
1.0
148
0.0
149
0.0
100
AcDbLayout
  1
Layout1
 70
0
 71
1
 10
0.0
 20
0.0
 11
297.0
 21
210.0
 12
0.0
 22
0.0
 32
0.0
 14
0.0
 24
0.0
 34
0.0
 15
0.0
 25
0.0
 35
0.0
146
0.0
 13
0.0
 23
0.0
 33
0.0
 16
1.0
 26
0.0
 36
0.0
 17
0.0
 27
1.0
 37
0.0
 76
0
330
21E
345
0
346
0
  0
ENDSEC
  0
EOF
