  0
SECTION
  2
HEADER
  9
$ACADVER
  1
AC1024
  9
$DWGCODEPAGE
  3
ANSI_1252
  9
$EXTMAX
 10
297.0
 20
210.0
 30
0.0
  9
$EXTMIN
 10
0.0
 20
0.0
 30
0.0
  9
$LIMMIN
 10
0.0
 20
0.0
  9
$LIMMAX
 10
297.0
 20
210.0
  9
$VIEWCTR
 10
148.5
 20
105.0
  9
$VIEWSIZE
 40
210.0
  9
$CLAYER
  8
0
  9
$LTSCALE
 40
16.335
  9
$CELTYPE
  6
BYLAYER
  9
$DIMSCALE
 40
1.0
  9
$DIMASZ
 40
3.0
  9
$DIMEXO
 40
0.5
  9
$DIMDLI
 40
11.286
  9
$DIMEXE
 40
1.5
  9
$DIMCEN
 40
2.673
  9
$DIMLFAC
 40
1.0
  9
$DIMBLK
  1
_FILLED
  9
$DIMALT
 70
0
  9
$DIMALTF
 40
0.0393700787
  9
$DIMTXT
 40
3.0
  9
$DIMTOL
 70
1
  9
$DIMLIM
 70
0
  9
$DIMTFAC
 40
1.0
  9
$DIMTP
 40
0.01
  9
$DIMTM
 40
0.01
  9
$DIMGAP
 40
0.625
  9
$DIMDSEP
 70
44
  9
$AUNITS
 70
0
  9
$PDMODE
 70
3
  9
$PDSIZE
 40
3.0
  9
$HANDSEED
  5
2D4
  9
$TILEMODE
 70
1
  9
$MEASUREMENT
 70
1
  9
$INSUNITS
 70
4
  0
ENDSEC
  0
SECTION
  2
CLASSES
  0
CLASS
  1
ACDBDICTIONARYWDFLT
  2
AcDbDictionaryWithDefault
  3
AutoCAD 2000
 90
0
 91
1
280
0
281
0
  0
CLASS
  1
ACDBPLACEHOLDER
  2
AcDbPlaceHolder
  3
AutoCAD 2000
 90
0
 91
1
280
0
281
0
  0
CLASS
  1
LAYOUT
  2
AcDbLayout
  3
AutoCAD 2000
 90
0
 91
0
280
0
281
0
  0
ENDSEC
  0
SECTION
  2
TABLES
  0
TABLE
  2
VPORT
  5
8
100
AcDbSymbolTable
 70
2
  0
VPORT
  5
1F4
100
AcDbSymbolTableRecord
100
AcDbViewportTableRecord
  2
*ACTIVE
 70
0
 10
0.0
 20
0.0
 11
1.0
 21
1.0
 12
148.5
 22
105.0
 13
0.0
 23
0.0
 14
1.0
 24
1.0
 15
0.0
 25
0.0
 16
0.0
 26
0.0
 36
1.0
 17
0.0
 27
0.0
 37
0.0
 40
210.0
 41
1.4142857143
 42
50.0
 43
0.0
 44
0.0
 50
0.0
 51
0.0
 71
0
 72
100
 73
1
 74
1
 75
0
 76
0
 77
0
 78
0
  0
ENDTAB
  0
TABLE
  2
LTYPE
  5
5
100
AcDbSymbolTable
 70
6
  0
LTYPE
  5
14
100
AcDbSymbolTableRecord
100
AcDbLinetypeTableRecord
  2
BYBLOCK
 70
0
  3

 72
65
 73
0
 40
0.0
  0
LTYPE
  5
15
100
AcDbSymbolTableRecord
100
AcDbLinetypeTableRecord
  2
BYLAYER
 70
0
  3

 72
65
 73
0
 40
0.0
  0
LTYPE
  5
16
100
AcDbSymbolTableRecord
100
AcDbLinetypeTableRecord
  2
CONTINUOUS
 70
64
  3
Solid line
 72
65
 73
0
 40
0.0
  0
LTYPE
  5
1F5
100
AcDbSymbolTableRecord
100
AcDbLinetypeTableRecord
  2
CENTER
 70
64
  3
____ _ ____ _ ____ _ ____ _ ____ _ ____ _ ____
 72
65
 73
4
 40
0.6
 49
0.375
 74
0
 49
-0.075
 74
0
 49
0.075
 74
0
 49
-0.075
 74
0
  0
LTYPE
  5
1F6
100
AcDbSymbolTableRecord
100
AcDbLinetypeTableRecord
  2
HIDDEN
 70
64
  3
- - - - - - - - - - - - - - - - - - - -
 72
65
 73
2
 40
0.2
 49
0.1
 74
0
 49
-0.1
 74
0
  0
LTYPE
  5
1F7
100
AcDbSymbolTableRecord
100
AcDbLinetypeTableRecord
  2
PHANTOM
 70
64
  3
_____ _ _ _____ _ _ _____ _ _ _____
 72
65
 73
6
 40
0.8
 49
0.45
 74
0
 49
-0.05
 74
0
 49
0.1
 74
0
 49
-0.05
 74
0
 49
0.1
 74
0
 49
-0.05
 74
0
  0
LTYPE
  5
1F8
100
AcDbSymbolTableRecord
100
AcDbLinetypeTableRecord
  2
DOT
 70
64
  3
. . . . . . . . . . . . . . . . . . . .
 72
65
 73
2
 40
0.2
 49
0.1
 74
0
 49
-0.1
 74
0
  0
LTYPE
  5
1F9
100
AcDbSymbolTableRecord
100
AcDbLinetypeTableRecord
  2
DASHED
 70
64
  3
- - - - - - - - - - - - - - - - - - - -
 72
65
 73
2
 40
0.2
 49
0.1
 74
0
 49
-0.1
 74
0
  0
ENDTAB
  0
TABLE
  2
LAYER
  5
2
100
AcDbSymbolTable
 70
36
  0
LAYER
  5
10
100
AcDbSymbolTableRecord
100
AcDbLayerTableRecord
  2
0
 70
0
 62
7
  6
CONTINUOUS
370
-3
390
F
  0
LAYER
  5
1FA
100
AcDbSymbolTableRecord
100
AcDbLayerTableRecord
  2
DEFAULT_1
 70
0
 62
7
  6
CENTER
370
-3
390
F
  0
LAYER
  5
1FB
100
AcDbSymbolTableRecord
100
AcDbLayerTableRecord
  2
DEFAULT_2
 70
0
 62
7
  6
HIDDEN
370
-3
390
F
  0
LAYER
  5
1FC
100
AcDbSymbolTableRecord
100
AcDbLayerTableRecord
  2
DEFAULT_3
 70
0
 62
7
  6
PHANTOM
370
-3
390
F
  0
LAYER
  5
1FD
100
AcDbSymbolTableRecord
100
AcDbLayerTableRecord
  2
9
 70
0
 62
7
  6
CONTINUOUS
370
-3
390
F
  0
LAYER
  5
1FE
100
AcDbSymbolTableRecord
100
AcDbLayerTableRecord
  2
ASSI
 70
0
 62
7
  6
CONTINUOUS
370
-3
390
F
  0
LAYER
  5
1FF
100
AcDbSymbolTableRecord
100
AcDbLayerTableRecord
  2
COORDINATE
 70
0
 62
7
  6
CONTINUOUS
370
-3
390
F
  0
LAYER
  5
200
100
AcDbSymbolTableRecord
100
AcDbLayerTableRecord
  2
COPY_PUBLISH
 70
0
 62
7
  6
CONTINUOUS
370
-3
390
F
  0
LAYER
  5
201
100
AcDbSymbolTableRecord
100
AcDbLayerTableRecord
  2
COSMETICI
 70
0
 62
7
  6
CONTINUOUS
370
-3
390
F
  0
LAYER
  5
202
100
AcDbSymbolTableRecord
100
AcDbLayerTableRecord
  2
CURVE
 70
0
 62
7
  6
CONTINUOUS
370
-3
390
F
  0
LAYER
  5
203
100
AcDbSymbolTableRecord
100
AcDbLayerTableRecord
  2
DRAFT
 70
0
 62
7
  6
CONTINUOUS
370
-3
390
F
  0
LAYER
  5
204
100
AcDbSymbolTableRecord
100
AcDbLayerTableRecord
  2
IMPORT_IGES
 70
0
 62
7
  6
CONTINUOUS
370
-3
390
F
  0
LAYER
  5
205
100
AcDbSymbolTableRecord
100
AcDbLayerTableRecord
  2
INTF_1
 70
0
 62
7
  6
CONTINUOUS
370
-3
390
F
  0
LAYER
  5
206
100
AcDbSymbolTableRecord
100
AcDbLayerTableRecord
  2
INTF_10
 70
0
 62
7
  6
CONTINUOUS
370
-3
390
F
  0
LAYER
  5
207
100
AcDbSymbolTableRecord
100
AcDbLayerTableRecord
  2
INTF_17
 70
0
 62
7
  6
CONTINUOUS
370
-3
390
F
  0
LAYER
  5
208
100
AcDbSymbolTableRecord
100
AcDbLayerTableRecord
  2
INTF_2
 70
0
 62
7
  6
CONTINUOUS
370
-3
390
F
  0
LAYER
  5
209
100
AcDbSymbolTableRecord
100
AcDbLayerTableRecord
  2
INTF_3
 70
0
 62
7
  6
CONTINUOUS
370
-3
390
F
  0
LAYER
  5
20A
100
AcDbSymbolTableRecord
100
AcDbLayerTableRecord
  2
INTF_4
 70
0
 62
7
  6
CONTINUOUS
370
-3
390
F
  0
LAYER
  5
20B
100
AcDbSymbolTableRecord
100
AcDbLayerTableRecord
  2
INTF_5
 70
0
 62
7
  6
CONTINUOUS
370
-3
390
F
  0
LAYER
  5
20C
100
AcDbSymbolTableRecord
100
AcDbLayerTableRecord
  2
INTF_6
 70
0
 62
7
  6
CONTINUOUS
370
-3
390
F
  0
LAYER
  5
20D
100
AcDbSymbolTableRecord
100
AcDbLayerTableRecord
  2
INTF_7
 70
0
 62
7
  6
CONTINUOUS
370
-3
390
F
  0
LAYER
  5
20E
100
AcDbSymbolTableRecord
100
AcDbLayerTableRecord
  2
INTF_9
 70
0
 62
7
  6
CONTINUOUS
370
-3
390
F
  0
LAYER
  5
20F
100
AcDbSymbolTableRecord
100
AcDbLayerTableRecord
  2
INTF_BLANK
 70
0
 62
7
  6
CONTINUOUS
370
-3
390
F
  0
LAYER
  5
210
100
AcDbSymbolTableRecord
100
AcDbLayerTableRecord
  2
INTF_RED
 70
0
 62
7
  6
CONTINUOUS
370
-3
390
F
  0
LAYER
  5
211
100
AcDbSymbolTableRecord
100
AcDbLayerTableRecord
  2
NOTE
 70
0
 62
7
  6
CONTINUOUS
370
-3
390
F
  0
LAYER
  5
212
100
AcDbSymbolTableRecord
100
AcDbLayerTableRecord
  2
PIANI
 70
0
 62
7
  6
CONTINUOUS
370
-3
390
F
  0
LAYER
  5
213
100
AcDbSymbolTableRecord
100
AcDbLayerTableRecord
  2
PUNTI
 70
0
 62
7
  6
CONTINUOUS
370
-3
390
F
  0
LAYER
  5
214
100
AcDbSymbolTableRecord
100
AcDbLayerTableRecord
  2
RACCORDO
 70
0
 62
7
  6
CONTINUOUS
370
-3
390
F
  0
LAYER
  5
215
100
AcDbSymbolTableRecord
100
AcDbLayerTableRecord
  2
RGB____0____0____0__
 70
0
 62
7
  6
CONTINUOUS
370
-3
390
F
  0
LAYER
  5
216
100
AcDbSymbolTableRecord
100
AcDbLayerTableRecord
  2
SIMBOLI
 70
0
 62
7
  6
CONTINUOUS
370
-3
390
F
  0
LAYER
  5
217
100
AcDbSymbolTableRecord
100
AcDbLayerTableRecord
  2
SMUSSO
 70
0
 62
7
  6
CONTINUOUS
370
-3
390
F
  0
LAYER
  5
218
100
AcDbSymbolTableRecord
100
AcDbLayerTableRecord
  2
SNAPLINE
 70
0
 62
7
  6
CONTINUOUS
370
-3
390
F
  0
LAYER
  5
219
100
AcDbSymbolTableRecord
100
AcDbLayerTableRecord
  2
SUPERFICI
 70
0
 62
7
  6
CONTINUOUS
370
-3
390
F
  0
LAYER
  5
21A
100
AcDbSymbolTableRecord
100
AcDbLayerTableRecord
  2
TRASH
 70
0
 62
7
  6
CONTINUOUS
370
-3
390
F
  0
ENDTAB
  0
TABLE
  2
STYLE
  5
3
100
AcDbSymbolTable
 70
1
  0
STYLE
  5
11
100
AcDbSymbolTableRecord
100
AcDbTextStyleTableRecord
  2
STANDARD
 70
0
 40
0.0
 41
0.8
 50
0.0
 71
0
 42
0.2
  3
txt
  4

  0
STYLE
  5
21B
100
AcDbSymbolTableRecord
100
AcDbTextStyleTableRecord
  2
TEXTSTYLE_1
 70
0
 40
0.0
 41
0.8
 50
0.0
 71
0
 42
0.2
  3
gdt
  4

  0
ENDTAB
  0
TABLE
  2
VIEW
  5
6
100
AcDbSymbolTable
 70
0
  0
ENDTAB
  0
TABLE
  2
UCS
  5
7
100
AcDbSymbolTable
 70
0
  0
ENDTAB
  0
TABLE
  2
APPID
  5
9
100
AcDbSymbolTable
 70
1
  0
APPID
  5
21C
100
AcDbSymbolTableRecord
100
AcDbRegAppTableRecord
  2
ACAD
 70
0
  0
ENDTAB
  0
TABLE
  2
BLOCK_RECORD
  5
1
100
AcDbSymbolTable
 70
0
  0
BLOCK_RECORD
  5
21D
100
AcDbSymbolTableRecord
100
AcDbBlockTableRecord
  2
*Model_Space
  0
BLOCK_RECORD
  5
21E
100
AcDbSymbolTableRecord
100
AcDbBlockTableRecord
  2
*Paper_Space
  0
BLOCK_RECORD
  5
21F
100
AcDbSymbolTableRecord
100
AcDbBlockTableRecord
  2
_FILLED
  0
ENDTAB
  0
TABLE
  2
DIMSTYLE
  5
A
100
AcDbSymbolTable
 70
1
100
AcDbDimStyleTable
 71
0
  0
DIMSTYLE
105
220
100
AcDbSymbolTableRecord
100
AcDbDimStyleTableRecord
  2
STANDARD
 70
0
  3

  4

 40
1.0
 41
3.0
 42
0.5
 43
0.38
 44
1.5
 45
0.0
 46
0.0
 47
0.01
 48
0.01
140
3.0
141
0.09
142
0.0
143
25.4
144
1.0
145
0.0
146
1.0
147
0.625
 71
1
 72
0
 73
0
 74
0
 75
0
 76
0
 77
1
 78
8
 79
2
170
0
171
1
172
0
173
0
174
0
175
0
176
0
177
0
178
0
270
2
179
2
271
2
272
2
273
2
274
2
275
0
280
0
281
0
282
0
283
1
284
8
285
0
286
0
287
3
288
0
340
11
278
44
341
21F
342
21F
343
21F
344
21F
  0
ENDTAB
  0
ENDSEC
  0
SECTION
  2
BLOCKS
  0
BLOCK
  5
20
100
AcDbEntity
  8
0
100
AcDbBlockBegin
  2
*Model_Space
 70
0
 10
0.0
 20
0.0
 30
0.0
  3
*Model_Space
  1

  0
ENDBLK
  5
21
100
AcDbEntity
  8
0
100
AcDbBlockEnd
  0
BLOCK
  5
1C
100
AcDbEntity
  8
0
100
AcDbBlockBegin
  2
*Paper_Space
 70
0
 10
0.0
 20
0.0
 30
0.0
  3
*Paper_Space
  1

  0
ENDBLK
  5
1D
100
AcDbEntity
  8
0
100
AcDbBlockEnd
  0
BLOCK
  5
221
100
AcDbEntity
  8
0
100
AcDbBlockBegin
  2
_FILLED
 70
64
 10
0.0
 20
0.0
  3
_FILLED
  1

  0
SOLID
  5
222
100
AcDbEntity
  8
0
  6
BYBLOCK
 62
0
100
AcDbTrace
 10
0.0
 20
0.0
 11
-1.0
 21
0.3166666667
 12
-1.0
 22
-0.3166666667
 13
-1.0
 23
-0.3166666667
  0
ENDBLK
  5
223
100
AcDbEntity
  8
0
  6
BYBLOCK
 62
0
100
AcDbBlockEnd
  0
ENDSEC
  0
SECTION
  2
ENTITIES
  0
LINE
  5
224
100
AcDbEntity
  8
RACCORDO
100
AcDbLine
 62
7
  6
CONTINUOUS
 10
-58.748314513
 20
118.9407444224
 11
-57.7026917054
 21
119.6094080859
  0
LINE
  5
225
100
AcDbEntity
  8
RACCORDO
100
AcDbLine
 62
250
  6
CONTINUOUS
 10
-58.4881955117
 20
118.9222624614
 11
-57.4462971046
 21
119.5885444139
  0
LWPOLYLINE
  5
226
100
AcDbEntity
  8
RACCORDO
100
AcDbPolyline
 62
250
  6
CONTINUOUS
 90
11
 70
0
 10
-58.7483111131
 20
118.9407465965
 10
-58.7415462652
 20
118.9448492744
 10
-58.7187151091
 20
118.9557692487
 10
-58.6940623927
 20
118.9633636084
 10
-58.667770885
 20
118.9675772616
 10
-58.6400149317
 20
118.9683771863
 10
-58.6110295492
 20
118.9657517914
 10
-58.5811121214
 20
118.9597403493
 10
-58.5505224432
 20
118.9504229465
 10
-58.519471506
 20
118.9378909555
 10
-58.4881955117
 20
118.9222624614
  0
LINE
  5
227
100
AcDbEntity
  8
RACCORDO
100
AcDbLine
 62
250
  6
CONTINUOUS
 10
-26.6121469326
 20
101.7852925473
 11
-27.7100787667
 21
101.1513635932
  0
LINE
  5
228
100
AcDbEntity
  8
RACCORDO
100
AcDbLine
 62
250
  6
CONTINUOUS
 10
-26.258714696
 20
101.173129957
 11
-27.35664653
 21
100.5392010028
  0
LWPOLYLINE
  5
229
100
AcDbEntity
  8
RACCORDO
100
AcDbPolyline
 62
250
  6
CONTINUOUS
 90
19
 70
0
 10
-27.35664653
 20
100.5392010028
 10
-27.3890473918
 20
100.5229167055
 10
-27.4237497446
 20
100.5082981597
 10
-27.4604974961
 20
100.4954533055
 10
-27.4990195545
 20
100.4844769675
 10
-27.5390315131
 20
100.4754502472
 10
-27.5802377111
 20
100.4684398695
 10
-27.6223367218
 20
100.4634973261
 10
-27.6650151284
 20
100.4606596186
 10
-27.7079491912
 20
100.4599476207
 10
-27.7508161274
 20
100.4613649539
 10
-27.7933058514
 20
100.464899633
 10
-27.8351142271
 20
100.4705257342
 10
-27.8759684627
 20
100.478209489
 10
-27.9155296656
 20
100.4878901724
 10
-27.9534155789
 20
100.4994658991
 10
-27.9893318357
 20
100.512826392
 10
-28.0230620046
 20
100.5278698162
 10
-28.0543772085
 20
100.5444747416
  0
LWPOLYLINE
  5
22A
100
AcDbEntity
  8
RACCORDO
100
AcDbPolyline
 62
250
  6
CONTINUOUS
 90
19
 70
0
 10
-27.7100787667
 20
101.1513635932
 10
-27.7403362386
 20
101.1314757915
 10
-27.7703029313
 20
101.1087704245
 10
-27.7997583144
 20
101.0834145851
 10
-27.8284856202
 20
101.0555948716
 10
-27.8562734392
 20
101.0255160144
 10
-27.8829172755
 20
100.9933993696
 10
-27.9082210522
 20
100.9594812896
 10
-27.9319985541
 20
100.9240113836
 10
-27.9540747984
 20
100.8872506813
 10
-27.9742873218
 20
100.8494697114
 10
-27.9924873765
 20
100.8109465111
 10
-28.0085410251
 20
100.7719645798
 10
-28.0223301256
 20
100.7328107929
 10
-28.0337532015
 20
100.6937732904
 10
-28.0427261884
 20
100.6551393563
 10
-28.0491830523
 20
100.617193305
 10
-28.053076276
 20
100.5802143885
 10
-28.0543772085
 20
100.5444747416
  0
LWPOLYLINE
  5
22B
100
AcDbEntity
  8
RACCORDO
100
AcDbPolyline
 62
250
  6
CONTINUOUS
 90
16
 70
0
 10
-27.35664653
 20
88.2298727298
 10
-27.3957512556
 20
88.2105547455
 10
-27.438088031
 20
88.1936599981
 10
-27.483208324
 20
88.1793674766
 10
-27.5306341125
 20
88.1678286014
 10
-27.5798629499
 20
88.1591656189
 10
-27.6303732877
 20
88.1534703067
 10
-27.6816300006
 20
88.1508030024
 10
-27.7330900563
 20
88.151191964
 10
-27.784208269
 20
88.1546330702
 10
-27.8344430737
 20
88.1610898638
 10
-27.8832622652
 20
88.1704939389
 10
-27.9301486364
 20
88.1827456654
 10
-27.9746054569
 20
88.1977152441
 10
-28.0161617348
 20
88.215244081
 10
-28.0543772085
 20
88.2351464685
  0
LINE
  5
22C
100
AcDbEntity
  8
RACCORDO
100
AcDbLine
 62
7
  6
CONTINUOUS
 10
-25.0797816602
 20
82.7160111864
 11
-26.258714696
 21
82.285040205
  0
LINE
  5
22D
100
AcDbEntity
  8
RACCORDO
100
AcDbLine
 62
250
  6
CONTINUOUS
 10
-24.9865564143
 20
82.7031613144
 11
-26.258714696
 21
82.2381108947
  0
LINE
  5
22E
100
AcDbEntity
  8
0
100
AcDbLine
 62
250
  6
CONTINUOUS
 10
-44.1725313011
 20
76.6589136731
 11
-44.1768100341
 21
76.6564431862
  0
LINE
  5
22F
100
AcDbEntity
  8
RACCORDO
100
AcDbLine
 62
250
  6
CONTINUOUS
 10
-24.5938001845
 20
82.4763887897
 11
-26.258714696
 21
81.8401200034
  0
LINE
  5
230
100
AcDbEntity
  8
RACCORDO
100
AcDbLine
 62
250
  6
CONTINUOUS
 10
-24.4757076555
 20
82.2204570652
 11
-26.258714696
 21
81.5390576793
  0
LINE
  5
231
100
AcDbEntity
  8
RACCORDO
100
AcDbLine
 62
250
  6
CONTINUOUS
 10
-59.2345539725
 20
92.9726384285
 11
-59.1580970216
 21
94.1158383749
  0
LINE
  5
232
100
AcDbEntity
  8
RACCORDO
100
AcDbLine
 62
250
  6
CONTINUOUS
 10
-59.3191167406
 20
91.8026149296
 11
-59.2345539725
 21
92.9726384285
  0
LINE
  5
233
100
AcDbEntity
  8
RACCORDO
100
AcDbLine
 62
250
  6
CONTINUOUS
 10
-59.41240386
 20
90.5888649963
 11
-59.3191167406
 21
91.8026149296
  0
LINE
  5
234
100
AcDbEntity
  8
RACCORDO
100
AcDbLine
 62
250
  6
CONTINUOUS
 10
-59.551657113
 20
88.8725149694
 11
-59.41240386
 21
90.5888649963
  0
LINE
  5
235
100
AcDbEntity
  8
RACCORDO
100
AcDbLine
 62
7
  6
CONTINUOUS
 10
-60.815544318
 20
75.7883361429
 11
-59.7358664675
 21
88.625423423
  0
LINE
  5
236
100
AcDbEntity
  8
RACCORDO
100
AcDbLine
 62
250
  6
CONTINUOUS
 10
-60.6689200394
 20
75.5860842076
 11
-59.551657113
 21
88.8725149694
  0
LWPOLYLINE
  5
237
100
AcDbEntity
  8
RACCORDO
100
AcDbPolyline
 62
250
  6
CONTINUOUS
 90
7
 70
0
 10
-24.3019417447
 20
82.081334001
 10
-24.2849531735
 20
82.0927094346
 10
-24.2706653996
 20
82.1052619714
 10
-24.2593202585
 20
82.1187792647
 10
-24.2511098061
 20
82.1330326402
 10
-24.2461730789
 20
82.1477809408
 10
-24.2445918781
 20
82.1621969305
  0
LWPOLYLINE
  5
238
100
AcDbEntity
  8
RACCORDO
100
AcDbPolyline
 62
250
  6
CONTINUOUS
 90
7
 70
0
 10
-24.3019417447
 20
80.3643472345
 10
-24.2849523052
 20
80.3757233399
 10
-24.2706641196
 20
80.3882765204
 10
-24.2593189577
 20
80.4017943641
 10
-24.2511087906
 20
80.4160481361
 10
-24.2461725421
 20
80.4307966488
 10
-24.2445918345
 20
80.4452864794
  0
LWPOLYLINE
  5
239
100
AcDbEntity
  8
RACCORDO
100
AcDbPolyline
 62
250
  6
CONTINUOUS
 90
16
 70
0
 10
-28.1561337208
 20
70.626767333
 10
-28.1950378252
 20
70.6119478941
 10
-28.2371767056
 20
70.5995044758
 10
-28.2821038444
 20
70.5895689326
 10
-28.3293431787
 20
70.5822465449
 10
-28.3783941449
 20
70.577614903
 10
-28.4287369826
 20
70.5757230854
 10
-28.4798382425
 20
70.5765911385
 10
-28.5311564386
 20
70.580209864
 10
-28.5821477863
 20
70.5865409168
 10
-28.6322719644
 20
70.5955172108
 10
-28.6809978403
 20
70.6070436303
 10
-28.7278090986
 20
70.6209980376
 10
-28.7722097117
 20
70.6372325671
 10
-28.8137291958
 20
70.6555751924
 10
-28.8519275968
 20
70.6758315488
  0
LINE
  5
23A
100
AcDbEntity
  8
RACCORDO
100
AcDbLine
 62
7
  6
CONTINUOUS
 10
-26.258714696
 20
71.8572067166
 11
-25.3962042447
 21
72.1738115415
  0
LWPOLYLINE
  5
23B
100
AcDbEntity
  8
RACCORDO
100
AcDbPolyline
 62
250
  6
CONTINUOUS
 90
9
 70
0
 10
-59.7358664675
 20
88.625423423
 10
-59.7351964922
 20
88.5970311934
 10
-59.7291075465
 20
88.5704048178
 10
-59.7178106961
 20
88.5439174088
 10
-59.7014256469
 20
88.5178496353
 10
-59.6801260206
 20
88.4924777188
 10
-59.6541375152
 20
88.4680705083
 10
-59.623735514
 20
88.4448866314
 10
-59.5892421667
 20
88.4231717524
  0
LWPOLYLINE
  5
23C
100
AcDbEntity
  8
RACCORDO
100
AcDbPolyline
 62
250
  6
CONTINUOUS
 90
11
 70
0
 10
-58.9789405629
 20
118.5195109064
 10
-58.9788829439
 20
118.5151282472
 10
-58.9763781186
 20
118.4903206825
 10
-58.9701841918
 20
118.4657186654
 10
-58.9603630228
 20
118.4415477429
 10
-58.9470012383
 20
118.4179839175
 10
-58.9302118177
 20
118.395199164
 10
-58.9101730624
 20
118.3733981834
 10
-58.8870785178
 20
118.3527434437
 10
-58.8611138035
 20
118.3333595267
 10
-58.8324939535
 20
118.3153736097
  0
LINE
  5
23D
100
AcDbEntity
  8
RACCORDO
100
AcDbLine
 62
7
  6
CONTINUOUS
 10
-58.9789405629
 20
106.2101826334
 11
-58.9789405629
 21
118.5195109064
  0
LINE
  5
23E
100
AcDbEntity
  8
RACCORDO
100
AcDbLine
 62
250
  6
CONTINUOUS
 10
-58.8342231525
 20
104.8187848096
 11
-58.8324939535
 21
118.3153736097
  0
LWPOLYLINE
  5
23F
100
AcDbEntity
  8
RACCORDO
100
AcDbPolyline
 62
7
  6
CONTINUOUS
 90
10
 70
0
 10
-58.9789405628
 20
106.2101887522
 10
-58.9834680568
 20
104.3288728309
 10
-59.0004665906
 20
102.3845589975
 10
-59.0354097504
 20
100.4345730097
 10
-59.0933594379
 20
98.4761765713
 10
-59.1788126538
 20
96.5071556722
 10
-59.2914042727
 20
94.527691147
 10
-59.4262659176
 20
92.5407905132
 10
-59.5781679028
 20
90.5493778959
 10
-59.735866449
 20
88.6254236434
  0
LINE
  5
240
100
AcDbEntity
  8
RACCORDO
100
AcDbLine
 62
250
  6
CONTINUOUS
 10
-58.8393044783
 20
103.7280909786
 11
-58.8342231525
 21
104.8187848096
  0
LINE
  5
241
100
AcDbEntity
  8
RACCORDO
100
AcDbLine
 62
250
  6
CONTINUOUS
 10
-58.8476470822
 20
102.7291918149
 11
-58.8393044783
 21
103.7280909786
  0
LINE
  5
242
100
AcDbEntity
  8
RACCORDO
100
AcDbLine
 62
250
  6
CONTINUOUS
 10
-58.8591721401
 20
101.8060813339
 11
-58.8476470822
 21
102.7291918149
  0
LINE
  5
243
100
AcDbEntity
  8
RACCORDO
100
AcDbLine
 62
250
  6
CONTINUOUS
 10
-58.8737661894
 20
100.9442702129
 11
-58.8591721401
 21
101.8060813339
  0
LINE
  5
244
100
AcDbEntity
  8
RACCORDO
100
AcDbLine
 62
250
  6
CONTINUOUS
 10
-58.8912343373
 20
100.1341712997
 11
-58.8737661894
 21
100.9442702129
  0
LWPOLYLINE
  5
245
100
AcDbEntity
  8
RACCORDO
100
AcDbPolyline
 62
250
  6
CONTINUOUS
 90
11
 70
0
 10
-60.815544318
 20
75.7883361429
 10
-60.8159357782
 20
75.7729774856
 10
-60.8133765813
 20
75.7508067219
 10
-60.8071610565
 20
75.7286071801
 10
-60.7973348314
 20
75.7065388774
 10
-60.7839594156
 20
75.684748981
 10
-60.7671392443
 20
75.6634142627
 10
-60.7470417072
 20
75.6427327523
 10
-60.7238503032
 20
75.6228653776
 10
-60.6977406312
 20
75.6039385058
 10
-60.6689200394
 20
75.5860842076
  0
LINE
  5
246
100
AcDbEntity
  8
RACCORDO
100
AcDbLine
 62
250
  6
CONTINUOUS
 10
-58.9115890656
 20
99.3612471615
 11
-58.8912343373
 21
100.1341712997
  0
LINE
  5
247
100
AcDbEntity
  8
RACCORDO
100
AcDbLine
 62
250
  6
CONTINUOUS
 10
-58.93505498
 20
98.610795505
 11
-58.9115890656
 21
99.3612471615
  0
LWPOLYLINE
  5
248
100
AcDbEntity
  8
RACCORDO
100
AcDbPolyline
 62
250
  6
CONTINUOUS
 90
19
 70
0
 10
-58.8324939535
 20
118.3153736097
 10
-58.831193021
 20
118.3511132567
 10
-58.8272997973
 20
118.3880921732
 10
-58.8208429334
 20
118.4260382245
 10
-58.8118699466
 20
118.4646721586
 10
-58.8004468706
 20
118.5037096611
 10
-58.7866577701
 20
118.542863448
 10
-58.7706041216
 20
118.5818453792
 10
-58.7524040668
 20
118.6203685796
 10
-58.7321915434
 20
118.6581495495
 10
-58.7101152992
 20
118.6949102518
 10
-58.6863377972
 20
118.7303801577
 10
-58.6610340205
 20
118.7642982378
 10
-58.6343901842
 20
118.7964148826
 10
-58.6066023653
 20
118.8264937398
 10
-58.5778750595
 20
118.8543134533
 10
-58.5484196764
 20
118.8796692927
 10
-58.5184529837
 20
118.9023746597
 10
-58.4881955117
 20
118.9222624614
  0
LINE
  5
249
100
AcDbEntity
  8
RACCORDO
100
AcDbLine
 62
250
  6
CONTINUOUS
 10
-58.961910184
 20
97.8731217125
 11
-58.93505498
 21
98.610795505
  0
LINE
  5
24A
100
AcDbEntity
  8
RACCORDO
100
AcDbLine
 62
250
  6
CONTINUOUS
 10
-58.9929131312
 20
97.1315935285
 11
-58.961910184
 21
97.8731217125
  0
LINE
  5
24B
100
AcDbEntity
  8
RACCORDO
100
AcDbLine
 62
250
  6
CONTINUOUS
 10
-59.0283402548
 20
96.3828820917
 11
-58.9929131312
 21
97.1315935285
  0
LINE
  5
24C
100
AcDbEntity
  8
RACCORDO
100
AcDbLine
 62
250
  6
CONTINUOUS
 10
-59.0680283776
 20
95.6272402237
 11
-59.0283402548
 21
96.3828820917
  0
LINE
  5
24D
100
AcDbEntity
  8
RACCORDO
100
AcDbLine
 62
250
  6
CONTINUOUS
 10
-59.1113382713
 20
94.872190442
 11
-59.0680283776
 21
95.6272402237
  0
LINE
  5
24E
100
AcDbEntity
  8
RACCORDO
100
AcDbLine
 62
250
  6
CONTINUOUS
 10
-59.1580970216
 20
94.1158383749
 11
-59.1113382713
 21
94.872190442
  0
LWPOLYLINE
  5
24F
100
AcDbEntity
  8
RACCORDO
100
AcDbPolyline
 62
250
  6
CONTINUOUS
 90
19
 70
0
 10
-24.4757076555
 20
80.0210305434
 10
-24.4570949993
 20
80.0369731712
 10
-24.4393666826
 20
80.0539501745
 10
-24.4225227056
 20
80.0719615532
 10
-24.4064189632
 20
80.0913374654
 10
-24.3911995604
 20
80.1117477531
 10
-24.3772968119
 20
80.1322019421
 10
-24.3648822321
 20
80.1525420144
 10
-24.3537843066
 20
80.1729259881
 10
-24.3439208067
 20
80.1928374423
 10
-24.335374755
 20
80.211967409
 10
-24.3280631289
 20
80.2306248564
 10
-24.3216546323
 20
80.2492202672
 10
-24.3160227232
 20
80.2677409766
 10
-24.3112939436
 20
80.2861996496
 10
-24.307516623
 20
80.305044764
 10
-24.3047068712
 20
80.3244258127
 10
-24.3028485784
 20
80.3441933028
 10
-24.3019417447
 20
80.3643472345
  0
LWPOLYLINE
  5
250
100
AcDbEntity
  8
RACCORDO
100
AcDbPolyline
 62
7
  6
CONTINUOUS
 90
15
 70
0
 10
-24.4941885436
 20
79.9451834397
 10
-24.4619994063
 20
79.9727018334
 10
-24.432936018
 20
80.0012377068
 10
-24.405370604
 20
80.0320036084
 10
-24.3794458011
 20
80.0648099443
 10
-24.3553876733
 20
80.0993120183
 10
-24.3332798465
 20
80.1353708486
 10
-24.313240126
 20
80.1728086682
 10
-24.2955294568
 20
80.2111725419
 10
-24.2802398186
 20
80.2502925821
 10
-24.2674769042
 20
80.2900119226
 10
-24.2574206237
 20
80.3299479876
 10
-24.2501783106
 20
80.3699325905
 10
-24.2458561814
 20
80.4099028206
 10
-24.2445918402
 20
80.4453139601
  0
LINE
  5
251
100
AcDbEntity
  8
RACCORDO
100
AcDbLine
 62
250
  6
CONTINUOUS
 10
-26.258714696
 20
78.6072049654
 11
-24.4757076555
 21
80.0210305434
  0
LINE
  5
252
100
AcDbEntity
  8
RACCORDO
100
AcDbLine
 62
7
  6
CONTINUOUS
 10
-26.258714696
 20
78.5460119733
 11
-24.4940941216
 21
79.9452581047
  0
LINE
  5
253
100
AcDbEntity
  8
DRAFT
100
AcDbLine
 62
7
  6
CONTINUOUS
 10
-25.4122126607
 20
71.666257734
 11
-26.258714696
 21
71.2630116633
  0
LINE
  5
254
100
AcDbEntity
  8
DRAFT
100
AcDbLine
 62
7
  6
CONTINUOUS
 10
-24.6777584296
 20
71.6435692241
 11
-24.8545351249
 21
71.5593585491
  0
LWPOLYLINE
  5
255
100
AcDbEntity
  8
RACCORDO
100
AcDbPolyline
 62
250
  6
CONTINUOUS
 90
9
 70
0
 10
-58.9789405629
 20
106.2101826334
 10
-58.977898372
 20
106.1915525604
 10
-58.9719385814
 20
106.1620375413
 10
-58.9607557895
 20
106.1330325889
 10
-58.9444684708
 20
106.1048449922
 10
-58.9232491792
 20
106.0777733811
 10
-58.8973227196
 20
106.0521045621
 10
-58.8669637664
 20
106.0281104799
 10
-58.8324939535
 20
106.0060453367
  0
LINE
  5
256
100
AcDbEntity
  8
DRAFT
100
AcDbLine
 62
7
  6
CONTINUOUS
 10
-25.4122126607
 20
69.3607099896
 11
-26.258714696
 21
68.7864367283
  0
LINE
  5
257
100
AcDbEntity
  8
DRAFT
100
AcDbLine
 62
7
  6
CONTINUOUS
 10
-24.6777584296
 20
69.4149786492
 11
-24.8545351249
 21
69.2950520275
  0
LWPOLYLINE
  5
258
100
AcDbEntity
  8
RACCORDO
100
AcDbPolyline
 62
250
  6
CONTINUOUS
 90
19
 70
0
 10
-29.2938768048
 20
57.8232059134
 10
-29.3261352129
 20
57.8106691723
 10
-29.3607042855
 20
57.7997721187
 10
-29.3973291994
 20
57.7905959772
 10
-29.4357463165
 20
57.7832082088
 10
-29.4756659512
 20
57.7776658646
 10
-29.516772198
 20
57.7740120387
 10
-29.5587422277
 20
57.7722719492
 10
-29.601282017
 20
57.7724543847
 10
-29.6441089226
 20
57.7745581076
 10
-29.6869383193
 20
57.7785733502
 10
-29.7294213055
 20
57.7844716239
 10
-29.7711815447
 20
57.7921985263
 10
-29.8119148711
 20
57.8016913815
 10
-29.8513228004
 20
57.8128740848
 10
-29.8890605213
 20
57.8256369353
 10
-29.9248469368
 20
57.8398656576
 10
-29.9584586527
 20
57.8554512981
 10
-29.9896706808
 20
57.8722701293
  0
LWPOLYLINE
  5
259
100
AcDbEntity
  8
RACCORDO
100
AcDbPolyline
 62
7
  6
CONTINUOUS
 90
6
 70
0
 10
-27.4180899195
 20
58.1953297223
 10
-27.3885115194
 20
58.2051957463
 10
-27.3588958537
 20
58.2162792677
 10
-27.3292818046
 20
58.2285874078
 10
-27.2996942007
 20
58.2421314387
 10
-27.2729669441
 20
58.2554603312
  0
LWPOLYLINE
  5
25A
100
AcDbEntity
  8
RACCORDO
100
AcDbPolyline
 62
250
  6
CONTINUOUS
 90
10
 70
0
 10
-27.2247642428
 20
58.4626245296
 10
-27.2175290198
 20
58.4649469971
 10
-27.2102718843
 20
58.4674483078
 10
-27.2029928364
 20
58.4701284619
 10
-27.1956898593
 20
58.4729882069
 10
-27.1883649697
 20
58.4760267953
 10
-27.1810242186
 20
58.4792419841
 10
-27.1736696228
 20
58.4826330258
 10
-27.1662991655
 20
58.486200668
 10
-27.1589128465
 20
58.4899449106
  0
LINE
  5
25B
100
AcDbEntity
  8
RACCORDO
100
AcDbLine
 62
250
  6
CONTINUOUS
 10
-29.2938768048
 20
57.8232059134
 11
-27.2247642428
 21
58.4626245296
  0
LINE
  5
25C
100
AcDbEntity
  8
RACCORDO
100
AcDbLine
 62
7
  6
CONTINUOUS
 10
-29.4904273565
 20
57.5549074693
 11
-27.4180899195
 21
58.1953297223
  0
LINE
  5
25D
100
AcDbEntity
  8
0
100
AcDbLine
 62
7
  6
CONTINUOUS
 10
-47.5651276826
 20
77.3607986187
 11
-47.5948556496
 21
77.0170459525
  0
LINE
  5
25E
100
AcDbEntity
  8
0
100
AcDbLine
 62
7
  6
CONTINUOUS
 10
-47.6034029238
 20
76.0597369717
 11
-47.6331308908
 21
75.7159843054
  0
LINE
  5
25F
100
AcDbEntity
  8
0
100
AcDbLine
 62
7
  6
CONTINUOUS
 10
-46.572470719
 20
75.1035724154
 11
-46.542742752
 21
75.4473250817
  0
LINE
  5
260
100
AcDbEntity
  8
0
100
AcDbLine
 62
7
  6
CONTINUOUS
 10
-44.176066835
 20
76.6650370029
 11
-44.1768100341
 21
76.6564431862
  0
LINE
  5
261
100
AcDbEntity
  8
0
100
AcDbLine
 62
7
  6
CONTINUOUS
 10
-44.3170958878
 20
75.0342792405
 11
-44.3889218483
 21
74.2037358857
  0
LINE
  5
262
100
AcDbEntity
  8
0
100
AcDbLine
 62
7
  6
CONTINUOUS
 10
-43.9572257879
 20
74.0447092962
 11
-43.8705358438
 21
75.0471289842
  0
LINE
  5
263
100
AcDbEntity
  8
RACCORDO
100
AcDbLine
 62
250
  6
CONTINUOUS
 10
-27.1589128465
 20
58.4899449106
 11
-26.258714696
 21
58.956657931
  0
LINE
  5
264
100
AcDbEntity
  8
RACCORDO
100
AcDbLine
 62
7
  6
CONTINUOUS
 10
-27.272953467
 20
58.2554673177
 11
-26.3688305833
 21
58.724215139
  0
LINE
  5
265
100
AcDbEntity
  8
0
100
AcDbLine
 62
7
  6
CONTINUOUS
 10
-41.8832902081
 20
75.2419642778
 11
-42.0805380388
 21
72.9611333103
  0
LINE
  5
266
100
AcDbEntity
  8
0
100
AcDbLine
 62
7
  6
CONTINUOUS
 10
-41.6637059618
 20
72.6302303878
 11
-41.4515941476
 21
75.0829376883
  0
LWPOLYLINE
  5
267
100
AcDbEntity
  8
RACCORDO
100
AcDbPolyline
 62
250
  6
CONTINUOUS
 90
5
 70
0
 10
-27.3080947133
 20
58.2708839041
 10
-27.3341835303
 20
58.2441502178
 10
-27.3628266499
 20
58.2220721664
 10
-27.393712419
 20
58.2048899726
 10
-27.4213131743
 20
58.1943265862
  0
LWPOLYLINE
  5
268
100
AcDbEntity
  8
RACCORDO
100
AcDbPolyline
 62
250
  6
CONTINUOUS
 90
3
 70
0
 10
-27.264684549
 20
58.3371071757
 10
-27.2848440597
 20
58.3019823466
 10
-27.3080947133
 20
58.2708839041
  0
LINE
  5
269
100
AcDbEntity
  8
RACCORDO
100
AcDbLine
 62
250
  6
CONTINUOUS
 10
-28.1363958865
 20
81.6371922668
 11
-28.1607158376
 21
80.8925145563
  0
LINE
  5
26A
100
AcDbEntity
  8
RACCORDO
100
AcDbLine
 62
250
  6
CONTINUOUS
 10
-28.1607158376
 20
80.8925145563
 11
-28.1891647501
 21
80.1454659293
  0
LINE
  5
26B
100
AcDbEntity
  8
RACCORDO
100
AcDbLine
 62
250
  6
CONTINUOUS
 10
-28.1891647501
 20
80.1454659293
 11
-28.2216756471
 21
79.4035807592
  0
LWPOLYLINE
  5
26C
100
AcDbEntity
  8
RACCORDO
100
AcDbPolyline
 62
250
  6
CONTINUOUS
 90
11
 70
0
 10
-29.9896706808
 20
57.8722701293
 10
-29.9915989063
 20
57.8313281539
 10
-29.9901513863
 20
57.7923081407
 10
-29.9853419419
 20
57.7555826637
 10
-29.9772164951
 20
57.7215023882
 10
-29.96585263
 20
57.6903927222
 10
-29.951358852
 20
57.6625507099
 10
-29.9338735518
 20
57.6382421945
 10
-29.9135636841
 20
57.6176992806
 10
-29.890623173
 20
57.6011181175
 10
-29.8880661727
 20
57.5996112215
  0
LINE
  5
26D
100
AcDbEntity
  8
RACCORDO
100
AcDbLine
 62
250
  6
CONTINUOUS
 10
-28.2216756471
 20
79.4035807592
 11
-28.2585020044
 21
78.661605166
  0
LINE
  5
26E
100
AcDbEntity
  8
RACCORDO
100
AcDbLine
 62
250
  6
CONTINUOUS
 10
-27.524489167
 20
79.3759797501
 11
-27.5613930354
 21
78.6312283279
  0
LINE
  5
26F
100
AcDbEntity
  8
RACCORDO
100
AcDbLine
 62
250
  6
CONTINUOUS
 10
-28.2585020044
 20
78.661605166
 11
-28.299742579
 21
77.9134034808
  0
LINE
  5
270
100
AcDbEntity
  8
RACCORDO
100
AcDbLine
 62
250
  6
CONTINUOUS
 10
-27.5613930354
 20
78.6312283279
 11
-27.6028047026
 21
77.8803484683
  0
LINE
  5
271
100
AcDbEntity
  8
RACCORDO
100
AcDbLine
 62
250
  6
CONTINUOUS
 10
-28.299742579
 20
77.9134034808
 11
-28.3461578467
 21
77.1435430124
  0
LINE
  5
272
100
AcDbEntity
  8
RACCORDO
100
AcDbLine
 62
250
  6
CONTINUOUS
 10
-27.6028047026
 20
77.8803484683
 11
-27.6493422154
 21
77.1079557613
  0
LINE
  5
273
100
AcDbEntity
  8
RACCORDO
100
AcDbLine
 62
250
  6
CONTINUOUS
 10
-28.3461578467
 20
77.1435430124
 11
-28.3987778111
 21
76.3369048263
  0
LINE
  5
274
100
AcDbEntity
  8
RACCORDO
100
AcDbLine
 62
250
  6
CONTINUOUS
 10
-27.6493422154
 20
77.1079557613
 11
-27.7021434144
 21
76.2988463632
  0
LINE
  5
275
100
AcDbEntity
  8
RACCORDO
100
AcDbLine
 62
250
  6
CONTINUOUS
 10
-28.3987778111
 20
76.3369048263
 11
-28.458503051
 21
75.4833669004
  0
LINE
  5
276
100
AcDbEntity
  8
RACCORDO
100
AcDbLine
 62
250
  6
CONTINUOUS
 10
-27.7021434144
 20
76.2988463632
 11
-27.762032082
 21
75.4429351196
  0
LINE
  5
277
100
AcDbEntity
  8
RACCORDO
100
AcDbLine
 62
250
  6
CONTINUOUS
 10
-27.762032082
 20
75.4429351196
 11
-27.8304106901
 21
74.5250213993
  0
LINE
  5
278
100
AcDbEntity
  8
RACCORDO
100
AcDbLine
 62
250
  6
CONTINUOUS
 10
-28.458503051
 20
75.4833669004
 11
-28.526728155
 21
74.567726882
  0
LINE
  5
279
100
AcDbEntity
  8
RACCORDO
100
AcDbLine
 62
250
  6
CONTINUOUS
 10
-28.526728155
 20
74.567726882
 11
-28.6049476795
 21
73.5747227101
  0
LINE
  5
27A
100
AcDbEntity
  8
RACCORDO
100
AcDbLine
 62
250
  6
CONTINUOUS
 10
-27.8304106901
 20
74.5250213993
 11
-27.9088180746
 21
73.5299016153
  0
LINE
  5
27B
100
AcDbEntity
  8
RACCORDO
100
AcDbLine
 62
250
  6
CONTINUOUS
 10
-28.6049476795
 20
73.5747227101
 11
-28.6942255687
 21
72.4941749052
  0
LINE
  5
27C
100
AcDbEntity
  8
RACCORDO
100
AcDbLine
 62
250
  6
CONTINUOUS
 10
-27.9088180746
 20
73.5299016153
 11
-27.9982325468
 21
72.4474732803
  0
LINE
  5
27D
100
AcDbEntity
  8
RACCORDO
100
AcDbLine
 62
250
  6
CONTINUOUS
 10
-28.6942255687
 20
72.4941749052
 11
-28.7962214514
 21
71.3076250723
  0
LINE
  5
27E
100
AcDbEntity
  8
RACCORDO
100
AcDbLine
 62
250
  6
CONTINUOUS
 10
-27.9982325468
 20
72.4474732803
 11
-28.1003929371
 21
71.2592727128
  0
LINE
  5
27F
100
AcDbEntity
  8
RACCORDO
100
AcDbLine
 62
250
  6
CONTINUOUS
 10
-28.7962214514
 20
71.3076250723
 11
-29.9896706808
 21
57.8722701293
  0
LINE
  5
280
100
AcDbEntity
  8
RACCORDO
100
AcDbLine
 62
250
  6
CONTINUOUS
 10
-28.1003929371
 20
71.2592727128
 11
-29.2938768048
 21
57.8232059134
  0
LWPOLYLINE
  5
281
100
AcDbEntity
  8
RACCORDO
100
AcDbPolyline
 62
250
  6
CONTINUOUS
 90
12
 70
0
 10
-29.2938768048
 20
57.8232059134
 10
-29.3017295666
 20
57.7856807405
 10
-29.3121308402
 20
57.7500274181
 10
-29.3250016875
 20
57.7165160267
 10
-29.3402443677
 20
57.6854005696
 10
-29.3577433416
 20
57.6569164958
 10
-29.3773662774
 20
57.6312790764
 10
-29.3989659172
 20
57.6086812631
 10
-29.4223774206
 20
57.5892960218
 10
-29.4474189738
 20
57.5732727169
 10
-29.4738969592
 20
57.5607322442
 10
-29.4904273565
 20
57.5549074693
  0
LWPOLYLINE
  5
282
100
AcDbEntity
  8
RACCORDO
100
AcDbPolyline
 62
250
  6
CONTINUOUS
 90
4
 70
0
 10
-27.2247642428
 20
58.4626245296
 10
-27.2344803218
 20
58.4178676275
 10
-27.2478355277
 20
58.3758762125
 10
-27.264684549
 20
58.3371071757
  0
LWPOLYLINE
  5
283
100
AcDbEntity
  8
RACCORDO
100
AcDbPolyline
 62
250
  6
CONTINUOUS
 90
19
 70
0
 10
-27.35664653
 20
100.5392010028
 10
-27.3587915058
 20
100.5751985832
 10
-27.3635527114
 20
100.6125278616
 10
-27.3708949023
 20
100.6509038514
 10
-27.3807654235
 20
100.6900417441
 10
-27.3930885309
 20
100.7296340633
 10
-27.407760809
 20
100.7693523151
 10
-27.4246571271
 20
100.8088718213
 10
-27.4436524119
 20
100.8479122259
 10
-27.4646194614
 20
100.8862123437
 10
-27.4874225847
 20
100.9235123656
 10
-27.5118710391
 20
100.9594892789
 10
-27.5377311041
 20
100.9938042954
 10
-27.5648003364
 20
101.026203154
 10
-27.5928670679
 20
101.0564462028
 10
-27.6216582969
 20
101.0842617822
 10
-27.6509307096
 20
101.1094485492
 10
-27.6804783685
 20
101.1318622354
 10
-27.7100787682
 20
101.1513635923
  0
LINE
  5
284
100
AcDbEntity
  8
RACCORDO
100
AcDbLine
 62
7
  6
CONTINUOUS
 10
-26.258714696
 20
101.173129957
 11
-26.258714696
 21
58.956657931
  0
LINE
  5
285
100
AcDbEntity
  8
DRAFT
100
AcDbLine
 62
7
  6
CONTINUOUS
 10
-25.4122126607
 20
71.666257734
 11
-25.4122126607
 21
69.3607099896
  0
LINE
  5
286
100
AcDbEntity
  8
DRAFT
100
AcDbLine
 62
7
  6
CONTINUOUS
 10
-24.8545351249
 20
71.5593585491
 11
-24.8545351249
 21
69.2950520275
  0
LINE
  5
287
100
AcDbEntity
  8
RACCORDO
100
AcDbLine
 62
7
  6
CONTINUOUS
 10
-24.6777584296
 20
71.8940352917
 11
-24.6777584296
 21
71.6435692241
  0
LINE
  5
288
100
AcDbEntity
  8
DRAFT
100
AcDbLine
 62
7
  6
CONTINUOUS
 10
-24.6777584296
 20
71.6435692241
 11
-24.6777584296
 21
69.4149786492
  0
LINE
  5
289
100
AcDbEntity
  8
RACCORDO
100
AcDbLine
 62
250
  6
CONTINUOUS
 10
-24.3019417447
 20
80.3643472345
 11
-24.3019417447
 21
82.081334001
  0
LINE
  5
28A
100
AcDbEntity
  8
RACCORDO
100
AcDbLine
 62
7
  6
CONTINUOUS
 10
-24.2445918345
 20
80.4452864794
 11
-24.2445918345
 21
82.1622732208
  0
LINE
  5
28B
100
AcDbEntity
  8
RACCORDO
100
AcDbLine
 62
250
  6
CONTINUOUS
 10
-28.0543772085
 20
100.5444747416
 11
-28.0552965345
 21
87.3833735899
  0
LINE
  5
28C
100
AcDbEntity
  8
RACCORDO
100
AcDbLine
 62
250
  6
CONTINUOUS
 10
-27.35664653
 20
100.5392010028
 11
-27.3575514766
 21
87.3770962379
  0
LINE
  5
28D
100
AcDbEntity
  8
RACCORDO
100
AcDbLine
 62
250
  6
CONTINUOUS
 10
-28.0552965345
 20
87.3833735899
 11
-28.0602483802
 21
86.16083821
  0
LINE
  5
28E
100
AcDbEntity
  8
RACCORDO
100
AcDbLine
 62
250
  6
CONTINUOUS
 10
-27.3575514766
 20
87.3770962379
 11
-27.36251265
 21
86.1527731179
  0
LINE
  5
28F
100
AcDbEntity
  8
RACCORDO
100
AcDbLine
 62
250
  6
CONTINUOUS
 10
-28.0602483802
 20
86.16083821
 11
-28.0661613622
 21
85.3765611805
  0
LINE
  5
290
100
AcDbEntity
  8
RACCORDO
100
AcDbLine
 62
250
  6
CONTINUOUS
 10
-27.36251265
 20
86.1527731179
 11
-27.3684562284
 21
85.367067789
  0
LINE
  5
291
100
AcDbEntity
  8
RACCORDO
100
AcDbLine
 62
250
  6
CONTINUOUS
 10
-28.0661613622
 20
85.3765611805
 11
-28.0744268468
 21
84.6116575382
  0
LINE
  5
292
100
AcDbEntity
  8
RACCORDO
100
AcDbLine
 62
250
  6
CONTINUOUS
 10
-27.3684562284
 20
85.367067789
 11
-27.3767320598
 21
84.6005463047
  0
LINE
  5
293
100
AcDbEntity
  8
RACCORDO
100
AcDbLine
 62
250
  6
CONTINUOUS
 10
-27.3767320598
 20
84.6005463047
 11
-27.3876160183
 21
83.8475556237
  0
LINE
  5
294
100
AcDbEntity
  8
RACCORDO
100
AcDbLine
 62
250
  6
CONTINUOUS
 10
-28.0744268468
 20
84.6116575382
 11
-28.0852948432
 21
83.8604753038
  0
LINE
  5
295
100
AcDbEntity
  8
RACCORDO
100
AcDbLine
 62
250
  6
CONTINUOUS
 10
-28.0852948432
 20
83.8604753038
 11
-28.0990467965
 21
83.1173298513
  0
LINE
  5
296
100
AcDbEntity
  8
RACCORDO
100
AcDbLine
 62
250
  6
CONTINUOUS
 10
-27.3876160183
 20
83.8475556237
 11
-27.4014158061
 21
83.1024156895
  0
LINE
  5
297
100
AcDbEntity
  8
RACCORDO
100
AcDbLine
 62
250
  6
CONTINUOUS
 10
-28.0990467965
 20
83.1173298513
 11
-28.1159485615
 21
82.3784275073
  0
LINE
  5
298
100
AcDbEntity
  8
RACCORDO
100
AcDbLine
 62
250
  6
CONTINUOUS
 10
-27.4014158061
 20
83.1024156895
 11
-27.418363545
 21
82.3613524004
  0
LINE
  5
299
100
AcDbEntity
  8
RACCORDO
100
AcDbLine
 62
250
  6
CONTINUOUS
 10
-28.1159485615
 20
82.3784275073
 11
-28.1363958865
 21
81.6371922668
  0
LINE
  5
29A
100
AcDbEntity
  8
RACCORDO
100
AcDbLine
 62
250
  6
CONTINUOUS
 10
-27.418363545
 20
82.3613524004
 11
-27.4388597636
 21
81.6177760447
  0
LINE
  5
29B
100
AcDbEntity
  8
RACCORDO
100
AcDbLine
 62
250
  6
CONTINUOUS
 10
-27.4388597636
 20
81.6177760447
 11
-27.4632966064
 21
80.8705339354
  0
LINE
  5
29C
100
AcDbEntity
  8
RACCORDO
100
AcDbLine
 62
250
  6
CONTINUOUS
 10
-27.4632966064
 20
80.8705339354
 11
-27.491825278
 21
80.1207672253
  0
LINE
  5
29D
100
AcDbEntity
  8
RACCORDO
100
AcDbLine
 62
250
  6
CONTINUOUS
 10
-27.491825278
 20
80.1207672253
 11
-27.524489167
 21
79.3759797501
  0
LWPOLYLINE
  5
29E
100
AcDbEntity
  8
RACCORDO
100
AcDbPolyline
 62
250
  6
CONTINUOUS
 90
9
 70
0
 10
-27.1589128465
 20
58.4899449106
 10
-27.1617882694
 20
58.4479087157
 10
-27.1683998081
 20
58.4086250284
 10
-27.1786750884
 20
58.3725238739
 10
-27.1925016303
 20
58.3400004394
 10
-27.2097280794
 20
58.3114107478
 10
-27.2301658634
 20
58.2870677609
 10
-27.2535912569
 20
58.267237953
 10
-27.272953467
 20
58.2554673177
  0
LWPOLYLINE
  5
29F
100
AcDbEntity
  8
RACCORDO
100
AcDbPolyline
 62
250
  6
CONTINUOUS
 90
13
 70
0
 10
-24.4757076555
 20
82.2204570652
 10
-24.4737515507
 20
82.2439833912
 10
-24.4742649332
 20
82.2684901765
 10
-24.4772390357
 20
82.2935589106
 10
-24.4826230685
 20
82.3187614866
 10
-24.4903250868
 20
82.3436675118
 10
-24.5002135607
 20
82.3678516579
 10
-24.5121196213
 20
82.3909009244
 10
-24.5258399452
 20
82.4124216913
 10
-24.5411402263
 20
82.4320464413
 10
-24.5577591769
 20
82.449440036
 10
-24.5754129896
 20
82.4643054392
 10
-24.5938001845
 20
82.4763887897
  0
LWPOLYLINE
  5
2A0
100
AcDbEntity
  8
RACCORDO
100
AcDbPolyline
 62
250
  6
CONTINUOUS
 90
10
 70
0
 10
-60.5698725316
 20
75.3149321959
 10
-60.5928130427
 20
75.3315133589
 10
-60.6131229104
 20
75.3520562728
 10
-60.6306082106
 20
75.3763647882
 10
-60.6451019886
 20
75.4042068006
 10
-60.6564658537
 20
75.4353164665
 10
-60.6645913005
 20
75.4693967421
 10
-60.6694007449
 20
75.506122219
 10
-60.6708482649
 20
75.5451422322
 10
-60.6689200394
 20
75.5860842076
  0
LWPOLYLINE
  5
2A1
100
AcDbEntity
  8
RACCORDO
100
AcDbPolyline
 62
250
  6
CONTINUOUS
 90
7
 70
0
 10
-24.4757076555
 20
80.0210305434
 10
-24.4737515856
 20
80.0026170635
 10
-24.4742648288
 20
79.9859000163
 10
-24.4772386767
 20
79.971164909
 10
-24.482622404
 20
79.9586634099
 10
-24.4903241267
 20
79.9486090642
 10
-24.4940941216
 20
79.9452581047
  0
LWPOLYLINE
  5
2A2
100
AcDbEntity
  8
RACCORDO
100
AcDbPolyline
 62
250
  6
CONTINUOUS
 90
16
 70
0
 10
-24.3019417447
 20
82.081334001
 10
-24.3029664669
 20
82.1038051528
 10
-24.3056527656
 20
82.1246136046
 10
-24.3100006409
 20
82.1437593562
 10
-24.3160556374
 20
82.1613191344
 10
-24.3237722105
 20
82.1772162125
 10
-24.333013726
 20
82.1912204108
 10
-24.3437994682
 20
82.2033630771
 10
-24.3561101527
 20
82.2136128637
 10
-24.3697512926
 20
82.2216455473
 10
-24.3847855059
 20
82.2274336824
 10
-24.4011501747
 20
82.2310047146
 10
-24.418462958
 20
82.2321167575
 10
-24.4365964092
 20
82.2306891826
 10
-24.455677975
 20
82.2268026185
 10
-24.4757076555
 20
82.2204570652
  0
LWPOLYLINE
  5
2A3
100
AcDbEntity
  8
RACCORDO
100
AcDbPolyline
 62
7
  6
CONTINUOUS
 90
11
 70
0
 10
-24.2445918781
 20
82.1621969305
 10
-24.2447820546
 20
82.1757222252
 10
-24.2479415382
 20
82.2179588786
 10
-24.254967476
 20
82.2585620759
 10
-24.2658649723
 20
82.2972983814
 10
-24.280606899
 20
82.3338801191
 10
-24.2991460927
 20
82.3680664443
 10
-24.3213405042
 20
82.3994567872
 10
-24.3467758151
 20
82.4274693773
 10
-24.375007648
 20
82.4517697708
 10
-24.4061989656
 20
82.4724954244
  0
LINE
  5
2A4
100
AcDbEntity
  8
RACCORDO
100
AcDbLine
 62
7
  6
CONTINUOUS
 10
-29.8880661727
 20
57.5996112215
 11
-60.5673155313
 21
75.3134252999
  0
LINE
  5
2A5
100
AcDbEntity
  8
RACCORDO
100
AcDbLine
 62
250
  6
CONTINUOUS
 10
-29.9896706808
 20
57.8722701293
 11
-60.6689200394
 21
75.5860842076
  0
LINE
  5
2A6
100
AcDbEntity
  8
RACCORDO
100
AcDbLine
 62
250
  6
CONTINUOUS
 10
-60.5673155313
 20
75.3134252999
 11
-60.5698725316
 21
75.3149321959
  0
LINE
  5
2A7
100
AcDbEntity
  8
0
100
AcDbLine
 62
7
  6
CONTINUOUS
 10
-47.5698522044
 20
75.5892186795
 11
-46.6506133889
 21
75.0584617082
  0
LINE
  5
2A8
100
AcDbEntity
  8
0
100
AcDbLine
 62
7
  6
CONTINUOUS
 10
-44.0725284165
 20
73.5699077561
 11
-42.0544193112
 21
72.4046768516
  0
LINE
  5
2A9
100
AcDbEntity
  8
0
100
AcDbLine
 62
7
  6
CONTINUOUS
 10
-42.0805380388
 20
72.9611333103
 11
-43.9572257879
 21
74.0447092962
  0
LINE
  5
2AA
100
AcDbEntity
  8
0
100
AcDbLine
 62
7
  6
CONTINUOUS
 10
-46.6060214384
 20
75.5740907076
 11
-47.5252602539
 21
76.1048476789
  0
LINE
  5
2AB
100
AcDbEntity
  8
0
100
AcDbLine
 62
7
  6
CONTINUOUS
 10
-47.5315769633
 20
76.8902803266
 11
-44.3170958878
 21
75.0342792405
  0
LINE
  5
2AC
100
AcDbEntity
  8
0
100
AcDbLine
 62
7
  6
CONTINUOUS
 10
-44.0603719029
 20
75.4274258619
 11
-47.4869850128
 21
77.405909326
  0
LINE
  5
2AD
100
AcDbEntity
  8
0
100
AcDbLine
 62
7
  6
CONTINUOUS
 10
-44.1135313478
 20
76.5296775603
 11
-41.8832902081
 21
75.2419642778
  0
LINE
  5
2AE
100
AcDbEntity
  8
DRAFT
100
AcDbLine
 62
7
  6
CONTINUOUS
 10
-24.8545351249
 20
69.2950520275
 11
-25.4122126607
 21
69.3607099896
  0
LINE
  5
2AF
100
AcDbEntity
  8
DRAFT
100
AcDbLine
 62
7
  6
CONTINUOUS
 10
-24.8545351249
 20
71.5593585491
 11
-25.4122126607
 21
71.666257734
  0
LINE
  5
2B0
100
AcDbEntity
  8
0
100
AcDbLine
 62
7
  6
CONTINUOUS
 10
-41.7679875795
 20
75.7167658178
 11
-43.7931677526
 21
76.8860794683
  0
LINE
  5
2B1
100
AcDbEntity
  8
RACCORDO
100
AcDbLine
 62
250
  6
CONTINUOUS
 10
-59.5892421667
 20
88.4231717524
 11
-28.8519275968
 21
70.6758315488
  0
LINE
  5
2B2
100
AcDbEntity
  8
RACCORDO
100
AcDbLine
 62
250
  6
CONTINUOUS
 10
-24.6777584296
 20
71.7589899321
 11
-25.3962042447
 21
72.1738115415
  0
LINE
  5
2B3
100
AcDbEntity
  8
RACCORDO
100
AcDbLine
 62
7
  6
CONTINUOUS
 10
-24.6777584296
 20
71.8940843451
 11
-25.1516405936
 21
72.1676979674
  0
LWPOLYLINE
  5
2B4
100
AcDbEntity
  8
RACCORDO
100
AcDbPolyline
 62
250
  6
CONTINUOUS
 90
8
 70
0
 10
-24.8261535692
 20
82.7114652557
 10
-24.8454289685
 20
82.7169796467
 10
-24.8655205756
 20
82.7204142192
 10
-24.8863545281
 20
82.721788309
 10
-24.9088076734
 20
82.7210425018
 10
-24.9331925163
 20
82.7178605326
 10
-24.9591377379
 20
82.7119819397
 10
-24.9865564143
 20
82.7031613144
  0
LINE
  5
2B5
100
AcDbEntity
  8
RACCORDO
100
AcDbLine
 62
250
  6
CONTINUOUS
 10
-24.8080634192
 20
82.7039743009
 11
-24.8169981705
 21
82.7087052438
  0
LWPOLYLINE
  5
2B6
100
AcDbEntity
  8
RACCORDO
100
AcDbPolyline
 62
250
  6
CONTINUOUS
 90
7
 70
0
 10
-24.9865564143
 20
82.7031613144
 10
-25.0050508297
 20
82.712372942
 10
-25.0236487873
 20
82.7184388556
 10
-25.0420326837
 20
82.7212554656
 10
-25.0598885713
 20
82.720774672
 10
-25.076911519
 20
82.7170046853
 10
-25.079774065
 20
82.7160139625
  0
LWPOLYLINE
  5
2B7
100
AcDbEntity
  8
RACCORDO
100
AcDbPolyline
 62
7
  6
CONTINUOUS
 90
10
 70
0
 10
-24.7964461505
 20
82.6978229673
 10
-24.8169981705
 20
82.7087052438
 10
-24.8461431833
 20
82.7209039162
 10
-24.876933638
 20
82.7301628136
 10
-24.9090462549
 20
82.7362633695
 10
-24.9420415886
 20
82.7390597775
 10
-24.9756502914
 20
82.7385029974
 10
-25.0096436843
 20
82.734573273
 10
-25.0437061253
 20
82.7273155139
 10
-25.0797740648
 20
82.7160139626
  0
LWPOLYLINE
  5
2B8
100
AcDbEntity
  8
RACCORDO
100
AcDbPolyline
 62
250
  6
CONTINUOUS
 90
8
 70
0
 10
-24.4061692326
 20
82.4724833301
 10
-24.416584328
 20
82.4780105054
 10
-24.4417504584
 20
82.4878163842
 10
-24.4689860525
 20
82.4937359502
 10
-24.4980564795
 20
82.4956276795
 10
-24.528717638
 20
82.4933989387
 10
-24.5607243773
 20
82.4869924464
 10
-24.5938001562
 20
82.4763887734
  0
LINE
  5
2B9
100
AcDbEntity
  8
RACCORDO
100
AcDbLine
 62
250
  6
CONTINUOUS
 10
-24.9865564143
 20
82.7031613144
 11
-24.5938001845
 21
82.4763887897
  0
LINE
  5
2BA
100
AcDbEntity
  8
RACCORDO
100
AcDbLine
 62
7
  6
CONTINUOUS
 10
-24.7969505597
 20
82.6981155707
 11
-24.4061693804
 21
82.4724834154
  0
LINE
  5
2BB
100
AcDbEntity
  8
RACCORDO
100
AcDbLine
 62
250
  6
CONTINUOUS
 10
-58.8324939535
 20
106.0060453367
 11
-28.0543772085
 21
88.2351464685
  0
LINE
  5
2BC
100
AcDbEntity
  8
RACCORDO
100
AcDbLine
 62
250
  6
CONTINUOUS
 10
-28.0543772085
 20
100.5444747416
 11
-58.8324939535
 21
118.3153736097
  0
LINE
  5
2BD
100
AcDbEntity
  8
RACCORDO
100
AcDbLine
 62
250
  6
CONTINUOUS
 10
-27.7100787667
 20
101.1513635932
 11
-58.4881955117
 21
118.9222624614
  0
LINE
  5
2BE
100
AcDbEntity
  8
RACCORDO
100
AcDbLine
 62
7
  6
CONTINUOUS
 10
-57.4462971046
 20
119.5885444139
 11
-26.6121469326
 21
101.7852925473
  0
ARC
  5
2BF
100
AcDbEntity
  8
RACCORDO
100
AcDbCircle
 62
7
  6
CONTINUOUS
 10
-60.3173034513
 20
75.7464310271
 40
0.5
100
AcDbArc
 50
175.1839975092
 51
239.9984015652
  0
ARC
  5
2C0
100
AcDbEntity
  8
RACCORDO
100
AcDbCircle
 62
7
  6
CONTINUOUS
 10
-58.4789405629
 20
118.5195109064
 40
0.5
100
AcDbArc
 50
122.5979811578
 51
179.9999235613
  0
ARC
  5
2C1
100
AcDbEntity
  8
RACCORDO
100
AcDbCircle
 62
7
  6
CONTINUOUS
 10
-29.6380540927
 20
58.0326169488
 40
0.5
100
AcDbArc
 50
239.9984015652
 51
287.1696386884
  0
ELLIPSE
  5
2C2
100
AcDbEntity
  8
RACCORDO
100
AcDbEllipse
 62
7
  6
CONTINUOUS
 10
-25.4305843016
 20
71.7513969996
 30
0.0
 11
0.2984123604
 21
0.4035436801
 31
0.0
 40
0.639288975
 41
0.0724911956
 42
0.7706710139
  0
ELLIPSE
  5
2C3
100
AcDbEntity
  8
0
100
AcDbEllipse
 62
7
  6
CONTINUOUS
 10
-46.6134534301
 20
75.488152541
 30
0.0
 11
-0.0410913081
 21
0.0915059701
 31
0.0
 40
0.634096402
 41
-2.2917126361
 42
-0.7209163093
  0
ELLIPSE
  5
2C4
100
AcDbEntity
  8
0
100
AcDbEllipse
 62
7
  6
CONTINUOUS
 10
-41.8051475382
 20
75.287074985
 30
0.0
 11
-0.2054565407
 21
0.4575298503
 31
0.0
 40
0.634096402
 41
-2.2917126361
 42
-0.7209163093
  0
ELLIPSE
  5
2C5
100
AcDbEntity
  8
0
100
AcDbEllipse
 62
7
  6
CONTINUOUS
 10
-44.0826678782
 20
75.1696113622
 30
0.0
 11
-0.1232739244
 21
0.2745179102
 31
0.0
 40
0.634096402
 41
-2.2917126361
 42
-0.7209163093
  0
ELLIPSE
  5
2C6
100
AcDbEntity
  8
RACCORDO
100
AcDbEllipse
 62
7
  6
CONTINUOUS
 10
-26.612389282
 20
59.1611450363
 30
0.0
 11
-0.2501834304
 21
0.4333025529
 31
0.0
 40
0.5769361983
 41
-3.16775339
 42
-2.3565853618
  0
ELLIPSE
  5
2C7
100
AcDbEntity
  8
RACCORDO
100
AcDbEllipse
 62
7
  6
CONTINUOUS
 10
-26.612389282
 20
101.3770573984
 30
0.0
 11
-0.2500121049
 21
0.4330057129
 31
0.0
 40
0.5777274115
 41
-2.3559002616
 42
-0.7857891675
  0
ELLIPSE
  5
2C8
100
AcDbEntity
  8
RACCORDO
100
AcDbEllipse
 62
7
  6
CONTINUOUS
 10
-57.4460547552
 20
119.1800294061
 30
0.0
 11
-0.2501834304
 21
0.4333025529
 31
0.0
 40
0.5769361983
 41
-0.7851038024
 42
0.0261607363
  0
ELLIPSE
  5
2C9
100
AcDbEntity
  8
0
100
AcDbEllipse
 62
7
  6
CONTINUOUS
 10
-47.5241449715
 20
76.9762184931
 30
0.0
 11
-0.0410913081
 21
0.0915059701
 31
0.0
 40
0.634096402
 41
0.8498800174
 42
2.4206763442
  0
ELLIPSE
  5
2CA
100
AcDbEntity
  8
0
100
AcDbEllipse
 62
7
  6
CONTINUOUS
 10
-44.0353684577
 20
73.999598589
 30
0.0
 11
-0.2054565407
 21
0.4575298503
 31
0.0
 40
0.634096402
 41
0.8498800174
 42
2.4206763442
  0
ELLIPSE
  5
2CB
100
AcDbEntity
  8
0
100
AcDbEllipse
 62
7
  6
CONTINUOUS
 10
-42.0172593524
 20
72.8343676844
 30
0.0
 11
-0.2054565407
 21
0.4575298503
 31
0.0
 40
0.634096402
 41
-3.8625089629
 42
-2.2917126361
  0
ELLIPSE
  5
2CC
100
AcDbEntity
  8
0
100
AcDbEllipse
 62
7
  6
CONTINUOUS
 10
-47.4944170045
 20
77.3199711594
 30
0.0
 11
-0.0410913081
 21
0.0915059701
 31
0.0
 40
0.634096402
 41
5.5622689978
 42
7.1330653246
  0
ELLIPSE
  5
2CD
100
AcDbEntity
  8
0
100
AcDbEllipse
 62
7
  6
CONTINUOUS
 10
-43.8295845122
 20
76.4649824522
 30
0.0
 11
-0.2013474099
 21
0.4483792533
 31
0.0
 40
0.634096402
 41
5.5622689978
 42
7.1330653246
  0
ELLIPSE
  5
2CE
100
AcDbEntity
  8
0
100
AcDbEllipse
 62
7
  6
CONTINUOUS
 10
-47.5624202127
 20
75.6751568461
 30
0.0
 11
-0.0410913081
 21
0.0915059701
 31
0.0
 40
0.634096402
 41
0.8498800174
 42
2.4206763442
  0
ELLIPSE
  5
2CF
100
AcDbEntity
  8
0
100
AcDbEllipse
 62
7
  6
CONTINUOUS
 10
-47.5326922457
 20
76.0189095124
 30
0.0
 11
-0.0410913081
 21
0.0915059701
 31
0.0
 40
0.634096402
 41
5.5622689978
 42
7.1330653246
  0
ELLIPSE
  5
2D0
100
AcDbEntity
  8
0
100
AcDbEllipse
 62
7
  6
CONTINUOUS
 10
-44.106099356
 20
76.6156157269
 30
0.0
 11
-0.0410913081
 21
0.0915059701
 31
0.0
 40
0.634096402
 41
7.1330653246
 42
8.7038616514
  0
ELLIPSE
  5
2D1
100
AcDbEntity
  8
0
100
AcDbEllipse
 62
7
  6
CONTINUOUS
 10
-46.6431813971
 20
75.1443998748
 30
0.0
 11
-0.0410913081
 21
0.0915059701
 31
0.0
 40
0.634096402
 41
-3.8625089629
 42
-2.2917126361
  0
ENDSEC
  0
SECTION
  2
OBJECTS
  0
DICTIONARY
  5
C
100
AcDbDictionary
280
0
281
1
  3
ACAD_GROUP
350
D
  3
ACAD_MLINESTYLE
350
17
  3
ACAD_LAYOUT
350
1A
  3
ACAD_PLOTSETTINGS
350
19
  3
ACAD_PLOTSTYLENAME
350
E
  0
DICTIONARY
  5
D
102
{ACAD_REACTORS
330
C
102
}
100
AcDbDictionary
280
0
281
1
  0
ACDBDICTIONARYWDFLT
  5
E
102
{ACAD_REACTORS
330
C
102
}
100
AcDbDictionary
281
1
  3
Normal
350
F
100
AcDbDictionaryWithDefault
340
F
  0
DICTIONARY
  5
17
102
{ACAD_REACTORS
330
C
102
}
100
AcDbDictionary
280
0
281
1
  3
Standard
350
18
  0
DICTIONARY
  5
19
102
{ACAD_REACTORS
330
C
102
}
100
AcDbDictionary
281
1
  0
DICTIONARY
  5
1A
102
{ACAD_REACTORS
330
C
102
}
100
AcDbDictionary
281
1
  3
Model
350
2D2
  3
Layout1
350
2D3
  0
ACDBPLACEHOLDER
  5
F
102
{ACAD_REACTORS
330
E
102
}
  0
MLINESTYLE
  5
18
102
{ACAD_REACTORS
330
17
102
}
100
AcDbMlineStyle
  2
STANDARD
 70
0
  3

 62
256
 51
90.0
 52
90.0
 71
2
 49
0.5
 62
256
  6
BYLAYER
 49
-0.5
 62
256
  6
BYLAYER
  0
LAYOUT
  5
2D2
102
{ACAD_REACTORS
330
1A
102
}
100
AcDbPlotSettings
  1

  2
none_device
  4
ISO_A4_(297.00_x_210.00_MM)
  6

 40
0.0
 41
0.0
 42
0.0
 43
0.0
 44
297.0
 45
210.0
 46
0.0
 47
0.0
 48
0.0
 49
0.0
140
0.0
141
0.0
142
1.0
143
1.0
 70
1024
 72
1
 73
0
 74
0
  7

 75
0
147
1.0
148
0.0
149
0.0
100
AcDbLayout
  1
Model
 70
0
 71
0
 10
0.0
 20
0.0
 11
297.0
 21
210.0
 12
0.0
 22
0.0
 32
0.0
 14
0.0
 24
0.0
 34
0.0
 15
0.0
 25
0.0
 35
0.0
146
0.0
 13
0.0
 23
0.0
 33
0.0
 16
1.0
 26
0.0
 36
0.0
 17
0.0
 27
1.0
 37
0.0
 76
0
330
21D
345
0
346
0
  0
LAYOUT
  5
2D3
102
{ACAD_REACTORS
330
1A
102
}
100
AcDbPlotSettings
  1

  2
none_device
  4
ISO_A4_(297.00_x_210.00_MM)
  6

 40
0.0
 41
0.0
 42
0.0
 43
0.0
 44
297.0
 45
210.0
 46
0.0
 47
0.0
 48
0.0
 49
0.0
140
0.0
141
0.0
142
1.0
143
1.0
 70
0
 72
1
 73
0
 74
0
  7

 75
0
147
1.0
148
0.0
149
0.0
100
AcDbLayout
  1
Layout1
 70
0
 71
1
 10
0.0
 20
0.0
 11
297.0
 21
210.0
 12
0.0
 22
0.0
 32
0.0
 14
0.0
 24
0.0
 34
0.0
 15
0.0
 25
0.0
 35
0.0
146
0.0
 13
0.0
 23
0.0
 33
0.0
 16
1.0
 26
0.0
 36
0.0
 17
0.0
 27
1.0
 37
0.0
 76
0
330
21E
345
0
346
0
  0
ENDSEC
  0
EOF
