  0
SECTION
  2
HEADER
  9
$ACADVER
  1
AC1024
  9
$DWGCODEPAGE
  3
ANSI_1252
  9
$EXTMAX
 10
297.0
 20
210.0
 30
0.0
  9
$EXTMIN
 10
0.0
 20
0.0
 30
0.0
  9
$LIMMIN
 10
0.0
 20
0.0
  9
$LIMMAX
 10
297.0
 20
210.0
  9
$VIEWCTR
 10
148.5
 20
105.0
  9
$VIEWSIZE
 40
210.0
  9
$CLAYER
  8
0
  9
$LTSCALE
 40
16.335
  9
$CELTYPE
  6
BYLAYER
  9
$DIMSCALE
 40
1.0
  9
$DIMASZ
 40
3.0
  9
$DIMEXO
 40
0.5
  9
$DIMDLI
 40
11.286
  9
$DIMEXE
 40
1.5
  9
$DIMCEN
 40
2.673
  9
$DIMLFAC
 40
1.0
  9
$DIMBLK
  1
_FILLED
  9
$DIMALT
 70
0
  9
$DIMALTF
 40
0.0393700787
  9
$DIMTXT
 40
3.0
  9
$DIMTOL
 70
1
  9
$DIMLIM
 70
0
  9
$DIMTFAC
 40
1.0
  9
$DIMTP
 40
0.01
  9
$DIMTM
 40
0.01
  9
$DIMGAP
 40
0.625
  9
$DIMDSEP
 70
44
  9
$AUNITS
 70
0
  9
$PDMODE
 70
3
  9
$PDSIZE
 40
3.0
  9
$HANDSEED
  5
2B1
  9
$TILEMODE
 70
1
  9
$MEASUREMENT
 70
1
  9
$INSUNITS
 70
4
  0
ENDSEC
  0
SECTION
  2
CLASSES
  0
CLASS
  1
ACDBDICTIONARYWDFLT
  2
AcDbDictionaryWithDefault
  3
AutoCAD 2000
 90
0
 91
1
280
0
281
0
  0
CLASS
  1
ACDBPLACEHOLDER
  2
AcDbPlaceHolder
  3
AutoCAD 2000
 90
0
 91
1
280
0
281
0
  0
CLASS
  1
LAYOUT
  2
AcDbLayout
  3
AutoCAD 2000
 90
0
 91
0
280
0
281
0
  0
ENDSEC
  0
SECTION
  2
TABLES
  0
TABLE
  2
VPORT
  5
8
100
AcDbSymbolTable
 70
2
  0
VPORT
  5
1F4
100
AcDbSymbolTableRecord
100
AcDbViewportTableRecord
  2
*ACTIVE
 70
0
 10
0.0
 20
0.0
 11
1.0
 21
1.0
 12
148.5
 22
105.0
 13
0.0
 23
0.0
 14
1.0
 24
1.0
 15
0.0
 25
0.0
 16
0.0
 26
0.0
 36
1.0
 17
0.0
 27
0.0
 37
0.0
 40
210.0
 41
1.4142857143
 42
50.0
 43
0.0
 44
0.0
 50
0.0
 51
0.0
 71
0
 72
100
 73
1
 74
1
 75
0
 76
0
 77
0
 78
0
  0
ENDTAB
  0
TABLE
  2
LTYPE
  5
5
100
AcDbSymbolTable
 70
6
  0
LTYPE
  5
14
100
AcDbSymbolTableRecord
100
AcDbLinetypeTableRecord
  2
BYBLOCK
 70
0
  3

 72
65
 73
0
 40
0.0
  0
LTYPE
  5
15
100
AcDbSymbolTableRecord
100
AcDbLinetypeTableRecord
  2
BYLAYER
 70
0
  3

 72
65
 73
0
 40
0.0
  0
LTYPE
  5
16
100
AcDbSymbolTableRecord
100
AcDbLinetypeTableRecord
  2
CONTINUOUS
 70
64
  3
Solid line
 72
65
 73
0
 40
0.0
  0
LTYPE
  5
1F5
100
AcDbSymbolTableRecord
100
AcDbLinetypeTableRecord
  2
CENTER
 70
64
  3
____ _ ____ _ ____ _ ____ _ ____ _ ____ _ ____
 72
65
 73
4
 40
0.6
 49
0.375
 74
0
 49
-0.075
 74
0
 49
0.075
 74
0
 49
-0.075
 74
0
  0
LTYPE
  5
1F6
100
AcDbSymbolTableRecord
100
AcDbLinetypeTableRecord
  2
HIDDEN
 70
64
  3
- - - - - - - - - - - - - - - - - - - -
 72
65
 73
2
 40
0.2
 49
0.1
 74
0
 49
-0.1
 74
0
  0
LTYPE
  5
1F7
100
AcDbSymbolTableRecord
100
AcDbLinetypeTableRecord
  2
PHANTOM
 70
64
  3
_____ _ _ _____ _ _ _____ _ _ _____
 72
65
 73
6
 40
0.8
 49
0.45
 74
0
 49
-0.05
 74
0
 49
0.1
 74
0
 49
-0.05
 74
0
 49
0.1
 74
0
 49
-0.05
 74
0
  0
LTYPE
  5
1F8
100
AcDbSymbolTableRecord
100
AcDbLinetypeTableRecord
  2
DOT
 70
64
  3
. . . . . . . . . . . . . . . . . . . .
 72
65
 73
2
 40
0.2
 49
0.1
 74
0
 49
-0.1
 74
0
  0
LTYPE
  5
1F9
100
AcDbSymbolTableRecord
100
AcDbLinetypeTableRecord
  2
DASHED
 70
64
  3
- - - - - - - - - - - - - - - - - - - -
 72
65
 73
2
 40
0.2
 49
0.1
 74
0
 49
-0.1
 74
0
  0
ENDTAB
  0
TABLE
  2
LAYER
  5
2
100
AcDbSymbolTable
 70
36
  0
LAYER
  5
10
100
AcDbSymbolTableRecord
100
AcDbLayerTableRecord
  2
0
 70
0
 62
7
  6
CONTINUOUS
370
-3
390
F
  0
LAYER
  5
1FA
100
AcDbSymbolTableRecord
100
AcDbLayerTableRecord
  2
DEFAULT_1
 70
0
 62
7
  6
CENTER
370
-3
390
F
  0
LAYER
  5
1FB
100
AcDbSymbolTableRecord
100
AcDbLayerTableRecord
  2
DEFAULT_2
 70
0
 62
7
  6
HIDDEN
370
-3
390
F
  0
LAYER
  5
1FC
100
AcDbSymbolTableRecord
100
AcDbLayerTableRecord
  2
DEFAULT_3
 70
0
 62
7
  6
PHANTOM
370
-3
390
F
  0
LAYER
  5
1FD
100
AcDbSymbolTableRecord
100
AcDbLayerTableRecord
  2
9
 70
0
 62
7
  6
CONTINUOUS
370
-3
390
F
  0
LAYER
  5
1FE
100
AcDbSymbolTableRecord
100
AcDbLayerTableRecord
  2
ASSI
 70
0
 62
7
  6
CONTINUOUS
370
-3
390
F
  0
LAYER
  5
1FF
100
AcDbSymbolTableRecord
100
AcDbLayerTableRecord
  2
COORDINATE
 70
0
 62
7
  6
CONTINUOUS
370
-3
390
F
  0
LAYER
  5
200
100
AcDbSymbolTableRecord
100
AcDbLayerTableRecord
  2
COPY_PUBLISH
 70
0
 62
7
  6
CONTINUOUS
370
-3
390
F
  0
LAYER
  5
201
100
AcDbSymbolTableRecord
100
AcDbLayerTableRecord
  2
COSMETICI
 70
0
 62
7
  6
CONTINUOUS
370
-3
390
F
  0
LAYER
  5
202
100
AcDbSymbolTableRecord
100
AcDbLayerTableRecord
  2
CURVE
 70
0
 62
7
  6
CONTINUOUS
370
-3
390
F
  0
LAYER
  5
203
100
AcDbSymbolTableRecord
100
AcDbLayerTableRecord
  2
DRAFT
 70
0
 62
7
  6
CONTINUOUS
370
-3
390
F
  0
LAYER
  5
204
100
AcDbSymbolTableRecord
100
AcDbLayerTableRecord
  2
IMPORT_IGES
 70
0
 62
7
  6
CONTINUOUS
370
-3
390
F
  0
LAYER
  5
205
100
AcDbSymbolTableRecord
100
AcDbLayerTableRecord
  2
INTF_10
 70
0
 62
7
  6
CONTINUOUS
370
-3
390
F
  0
LAYER
  5
206
100
AcDbSymbolTableRecord
100
AcDbLayerTableRecord
  2
INTF_2
 70
0
 62
7
  6
CONTINUOUS
370
-3
390
F
  0
LAYER
  5
207
100
AcDbSymbolTableRecord
100
AcDbLayerTableRecord
  2
INTF_3
 70
0
 62
7
  6
CONTINUOUS
370
-3
390
F
  0
LAYER
  5
208
100
AcDbSymbolTableRecord
100
AcDbLayerTableRecord
  2
INTF_4
 70
0
 62
7
  6
CONTINUOUS
370
-3
390
F
  0
LAYER
  5
209
100
AcDbSymbolTableRecord
100
AcDbLayerTableRecord
  2
INTF_5
 70
0
 62
7
  6
CONTINUOUS
370
-3
390
F
  0
LAYER
  5
20A
100
AcDbSymbolTableRecord
100
AcDbLayerTableRecord
  2
INTF_6
 70
0
 62
7
  6
CONTINUOUS
370
-3
390
F
  0
LAYER
  5
20B
100
AcDbSymbolTableRecord
100
AcDbLayerTableRecord
  2
INTF_7
 70
0
 62
7
  6
CONTINUOUS
370
-3
390
F
  0
LAYER
  5
20C
100
AcDbSymbolTableRecord
100
AcDbLayerTableRecord
  2
INTF_9
 70
0
 62
7
  6
CONTINUOUS
370
-3
390
F
  0
LAYER
  5
20D
100
AcDbSymbolTableRecord
100
AcDbLayerTableRecord
  2
INTF_BLANK
 70
0
 62
7
  6
CONTINUOUS
370
-3
390
F
  0
LAYER
  5
20E
100
AcDbSymbolTableRecord
100
AcDbLayerTableRecord
  2
INTF_RED
 70
0
 62
7
  6
CONTINUOUS
370
-3
390
F
  0
LAYER
  5
20F
100
AcDbSymbolTableRecord
100
AcDbLayerTableRecord
  2
NOTE
 70
0
 62
7
  6
CONTINUOUS
370
-3
390
F
  0
LAYER
  5
210
100
AcDbSymbolTableRecord
100
AcDbLayerTableRecord
  2
PIANI
 70
0
 62
7
  6
CONTINUOUS
370
-3
390
F
  0
LAYER
  5
211
100
AcDbSymbolTableRecord
100
AcDbLayerTableRecord
  2
PUNTI
 70
0
 62
7
  6
CONTINUOUS
370
-3
390
F
  0
LAYER
  5
212
100
AcDbSymbolTableRecord
100
AcDbLayerTableRecord
  2
RACCORDO
 70
0
 62
7
  6
CONTINUOUS
370
-3
390
F
  0
LAYER
  5
213
100
AcDbSymbolTableRecord
100
AcDbLayerTableRecord
  2
RGB____0____0____0__
 70
0
 62
7
  6
CONTINUOUS
370
-3
390
F
  0
LAYER
  5
214
100
AcDbSymbolTableRecord
100
AcDbLayerTableRecord
  2
SIMBOLI
 70
0
 62
7
  6
CONTINUOUS
370
-3
390
F
  0
LAYER
  5
215
100
AcDbSymbolTableRecord
100
AcDbLayerTableRecord
  2
SMUSSO
 70
0
 62
7
  6
CONTINUOUS
370
-3
390
F
  0
LAYER
  5
216
100
AcDbSymbolTableRecord
100
AcDbLayerTableRecord
  2
SNAPLINE
 70
0
 62
7
  6
CONTINUOUS
370
-3
390
F
  0
LAYER
  5
217
100
AcDbSymbolTableRecord
100
AcDbLayerTableRecord
  2
SUPERFICI
 70
0
 62
7
  6
CONTINUOUS
370
-3
390
F
  0
LAYER
  5
218
100
AcDbSymbolTableRecord
100
AcDbLayerTableRecord
  2
TRASH
 70
0
 62
7
  6
CONTINUOUS
370
-3
390
F
  0
ENDTAB
  0
TABLE
  2
STYLE
  5
3
100
AcDbSymbolTable
 70
1
  0
STYLE
  5
11
100
AcDbSymbolTableRecord
100
AcDbTextStyleTableRecord
  2
STANDARD
 70
0
 40
0.0
 41
0.8
 50
0.0
 71
0
 42
0.2
  3
txt
  4

  0
STYLE
  5
219
100
AcDbSymbolTableRecord
100
AcDbTextStyleTableRecord
  2
TEXTSTYLE_1
 70
0
 40
0.0
 41
0.8
 50
0.0
 71
0
 42
0.2
  3
gdt
  4

  0
ENDTAB
  0
TABLE
  2
VIEW
  5
6
100
AcDbSymbolTable
 70
0
  0
ENDTAB
  0
TABLE
  2
UCS
  5
7
100
AcDbSymbolTable
 70
0
  0
ENDTAB
  0
TABLE
  2
APPID
  5
9
100
AcDbSymbolTable
 70
1
  0
APPID
  5
21A
100
AcDbSymbolTableRecord
100
AcDbRegAppTableRecord
  2
ACAD
 70
0
  0
ENDTAB
  0
TABLE
  2
BLOCK_RECORD
  5
1
100
AcDbSymbolTable
 70
0
  0
BLOCK_RECORD
  5
21B
100
AcDbSymbolTableRecord
100
AcDbBlockTableRecord
  2
*Model_Space
  0
BLOCK_RECORD
  5
21C
100
AcDbSymbolTableRecord
100
AcDbBlockTableRecord
  2
*Paper_Space
  0
BLOCK_RECORD
  5
21D
100
AcDbSymbolTableRecord
100
AcDbBlockTableRecord
  2
_FILLED
  0
ENDTAB
  0
TABLE
  2
DIMSTYLE
  5
A
100
AcDbSymbolTable
 70
1
100
AcDbDimStyleTable
 71
0
  0
DIMSTYLE
105
21E
100
AcDbSymbolTableRecord
100
AcDbDimStyleTableRecord
  2
STANDARD
 70
0
  3

  4

 40
1.0
 41
3.0
 42
0.5
 43
0.38
 44
1.5
 45
0.0
 46
0.0
 47
0.01
 48
0.01
140
3.0
141
0.09
142
0.0
143
25.4
144
1.0
145
0.0
146
1.0
147
0.625
 71
1
 72
0
 73
0
 74
0
 75
0
 76
0
 77
1
 78
8
 79
2
170
0
171
1
172
0
173
0
174
0
175
0
176
0
177
0
178
0
270
2
179
2
271
2
272
2
273
2
274
2
275
0
280
0
281
0
282
0
283
1
284
8
285
0
286
0
287
3
288
0
340
11
278
44
341
21D
342
21D
343
21D
344
21D
  0
ENDTAB
  0
ENDSEC
  0
SECTION
  2
BLOCKS
  0
BLOCK
  5
20
100
AcDbEntity
  8
0
100
AcDbBlockBegin
  2
*Model_Space
 70
0
 10
0.0
 20
0.0
 30
0.0
  3
*Model_Space
  1

  0
ENDBLK
  5
21
100
AcDbEntity
  8
0
100
AcDbBlockEnd
  0
BLOCK
  5
1C
100
AcDbEntity
  8
0
100
AcDbBlockBegin
  2
*Paper_Space
 70
0
 10
0.0
 20
0.0
 30
0.0
  3
*Paper_Space
  1

  0
ENDBLK
  5
1D
100
AcDbEntity
  8
0
100
AcDbBlockEnd
  0
BLOCK
  5
21F
100
AcDbEntity
  8
0
100
AcDbBlockBegin
  2
_FILLED
 70
64
 10
0.0
 20
0.0
  3
_FILLED
  1

  0
SOLID
  5
220
100
AcDbEntity
  8
0
  6
BYBLOCK
 62
0
100
AcDbTrace
 10
0.0
 20
0.0
 11
-1.0
 21
0.3166666667
 12
-1.0
 22
-0.3166666667
 13
-1.0
 23
-0.3166666667
  0
ENDBLK
  5
221
100
AcDbEntity
  8
0
  6
BYBLOCK
 62
0
100
AcDbBlockEnd
  0
ENDSEC
  0
SECTION
  2
ENTITIES
  0
LINE
  5
222
100
AcDbEntity
  8
RACCORDO
100
AcDbLine
 62
7
  6
CONTINUOUS
 10
-9.7213850216
 20
74.5104876586
 11
-8.675762214
 21
75.179151322
  0
LINE
  5
223
100
AcDbEntity
  8
RACCORDO
100
AcDbLine
 62
250
  6
CONTINUOUS
 10
-9.4612660204
 20
74.4920056975
 11
-8.4193676132
 21
75.15828765
  0
LWPOLYLINE
  5
224
100
AcDbEntity
  8
RACCORDO
100
AcDbPolyline
 62
250
  6
CONTINUOUS
 90
9
 70
0
 10
-9.7213850216
 20
74.5104876586
 10
-9.7008830743
 20
74.5216606416
 10
-9.671885649
 20
74.5319390992
 10
-9.6404263688
 20
74.5373586041
 10
-9.6068911333
 20
74.5378413424
 10
-9.5717893305
 20
74.5334088023
 10
-9.5355703231
 20
74.5241816363
 10
-9.4985941743
 20
74.5103129245
 10
-9.4612660204
 20
74.4920056975
  0
LINE
  5
225
100
AcDbEntity
  8
RACCORDO
100
AcDbLine
 62
250
  6
CONTINUOUS
 10
6.504879982
 20
66.5412141333
 11
5.406948148
 21
65.9072851792
  0
LINE
  5
226
100
AcDbEntity
  8
RACCORDO
100
AcDbLine
 62
250
  6
CONTINUOUS
 10
6.8583122187
 20
65.929051543
 11
5.7603803846
 21
65.2951225889
  0
LWPOLYLINE
  5
227
100
AcDbEntity
  8
RACCORDO
100
AcDbPolyline
 62
250
  6
CONTINUOUS
 90
16
 70
0
 10
5.7603803846
 20
65.2951225889
 10
5.7211561383
 20
65.2757514322
 10
5.6786821613
 20
65.2588182889
 10
5.6334110765
 20
65.2445036072
 10
5.5858196538
 20
65.2329587533
 10
5.5364202899
 20
65.2243086078
 10
5.4857574074
 20
65.2186468228
 10
5.4343838175
 20
65.2160308027
 10
5.3828348097
 20
65.2164834959
 10
5.331640296
 20
65.2199986665
 10
5.2812751039
 20
65.2265502278
 10
5.2323482115
 20
65.2360655997
 10
5.1855570535
 20
65.2483905894
 10
5.1414266249
 20
65.2633418772
 10
5.1003270318
 20
65.2807467692
 10
5.0626497062
 20
65.3003963276
  0
LWPOLYLINE
  5
228
100
AcDbEntity
  8
RACCORDO
100
AcDbPolyline
 62
250
  6
CONTINUOUS
 90
16
 70
0
 10
5.406948148
 20
65.9072851792
 10
5.3706669768
 20
65.8830766534
 10
5.3348682319
 20
65.8548577043
 10
5.2999311783
 20
65.8229272937
 10
5.2662259518
 20
65.787623704
 10
5.2341096381
 20
65.7493209543
 10
5.2039224893
 20
65.7084248383
 10
5.175984319
 20
65.6653686243
 10
5.1505911144
 20
65.6206084658
 10
5.1280119002
 20
65.5746185678
 10
5.1084858889
 20
65.5278861641
 10
5.0922199462
 20
65.4809063549
 10
5.0793863996
 20
65.4341768619
 10
5.0701212124
 20
65.3881927545
 10
5.0645225431
 20
65.3434412049
 10
5.0626497062
 20
65.3003963276
  0
LWPOLYLINE
  5
229
100
AcDbEntity
  8
RACCORDO
100
AcDbPolyline
 62
250
  6
CONTINUOUS
 90
16
 70
0
 10
5.7603803846
 20
52.9857943159
 10
5.7212756591
 20
52.9664763315
 10
5.6789388836
 20
52.9495815841
 10
5.6338185906
 20
52.9352890626
 10
5.5863928021
 20
52.9237501874
 10
5.5371639648
 20
52.9150872049
 10
5.486653627
 20
52.9093918927
 10
5.435396914
 20
52.9067245884
 10
5.3839368584
 20
52.90711355
 10
5.3328186457
 20
52.9105546562
 10
5.2825838409
 20
52.9170114498
 10
5.2337646495
 20
52.9264155249
 10
5.1868782782
 20
52.9386672515
 10
5.1424214578
 20
52.9536368302
 10
5.1008651798
 20
52.971165667
 10
5.0626497062
 20
52.9910680546
  0
LINE
  5
22A
100
AcDbEntity
  8
RACCORDO
100
AcDbLine
 62
7
  6
CONTINUOUS
 10
6.8583122187
 20
47.133065366
 11
7.9732952246
 21
47.5498339348
  0
LWPOLYLINE
  5
22B
100
AcDbEntity
  8
RACCORDO
100
AcDbPolyline
 62
7
  6
CONTINUOUS
 90
8
 70
0
 10
7.9732952246
 20
47.5498339348
 10
8.0058273384
 20
47.560071593
 10
8.0370252395
 20
47.5663802643
 10
8.0668889279
 20
47.5687599486
 10
8.0956525145
 20
47.567163486
 10
8.1230818883
 20
47.5616380364
 10
8.1484747173
 20
47.5523250797
 10
8.1620001474
 20
47.5453083431
  0
LINE
  5
22C
100
AcDbEntity
  8
RACCORDO
100
AcDbLine
 62
7
  6
CONTINUOUS
 10
6.8583122187
 20
46.4604819181
 11
8.6804020058
 21
47.1415593415
  0
LWPOLYLINE
  5
22D
100
AcDbEntity
  8
RACCORDO
100
AcDbPolyline
 62
250
  6
CONTINUOUS
 90
16
 70
0
 10
4.9608931938
 20
35.382688919
 10
4.9219890895
 20
35.3678694801
 10
4.8798502091
 20
35.3554260618
 10
4.8349230703
 20
35.3454905186
 10
4.787683736
 20
35.3381681309
 10
4.7386327698
 20
35.333536489
 10
4.688289932
 20
35.3316446715
 10
4.6371886722
 20
35.3325127245
 10
4.585870476
 20
35.33613145
 10
4.5348791283
 20
35.3424625028
 10
4.4847549503
 20
35.3514387968
 10
4.4360290743
 20
35.3629652164
 10
4.389217816
 20
35.3769196237
 10
4.344817203
 20
35.3931541532
 10
4.3032977189
 20
35.4114967784
 10
4.2650993179
 20
35.4317531348
  0
LINE
  5
22E
100
AcDbEntity
  8
RACCORDO
100
AcDbLine
 62
7
  6
CONTINUOUS
 10
6.8583122187
 20
36.6131283026
 11
7.7208226699
 21
36.9297331275
  0
LWPOLYLINE
  5
22F
100
AcDbEntity
  8
RACCORDO
100
AcDbPolyline
 62
7
  6
CONTINUOUS
 90
16
 70
0
 10
8.6804020058
 20
44.6205063162
 10
8.7129341196
 20
44.6478359275
 10
8.7441320207
 20
44.6775538104
 10
8.7739957091
 20
44.7096599649
 10
8.8027592957
 20
44.7444718963
 10
8.8301886695
 20
44.7816720992
 10
8.8555814985
 20
44.8203080584
 10
8.8788851877
 20
44.8604168529
 10
8.9001523319
 20
44.9019614036
 10
8.9188383836
 20
44.9438779576
 10
8.9348766847
 20
44.986176122
 10
8.9483338931
 20
45.0288462896
 10
8.9588654357
 20
45.0707958859
 10
8.9663564545
 20
45.1116607194
 10
8.9709218074
 20
45.1518049817
 10
8.9725614944
 20
45.1912286726
  0
LINE
  5
230
100
AcDbEntity
  8
RACCORDO
100
AcDbLine
 62
7
  6
CONTINUOUS
 10
6.8583122187
 20
43.1974801257
 11
8.6804020058
 21
44.6205063162
  0
LINE
  5
231
100
AcDbEntity
  8
DRAFT
100
AcDbLine
 62
7
  6
CONTINUOUS
 10
7.7048142539
 20
36.42217932
 11
6.8583122187
 21
36.0189332493
  0
LINE
  5
232
100
AcDbEntity
  8
DRAFT
100
AcDbLine
 62
7
  6
CONTINUOUS
 10
8.4392684851
 20
36.3994908101
 11
8.2624917898
 21
36.3152801351
  0
LINE
  5
233
100
AcDbEntity
  8
DRAFT
100
AcDbLine
 62
7
  6
CONTINUOUS
 10
7.7048142539
 20
34.1166315756
 11
6.8583122187
 21
33.5423583144
  0
LINE
  5
234
100
AcDbEntity
  8
DRAFT
100
AcDbLine
 62
7
  6
CONTINUOUS
 10
8.4392684851
 20
34.1709002352
 11
8.2624917898
 21
34.0509736135
  0
LINE
  5
235
100
AcDbEntity
  8
RACCORDO
100
AcDbLine
 62
250
  6
CONTINUOUS
 10
3.8231501098
 20
22.5791274994
 11
5.8922626718
 21
23.2185461157
  0
LINE
  5
236
100
AcDbEntity
  8
RACCORDO
100
AcDbLine
 62
250
  6
CONTINUOUS
 10
5.9581140681
 20
23.2458664967
 11
6.8583122187
 21
23.712579517
  0
LINE
  5
237
100
AcDbEntity
  8
RACCORDO
100
AcDbLine
 62
7
  6
CONTINUOUS
 10
5.8440734477
 20
23.0113889038
 11
6.7481963313
 21
23.480136725
  0
LWPOLYLINE
  5
238
100
AcDbEntity
  8
RACCORDO
100
AcDbPolyline
 62
250
  6
CONTINUOUS
 90
16
 70
0
 10
3.8231501098
 20
22.5791274994
 10
3.7841461537
 20
22.564274481
 10
3.7418926577
 20
22.5518095558
 10
3.6968395739
 20
22.5418654406
 10
3.6494624777
 20
22.5345474914
 10
3.600269739
 20
22.5299346
 10
3.5497984957
 20
22.528076
 10
3.4985953506
 20
22.5289889289
 10
3.4471969443
 20
22.5326609709
 10
3.3961374225
 20
22.5390527997
 10
3.345902155
 20
22.5481082594
 10
3.2970856122
 20
22.5597248775
 10
3.2503553349
 20
22.5737296236
 10
3.2062310725
 20
22.5899326324
 10
3.1650984711
 20
22.6081564612
 10
3.1273562339
 20
22.6281917153
  0
LWPOLYLINE
  5
239
100
AcDbEntity
  8
RACCORDO
100
AcDbPolyline
 62
7
  6
CONTINUOUS
 90
6
 70
0
 10
5.6989369952
 20
22.9512513083
 10
5.7285153953
 20
22.9611173324
 10
5.7581310609
 20
22.9722008538
 10
5.7877451101
 20
22.9845089938
 10
5.817332714
 20
22.9980530247
 10
5.8440599705
 20
23.0113819172
  0
LWPOLYLINE
  5
23A
100
AcDbEntity
  8
RACCORDO
100
AcDbPolyline
 62
250
  6
CONTINUOUS
 90
10
 70
0
 10
5.8922626718
 20
23.2185461157
 10
5.8994978949
 20
23.2208685831
 10
5.9067550304
 20
23.2233698939
 10
5.9140340782
 20
23.2260500479
 10
5.9213370554
 20
23.228909793
 10
5.928661945
 20
23.2319483813
 10
5.9360026961
 20
23.2351635701
 10
5.9433572919
 20
23.2385546118
 10
5.9507277492
 20
23.242122254
 10
5.9581140681
 20
23.2458664967
  0
LINE
  5
23B
100
AcDbEntity
  8
RACCORDO
100
AcDbLine
 62
7
  6
CONTINUOUS
 10
3.6265995582
 20
22.3108290553
 11
5.6989369952
 21
22.9512513083
  0
LWPOLYLINE
  5
23C
100
AcDbEntity
  8
RACCORDO
100
AcDbPolyline
 62
250
  6
CONTINUOUS
 90
9
 70
0
 10
-11.7886148266
 20
31.358079379
 10
-11.7878825623
 20
31.3292144718
 10
-11.7816869691
 20
31.3025476467
 10
-11.7702530709
 20
31.2759948437
 10
-11.7537067531
 20
31.2498699793
 10
-11.732301059
 20
31.2245317682
 10
-11.7063393232
 20
31.2002659682
 10
-11.6761172236
 20
31.1772889768
 10
-11.641990548
 20
31.1558274438
  0
LINE
  5
23D
100
AcDbEntity
  8
RACCORDO
100
AcDbLine
 62
7
  6
CONTINUOUS
 10
-9.9520110716
 20
61.7799258696
 11
-9.9520110716
 21
74.0892541426
  0
LINE
  5
23E
100
AcDbEntity
  8
RACCORDO
100
AcDbLine
 62
250
  6
CONTINUOUS
 10
-9.8072936612
 20
60.3885280457
 11
-9.8055644621
 21
61.5757885729
  0
LWPOLYLINE
  5
23F
100
AcDbEntity
  8
RACCORDO
100
AcDbPolyline
 62
7
  6
CONTINUOUS
 90
10
 70
0
 10
-9.9520110714
 20
61.7799319883
 10
-9.9565385654
 20
59.8986160671
 10
-9.9735370992
 20
57.9543022336
 10
-10.008480259
 20
56.0043162459
 10
-10.0664299465
 20
54.0459198075
 10
-10.1518831624
 20
52.0768989083
 10
-10.2644747813
 20
50.0974343832
 10
-10.3993364263
 20
48.1105337493
 10
-10.5512384115
 20
46.1191211321
 10
-10.7089369576
 20
44.1951668796
  0
LINE
  5
240
100
AcDbEntity
  8
RACCORDO
100
AcDbLine
 62
250
  6
CONTINUOUS
 10
-9.8123749869
 20
59.2978342148
 11
-9.8072936612
 21
60.3885280457
  0
LINE
  5
241
100
AcDbEntity
  8
RACCORDO
100
AcDbLine
 62
250
  6
CONTINUOUS
 10
-9.8207175909
 20
58.298935051
 11
-9.8123749869
 21
59.2978342148
  0
LINE
  5
242
100
AcDbEntity
  8
RACCORDO
100
AcDbLine
 62
250
  6
CONTINUOUS
 10
-9.8322426488
 20
57.3758245701
 11
-9.8207175909
 21
58.298935051
  0
LINE
  5
243
100
AcDbEntity
  8
RACCORDO
100
AcDbLine
 62
250
  6
CONTINUOUS
 10
-9.8468366981
 20
56.5140134491
 11
-9.8322426488
 21
57.3758245701
  0
LINE
  5
244
100
AcDbEntity
  8
RACCORDO
100
AcDbLine
 62
250
  6
CONTINUOUS
 10
-9.8643048459
 20
55.7039145359
 11
-9.8468366981
 21
56.5140134491
  0
LINE
  5
245
100
AcDbEntity
  8
RACCORDO
100
AcDbLine
 62
250
  6
CONTINUOUS
 10
-9.8846595743
 20
54.9309903976
 11
-9.8643048459
 21
55.7039145359
  0
LINE
  5
246
100
AcDbEntity
  8
RACCORDO
100
AcDbLine
 62
250
  6
CONTINUOUS
 10
-9.9081254886
 20
54.1805387412
 11
-9.8846595743
 21
54.9309903976
  0
LINE
  5
247
100
AcDbEntity
  8
RACCORDO
100
AcDbLine
 62
250
  6
CONTINUOUS
 10
-9.9349806926
 20
53.4428649487
 11
-9.9081254886
 21
54.1805387412
  0
LINE
  5
248
100
AcDbEntity
  8
RACCORDO
100
AcDbLine
 62
250
  6
CONTINUOUS
 10
-9.9659836399
 20
52.7013367647
 11
-9.9349806926
 21
53.4428649487
  0
LWPOLYLINE
  5
249
100
AcDbEntity
  8
RACCORDO
100
AcDbPolyline
 62
250
  6
CONTINUOUS
 90
16
 70
0
 10
-9.8055644621
 20
73.8851168459
 10
-9.8036916252
 20
73.9281617233
 10
-9.798092956
 20
73.9729132728
 10
-9.7888277687
 20
74.0188973802
 10
-9.7759942221
 20
74.0656268732
 10
-9.7597282794
 20
74.1126066824
 10
-9.7402022681
 20
74.1593390861
 10
-9.717623054
 20
74.2053289841
 10
-9.6922298493
 20
74.2500891427
 10
-9.6642916791
 20
74.2931453566
 10
-9.6341045302
 20
74.3340414726
 10
-9.6019882165
 20
74.3723442223
 10
-9.5682829901
 20
74.407647812
 10
-9.5333459365
 20
74.4395782226
 10
-9.4975471916
 20
74.4677971718
 10
-9.4612660204
 20
74.4920056975
  0
LINE
  5
24A
100
AcDbEntity
  8
RACCORDO
100
AcDbLine
 62
250
  6
CONTINUOUS
 10
-10.0014107634
 20
51.9526253278
 11
-9.9659836399
 21
52.7013367647
  0
LINE
  5
24B
100
AcDbEntity
  8
RACCORDO
100
AcDbLine
 62
250
  6
CONTINUOUS
 10
-10.0410988862
 20
51.1969834598
 11
-10.0014107634
 21
51.9526253278
  0
LINE
  5
24C
100
AcDbEntity
  8
RACCORDO
100
AcDbLine
 62
250
  6
CONTINUOUS
 10
-10.08440878
 20
50.4419336782
 11
-10.0410988862
 21
51.1969834598
  0
LINE
  5
24D
100
AcDbEntity
  8
RACCORDO
100
AcDbLine
 62
250
  6
CONTINUOUS
 10
-10.155758629
 20
49.3068774477
 11
-10.08440878
 21
50.4419336782
  0
LINE
  5
24E
100
AcDbEntity
  8
RACCORDO
100
AcDbLine
 62
250
  6
CONTINUOUS
 10
-10.2348519471
 20
48.1566144867
 11
-10.155758629
 21
49.3068774477
  0
LINE
  5
24F
100
AcDbEntity
  8
RACCORDO
100
AcDbLine
 62
250
  6
CONTINUOUS
 10
-10.3222472566
 20
46.9738937444
 11
-10.2348519471
 21
48.1566144867
  0
LINE
  5
250
100
AcDbEntity
  8
RACCORDO
100
AcDbLine
 62
250
  6
CONTINUOUS
 10
-10.452833649
 20
45.317028683
 11
-10.3222472566
 21
46.9738937444
  0
LINE
  5
251
100
AcDbEntity
  8
RACCORDO
100
AcDbLine
 62
250
  6
CONTINUOUS
 10
-10.5623126753
 20
43.9929149886
 11
-10.452833649
 21
45.317028683
  0
LINE
  5
252
100
AcDbEntity
  8
RACCORDO
100
AcDbLine
 62
7
  6
CONTINUOUS
 10
-11.7886148266
 20
31.358079379
 11
-10.7089369762
 21
44.1951666592
  0
LINE
  5
253
100
AcDbEntity
  8
RACCORDO
100
AcDbLine
 62
250
  6
CONTINUOUS
 10
-11.641990548
 20
31.1558274438
 11
-10.5623126753
 21
43.9929149886
  0
LWPOLYLINE
  5
254
100
AcDbEntity
  8
RACCORDO
100
AcDbPolyline
 62
250
  6
CONTINUOUS
 90
5
 70
0
 10
5.8089322013
 20
23.0268054901
 10
5.7828433844
 20
23.0000718039
 10
5.7542002648
 20
22.9779937525
 10
5.7233144957
 20
22.9608115586
 10
5.6957137404
 20
22.9502481723
  0
LWPOLYLINE
  5
255
100
AcDbEntity
  8
RACCORDO
100
AcDbPolyline
 62
250
  6
CONTINUOUS
 90
9
 70
0
 10
-9.9520110712
 20
74.0892427356
 10
-9.9508945353
 20
74.0699717388
 10
-9.9448031114
 20
74.0404111027
 10
-9.9334529481
 20
74.0113309612
 10
-9.9169703237
 20
73.9830825032
 10
-9.8956231122
 20
73.9560685404
 10
-9.8697295575
 20
73.930592031
 10
-9.8395892393
 20
73.9068662573
 10
-9.8055644621
 20
73.8851168459
  0
LWPOLYLINE
  5
256
100
AcDbEntity
  8
RACCORDO
100
AcDbPolyline
 62
250
  6
CONTINUOUS
 90
9
 70
0
 10
-9.9520110716
 20
61.7799258696
 10
-9.9509688807
 20
61.7612957965
 10
-9.9450090901
 20
61.7317807774
 10
-9.9338262982
 20
61.702775825
 10
-9.9175389795
 20
61.6745882284
 10
-9.8963196879
 20
61.6475166173
 10
-9.8703932283
 20
61.6218477982
 10
-9.8400342751
 20
61.5978537161
 10
-9.8055644621
 20
61.5757885729
  0
LWPOLYLINE
  5
257
100
AcDbEntity
  8
RACCORDO
100
AcDbPolyline
 62
250
  6
CONTINUOUS
 90
9
 70
0
 10
-10.7089369762
 20
44.1951666592
 10
-10.7082670008
 20
44.1667744295
 10
-10.7021780552
 20
44.140148054
 10
-10.6908812048
 20
44.1136606449
 10
-10.6744961556
 20
44.0875928714
 10
-10.6531965293
 20
44.062220955
 10
-10.6272080239
 20
44.0378137444
 10
-10.5968060226
 20
44.0146298675
 10
-10.5623126753
 20
43.9929149886
  0
LINE
  5
258
100
AcDbEntity
  8
RACCORDO
100
AcDbLine
 62
250
  6
CONTINUOUS
 10
-9.8055644621
 20
61.5757885729
 11
-9.8055644621
 21
73.8851168459
  0
LINE
  5
259
100
AcDbEntity
  8
0
100
AcDbLine
 62
7
  6
CONTINUOUS
 10
-4.1430284985
 20
36.7983057675
 11
-4.27680435
 21
35.2514187692
  0
LINE
  5
25A
100
AcDbEntity
  8
0
100
AcDbLine
 62
7
  6
CONTINUOUS
 10
-2.7288149361
 20
35.9817565808
 11
-2.8625907876
 21
34.4348695826
  0
LWPOLYLINE
  5
25B
100
AcDbEntity
  8
RACCORDO
100
AcDbPolyline
 62
250
  6
CONTINUOUS
 90
3
 70
0
 10
5.8523423656
 20
23.0930287617
 10
5.832182855
 20
23.0579039326
 10
5.8089322013
 20
23.0268054901
  0
LWPOLYLINE
  5
25C
100
AcDbEntity
  8
RACCORDO
100
AcDbPolyline
 62
250
  6
CONTINUOUS
 90
10
 70
0
 10
3.8231501098
 20
22.5791274994
 10
3.8134055071
 20
22.5342633978
 10
3.8000041271
 20
22.4921796072
 10
3.7830925036
 20
22.4533362834
 10
3.7628535051
 20
22.4181550354
 10
3.7395098957
 20
22.3870244187
 10
3.7133247118
 20
22.3602917653
 10
3.6845920988
 20
22.3382491577
 10
3.6536231489
 20
22.3211277765
 10
3.6265995582
 20
22.3108290553
  0
LINE
  5
25D
100
AcDbEntity
  8
RACCORDO
100
AcDbLine
 62
250
  6
CONTINUOUS
 10
5.0626497062
 20
65.3003963276
 11
5.0617303802
 21
52.1392951759
  0
LINE
  5
25E
100
AcDbEntity
  8
RACCORDO
100
AcDbLine
 62
250
  6
CONTINUOUS
 10
5.7603803846
 20
65.2951225889
 11
5.759475438
 21
52.1330178239
  0
LINE
  5
25F
100
AcDbEntity
  8
RACCORDO
100
AcDbLine
 62
250
  6
CONTINUOUS
 10
5.0617303802
 20
52.1392951759
 11
5.0567785344
 21
50.9167597961
  0
LINE
  5
260
100
AcDbEntity
  8
RACCORDO
100
AcDbLine
 62
250
  6
CONTINUOUS
 10
5.759475438
 20
52.1330178239
 11
5.7545142646
 21
50.9086947039
  0
LINE
  5
261
100
AcDbEntity
  8
RACCORDO
100
AcDbLine
 62
250
  6
CONTINUOUS
 10
5.0567785344
 20
50.9167597961
 11
5.0508655525
 21
50.1324827665
  0
LINE
  5
262
100
AcDbEntity
  8
RACCORDO
100
AcDbLine
 62
250
  6
CONTINUOUS
 10
5.7545142646
 20
50.9086947039
 11
5.7485706863
 21
50.1229893751
  0
LINE
  5
263
100
AcDbEntity
  8
RACCORDO
100
AcDbLine
 62
250
  6
CONTINUOUS
 10
5.0508655525
 20
50.1324827665
 11
5.0426000678
 21
49.3675791243
  0
LINE
  5
264
100
AcDbEntity
  8
RACCORDO
100
AcDbLine
 62
250
  6
CONTINUOUS
 10
5.7485706863
 20
50.1229893751
 11
5.7402948549
 21
49.3564678907
  0
LINE
  5
265
100
AcDbEntity
  8
RACCORDO
100
AcDbLine
 62
250
  6
CONTINUOUS
 10
5.7402948549
 20
49.3564678907
 11
5.7294108963
 21
48.6034772097
  0
LINE
  5
266
100
AcDbEntity
  8
RACCORDO
100
AcDbLine
 62
250
  6
CONTINUOUS
 10
5.0426000678
 20
49.3675791243
 11
5.0317320715
 21
48.6163968899
  0
LINE
  5
267
100
AcDbEntity
  8
RACCORDO
100
AcDbLine
 62
250
  6
CONTINUOUS
 10
5.0317320715
 20
48.6163968899
 11
5.0179801182
 21
47.8732514374
  0
LINE
  5
268
100
AcDbEntity
  8
RACCORDO
100
AcDbLine
 62
250
  6
CONTINUOUS
 10
5.7294108963
 20
48.6034772097
 11
5.7156111085
 21
47.8583372755
  0
LINE
  5
269
100
AcDbEntity
  8
RACCORDO
100
AcDbLine
 62
250
  6
CONTINUOUS
 10
5.0179801182
 20
47.8732514374
 11
5.0010783532
 21
47.1343490934
  0
LINE
  5
26A
100
AcDbEntity
  8
RACCORDO
100
AcDbLine
 62
250
  6
CONTINUOUS
 10
5.7156111085
 20
47.8583372755
 11
5.6986633696
 21
47.1172739864
  0
LINE
  5
26B
100
AcDbEntity
  8
RACCORDO
100
AcDbLine
 62
250
  6
CONTINUOUS
 10
5.0010783532
 20
47.1343490934
 11
4.9806310282
 21
46.3931138528
  0
LINE
  5
26C
100
AcDbEntity
  8
RACCORDO
100
AcDbLine
 62
250
  6
CONTINUOUS
 10
5.6986633696
 20
47.1172739864
 11
5.6781671511
 21
46.3736976307
  0
LINE
  5
26D
100
AcDbEntity
  8
RACCORDO
100
AcDbLine
 62
250
  6
CONTINUOUS
 10
4.9806310282
 20
46.3931138528
 11
4.9563110771
 21
45.6484361424
  0
LINE
  5
26E
100
AcDbEntity
  8
RACCORDO
100
AcDbLine
 62
250
  6
CONTINUOUS
 10
5.6781671511
 20
46.3736976307
 11
5.6537303082
 21
45.6264555214
  0
LINE
  5
26F
100
AcDbEntity
  8
RACCORDO
100
AcDbLine
 62
250
  6
CONTINUOUS
 10
4.9563110771
 20
45.6484361424
 11
4.9278621646
 21
44.9013875153
  0
LINE
  5
270
100
AcDbEntity
  8
RACCORDO
100
AcDbLine
 62
250
  6
CONTINUOUS
 10
5.6537303082
 20
45.6264555214
 11
5.6252016367
 21
44.8766888113
  0
LINE
  5
271
100
AcDbEntity
  8
RACCORDO
100
AcDbLine
 62
250
  6
CONTINUOUS
 10
4.9278621646
 20
44.9013875153
 11
4.8953512675
 21
44.1595023452
  0
LINE
  5
272
100
AcDbEntity
  8
RACCORDO
100
AcDbLine
 62
250
  6
CONTINUOUS
 10
5.6252016367
 20
44.8766888113
 11
5.5925377477
 21
44.1319013362
  0
LWPOLYLINE
  5
273
100
AcDbEntity
  8
RACCORDO
100
AcDbPolyline
 62
250
  6
CONTINUOUS
 90
11
 70
0
 10
3.1273562339
 20
22.6281917153
 10
3.1254280083
 20
22.5872497402
 10
3.1268755284
 20
22.5482297272
 10
3.1316849727
 20
22.5115042504
 10
3.1398104193
 20
22.477423975
 10
3.1511742843
 20
22.4463143091
 10
3.1656680622
 20
22.4184722967
 10
3.1831533622
 20
22.3941637813
 10
3.2034632299
 20
22.3736208672
 10
3.2264037409
 20
22.357039704
 10
3.2289607419
 20
22.3555328076
  0
LINE
  5
274
100
AcDbEntity
  8
RACCORDO
100
AcDbLine
 62
250
  6
CONTINUOUS
 10
4.8953512675
 20
44.1595023452
 11
4.8585249103
 21
43.417526752
  0
LINE
  5
275
100
AcDbEntity
  8
RACCORDO
100
AcDbLine
 62
250
  6
CONTINUOUS
 10
5.5925377477
 20
44.1319013362
 11
5.5556338793
 21
43.3871499139
  0
LINE
  5
276
100
AcDbEntity
  8
RACCORDO
100
AcDbLine
 62
250
  6
CONTINUOUS
 10
4.8585249103
 20
43.417526752
 11
4.8172843357
 21
42.6693250668
  0
LINE
  5
277
100
AcDbEntity
  8
RACCORDO
100
AcDbLine
 62
250
  6
CONTINUOUS
 10
5.5556338793
 20
43.3871499139
 11
5.5142222121
 21
42.6362700543
  0
LINE
  5
278
100
AcDbEntity
  8
RACCORDO
100
AcDbLine
 62
250
  6
CONTINUOUS
 10
4.8172843357
 20
42.6693250668
 11
4.7708690679
 21
41.8994645985
  0
LINE
  5
279
100
AcDbEntity
  8
RACCORDO
100
AcDbLine
 62
250
  6
CONTINUOUS
 10
5.5142222121
 20
42.6362700543
 11
5.4676846993
 21
41.8638773473
  0
LINE
  5
27A
100
AcDbEntity
  8
RACCORDO
100
AcDbLine
 62
250
  6
CONTINUOUS
 10
4.7708690679
 20
41.8994645985
 11
4.7182491036
 21
41.0928264124
  0
LINE
  5
27B
100
AcDbEntity
  8
RACCORDO
100
AcDbLine
 62
250
  6
CONTINUOUS
 10
5.4676846993
 20
41.8638773473
 11
5.4148835003
 21
41.0547679492
  0
LWPOLYLINE
  5
27C
100
AcDbEntity
  8
RACCORDO
100
AcDbPolyline
 62
250
  6
CONTINUOUS
 90
9
 70
0
 10
5.9581140681
 20
23.2458664967
 10
5.9552386453
 20
23.2038303017
 10
5.9486271065
 20
23.1645466144
 10
5.9383518262
 20
23.1284454599
 10
5.9245252843
 20
23.0959220254
 10
5.9072988353
 20
23.0673323338
 10
5.8868610513
 20
23.0429893469
 10
5.8634356577
 20
23.023159539
 10
5.8440734477
 20
23.0113889038
  0
LINE
  5
27D
100
AcDbEntity
  8
RACCORDO
100
AcDbLine
 62
250
  6
CONTINUOUS
 10
4.7182491036
 20
41.0928264124
 11
4.6585238636
 21
40.2392884864
  0
LINE
  5
27E
100
AcDbEntity
  8
RACCORDO
100
AcDbLine
 62
250
  6
CONTINUOUS
 10
5.4148835003
 20
41.0547679492
 11
5.3549948327
 21
40.1988567056
  0
LINE
  5
27F
100
AcDbEntity
  8
RACCORDO
100
AcDbLine
 62
250
  6
CONTINUOUS
 10
5.3549948327
 20
40.1988567056
 11
5.2866162245
 21
39.2809429854
  0
LINE
  5
280
100
AcDbEntity
  8
RACCORDO
100
AcDbLine
 62
250
  6
CONTINUOUS
 10
4.6585238636
 20
40.2392884864
 11
4.5902987597
 21
39.3236484681
  0
LINE
  5
281
100
AcDbEntity
  8
RACCORDO
100
AcDbLine
 62
250
  6
CONTINUOUS
 10
4.5902987597
 20
39.3236484681
 11
4.5120792352
 21
38.3306442962
  0
LINE
  5
282
100
AcDbEntity
  8
RACCORDO
100
AcDbLine
 62
250
  6
CONTINUOUS
 10
5.2866162245
 20
39.2809429854
 11
5.2082088401
 21
38.2858232013
  0
LINE
  5
283
100
AcDbEntity
  8
RACCORDO
100
AcDbLine
 62
250
  6
CONTINUOUS
 10
4.5120792352
 20
38.3306442962
 11
4.422801346
 21
37.2500964912
  0
LINE
  5
284
100
AcDbEntity
  8
RACCORDO
100
AcDbLine
 62
250
  6
CONTINUOUS
 10
5.2082088401
 20
38.2858232013
 11
5.1187943679
 21
37.2033948663
  0
LINE
  5
285
100
AcDbEntity
  8
RACCORDO
100
AcDbLine
 62
250
  6
CONTINUOUS
 10
4.422801346
 20
37.2500964912
 11
4.3208054633
 21
36.0635466584
  0
LINE
  5
286
100
AcDbEntity
  8
RACCORDO
100
AcDbLine
 62
250
  6
CONTINUOUS
 10
5.1187943679
 20
37.2033948663
 11
5.0166339775
 21
36.0151942989
  0
LINE
  5
287
100
AcDbEntity
  8
RACCORDO
100
AcDbLine
 62
250
  6
CONTINUOUS
 10
4.3208054633
 20
36.0635466584
 11
3.1273562339
 21
22.6281917153
  0
LINE
  5
288
100
AcDbEntity
  8
RACCORDO
100
AcDbLine
 62
250
  6
CONTINUOUS
 10
5.0166339775
 20
36.0151942989
 11
3.8231501098
 21
22.5791274994
  0
LWPOLYLINE
  5
289
100
AcDbEntity
  8
RACCORDO
100
AcDbPolyline
 62
250
  6
CONTINUOUS
 90
4
 70
0
 10
5.8922626718
 20
23.2185461157
 10
5.8825465928
 20
23.1737892135
 10
5.869191387
 20
23.1317977986
 10
5.8523423656
 20
23.0930287617
  0
LWPOLYLINE
  5
28A
100
AcDbEntity
  8
RACCORDO
100
AcDbPolyline
 62
250
  6
CONTINUOUS
 90
16
 70
0
 10
5.7603803846
 20
65.2951225889
 10
5.757490437
 20
65.3384995109
 10
5.7508417361
 20
65.3837049065
 10
5.7405075433
 20
65.4302408921
 10
5.7265998919
 20
65.4776004649
 10
5.7092730086
 20
65.5252565752
 10
5.6887254931
 20
65.5726678308
 10
5.6651923662
 20
65.6193025809
 10
5.6389311864
 20
65.6646597081
 10
5.6102237139
 20
65.7082560191
 10
5.5793408074
 20
65.7496691653
 10
5.5466616758
 20
65.7883803824
 10
5.5126818592
 20
65.8238312997
 10
5.4778336783
 20
65.8556340963
 10
5.44246071
 20
65.8835362723
 10
5.4069481432
 20
65.9072851764
  0
LWPOLYLINE
  5
28B
100
AcDbEntity
  8
RACCORDO
100
AcDbPolyline
 62
7
  6
CONTINUOUS
 90
10
 70
0
 10
8.9725614944
 20
46.9082154392
 10
8.9709218074
 20
46.9457456608
 10
8.9663564545
 20
46.9806179679
 10
8.9588654357
 20
47.0128323606
 10
8.9483338931
 20
47.0426203956
 10
8.9348766847
 20
47.0697505162
 10
8.9188383836
 20
47.0935280525
 10
8.9001523319
 20
47.1138664223
 10
8.8788851877
 20
47.1308522079
 10
8.8691069285
 20
47.1370337498
  0
LINE
  5
28C
100
AcDbEntity
  8
RACCORDO
100
AcDbLine
 62
7
  6
CONTINUOUS
 10
6.8583122187
 20
65.929051543
 11
6.8583122187
 21
23.712579517
  0
LINE
  5
28D
100
AcDbEntity
  8
DRAFT
100
AcDbLine
 62
7
  6
CONTINUOUS
 10
7.7048142539
 20
36.42217932
 11
7.7048142539
 21
34.1166315756
  0
LINE
  5
28E
100
AcDbEntity
  8
DRAFT
100
AcDbLine
 62
7
  6
CONTINUOUS
 10
8.2624917898
 20
36.3152801351
 11
8.2624917898
 21
34.0509736135
  0
LINE
  5
28F
100
AcDbEntity
  8
RACCORDO
100
AcDbLine
 62
7
  6
CONTINUOUS
 10
8.4392684851
 20
36.6499570419
 11
8.4392684851
 21
36.3994908101
  0
LINE
  5
290
100
AcDbEntity
  8
DRAFT
100
AcDbLine
 62
7
  6
CONTINUOUS
 10
8.4392684851
 20
36.3994908101
 11
8.4392684851
 21
34.1709002352
  0
LINE
  5
291
100
AcDbEntity
  8
RACCORDO
100
AcDbLine
 62
7
  6
CONTINUOUS
 10
8.9725614944
 20
45.1912286726
 11
8.9725614944
 21
46.9082154392
  0
LINE
  5
292
100
AcDbEntity
  8
RACCORDO
100
AcDbLine
 62
7
  6
CONTINUOUS
 10
-11.54038604
 20
30.8831685361
 11
3.2289607419
 21
22.3555328076
  0
LINE
  5
293
100
AcDbEntity
  8
RACCORDO
100
AcDbLine
 62
250
  6
CONTINUOUS
 10
-11.641990548
 20
31.1558274438
 11
3.1273562339
 21
22.6281917153
  0
LINE
  5
294
100
AcDbEntity
  8
RACCORDO
100
AcDbLine
 62
250
  6
CONTINUOUS
 10
-11.54038604
 20
30.8831685361
 11
-11.542943041
 21
30.8846754325
  0
LWPOLYLINE
  5
295
100
AcDbEntity
  8
RACCORDO
100
AcDbPolyline
 62
250
  6
CONTINUOUS
 90
10
 70
0
 10
-11.542943041
 20
30.8846754325
 10
-11.565883552
 20
30.9012565957
 10
-11.5861934197
 20
30.9217995097
 10
-11.6036787197
 20
30.9461080252
 10
-11.6181724976
 20
30.9739500376
 10
-11.6295363626
 20
31.0050597034
 10
-11.6376618093
 20
31.0391399788
 10
-11.6424712536
 20
31.0758654556
 10
-11.6439187736
 20
31.1148854687
 10
-11.641990548
 20
31.1558274438
  0
LINE
  5
296
100
AcDbEntity
  8
0
100
AcDbLine
 62
7
  6
CONTINUOUS
 10
-4.2135256636
 20
35.1246531433
 11
-2.9407334575
 21
34.3897588753
  0
LINE
  5
297
100
AcDbEntity
  8
0
100
AcDbLine
 62
7
  6
CONTINUOUS
 10
-4.0648858287
 20
36.8434164747
 11
-2.7920936225
 21
36.1085222068
  0
LINE
  5
298
100
AcDbEntity
  8
DRAFT
100
AcDbLine
 62
7
  6
CONTINUOUS
 10
8.2624917898
 20
34.0509736135
 11
7.7048142539
 21
34.1166315756
  0
LINE
  5
299
100
AcDbEntity
  8
DRAFT
100
AcDbLine
 62
7
  6
CONTINUOUS
 10
8.2624917898
 20
36.3152801351
 11
7.7048142539
 21
36.42217932
  0
LINE
  5
29A
100
AcDbEntity
  8
RACCORDO
100
AcDbLine
 62
250
  6
CONTINUOUS
 10
-10.5623126753
 20
43.9929149886
 11
4.2650993179
 21
35.4317531348
  0
LINE
  5
29B
100
AcDbEntity
  8
RACCORDO
100
AcDbLine
 62
250
  6
CONTINUOUS
 10
8.4392684851
 20
36.5149115181
 11
7.7208226699
 21
36.9297331275
  0
LINE
  5
29C
100
AcDbEntity
  8
RACCORDO
100
AcDbLine
 62
7
  6
CONTINUOUS
 10
8.4392684851
 20
36.6500059311
 11
7.9653863211
 21
36.9236195535
  0
LWPOLYLINE
  5
29D
100
AcDbEntity
  8
RACCORDO
100
AcDbPolyline
 62
7
  6
CONTINUOUS
 90
8
 70
0
 10
8.8691069285
 20
47.1370337498
 10
8.8555814985
 20
47.1440504863
 10
8.8301886695
 20
47.1533634431
 10
8.8027592957
 20
47.1588888927
 10
8.7739957091
 20
47.1604853553
 10
8.7441320207
 20
47.158105671
 10
8.7129341196
 20
47.1517969997
 10
8.6804020058
 20
47.1415593415
  0
LINE
  5
29E
100
AcDbEntity
  8
RACCORDO
100
AcDbLine
 62
250
  6
CONTINUOUS
 10
7.9732952246
 20
47.5498339348
 11
8.6804020058
 21
47.1415593415
  0
LINE
  5
29F
100
AcDbEntity
  8
RACCORDO
100
AcDbLine
 62
7
  6
CONTINUOUS
 10
8.1619134027
 20
47.5453584631
 11
8.8690201839
 21
47.1370838698
  0
LINE
  5
2A0
100
AcDbEntity
  8
RACCORDO
100
AcDbLine
 62
250
  6
CONTINUOUS
 10
-9.8055644621
 20
61.5757885729
 11
5.0626497062
 21
52.9910680546
  0
LINE
  5
2A1
100
AcDbEntity
  8
RACCORDO
100
AcDbLine
 62
250
  6
CONTINUOUS
 10
5.0626497062
 20
65.3003963276
 11
-9.8055644621
 21
73.8851168459
  0
LINE
  5
2A2
100
AcDbEntity
  8
RACCORDO
100
AcDbLine
 62
250
  6
CONTINUOUS
 10
5.406948148
 20
65.9072851792
 11
-9.4612660204
 21
74.4920056975
  0
LINE
  5
2A3
100
AcDbEntity
  8
RACCORDO
100
AcDbLine
 62
7
  6
CONTINUOUS
 10
-8.4193676132
 20
75.15828765
 11
6.504879982
 21
66.5412141333
  0
ARC
  5
2A4
100
AcDbEntity
  8
RACCORDO
100
AcDbCircle
 62
7
  6
CONTINUOUS
 10
-11.2903739599
 20
31.3161742633
 40
0.5
100
AcDbArc
 50
175.1827163511
 51
239.998401565
  0
ARC
  5
2A5
100
AcDbEntity
  8
RACCORDO
100
AcDbCircle
 62
7
  6
CONTINUOUS
 10
3.478972822
 20
22.7885385348
 40
0.5
100
AcDbArc
 50
239.9984015654
 51
287.1696386886
  0
ARC
  5
2A6
100
AcDbEntity
  8
RACCORDO
100
AcDbCircle
 62
7
  6
CONTINUOUS
 10
-9.4520110716
 20
74.0892541426
 40
0.5
100
AcDbArc
 50
122.5992954199
 51
180.0013071436
  0
ELLIPSE
  5
2A7
100
AcDbEntity
  8
RACCORDO
100
AcDbEllipse
 62
7
  6
CONTINUOUS
 10
7.686442613
 20
36.5073185856
 30
0.0
 11
0.2984123604
 21
0.4035436801
 31
0.0
 40
0.639288975
 41
0.0724911956
 42
0.7706710139
  0
ELLIPSE
  5
2A8
100
AcDbEntity
  8
0
100
AcDbEllipse
 62
7
  6
CONTINUOUS
 10
-2.7995256143
 20
36.0225840402
 30
0.0
 11
-0.0410913081
 21
0.0915059701
 31
0.0
 40
0.634096402
 41
-2.2917126361
 42
-0.7209163093
  0
ELLIPSE
  5
2A9
100
AcDbEntity
  8
RACCORDO
100
AcDbEllipse
 62
7
  6
CONTINUOUS
 10
6.5046376327
 20
23.9170666224
 30
0.0
 11
-0.2501834304
 21
0.4333025529
 31
0.0
 40
0.5769361983
 41
-3.1677535987
 42
-2.3565853618
  0
ELLIPSE
  5
2AA
100
AcDbEntity
  8
RACCORDO
100
AcDbEllipse
 62
7
  6
CONTINUOUS
 10
6.5046376327
 20
66.1329789845
 30
0.0
 11
-0.2500121049
 21
0.4330057129
 31
0.0
 40
0.5777274115
 41
-2.3559002616
 42
-0.7857891675
  0
ELLIPSE
  5
2AB
100
AcDbEntity
  8
RACCORDO
100
AcDbEllipse
 62
7
  6
CONTINUOUS
 10
-8.4191252638
 20
74.7497726422
 30
0.0
 11
-0.2501834304
 21
0.4333025529
 31
0.0
 40
0.5769361983
 41
-0.7851038024
 42
0.0261609458
  0
ELLIPSE
  5
2AC
100
AcDbEntity
  8
0
100
AcDbEllipse
 62
7
  6
CONTINUOUS
 10
-4.2060936719
 20
35.2105913099
 30
0.0
 11
-0.0410913081
 21
0.0915059701
 31
0.0
 40
0.634096402
 41
0.8498800174
 42
2.4206763442
  0
ELLIPSE
  5
2AD
100
AcDbEntity
  8
0
100
AcDbEllipse
 62
7
  6
CONTINUOUS
 10
-2.9333014657
 20
34.4756970419
 30
0.0
 11
-0.0410913081
 21
0.0915059701
 31
0.0
 40
0.634096402
 41
-3.8625089629
 42
-2.2917126361
  0
ELLIPSE
  5
2AE
100
AcDbEntity
  8
0
100
AcDbEllipse
 62
7
  6
CONTINUOUS
 10
-4.0723178204
 20
36.7574783082
 30
0.0
 11
-0.0410913081
 21
0.0915059701
 31
0.0
 40
0.634096402
 41
5.5622689978
 42
7.1330653246
  0
ENDSEC
  0
SECTION
  2
OBJECTS
  0
DICTIONARY
  5
C
100
AcDbDictionary
280
0
281
1
  3
ACAD_GROUP
350
D
  3
ACAD_MLINESTYLE
350
17
  3
ACAD_LAYOUT
350
1A
  3
ACAD_PLOTSETTINGS
350
19
  3
ACAD_PLOTSTYLENAME
350
E
  0
DICTIONARY
  5
D
102
{ACAD_REACTORS
330
C
102
}
100
AcDbDictionary
280
0
281
1
  0
ACDBDICTIONARYWDFLT
  5
E
102
{ACAD_REACTORS
330
C
102
}
100
AcDbDictionary
281
1
  3
Normal
350
F
100
AcDbDictionaryWithDefault
340
F
  0
DICTIONARY
  5
17
102
{ACAD_REACTORS
330
C
102
}
100
AcDbDictionary
280
0
281
1
  3
Standard
350
18
  0
DICTIONARY
  5
19
102
{ACAD_REACTORS
330
C
102
}
100
AcDbDictionary
281
1
  0
DICTIONARY
  5
1A
102
{ACAD_REACTORS
330
C
102
}
100
AcDbDictionary
281
1
  3
Model
350
2AF
  3
Layout1
350
2B0
  0
ACDBPLACEHOLDER
  5
F
102
{ACAD_REACTORS
330
E
102
}
  0
MLINESTYLE
  5
18
102
{ACAD_REACTORS
330
17
102
}
100
AcDbMlineStyle
  2
STANDARD
 70
0
  3

 62
256
 51
90.0
 52
90.0
 71
2
 49
0.5
 62
256
  6
BYLAYER
 49
-0.5
 62
256
  6
BYLAYER
  0
LAYOUT
  5
2AF
102
{ACAD_REACTORS
330
1A
102
}
100
AcDbPlotSettings
  1

  2
none_device
  4
ISO_A4_(297.00_x_210.00_MM)
  6

 40
0.0
 41
0.0
 42
0.0
 43
0.0
 44
297.0
 45
210.0
 46
0.0
 47
0.0
 48
0.0
 49
0.0
140
0.0
141
0.0
142
1.0
143
1.0
 70
1024
 72
1
 73
0
 74
0
  7

 75
0
147
1.0
148
0.0
149
0.0
100
AcDbLayout
  1
Model
 70
0
 71
0
 10
0.0
 20
0.0
 11
297.0
 21
210.0
 12
0.0
 22
0.0
 32
0.0
 14
0.0
 24
0.0
 34
0.0
 15
0.0
 25
0.0
 35
0.0
146
0.0
 13
0.0
 23
0.0
 33
0.0
 16
1.0
 26
0.0
 36
0.0
 17
0.0
 27
1.0
 37
0.0
 76
0
330
21B
345
0
346
0
  0
LAYOUT
  5
2B0
102
{ACAD_REACTORS
330
1A
102
}
100
AcDbPlotSettings
  1

  2
none_device
  4
ISO_A4_(297.00_x_210.00_MM)
  6

 40
0.0
 41
0.0
 42
0.0
 43
0.0
 44
297.0
 45
210.0
 46
0.0
 47
0.0
 48
0.0
 49
0.0
140
0.0
141
0.0
142
1.0
143
1.0
 70
0
 72
1
 73
0
 74
0
  7

 75
0
147
1.0
148
0.0
149
0.0
100
AcDbLayout
  1
Layout1
 70
0
 71
1
 10
0.0
 20
0.0
 11
297.0
 21
210.0
 12
0.0
 22
0.0
 32
0.0
 14
0.0
 24
0.0
 34
0.0
 15
0.0
 25
0.0
 35
0.0
146
0.0
 13
0.0
 23
0.0
 33
0.0
 16
1.0
 26
0.0
 36
0.0
 17
0.0
 27
1.0
 37
0.0
 76
0
330
21C
345
0
346
0
  0
ENDSEC
  0
EOF
