  0
SECTION
  2
HEADER
  9
$ACADVER
  1
AC1024
  9
$DWGCODEPAGE
  3
ANSI_1252
  9
$EXTMAX
 10
297.0
 20
210.0
 30
0.0
  9
$EXTMIN
 10
0.0
 20
0.0
 30
0.0
  9
$LIMMIN
 10
0.0
 20
0.0
  9
$LIMMAX
 10
297.0
 20
210.0
  9
$VIEWCTR
 10
148.5
 20
105.0
  9
$VIEWSIZE
 40
210.0
  9
$CLAYER
  8
0
  9
$LTSCALE
 40
16.335
  9
$CELTYPE
  6
BYLAYER
  9
$DIMSCALE
 40
1.0
  9
$DIMASZ
 40
3.0
  9
$DIMEXO
 40
0.5
  9
$DIMDLI
 40
11.286
  9
$DIMEXE
 40
1.5
  9
$DIMCEN
 40
2.673
  9
$DIMLFAC
 40
1.0
  9
$DIMBLK
  1
_FILLED
  9
$DIMALT
 70
0
  9
$DIMALTF
 40
0.0393700787
  9
$DIMTXT
 40
3.0
  9
$DIMTOL
 70
1
  9
$DIMLIM
 70
0
  9
$DIMTFAC
 40
1.0
  9
$DIMTP
 40
0.01
  9
$DIMTM
 40
0.01
  9
$DIMGAP
 40
0.625
  9
$DIMDSEP
 70
44
  9
$AUNITS
 70
0
  9
$PDMODE
 70
3
  9
$PDSIZE
 40
3.0
  9
$HANDSEED
  5
393
  9
$TILEMODE
 70
1
  9
$MEASUREMENT
 70
1
  9
$INSUNITS
 70
4
  0
ENDSEC
  0
SECTION
  2
CLASSES
  0
CLASS
  1
ACDBDICTIONARYWDFLT
  2
AcDbDictionaryWithDefault
  3
AutoCAD 2000
 90
0
 91
1
280
0
281
0
  0
CLASS
  1
ACDBPLACEHOLDER
  2
AcDbPlaceHolder
  3
AutoCAD 2000
 90
0
 91
1
280
0
281
0
  0
CLASS
  1
LAYOUT
  2
AcDbLayout
  3
AutoCAD 2000
 90
0
 91
0
280
0
281
0
  0
ENDSEC
  0
SECTION
  2
TABLES
  0
TABLE
  2
VPORT
  5
8
100
AcDbSymbolTable
 70
2
  0
VPORT
  5
1F4
100
AcDbSymbolTableRecord
100
AcDbViewportTableRecord
  2
*ACTIVE
 70
0
 10
0.0
 20
0.0
 11
1.0
 21
1.0
 12
148.5
 22
105.0
 13
0.0
 23
0.0
 14
1.0
 24
1.0
 15
0.0
 25
0.0
 16
0.0
 26
0.0
 36
1.0
 17
0.0
 27
0.0
 37
0.0
 40
210.0
 41
1.4142857143
 42
50.0
 43
0.0
 44
0.0
 50
0.0
 51
0.0
 71
0
 72
100
 73
1
 74
1
 75
0
 76
0
 77
0
 78
0
  0
ENDTAB
  0
TABLE
  2
LTYPE
  5
5
100
AcDbSymbolTable
 70
6
  0
LTYPE
  5
14
100
AcDbSymbolTableRecord
100
AcDbLinetypeTableRecord
  2
BYBLOCK
 70
0
  3

 72
65
 73
0
 40
0.0
  0
LTYPE
  5
15
100
AcDbSymbolTableRecord
100
AcDbLinetypeTableRecord
  2
BYLAYER
 70
0
  3

 72
65
 73
0
 40
0.0
  0
LTYPE
  5
16
100
AcDbSymbolTableRecord
100
AcDbLinetypeTableRecord
  2
CONTINUOUS
 70
64
  3
Solid line
 72
65
 73
0
 40
0.0
  0
LTYPE
  5
1F5
100
AcDbSymbolTableRecord
100
AcDbLinetypeTableRecord
  2
CENTER
 70
64
  3
____ _ ____ _ ____ _ ____ _ ____ _ ____ _ ____
 72
65
 73
4
 40
0.6
 49
0.375
 74
0
 49
-0.075
 74
0
 49
0.075
 74
0
 49
-0.075
 74
0
  0
LTYPE
  5
1F6
100
AcDbSymbolTableRecord
100
AcDbLinetypeTableRecord
  2
HIDDEN
 70
64
  3
- - - - - - - - - - - - - - - - - - - -
 72
65
 73
2
 40
0.2
 49
0.1
 74
0
 49
-0.1
 74
0
  0
LTYPE
  5
1F7
100
AcDbSymbolTableRecord
100
AcDbLinetypeTableRecord
  2
PHANTOM
 70
64
  3
_____ _ _ _____ _ _ _____ _ _ _____
 72
65
 73
6
 40
0.8
 49
0.45
 74
0
 49
-0.05
 74
0
 49
0.1
 74
0
 49
-0.05
 74
0
 49
0.1
 74
0
 49
-0.05
 74
0
  0
LTYPE
  5
1F8
100
AcDbSymbolTableRecord
100
AcDbLinetypeTableRecord
  2
DOT
 70
64
  3
. . . . . . . . . . . . . . . . . . . .
 72
65
 73
2
 40
0.2
 49
0.1
 74
0
 49
-0.1
 74
0
  0
LTYPE
  5
1F9
100
AcDbSymbolTableRecord
100
AcDbLinetypeTableRecord
  2
DASHED
 70
64
  3
- - - - - - - - - - - - - - - - - - - -
 72
65
 73
2
 40
0.2
 49
0.1
 74
0
 49
-0.1
 74
0
  0
ENDTAB
  0
TABLE
  2
LAYER
  5
2
100
AcDbSymbolTable
 70
36
  0
LAYER
  5
10
100
AcDbSymbolTableRecord
100
AcDbLayerTableRecord
  2
0
 70
0
 62
7
  6
CONTINUOUS
370
-3
390
F
  0
LAYER
  5
1FA
100
AcDbSymbolTableRecord
100
AcDbLayerTableRecord
  2
DEFAULT_1
 70
0
 62
7
  6
CENTER
370
-3
390
F
  0
LAYER
  5
1FB
100
AcDbSymbolTableRecord
100
AcDbLayerTableRecord
  2
DEFAULT_2
 70
0
 62
7
  6
HIDDEN
370
-3
390
F
  0
LAYER
  5
1FC
100
AcDbSymbolTableRecord
100
AcDbLayerTableRecord
  2
DEFAULT_3
 70
0
 62
7
  6
PHANTOM
370
-3
390
F
  0
LAYER
  5
1FD
100
AcDbSymbolTableRecord
100
AcDbLayerTableRecord
  2
9
 70
0
 62
7
  6
CONTINUOUS
370
-3
390
F
  0
LAYER
  5
1FE
100
AcDbSymbolTableRecord
100
AcDbLayerTableRecord
  2
ASSI
 70
0
 62
7
  6
CONTINUOUS
370
-3
390
F
  0
LAYER
  5
1FF
100
AcDbSymbolTableRecord
100
AcDbLayerTableRecord
  2
COORDINATE
 70
0
 62
7
  6
CONTINUOUS
370
-3
390
F
  0
LAYER
  5
200
100
AcDbSymbolTableRecord
100
AcDbLayerTableRecord
  2
COPY_PUBLISH
 70
0
 62
7
  6
CONTINUOUS
370
-3
390
F
  0
LAYER
  5
201
100
AcDbSymbolTableRecord
100
AcDbLayerTableRecord
  2
COSMETICI
 70
0
 62
7
  6
CONTINUOUS
370
-3
390
F
  0
LAYER
  5
202
100
AcDbSymbolTableRecord
100
AcDbLayerTableRecord
  2
CURVE
 70
0
 62
7
  6
CONTINUOUS
370
-3
390
F
  0
LAYER
  5
203
100
AcDbSymbolTableRecord
100
AcDbLayerTableRecord
  2
DRAFT
 70
0
 62
7
  6
CONTINUOUS
370
-3
390
F
  0
LAYER
  5
204
100
AcDbSymbolTableRecord
100
AcDbLayerTableRecord
  2
IMPORT_IGES
 70
0
 62
7
  6
CONTINUOUS
370
-3
390
F
  0
LAYER
  5
205
100
AcDbSymbolTableRecord
100
AcDbLayerTableRecord
  2
INTF_10
 70
0
 62
7
  6
CONTINUOUS
370
-3
390
F
  0
LAYER
  5
206
100
AcDbSymbolTableRecord
100
AcDbLayerTableRecord
  2
INTF_2
 70
0
 62
7
  6
CONTINUOUS
370
-3
390
F
  0
LAYER
  5
207
100
AcDbSymbolTableRecord
100
AcDbLayerTableRecord
  2
INTF_3
 70
0
 62
7
  6
CONTINUOUS
370
-3
390
F
  0
LAYER
  5
208
100
AcDbSymbolTableRecord
100
AcDbLayerTableRecord
  2
INTF_4
 70
0
 62
7
  6
CONTINUOUS
370
-3
390
F
  0
LAYER
  5
209
100
AcDbSymbolTableRecord
100
AcDbLayerTableRecord
  2
INTF_5
 70
0
 62
7
  6
CONTINUOUS
370
-3
390
F
  0
LAYER
  5
20A
100
AcDbSymbolTableRecord
100
AcDbLayerTableRecord
  2
INTF_6
 70
0
 62
7
  6
CONTINUOUS
370
-3
390
F
  0
LAYER
  5
20B
100
AcDbSymbolTableRecord
100
AcDbLayerTableRecord
  2
INTF_7
 70
0
 62
7
  6
CONTINUOUS
370
-3
390
F
  0
LAYER
  5
20C
100
AcDbSymbolTableRecord
100
AcDbLayerTableRecord
  2
INTF_9
 70
0
 62
7
  6
CONTINUOUS
370
-3
390
F
  0
LAYER
  5
20D
100
AcDbSymbolTableRecord
100
AcDbLayerTableRecord
  2
INTF_BLANK
 70
0
 62
7
  6
CONTINUOUS
370
-3
390
F
  0
LAYER
  5
20E
100
AcDbSymbolTableRecord
100
AcDbLayerTableRecord
  2
INTF_RED
 70
0
 62
7
  6
CONTINUOUS
370
-3
390
F
  0
LAYER
  5
20F
100
AcDbSymbolTableRecord
100
AcDbLayerTableRecord
  2
NOTE
 70
0
 62
7
  6
CONTINUOUS
370
-3
390
F
  0
LAYER
  5
210
100
AcDbSymbolTableRecord
100
AcDbLayerTableRecord
  2
PIANI
 70
0
 62
7
  6
CONTINUOUS
370
-3
390
F
  0
LAYER
  5
211
100
AcDbSymbolTableRecord
100
AcDbLayerTableRecord
  2
PUNTI
 70
0
 62
7
  6
CONTINUOUS
370
-3
390
F
  0
LAYER
  5
212
100
AcDbSymbolTableRecord
100
AcDbLayerTableRecord
  2
RACCORDO
 70
0
 62
7
  6
CONTINUOUS
370
-3
390
F
  0
LAYER
  5
213
100
AcDbSymbolTableRecord
100
AcDbLayerTableRecord
  2
RGB____0____0____0__
 70
0
 62
7
  6
CONTINUOUS
370
-3
390
F
  0
LAYER
  5
214
100
AcDbSymbolTableRecord
100
AcDbLayerTableRecord
  2
SIMBOLI
 70
0
 62
7
  6
CONTINUOUS
370
-3
390
F
  0
LAYER
  5
215
100
AcDbSymbolTableRecord
100
AcDbLayerTableRecord
  2
SMUSSO
 70
0
 62
7
  6
CONTINUOUS
370
-3
390
F
  0
LAYER
  5
216
100
AcDbSymbolTableRecord
100
AcDbLayerTableRecord
  2
SUPERFICI
 70
0
 62
7
  6
CONTINUOUS
370
-3
390
F
  0
LAYER
  5
217
100
AcDbSymbolTableRecord
100
AcDbLayerTableRecord
  2
TRASH
 70
0
 62
7
  6
CONTINUOUS
370
-3
390
F
  0
ENDTAB
  0
TABLE
  2
STYLE
  5
3
100
AcDbSymbolTable
 70
1
  0
STYLE
  5
11
100
AcDbSymbolTableRecord
100
AcDbTextStyleTableRecord
  2
STANDARD
 70
0
 40
0.0
 41
0.8
 50
0.0
 71
0
 42
0.2
  3
txt
  4

  0
STYLE
  5
218
100
AcDbSymbolTableRecord
100
AcDbTextStyleTableRecord
  2
TEXTSTYLE_1
 70
0
 40
0.0
 41
0.8
 50
0.0
 71
0
 42
0.2
  3
gdt
  4

  0
ENDTAB
  0
TABLE
  2
VIEW
  5
6
100
AcDbSymbolTable
 70
0
  0
ENDTAB
  0
TABLE
  2
UCS
  5
7
100
AcDbSymbolTable
 70
0
  0
ENDTAB
  0
TABLE
  2
APPID
  5
9
100
AcDbSymbolTable
 70
1
  0
APPID
  5
219
100
AcDbSymbolTableRecord
100
AcDbRegAppTableRecord
  2
ACAD
 70
0
  0
ENDTAB
  0
TABLE
  2
BLOCK_RECORD
  5
1
100
AcDbSymbolTable
 70
0
  0
BLOCK_RECORD
  5
21A
100
AcDbSymbolTableRecord
100
AcDbBlockTableRecord
  2
*Model_Space
  0
BLOCK_RECORD
  5
21B
100
AcDbSymbolTableRecord
100
AcDbBlockTableRecord
  2
*Paper_Space
  0
BLOCK_RECORD
  5
21C
100
AcDbSymbolTableRecord
100
AcDbBlockTableRecord
  2
_FILLED
  0
ENDTAB
  0
TABLE
  2
DIMSTYLE
  5
A
100
AcDbSymbolTable
 70
1
100
AcDbDimStyleTable
 71
0
  0
DIMSTYLE
105
21D
100
AcDbSymbolTableRecord
100
AcDbDimStyleTableRecord
  2
STANDARD
 70
0
  3

  4

 40
1.0
 41
3.0
 42
0.5
 43
0.38
 44
1.5
 45
0.0
 46
0.0
 47
0.01
 48
0.01
140
3.0
141
0.09
142
0.0
143
25.4
144
1.0
145
0.0
146
1.0
147
0.625
 71
1
 72
0
 73
0
 74
0
 75
0
 76
0
 77
1
 78
8
 79
2
170
0
171
1
172
0
173
0
174
0
175
0
176
0
177
0
178
0
270
2
179
2
271
2
272
2
273
2
274
2
275
0
280
0
281
0
282
0
283
1
284
8
285
0
286
0
287
3
288
0
340
11
278
44
341
21C
342
21C
343
21C
344
21C
  0
ENDTAB
  0
ENDSEC
  0
SECTION
  2
BLOCKS
  0
BLOCK
  5
20
100
AcDbEntity
  8
0
100
AcDbBlockBegin
  2
*Model_Space
 70
0
 10
0.0
 20
0.0
 30
0.0
  3
*Model_Space
  1

  0
ENDBLK
  5
21
100
AcDbEntity
  8
0
100
AcDbBlockEnd
  0
BLOCK
  5
1C
100
AcDbEntity
  8
0
100
AcDbBlockBegin
  2
*Paper_Space
 70
0
 10
0.0
 20
0.0
 30
0.0
  3
*Paper_Space
  1

  0
ENDBLK
  5
1D
100
AcDbEntity
  8
0
100
AcDbBlockEnd
  0
BLOCK
  5
21E
100
AcDbEntity
  8
0
100
AcDbBlockBegin
  2
_FILLED
 70
64
 10
0.0
 20
0.0
  3
_FILLED
  1

  0
SOLID
  5
21F
100
AcDbEntity
  8
0
  6
BYBLOCK
 62
0
100
AcDbTrace
 10
0.0
 20
0.0
 11
-1.0
 21
0.3166666667
 12
-1.0
 22
-0.3166666667
 13
-1.0
 23
-0.3166666667
  0
ENDBLK
  5
220
100
AcDbEntity
  8
0
  6
BYBLOCK
 62
0
100
AcDbBlockEnd
  0
ENDSEC
  0
SECTION
  2
ENTITIES
  0
LINE
  5
221
100
AcDbEntity
  8
RACCORDO
100
AcDbLine
 62
7
  6
CONTINUOUS
 10
-9.7213850216
 20
74.5104876586
 11
-8.675762214
 21
75.179151322
  0
LINE
  5
222
100
AcDbEntity
  8
RACCORDO
100
AcDbLine
 62
250
  6
CONTINUOUS
 10
-9.4612660204
 20
74.4920056975
 11
-8.4193676132
 21
75.15828765
  0
LWPOLYLINE
  5
223
100
AcDbEntity
  8
RACCORDO
100
AcDbPolyline
 62
250
  6
CONTINUOUS
 90
9
 70
0
 10
-9.7213816218
 20
74.5104898327
 10
-9.7008830743
 20
74.5216606416
 10
-9.671885649
 20
74.5319390992
 10
-9.6404263688
 20
74.5373586041
 10
-9.6068911333
 20
74.5378413424
 10
-9.5717893305
 20
74.5334088023
 10
-9.5355703231
 20
74.5241816363
 10
-9.4985941743
 20
74.5103129245
 10
-9.4612660204
 20
74.4920056975
  0
LINE
  5
224
100
AcDbEntity
  8
RACCORDO
100
AcDbLine
 62
250
  6
CONTINUOUS
 10
6.504879982
 20
66.5412141333
 11
5.406948148
 21
65.9072851792
  0
LINE
  5
225
100
AcDbEntity
  8
RACCORDO
100
AcDbLine
 62
250
  6
CONTINUOUS
 10
6.8583122187
 20
65.929051543
 11
5.7603803846
 21
65.2951225889
  0
LWPOLYLINE
  5
226
100
AcDbEntity
  8
RACCORDO
100
AcDbPolyline
 62
250
  6
CONTINUOUS
 90
16
 70
0
 10
5.7603803846
 20
65.2951225889
 10
5.7211561383
 20
65.2757514322
 10
5.6786821613
 20
65.2588182889
 10
5.6334110765
 20
65.2445036072
 10
5.5858196538
 20
65.2329587533
 10
5.5364202899
 20
65.2243086078
 10
5.4857574074
 20
65.2186468228
 10
5.4343838175
 20
65.2160308027
 10
5.3828348097
 20
65.2164834959
 10
5.331640296
 20
65.2199986665
 10
5.2812751039
 20
65.2265502278
 10
5.2323482115
 20
65.2360655997
 10
5.1855570535
 20
65.2483905894
 10
5.1414266249
 20
65.2633418772
 10
5.1003270318
 20
65.2807467692
 10
5.0626497062
 20
65.3003963276
  0
LWPOLYLINE
  5
227
100
AcDbEntity
  8
RACCORDO
100
AcDbPolyline
 62
250
  6
CONTINUOUS
 90
16
 70
0
 10
5.406948148
 20
65.9072851792
 10
5.3706669768
 20
65.8830766534
 10
5.3348682319
 20
65.8548577043
 10
5.2999311783
 20
65.8229272937
 10
5.2662259518
 20
65.787623704
 10
5.2341096381
 20
65.7493209543
 10
5.2039224893
 20
65.7084248383
 10
5.175984319
 20
65.6653686243
 10
5.1505911144
 20
65.6206084658
 10
5.1280119002
 20
65.5746185678
 10
5.1084858889
 20
65.5278861641
 10
5.0922199462
 20
65.4809063549
 10
5.0793863996
 20
65.4341768619
 10
5.0701212124
 20
65.3881927545
 10
5.0645225431
 20
65.3434412049
 10
5.0626497062
 20
65.3003963276
  0
LWPOLYLINE
  5
228
100
AcDbEntity
  8
RACCORDO
100
AcDbPolyline
 62
250
  6
CONTINUOUS
 90
16
 70
0
 10
5.7603803846
 20
52.9857943159
 10
5.7212756591
 20
52.9664763315
 10
5.6789388836
 20
52.9495815841
 10
5.6338185906
 20
52.9352890626
 10
5.5863928021
 20
52.9237501874
 10
5.5371639648
 20
52.9150872049
 10
5.486653627
 20
52.9093918927
 10
5.435396914
 20
52.9067245884
 10
5.3839368584
 20
52.90711355
 10
5.3328186457
 20
52.9105546562
 10
5.2825838409
 20
52.9170114498
 10
5.2337646495
 20
52.9264155249
 10
5.1868782782
 20
52.9386672515
 10
5.1424214578
 20
52.9536368302
 10
5.1008651798
 20
52.971165667
 10
5.0626497062
 20
52.9910680546
  0
LINE
  5
229
100
AcDbEntity
  8
0
100
AcDbLine
 62
7
  6
CONTINUOUS
 10
-6.2610846455
 20
38.5587060238
 11
-6.2626819208
 21
38.5578096315
  0
LINE
  5
22A
100
AcDbEntity
  8
0
100
AcDbLine
 62
7
  6
CONTINUOUS
 10
-3.9862491805
 20
39.180107401
 11
-3.9819186496
 21
39.1823415203
  0
LWPOLYLINE
  5
22B
100
AcDbEntity
  8
0
100
AcDbPolyline
 62
7
  6
CONTINUOUS
 90
4
 70
0
 10
-6.2627218418
 20
38.5578881646
 10
-6.2564967223
 20
38.560694146
 10
-6.2497288368
 20
38.5624898192
 10
-6.2426953756
 20
38.5631783285
  0
LINE
  5
22C
100
AcDbEntity
  8
0
100
AcDbLine
 62
7
  6
CONTINUOUS
 10
-6.2531773364
 20
38.5618357994
 11
-6.2596305937
 21
38.5592815491
  0
LINE
  5
22D
100
AcDbEntity
  8
0
100
AcDbLine
 62
7
  6
CONTINUOUS
 10
-3.9756554071
 20
39.1847440048
 11
-3.9819504219
 21
39.182325129
  0
LWPOLYLINE
  5
22E
100
AcDbEntity
  8
0
100
AcDbPolyline
 62
7
  6
CONTINUOUS
 90
3
 70
0
 10
-5.5116613775
 20
37.4876861132
 10
-5.5173786281
 20
37.4835972683
 10
-5.5186614667
 20
37.4828333635
  0
LWPOLYLINE
  5
22F
100
AcDbEntity
  8
0
100
AcDbPolyline
 62
7
  6
CONTINUOUS
 90
6
 70
0
 10
-6.2626819208
 20
38.5578096315
 10
-6.2683253885
 20
38.5538725364
 10
-6.2745393996
 20
38.5478480174
 10
-6.2796066239
 20
38.5408033602
 10
-6.2836471163
 20
38.5325676714
 10
-6.286660877
 20
38.5231409511
  0
LWPOLYLINE
  5
230
100
AcDbEntity
  8
0
100
AcDbPolyline
 62
7
  6
CONTINUOUS
 90
4
 70
0
 10
-4.7495260756
 20
37.6170981072
 10
-4.7542263248
 20
37.613820514
 10
-4.7593699075
 20
37.6088963123
 10
-4.7638762749
 20
37.6029476643
  0
LWPOLYLINE
  5
231
100
AcDbEntity
  8
0
100
AcDbPolyline
 62
7
  6
CONTINUOUS
 90
4
 70
0
 10
-1.3755259895
 20
35.5692491183
 10
-1.3782203771
 20
35.5675759959
 10
-1.3836975312
 20
35.5634029554
 10
-1.388855196
 20
35.5583751761
  0
LWPOLYLINE
  5
232
100
AcDbEntity
  8
0
100
AcDbPolyline
 62
7
  6
CONTINUOUS
 90
3
 70
0
 10
-5.9981165476
 20
35.3540903644
 10
-6.0007164997
 20
35.3524772
 10
-6.0070525045
 20
35.3472018366
  0
LWPOLYLINE
  5
233
100
AcDbEntity
  8
0
100
AcDbPolyline
 62
7
  6
CONTINUOUS
 90
12
 70
0
 10
-5.1184754114
 20
35.0627699943
 10
-5.1159052759
 20
35.0643588752
 10
-5.1095877441
 20
35.0696099163
 10
-5.1041561216
 20
35.0762758532
 10
-5.0994821838
 20
35.0845489045
 10
-5.0956941552
 20
35.0942368516
 10
-5.0931767093
 20
35.1047630386
 10
-5.0921103126
 20
35.1162197077
 10
-5.0923144985
 20
35.1285146167
 10
-5.0936325403
 20
35.1407943833
 10
-5.0960121958
 20
35.1527745466
 10
-5.0995057071
 20
35.1647395675
  0
LINE
  5
234
100
AcDbEntity
  8
0
100
AcDbLine
 62
7
  6
CONTINUOUS
 10
-2.7797187803
 20
34.6871851862
 11
-2.749574931
 21
34.7057214136
  0
LWPOLYLINE
  5
235
100
AcDbEntity
  8
0
100
AcDbPolyline
 62
7
  6
CONTINUOUS
 90
4
 70
0
 10
-3.9862500844
 20
39.1801091974
 10
-3.9880779565
 20
39.1790089522
 10
-3.9936793358
 20
39.1749302974
 10
-3.9988345172
 20
39.1700611244
  0
LINE
  5
236
100
AcDbEntity
  8
0
100
AcDbLine
 62
7
  6
CONTINUOUS
 10
-5.9936587135
 20
35.3566570645
 11
-5.9981137533
 21
35.3540847804
  0
LINE
  5
237
100
AcDbEntity
  8
0
100
AcDbLine
 62
250
  6
CONTINUOUS
 10
-5.1186604548
 20
35.0630910855
 11
-5.1231086277
 21
35.0605227662
  0
LWPOLYLINE
  5
238
100
AcDbEntity
  8
0
100
AcDbPolyline
 62
7
  6
CONTINUOUS
 90
3
 70
0
 10
-3.8730025955
 20
33.6347262412
 10
-3.8701616824
 20
33.6362607328
 10
-3.8638329884
 20
33.6389168939
  0
LINE
  5
239
100
AcDbEntity
  8
0
100
AcDbLine
 62
7
  6
CONTINUOUS
 10
-1.3755254672
 20
35.5692480827
 11
-1.3727527342
 21
35.5707409797
  0
LWPOLYLINE
  5
23A
100
AcDbEntity
  8
0
100
AcDbPolyline
 62
7
  6
CONTINUOUS
 90
18
 70
0
 10
-2.7796890786
 20
34.6871262365
 10
-2.8151223823
 20
34.6681830087
 10
-2.8813642357
 20
34.6400241334
 10
-2.9504676382
 20
34.6196889265
 10
-3.0224943917
 20
34.607326826
 10
-3.0973826943
 20
34.6027883938
 10
-3.1739352117
 20
34.606223409
 10
-3.2522352379
 20
34.6178309572
 10
-3.332199479
 20
34.6374119527
 10
-3.4123807184
 20
34.6645189172
 10
-3.4927079244
 20
34.6992228223
 10
-3.5732521287
 20
34.7414526963
 10
-3.6527792104
 20
34.7905481458
 10
-3.7313025035
 20
34.8466265301
 10
-3.808808674
 20
34.90957049
 10
-3.8840235985
 20
34.9783675539
 10
-3.9569072954
 20
35.053093374
 10
-4.0274997463
 20
35.1336722983
  0
LINE
  5
23B
100
AcDbEntity
  8
0
100
AcDbLine
 62
7
  6
CONTINUOUS
 10
-2.5112251367
 20
34.1492809271
 11
-2.5861298946
 21
34.1110005657
  0
LINE
  5
23C
100
AcDbEntity
  8
0
100
AcDbLine
 62
7
  6
CONTINUOUS
 10
-1.9168160475
 20
33.6191058488
 11
-1.919346373
 21
33.617840237
  0
LINE
  5
23D
100
AcDbEntity
  8
0
100
AcDbLine
 62
7
  6
CONTINUOUS
 10
-5.9934831128
 20
35.3563527736
 11
-5.9981165476
 21
35.3540903644
  0
LINE
  5
23E
100
AcDbEntity
  8
0
100
AcDbLine
 62
7
  6
CONTINUOUS
 10
-5.1184774875
 20
35.0627741973
 11
-5.1231086264
 21
35.0605227668
  0
LINE
  5
23F
100
AcDbEntity
  8
0
100
AcDbLine
 62
7
  6
CONTINUOUS
 10
-5.9981328784
 20
35.3541231743
 11
-5.9934830374
 21
35.3563528042
  0
LWPOLYLINE
  5
240
100
AcDbEntity
  8
0
100
AcDbPolyline
 62
7
  6
CONTINUOUS
 90
3
 70
0
 10
-3.867494198
 20
33.6373802795
 10
-3.870573245
 20
33.636058968
 10
-3.8730046825
 20
33.6347303817
  0
LINE
  5
241
100
AcDbEntity
  8
0
100
AcDbLine
 62
7
  6
CONTINUOUS
 10
-3.5870730339
 20
32.3777186001
 11
-3.593182684
 21
32.3751543721
  0
LINE
  5
242
100
AcDbEntity
  8
0
100
AcDbLine
 62
7
  6
CONTINUOUS
 10
-1.3726577688
 20
35.5707801261
 11
-1.3666323574
 21
35.5732639072
  0
LINE
  5
243
100
AcDbEntity
  8
0
100
AcDbLine
 62
7
  6
CONTINUOUS
 10
-0.5189044754
 20
34.7538997703
 11
-0.522094724
 21
34.7525846934
  0
LINE
  5
244
100
AcDbEntity
  8
0
100
AcDbLine
 62
7
  6
CONTINUOUS
 10
-5.7548190471
 20
34.8037182238
 11
-5.1231087169
 21
35.06052273
  0
LINE
  5
245
100
AcDbEntity
  8
0
100
AcDbLine
 62
7
  6
CONTINUOUS
 10
-5.361791976
 20
35.6130066493
 11
-5.9934831128
 21
35.3563527736
  0
LINE
  5
246
100
AcDbEntity
  8
0
100
AcDbLine
 62
7
  6
CONTINUOUS
 10
-1.3664908239
 20
35.5732975391
 11
-1.3694675195
 21
35.5720952033
  0
LINE
  5
247
100
AcDbEntity
  8
0
100
AcDbLine
 62
7
  6
CONTINUOUS
 10
-0.5250714203
 20
34.7513823573
 11
-0.5191084038
 21
34.7537909167
  0
LWPOLYLINE
  5
248
100
AcDbEntity
  8
0
100
AcDbPolyline
 62
7
  6
CONTINUOUS
 90
6
 70
0
 10
-2.5861298946
 20
34.1110005657
 10
-2.6637787691
 20
34.0802740221
 10
-2.7441717602
 20
34.0571012964
 10
-2.8276201021
 20
34.041403293
 10
-2.9138125605
 20
34.0332591074
 10
-3.0018154326
 20
34.0329060261
  0
LWPOLYLINE
  5
249
100
AcDbEntity
  8
RACCORDO
100
AcDbPolyline
 62
250
  6
CONTINUOUS
 90
16
 70
0
 10
4.9608931938
 20
35.382688919
 10
4.9219890895
 20
35.3678694801
 10
4.8798502091
 20
35.3554260618
 10
4.8349230703
 20
35.3454905186
 10
4.787683736
 20
35.3381681309
 10
4.7386327698
 20
35.333536489
 10
4.688289932
 20
35.3316446715
 10
4.6371886722
 20
35.3325127245
 10
4.585870476
 20
35.33613145
 10
4.5348791283
 20
35.3424625028
 10
4.4847549503
 20
35.3514387968
 10
4.4360290743
 20
35.3629652164
 10
4.389217816
 20
35.3769196237
 10
4.344817203
 20
35.3931541532
 10
4.3032977189
 20
35.4114967784
 10
4.2650993179
 20
35.4317531348
  0
LINE
  5
24A
100
AcDbEntity
  8
RACCORDO
100
AcDbLine
 62
7
  6
CONTINUOUS
 10
6.8583122187
 20
36.6131283026
 11
7.7208226699
 21
36.9297331275
  0
LINE
  5
24B
100
AcDbEntity
  8
0
100
AcDbLine
 62
7
  6
CONTINUOUS
 10
-5.5066906564
 20
37.4925893457
 11
-5.5025791384
 21
37.4983039584
  0
LINE
  5
24C
100
AcDbEntity
  8
0
100
AcDbLine
 62
7
  6
CONTINUOUS
 10
-6.2777807011
 20
38.5435515121
 11
-6.2739462606
 21
38.548423069
  0
LINE
  5
24D
100
AcDbEntity
  8
0
100
AcDbLine
 62
7
  6
CONTINUOUS
 10
-6.0124470071
 20
35.3405900208
 11
-6.0070067862
 21
35.3472989337
  0
LINE
  5
24E
100
AcDbEntity
  8
0
100
AcDbLine
 62
7
  6
CONTINUOUS
 10
-4.003522643
 20
39.1643985968
 11
-3.998819579
 21
39.170073641
  0
LINE
  5
24F
100
AcDbEntity
  8
0
100
AcDbLine
 62
7
  6
CONTINUOUS
 10
-3.8844557616
 20
33.6257478457
 11
-3.8818323322
 21
33.6283546278
  0
LINE
  5
250
100
AcDbEntity
  8
0
100
AcDbLine
 62
7
  6
CONTINUOUS
 10
-5.5116602618
 20
37.4876820238
 11
-5.5066952375
 21
37.4925829784
  0
LWPOLYLINE
  5
251
100
AcDbEntity
  8
0
100
AcDbPolyline
 62
7
  6
CONTINUOUS
 90
13
 70
0
 10
-2.1267702899
 20
33.45760919
 10
-2.1329428145
 20
33.4518529908
 10
-2.1380965289
 20
33.4448253256
 10
-2.142231433
 20
33.4365261947
 10
-2.1454404803
 20
33.4267200595
 10
-2.1476307173
 20
33.4156424585
 10
-2.1485232836
 20
33.4040000064
 10
-2.1479362347
 20
33.3917408997
 10
-2.146051515
 20
33.3789169419
 10
-2.1431360971
 20
33.3663901592
 10
-2.1392789716
 20
33.3544478936
 10
-2.1343911478
 20
33.342802803
 10
-2.1284726257
 20
33.3314548876
  0
LINE
  5
252
100
AcDbEntity
  8
0
100
AcDbLine
 62
7
  6
CONTINUOUS
 10
-2.1317141897
 20
33.4531721559
 11
-2.1267703637
 21
33.4576091328
  0
LINE
  5
253
100
AcDbEntity
  8
0
100
AcDbLine
 62
7
  6
CONTINUOUS
 10
-3.5780435027
 20
32.383557086
 11
-3.5754023841
 21
32.3856247051
  0
LINE
  5
254
100
AcDbEntity
  8
0
100
AcDbLine
 62
7
  6
CONTINUOUS
 10
-1.9222650191
 20
33.6160318709
 11
-2.1267702899
 21
33.45760919
  0
LINE
  5
255
100
AcDbEntity
  8
0
100
AcDbLine
 62
7
  6
CONTINUOUS
 10
-1.4986013724
 20
32.3574219261
 11
-1.2940961017
 21
32.515844607
  0
LINE
  5
256
100
AcDbEntity
  8
0
100
AcDbLine
 62
7
  6
CONTINUOUS
 10
-3.8791912136
 20
33.6304222469
 11
-3.8763161122
 21
33.632636273
  0
LWPOLYLINE
  5
257
100
AcDbEntity
  8
0
100
AcDbPolyline
 62
7
  6
CONTINUOUS
 90
7
 70
0
 10
-0.5132409005
 20
34.7571808268
 10
-0.5078647129
 20
34.761276941
 10
-0.5027070482
 20
34.7663047203
 10
-0.4981089714
 20
34.7720167925
 10
-0.4940675539
 20
34.7784411842
 10
-0.4905857244
 20
34.7855498687
 10
-0.4879123679
 20
34.7930883203
  0
LINE
  5
258
100
AcDbEntity
  8
0
100
AcDbLine
 62
7
  6
CONTINUOUS
 10
-2.4563606402
 20
34.1842573231
 11
-2.404055717
 21
34.2233179284
  0
LINE
  5
259
100
AcDbEntity
  8
0
100
AcDbLine
 62
7
  6
CONTINUOUS
 10
-2.6938224492
 20
34.7465598449
 11
-2.7527540071
 21
34.7035674591
  0
LINE
  5
25A
100
AcDbEntity
  8
0
100
AcDbLine
 62
7
  6
CONTINUOUS
 10
-2.5112251419
 20
34.1492809236
 11
-2.4563606402
 21
34.1842573231
  0
LWPOLYLINE
  5
25B
100
AcDbEntity
  8
0
100
AcDbPolyline
 62
7
  6
CONTINUOUS
 90
9
 70
0
 10
-3.8730046825
 20
33.6347303817
 10
-3.8765604694
 20
33.6324817444
 10
-3.8819937111
 20
33.6282282912
 10
-3.8868568062
 20
33.6233288619
 10
-3.8911659187
 20
33.6177532031
 10
-3.8947391414
 20
33.6116033906
 10
-3.8975158387
 20
33.6049134499
 10
-3.8995566464
 20
33.5976493556
 10
-3.9008615643
 20
33.5898111076
  0
LINE
  5
25C
100
AcDbEntity
  8
0
100
AcDbLine
 62
7
  6
CONTINUOUS
 10
-3.5842300338
 20
32.3792489512
 11
-3.5809186041
 21
32.38134306
  0
LINE
  5
25D
100
AcDbEntity
  8
0
100
AcDbLine
 62
7
  6
CONTINUOUS
 10
-0.5160362547
 20
34.7554307781
 11
-0.5132409005
 21
34.7571808268
  0
LINE
  5
25E
100
AcDbEntity
  8
0
100
AcDbLine
 62
7
  6
CONTINUOUS
 10
-1.3785377542
 20
35.5673636899
 11
-1.3755254672
 21
35.5692480827
  0
LINE
  5
25F
100
AcDbEntity
  8
0
100
AcDbLine
 62
7
  6
CONTINUOUS
 10
-1.9222653349
 20
33.6160316262
 11
-1.9193520147
 21
33.6178518834
  0
LINE
  5
260
100
AcDbEntity
  8
0
100
AcDbLine
 62
7
  6
CONTINUOUS
 10
-1.4986010566
 20
32.3574221707
 11
-1.5015143768
 21
32.3556019135
  0
LINE
  5
261
100
AcDbEntity
  8
0
100
AcDbLine
 62
250
  6
CONTINUOUS
 10
-1.9174574045
 20
33.6188074974
 11
-1.9222661845
 21
33.6160309681
  0
LINE
  5
262
100
AcDbEntity
  8
0
100
AcDbLine
 62
7
  6
CONTINUOUS
 10
-3.5842321208
 20
32.3792530917
 11
-3.5870730339
 21
32.3777186001
  0
LINE
  5
263
100
AcDbEntity
  8
0
100
AcDbLine
 62
7
  6
CONTINUOUS
 10
-0.5160367769
 20
34.7554318137
 11
-0.5189044754
 21
34.7538997703
  0
LWPOLYLINE
  5
264
100
AcDbEntity
  8
0
100
AcDbPolyline
 62
7
  6
CONTINUOUS
 90
16
 70
0
 10
-1.9193520147
 20
33.6178518834
 10
-1.9169198374
 20
33.6190786385
 10
-1.9110846191
 20
33.6211114198
 10
-1.90475968
 20
33.6221299701
 10
-1.8978235665
 20
33.6220864195
 10
-1.8903977323
 20
33.621028638
 10
-1.8828465381
 20
33.6191002351
 10
-1.8751779861
 20
33.6162865317
 10
-1.8673840741
 20
33.612602207
 10
-1.8598051566
 20
33.608234908
 10
-1.8524733766
 20
33.6032120232
 10
-1.8453565911
 20
33.5975061641
 10
-1.8386987244
 20
33.5912228129
 10
-1.8325810848
 20
33.5843971302
 10
-1.8269223639
 20
33.5769939554
 10
-1.8217225619
 20
33.5690132884
  0
LWPOLYLINE
  5
265
100
AcDbEntity
  8
0
100
AcDbPolyline
 62
7
  6
CONTINUOUS
 90
3
 70
0
 10
-1.5015143768
 20
32.3556019135
 10
-1.5039465541
 20
32.3543751585
 10
-1.5097817724
 20
32.3523423772
  0
LINE
  5
266
100
AcDbEntity
  8
DRAFT
100
AcDbLine
 62
7
  6
CONTINUOUS
 10
7.7048142539
 20
36.42217932
 11
6.8583122187
 21
36.0189332493
  0
LINE
  5
267
100
AcDbEntity
  8
DRAFT
100
AcDbLine
 62
7
  6
CONTINUOUS
 10
8.4392684851
 20
36.3994908101
 11
8.2624917898
 21
36.3152801351
  0
LINE
  5
268
100
AcDbEntity
  8
0
100
AcDbLine
 62
7
  6
CONTINUOUS
 10
-6.2843881744
 20
38.530618882
 11
-6.2814281157
 21
38.5374224028
  0
LWPOLYLINE
  5
269
100
AcDbEntity
  8
0
100
AcDbPolyline
 62
7
  6
CONTINUOUS
 90
19
 70
0
 10
-4.4068576869
 20
37.1654124913
 10
-4.4426132983
 20
37.0962689404
 10
-4.4734367099
 20
37.0223541862
 10
-4.499437893
 20
36.9432146723
 10
-4.5205068763
 20
36.8593039549
 10
-4.5363137453
 20
36.7719827033
 10
-4.546766438
 20
36.6812859116
 10
-4.5519570165
 20
36.5871785856
 10
-4.5518317517
 20
36.4909164116
 10
-4.5463188325
 20
36.3923794918
 10
-4.5354900701
 20
36.291687724
 10
-4.5195071692
 20
36.1904564881
 10
-4.4983302497
 20
36.0888072717
 10
-4.4719991917
 20
35.9866185872
 10
-4.4407953403
 20
35.8851413514
 10
-4.4045664074
 20
35.7842278628
 10
-4.3634646812
 20
35.6840258228
 10
-4.3182283716
 20
35.5862292531
 10
-4.2689092502
 20
35.4910220477
  0
LINE
  5
26A
100
AcDbEntity
  8
0
100
AcDbLine
 62
7
  6
CONTINUOUS
 10
-4.7638762749
 20
37.6029476643
 11
-4.8089988911
 21
37.5186590796
  0
LINE
  5
26B
100
AcDbEntity
  8
0
100
AcDbLine
 62
7
  6
CONTINUOUS
 10
-6.2814281157
 20
38.5374224028
 11
-6.2785033455
 21
38.5423371818
  0
LWPOLYLINE
  5
26C
100
AcDbEntity
  8
0
100
AcDbPolyline
 62
7
  6
CONTINUOUS
 90
3
 70
0
 10
-4.0035210302
 20
39.1644073093
 10
-4.0074296925
 20
39.1580680746
 10
-4.0104574432
 20
39.1510764945
  0
LINE
  5
26D
100
AcDbEntity
  8
0
100
AcDbLine
 62
7
  6
CONTINUOUS
 10
-4.4087677712
 20
37.1620263503
 11
-4.366169992
 21
37.2297845957
  0
LWPOLYLINE
  5
26E
100
AcDbEntity
  8
0
100
AcDbPolyline
 62
7
  6
CONTINUOUS
 90
5
 70
0
 10
-5.103093514
 20
35.0779175683
 10
-5.1073969926
 20
35.0720963827
 10
-5.1121252318
 20
35.0672940352
 10
-5.117362443
 20
35.0634361632
 10
-5.1184774875
 20
35.0627741973
  0
LINE
  5
26F
100
AcDbEntity
  8
0
100
AcDbLine
 62
7
  6
CONTINUOUS
 10
-3.5682510238
 20
32.3934024977
 11
-3.566163376
 21
32.3961037528
  0
LINE
  5
270
100
AcDbEntity
  8
0
100
AcDbLine
 62
7
  6
CONTINUOUS
 10
-3.8889836925
 20
33.6205768353
 11
-3.8867160213
 21
33.6234706987
  0
LWPOLYLINE
  5
271
100
AcDbEntity
  8
0
100
AcDbPolyline
 62
7
  6
CONTINUOUS
 90
5
 70
0
 10
-3.5662506971
 20
32.3959551925
 10
-3.5706292499
 20
32.3903675509
 10
-3.5755534491
 20
32.3854745987
 10
-3.5810404183
 20
32.3812492547
 10
-3.5842321208
 20
32.3792530917
  0
LWPOLYLINE
  5
272
100
AcDbEntity
  8
0
100
AcDbPolyline
 62
7
  6
CONTINUOUS
 90
5
 70
0
 10
-1.388855196
 20
35.5583751761
 10
-1.3934532727
 20
35.5526631039
 10
-1.3974946903
 20
35.5462387123
 10
-1.4009765198
 20
35.5391300279
 10
-1.4036498763
 20
35.5315915761
  0
LWPOLYLINE
  5
273
100
AcDbEntity
  8
0
100
AcDbPolyline
 62
7
  6
CONTINUOUS
 90
19
 70
0
 10
-2.6421291985
 20
34.7936192415
 10
-2.5943228343
 20
34.8469602596
 10
-2.5509430719
 20
34.906090164
 10
-2.5119832897
 20
34.971312241
 10
-2.4774501092
 20
35.0423232045
 10
-2.4479031105
 20
35.1177204607
 10
-2.4234712955
 20
35.1973795855
 10
-2.4040256622
 20
35.2814250031
 10
-2.3897387848
 20
35.368827392
 10
-2.3806408863
 20
35.4597488251
 10
-2.3767017438
 20
35.5540272297
 10
-2.3780032622
 20
35.6501470659
 10
-2.3846042128
 20
35.7479959075
 10
-2.3964458244
 20
35.8476861808
 10
-2.4134336893
 20
35.9480396251
 10
-2.4356955009
 20
36.0491960555
 10
-2.4631035659
 20
36.1510156568
 10
-2.4951803962
 20
36.2519007232
 10
-2.5317668293
 20
36.3513186859
  0
LINE
  5
274
100
AcDbEntity
  8
0
100
AcDbLine
 62
7
  6
CONTINUOUS
 10
-3.5727789547
 20
32.3882314872
 11
-3.570518695
 21
32.3905086343
  0
LINE
  5
275
100
AcDbEntity
  8
0
100
AcDbLine
 62
7
  6
CONTINUOUS
 10
-1.2940961017
 20
32.515844607
 11
-1.2885540721
 21
32.5210128368
  0
LINE
  5
276
100
AcDbEntity
  8
DRAFT
100
AcDbLine
 62
7
  6
CONTINUOUS
 10
7.7048142539
 20
34.1166315756
 11
6.8583122187
 21
33.5423583144
  0
LINE
  5
277
100
AcDbEntity
  8
DRAFT
100
AcDbLine
 62
7
  6
CONTINUOUS
 10
8.4392684851
 20
34.1709002352
 11
8.2624917898
 21
34.0509736135
  0
LINE
  5
278
100
AcDbEntity
  8
RACCORDO
100
AcDbLine
 62
250
  6
CONTINUOUS
 10
3.8231501098
 20
22.5791274994
 11
5.8922626718
 21
23.2185461157
  0
LINE
  5
279
100
AcDbEntity
  8
0
100
AcDbLine
 62
7
  6
CONTINUOUS
 10
-6.286660877
 20
38.5231409511
 11
-6.3651471939
 21
38.2130025544
  0
LINE
  5
27A
100
AcDbEntity
  8
0
100
AcDbLine
 62
7
  6
CONTINUOUS
 10
-4.9128931694
 20
37.2347619937
 11
-4.8836053929
 21
37.3345276164
  0
LINE
  5
27B
100
AcDbEntity
  8
0
100
AcDbLine
 62
7
  6
CONTINUOUS
 10
-6.2866608773
 20
38.52314095
 11
-6.2843881744
 21
38.530618882
  0
LWPOLYLINE
  5
27C
100
AcDbEntity
  8
0
100
AcDbPolyline
 62
7
  6
CONTINUOUS
 90
3
 70
0
 10
-5.4965416381
 20
37.5122264962
 10
-5.499182993
 20
37.5048615797
 10
-5.5025635599
 20
37.4983182689
  0
LWPOLYLINE
  5
27D
100
AcDbEntity
  8
0
100
AcDbPolyline
 62
7
  6
CONTINUOUS
 90
3
 70
0
 10
-4.8836053929
 20
37.3345276164
 10
-4.8490640798
 20
37.4289417835
 10
-4.8091542569
 20
37.5184154001
  0
LINE
  5
27E
100
AcDbEntity
  8
0
100
AcDbLine
 62
7
  6
CONTINUOUS
 10
-3.5625714336
 20
32.4022453832
 11
-3.5597861455
 21
32.4089038133
  0
LWPOLYLINE
  5
27F
100
AcDbEntity
  8
0
100
AcDbPolyline
 62
7
  6
CONTINUOUS
 90
4
 70
0
 10
-2.1429945516
 20
33.4345460851
 10
-2.1397920857
 20
33.4416904646
 10
-2.1360547638
 20
33.4478659331
 10
-2.1323123194
 20
33.4524409601
  0
LINE
  5
280
100
AcDbEntity
  8
0
100
AcDbLine
 62
7
  6
CONTINUOUS
 10
-3.566163376
 20
32.3961037528
 11
-3.5625714336
 21
32.4022453832
  0
LWPOLYLINE
  5
281
100
AcDbEntity
  8
0
100
AcDbPolyline
 62
7
  6
CONTINUOUS
 90
11
 70
0
 10
-1.287923577
 20
32.5216008062
 10
-1.2827698626
 20
32.5286284713
 10
-1.2786349586
 20
32.5369276023
 10
-1.2754259112
 20
32.5467337375
 10
-1.2732356742
 20
32.5578113385
 10
-1.272343108
 20
32.5694537905
 10
-1.2729301569
 20
32.5817128973
 10
-1.2748148765
 20
32.5945368551
 10
-1.2777302945
 20
32.6070636378
 10
-1.28158742
 20
32.6190059034
 10
-1.2864752437
 20
32.6306509939
  0
LINE
  5
282
100
AcDbEntity
  8
RACCORDO
100
AcDbLine
 62
250
  6
CONTINUOUS
 10
5.9581140681
 20
23.2458664967
 11
6.8583122187
 21
23.712579517
  0
LINE
  5
283
100
AcDbEntity
  8
RACCORDO
100
AcDbLine
 62
7
  6
CONTINUOUS
 10
5.8440734477
 20
23.0113889038
 11
6.7481963313
 21
23.480136725
  0
LWPOLYLINE
  5
284
100
AcDbEntity
  8
RACCORDO
100
AcDbPolyline
 62
250
  6
CONTINUOUS
 90
16
 70
0
 10
3.8231501098
 20
22.5791274994
 10
3.7841461537
 20
22.564274481
 10
3.7418926577
 20
22.5518095558
 10
3.6968395739
 20
22.5418654406
 10
3.6494624777
 20
22.5345474914
 10
3.600269739
 20
22.5299346
 10
3.5497984957
 20
22.528076
 10
3.4985953506
 20
22.5289889289
 10
3.4471969443
 20
22.5326609709
 10
3.3961374225
 20
22.5390527997
 10
3.345902155
 20
22.5481082594
 10
3.2970856122
 20
22.5597248775
 10
3.2503553349
 20
22.5737296236
 10
3.2062310725
 20
22.5899326324
 10
3.1650984711
 20
22.6081564612
 10
3.1273562339
 20
22.6281917153
  0
LWPOLYLINE
  5
285
100
AcDbEntity
  8
RACCORDO
100
AcDbPolyline
 62
7
  6
CONTINUOUS
 90
6
 70
0
 10
5.6989369952
 20
22.9512513083
 10
5.7285153953
 20
22.9611173324
 10
5.7581310609
 20
22.9722008538
 10
5.7877451101
 20
22.9845089938
 10
5.817332714
 20
22.9980530247
 10
5.8440599705
 20
23.0113819172
  0
LWPOLYLINE
  5
286
100
AcDbEntity
  8
RACCORDO
100
AcDbPolyline
 62
250
  6
CONTINUOUS
 90
10
 70
0
 10
5.8922626718
 20
23.2185461157
 10
5.8994978949
 20
23.2208685831
 10
5.9067550304
 20
23.2233698939
 10
5.9140340782
 20
23.2260500479
 10
5.9213370554
 20
23.228909793
 10
5.928661945
 20
23.2319483813
 10
5.9360026961
 20
23.2351635701
 10
5.9433572919
 20
23.2385546118
 10
5.9507277492
 20
23.242122254
 10
5.9581140681
 20
23.2458664967
  0
LINE
  5
287
100
AcDbEntity
  8
RACCORDO
100
AcDbLine
 62
7
  6
CONTINUOUS
 10
3.6265995582
 20
22.3108290553
 11
5.6989369952
 21
22.9512513083
  0
LWPOLYLINE
  5
288
100
AcDbEntity
  8
RACCORDO
100
AcDbPolyline
 62
250
  6
CONTINUOUS
 90
9
 70
0
 10
-11.7886148266
 20
31.358079379
 10
-11.7878825623
 20
31.3292144718
 10
-11.7816869691
 20
31.3025476467
 10
-11.7702530709
 20
31.2759948437
 10
-11.7537067531
 20
31.2498699793
 10
-11.732301059
 20
31.2245317682
 10
-11.7063393232
 20
31.2002659682
 10
-11.6761172236
 20
31.1772889768
 10
-11.641990548
 20
31.1558274438
  0
LINE
  5
289
100
AcDbEntity
  8
RACCORDO
100
AcDbLine
 62
7
  6
CONTINUOUS
 10
-9.9520110716
 20
61.7799258696
 11
-9.9520110716
 21
74.0892541426
  0
LINE
  5
28A
100
AcDbEntity
  8
RACCORDO
100
AcDbLine
 62
250
  6
CONTINUOUS
 10
-9.8072936612
 20
60.3885280457
 11
-9.8055644621
 21
61.5757885729
  0
LWPOLYLINE
  5
28B
100
AcDbEntity
  8
RACCORDO
100
AcDbPolyline
 62
7
  6
CONTINUOUS
 90
10
 70
0
 10
-9.9520110714
 20
61.7799319883
 10
-9.9565385654
 20
59.8986160671
 10
-9.9735370992
 20
57.9543022336
 10
-10.008480259
 20
56.0043162459
 10
-10.0664299465
 20
54.0459198075
 10
-10.1518831624
 20
52.0768989083
 10
-10.2644747813
 20
50.0974343832
 10
-10.3993364263
 20
48.1105337493
 10
-10.5512384115
 20
46.1191211321
 10
-10.7089369576
 20
44.1951668796
  0
LINE
  5
28C
100
AcDbEntity
  8
RACCORDO
100
AcDbLine
 62
250
  6
CONTINUOUS
 10
-9.8123749869
 20
59.2978342148
 11
-9.8072936612
 21
60.3885280457
  0
LINE
  5
28D
100
AcDbEntity
  8
RACCORDO
100
AcDbLine
 62
250
  6
CONTINUOUS
 10
-9.8207175909
 20
58.298935051
 11
-9.8123749869
 21
59.2978342148
  0
LINE
  5
28E
100
AcDbEntity
  8
RACCORDO
100
AcDbLine
 62
250
  6
CONTINUOUS
 10
-9.8322426488
 20
57.3758245701
 11
-9.8207175909
 21
58.298935051
  0
LINE
  5
28F
100
AcDbEntity
  8
RACCORDO
100
AcDbLine
 62
250
  6
CONTINUOUS
 10
-9.8468366981
 20
56.5140134491
 11
-9.8322426488
 21
57.3758245701
  0
LINE
  5
290
100
AcDbEntity
  8
RACCORDO
100
AcDbLine
 62
250
  6
CONTINUOUS
 10
-9.8643048459
 20
55.7039145359
 11
-9.8468366981
 21
56.5140134491
  0
LINE
  5
291
100
AcDbEntity
  8
RACCORDO
100
AcDbLine
 62
250
  6
CONTINUOUS
 10
-9.8846595743
 20
54.9309903976
 11
-9.8643048459
 21
55.7039145359
  0
LINE
  5
292
100
AcDbEntity
  8
RACCORDO
100
AcDbLine
 62
250
  6
CONTINUOUS
 10
-9.9081254886
 20
54.1805387412
 11
-9.8846595743
 21
54.9309903976
  0
LINE
  5
293
100
AcDbEntity
  8
RACCORDO
100
AcDbLine
 62
250
  6
CONTINUOUS
 10
-9.9349806926
 20
53.4428649487
 11
-9.9081254886
 21
54.1805387412
  0
LINE
  5
294
100
AcDbEntity
  8
RACCORDO
100
AcDbLine
 62
250
  6
CONTINUOUS
 10
-9.9659836399
 20
52.7013367647
 11
-9.9349806926
 21
53.4428649487
  0
LWPOLYLINE
  5
295
100
AcDbEntity
  8
RACCORDO
100
AcDbPolyline
 62
250
  6
CONTINUOUS
 90
16
 70
0
 10
-9.8055644621
 20
73.8851168459
 10
-9.8036916252
 20
73.9281617233
 10
-9.798092956
 20
73.9729132728
 10
-9.7888277687
 20
74.0188973802
 10
-9.7759942221
 20
74.0656268732
 10
-9.7597282794
 20
74.1126066824
 10
-9.7402022681
 20
74.1593390861
 10
-9.717623054
 20
74.2053289841
 10
-9.6922298493
 20
74.2500891427
 10
-9.6642916791
 20
74.2931453566
 10
-9.6341045302
 20
74.3340414726
 10
-9.6019882165
 20
74.3723442223
 10
-9.5682829901
 20
74.407647812
 10
-9.5333459365
 20
74.4395782226
 10
-9.4975471916
 20
74.4677971718
 10
-9.4612660204
 20
74.4920056975
  0
LINE
  5
296
100
AcDbEntity
  8
RACCORDO
100
AcDbLine
 62
250
  6
CONTINUOUS
 10
-10.0014107634
 20
51.9526253278
 11
-9.9659836399
 21
52.7013367647
  0
LINE
  5
297
100
AcDbEntity
  8
RACCORDO
100
AcDbLine
 62
250
  6
CONTINUOUS
 10
-10.0410988862
 20
51.1969834598
 11
-10.0014107634
 21
51.9526253278
  0
LINE
  5
298
100
AcDbEntity
  8
RACCORDO
100
AcDbLine
 62
250
  6
CONTINUOUS
 10
-10.08440878
 20
50.4419336782
 11
-10.0410988862
 21
51.1969834598
  0
LINE
  5
299
100
AcDbEntity
  8
RACCORDO
100
AcDbLine
 62
250
  6
CONTINUOUS
 10
-10.155758629
 20
49.3068774477
 11
-10.08440878
 21
50.4419336782
  0
LINE
  5
29A
100
AcDbEntity
  8
RACCORDO
100
AcDbLine
 62
250
  6
CONTINUOUS
 10
-10.2348519471
 20
48.1566144867
 11
-10.155758629
 21
49.3068774477
  0
LINE
  5
29B
100
AcDbEntity
  8
RACCORDO
100
AcDbLine
 62
250
  6
CONTINUOUS
 10
-10.3222472566
 20
46.9738937444
 11
-10.2348519471
 21
48.1566144867
  0
LINE
  5
29C
100
AcDbEntity
  8
RACCORDO
100
AcDbLine
 62
250
  6
CONTINUOUS
 10
-10.452833649
 20
45.317028683
 11
-10.3222472566
 21
46.9738937444
  0
LINE
  5
29D
100
AcDbEntity
  8
RACCORDO
100
AcDbLine
 62
250
  6
CONTINUOUS
 10
-10.5623126753
 20
43.9929149886
 11
-10.452833649
 21
45.317028683
  0
LINE
  5
29E
100
AcDbEntity
  8
RACCORDO
100
AcDbLine
 62
7
  6
CONTINUOUS
 10
-11.7886148266
 20
31.358079379
 11
-10.7089369762
 21
44.1951666592
  0
LINE
  5
29F
100
AcDbEntity
  8
RACCORDO
100
AcDbLine
 62
250
  6
CONTINUOUS
 10
-11.641990548
 20
31.1558274438
 11
-10.5623126753
 21
43.9929149886
  0
LINE
  5
2A0
100
AcDbEntity
  8
0
100
AcDbLine
 62
7
  6
CONTINUOUS
 10
-4.9362919833
 20
37.1327633596
 11
-4.9550182732
 21
37.0216418119
  0
LWPOLYLINE
  5
2A1
100
AcDbEntity
  8
0
100
AcDbPolyline
 62
7
  6
CONTINUOUS
 90
3
 70
0
 10
-4.0141794103
 20
39.135036869
 10
-4.0127177231
 20
39.1433840153
 10
-4.010471715
 20
39.151053784
  0
LWPOLYLINE
  5
2A2
100
AcDbEntity
  8
0
100
AcDbPolyline
 62
7
  6
CONTINUOUS
 90
3
 70
0
 10
-5.4180552865
 20
37.82236503
 10
-5.4160785476
 20
37.8327044411
 10
-5.4153000654
 20
37.843636972
  0
LINE
  5
2A3
100
AcDbEntity
  8
0
100
AcDbLine
 62
7
  6
CONTINUOUS
 10
-4.9124286537
 20
37.2366216961
 11
-4.9368124361
 21
37.1300558204
  0
LWPOLYLINE
  5
2A4
100
AcDbEntity
  8
0
100
AcDbPolyline
 62
7
  6
CONTINUOUS
 90
4
 70
0
 10
-6.0234405645
 20
35.3119064852
 10
-6.020959888
 20
35.3223897037
 10
-6.0171439987
 20
35.3322171882
 10
-6.0124635514
 20
35.3405605289
  0
LINE
  5
2A5
100
AcDbEntity
  8
0
100
AcDbLine
 62
7
  6
CONTINUOUS
 10
-5.4965416642
 20
37.5122263929
 11
-5.4180552865
 21
37.82236503
  0
LWPOLYLINE
  5
2A6
100
AcDbEntity
  8
0
100
AcDbPolyline
 62
7
  6
CONTINUOUS
 90
3
 70
0
 10
-3.5597188776
 20
32.4090658831
 10
-3.5576780699
 20
32.4163299774
 10
-3.556373152
 20
32.4241682253
  0
LWPOLYLINE
  5
2A7
100
AcDbEntity
  8
0
100
AcDbPolyline
 62
7
  6
CONTINUOUS
 90
5
 70
0
 10
-1.27787184
 20
32.5389077118
 10
-1.2810743058
 20
32.5317633324
 10
-1.2848116278
 20
32.5255878638
 10
-1.2891522018
 20
32.5202816411
 10
-1.2940960278
 20
32.5158446642
  0
LWPOLYLINE
  5
2A8
100
AcDbEntity
  8
RACCORDO
100
AcDbPolyline
 62
250
  6
CONTINUOUS
 90
5
 70
0
 10
5.8089322013
 20
23.0268054901
 10
5.7828433844
 20
23.0000718039
 10
5.7542002648
 20
22.9779937525
 10
5.7233144957
 20
22.9608115586
 10
5.6957137404
 20
22.9502481723
  0
LWPOLYLINE
  5
2A9
100
AcDbEntity
  8
RACCORDO
100
AcDbPolyline
 62
250
  6
CONTINUOUS
 90
9
 70
0
 10
-9.9520110716
 20
74.0892541426
 10
-9.9508945353
 20
74.0699717388
 10
-9.9448031114
 20
74.0404111027
 10
-9.9334529481
 20
74.0113309612
 10
-9.9169703237
 20
73.9830825032
 10
-9.8956231122
 20
73.9560685404
 10
-9.8697295575
 20
73.930592031
 10
-9.8395892393
 20
73.9068662573
 10
-9.8055644621
 20
73.8851168459
  0
LWPOLYLINE
  5
2AA
100
AcDbEntity
  8
RACCORDO
100
AcDbPolyline
 62
250
  6
CONTINUOUS
 90
9
 70
0
 10
-9.9520110716
 20
61.7799258696
 10
-9.9509688807
 20
61.7612957965
 10
-9.9450090901
 20
61.7317807774
 10
-9.9338262982
 20
61.702775825
 10
-9.9175389795
 20
61.6745882284
 10
-9.8963196879
 20
61.6475166173
 10
-9.8703932283
 20
61.6218477982
 10
-9.8400342751
 20
61.5978537161
 10
-9.8055644621
 20
61.5757885729
  0
LWPOLYLINE
  5
2AB
100
AcDbEntity
  8
RACCORDO
100
AcDbPolyline
 62
250
  6
CONTINUOUS
 90
9
 70
0
 10
-10.7089369762
 20
44.1951666592
 10
-10.7082670008
 20
44.1667744295
 10
-10.7021780552
 20
44.140148054
 10
-10.6908812048
 20
44.1136606449
 10
-10.6744961556
 20
44.0875928714
 10
-10.6531965293
 20
44.062220955
 10
-10.6272080239
 20
44.0378137444
 10
-10.5968060226
 20
44.0146298675
 10
-10.5623126753
 20
43.9929149886
  0
LINE
  5
2AC
100
AcDbEntity
  8
0
100
AcDbLine
 62
7
  6
CONTINUOUS
 10
-6.024227675
 20
35.287936261
 11
-6.0244995018
 21
35.3001493021
  0
LINE
  5
2AD
100
AcDbEntity
  8
RACCORDO
100
AcDbLine
 62
250
  6
CONTINUOUS
 10
-9.8055644621
 20
61.5757885729
 11
-9.8055644621
 21
73.8851168459
  0
LINE
  5
2AE
100
AcDbEntity
  8
0
100
AcDbLine
 62
7
  6
CONTINUOUS
 10
-4.9739578731
 20
36.7987812221
 11
-4.9750102865
 21
36.6753854898
  0
LWPOLYLINE
  5
2AF
100
AcDbEntity
  8
0
100
AcDbPolyline
 62
7
  6
CONTINUOUS
 90
16
 70
0
 10
-3.0195452095
 20
37.4752638408
 10
-3.0203380201
 20
37.461354507
 10
-3.0205390694
 20
37.4472658762
 10
-3.0201483573
 20
37.4329979485
 10
-3.0191461327
 20
37.4185163331
 10
-3.0175521467
 20
37.4038554208
 10
-3.015425653
 20
37.3891183842
 10
-3.0127778992
 20
37.3743052118
 10
-3.0095976377
 20
37.3594159151
 10
-3.0059103794
 20
37.3445537016
 10
-3.0017241795
 20
37.32971412
 10
-2.9970309829
 20
37.3149016215
 10
-2.9918321348
 20
37.3002327682
 10
-2.9861280836
 20
37.2857464141
 10
-2.979918381
 20
37.2714037052
 10
-2.9732030269
 20
37.2572046414
  0
LWPOLYLINE
  5
2B0
100
AcDbEntity
  8
0
100
AcDbPolyline
 62
7
  6
CONTINUOUS
 90
3
 70
0
 10
-6.3669155487
 20
38.1965344241
 10
-6.3664143541
 20
38.2049906557
 10
-6.365147173
 20
38.2130026369
  0
LINE
  5
2B1
100
AcDbEntity
  8
0
100
AcDbLine
 62
7
  6
CONTINUOUS
 10
-4.967056593
 20
36.9138431227
 11
-4.9741125764
 21
36.7934673198
  0
LINE
  5
2B2
100
AcDbEntity
  8
0
100
AcDbLine
 62
7
  6
CONTINUOUS
 10
-1.955289308
 20
35.2343500871
 11
-1.96280683
 21
35.1470670827
  0
LINE
  5
2B3
100
AcDbEntity
  8
0
100
AcDbLine
 62
7
  6
CONTINUOUS
 10
-4.0141793924
 20
39.1350370753
 11
-4.0439055492
 21
38.7913053414
  0
LINE
  5
2B4
100
AcDbEntity
  8
0
100
AcDbLine
 62
7
  6
CONTINUOUS
 10
-3.9008615643
 20
33.5898111076
 11
-3.9804899985
 21
32.6690456013
  0
LINE
  5
2B5
100
AcDbEntity
  8
0
100
AcDbLine
 62
7
  6
CONTINUOUS
 10
-3.556373152
 20
32.4241682253
 11
-3.4767447178
 21
33.3449337316
  0
LINE
  5
2B6
100
AcDbEntity
  8
0
100
AcDbLine
 62
7
  6
CONTINUOUS
 10
-2.9673003695
 20
38.0793853093
 11
-3.0195452095
 21
37.4752638408
  0
LINE
  5
2B7
100
AcDbEntity
  8
0
100
AcDbLine
 62
7
  6
CONTINUOUS
 10
-2.5859419275
 20
37.3371232019
 11
-2.5206390815
 21
38.0922379879
  0
LWPOLYLINE
  5
2B8
100
AcDbEntity
  8
0
100
AcDbPolyline
 62
7
  6
CONTINUOUS
 90
5
 70
0
 10
-6.023422703
 20
35.3121024857
 10
-6.0244730566
 20
35.3005765976
 10
-6.024253961
 20
35.2881809327
 10
-6.0229292361
 20
35.275850296
 10
-6.0205534884
 20
35.2638962895
  0
LINE
  5
2B9
100
AcDbEntity
  8
0
100
AcDbLine
 62
7
  6
CONTINUOUS
 10
-4.9545209767
 20
37.0252020728
 11
-4.9674221396
 21
36.9094084835
  0
LINE
  5
2BA
100
AcDbEntity
  8
0
100
AcDbLine
 62
7
  6
CONTINUOUS
 10
-1.9738771113
 20
35.0619064672
 11
-1.9628238858
 21
35.1469142399
  0
LWPOLYLINE
  5
2BB
100
AcDbEntity
  8
0
100
AcDbPolyline
 62
7
  6
CONTINUOUS
 90
14
 70
0
 10
-1.9738501924
 20
35.06208117
 10
-1.9885204104
 20
34.9793723699
 10
-2.0067164689
 20
34.8989606614
 10
-2.0280953264
 20
34.8214363151
 10
-2.0526226519
 20
34.7469073246
 10
-2.0803327764
 20
34.6752656962
 10
-2.1109856512
 20
34.6067777189
 10
-2.1445731545
 20
34.541388354
 10
-2.1811034081
 20
34.4791526401
 10
-2.2203607288
 20
34.4205019816
 10
-2.262329391
 20
34.3654122568
 10
-2.3070251203
 20
34.3139075874
 10
-2.3542794102
 20
34.2664917428
 10
-2.4040360918
 20
34.2233326461
  0
LWPOLYLINE
  5
2BC
100
AcDbEntity
  8
RACCORDO
100
AcDbPolyline
 62
250
  6
CONTINUOUS
 90
3
 70
0
 10
5.8523423656
 20
23.0930287617
 10
5.832182855
 20
23.0579039326
 10
5.8089322013
 20
23.0268054901
  0
LINE
  5
2BD
100
AcDbEntity
  8
0
100
AcDbLine
 62
7
  6
CONTINUOUS
 10
-4.9704456397
 20
36.5617723233
 11
-4.9592783473
 21
36.4330403337
  0
LWPOLYLINE
  5
2BE
100
AcDbEntity
  8
0
100
AcDbPolyline
 62
7
  6
CONTINUOUS
 90
3
 70
0
 10
-4.043334112
 20
38.7737033921
 10
-4.0440055243
 20
38.782644991
 10
-4.0439055344
 20
38.791305512
  0
LWPOLYLINE
  5
2BF
100
AcDbEntity
  8
0
100
AcDbPolyline
 62
7
  6
CONTINUOUS
 90
5
 70
0
 10
-1.9542996683
 20
35.5069761226
 10
-1.9609140674
 20
35.6005795845
 10
-1.9708656933
 20
35.6949425094
 10
-1.9841679241
 20
35.7901864234
 10
-2.000643588
 20
35.8857911028
  0
LINE
  5
2C0
100
AcDbEntity
  8
0
100
AcDbLine
 62
7
  6
CONTINUOUS
 10
-1.4065702227
 20
35.5066521425
 11
-1.3866655605
 21
35.1393908836
  0
LINE
  5
2C1
100
AcDbEntity
  8
0
100
AcDbLine
 62
7
  6
CONTINUOUS
 10
-4.9751070034
 20
36.6813984989
 11
-4.9700406802
 21
36.5552832449
  0
LINE
  5
2C2
100
AcDbEntity
  8
0
100
AcDbLine
 62
7
  6
CONTINUOUS
 10
-1.9543025159
 20
35.5070343399
 11
-1.951037151
 21
35.4143337157
  0
LWPOLYLINE
  5
2C3
100
AcDbEntity
  8
0
100
AcDbPolyline
 62
7
  6
CONTINUOUS
 90
6
 70
0
 10
-5.0922318918
 20
35.1283883811
 10
-5.0919896872
 20
35.1187366622
 10
-5.0926205215
 20
35.1094241203
 10
-5.0940625112
 20
35.1004365055
 10
-5.0962661081
 20
35.0921702783
 10
-5.0992990075
 20
35.0846832295
  0
LINE
  5
2C4
100
AcDbEntity
  8
0
100
AcDbLine
 62
7
  6
CONTINUOUS
 10
-1.9513399908
 20
35.3232969675
 11
-1.9510358741
 21
35.4142536496
  0
LWPOLYLINE
  5
2C5
100
AcDbEntity
  8
0
100
AcDbPolyline
 62
7
  6
CONTINUOUS
 90
16
 70
0
 10
-3.9804899985
 20
32.6690456013
 10
-3.9805968312
 20
32.6602770606
 10
-3.9798894162
 20
32.6511784623
 10
-3.9783677534
 20
32.6417498064
 10
-3.9759514315
 20
32.6318288067
 10
-3.9727208619
 20
32.6215777494
 10
-3.9689172789
 20
32.6114834933
 10
-3.964542834
 20
32.601577177
 10
-3.9595953758
 20
32.5918276618
 10
-3.9543096838
 20
32.5826283905
 10
-3.9487155994
 20
32.5740133149
 10
-3.9427832814
 20
32.5659484832
 10
-3.9366579857
 20
32.5587254819
 10
-3.9303881311
 20
32.5524415066
 10
-3.923925299
 20
32.5469993617
 10
-3.9172694892
 20
32.5423990473
  0
LWPOLYLINE
  5
2C6
100
AcDbEntity
  8
0
100
AcDbPolyline
 62
7
  6
CONTINUOUS
 90
14
 70
0
 10
-3.4767447178
 20
33.3449337316
 10
-3.4766378851
 20
33.3537022723
 10
-3.4773453001
 20
33.3628008707
 10
-3.4788669629
 20
33.3722295265
 10
-3.4812832848
 20
33.3821505263
 10
-3.4845138544
 20
33.3924015836
 10
-3.4883174374
 20
33.4024958397
 10
-3.4926918823
 20
33.412402156
 10
-3.4976393405
 20
33.4221516711
 10
-3.5029250325
 20
33.4313509425
 10
-3.5085191169
 20
33.439966018
 10
-3.5144514349
 20
33.4480308497
 10
-3.5205767306
 20
33.455253851
 10
-3.5266994573
 20
33.4613903671
  0
LWPOLYLINE
  5
2C7
100
AcDbEntity
  8
0
100
AcDbPolyline
 62
7
  6
CONTINUOUS
 90
10
 70
0
 10
-1.4065701866
 20
35.5066514777
 10
-1.4064277437
 20
35.5152556716
 10
-1.4054861357
 20
35.523459852
 10
-1.4037453627
 20
35.5312640187
 10
-1.4011306284
 20
35.5387542845
 10
-1.3977167291
 20
35.5458445367
 10
-1.3937280532
 20
35.5522764372
 10
-1.3891595902
 20
35.55802921
 10
-1.3840163506
 20
35.5631236311
 10
-1.3785377542
 20
35.5673636899
  0
LWPOLYLINE
  5
2C8
100
AcDbEntity
  8
0
100
AcDbPolyline
 62
7
  6
CONTINUOUS
 90
10
 70
0
 10
-0.4849920577
 20
34.8180284168
 10
-0.4851345006
 20
34.8094242237
 10
-0.4860761085
 20
34.801220044
 10
-0.4878168815
 20
34.7934158777
 10
-0.4904316157
 20
34.785925612
 10
-0.493845515
 20
34.7788353598
 10
-0.497834191
 20
34.7724034592
 10
-0.5024026539
 20
34.7666506864
 10
-0.5075458935
 20
34.7615562653
 10
-0.51302449
 20
34.7573162065
  0
LINE
  5
2C9
100
AcDbEntity
  8
0
100
AcDbLine
 62
7
  6
CONTINUOUS
 10
-2.5206390815
 20
38.0922379879
 11
-2.5194990751
 21
38.1192125282
  0
LINE
  5
2CA
100
AcDbEntity
  8
0
100
AcDbLine
 62
7
  6
CONTINUOUS
 10
-1.9513376235
 20
35.3233998494
 11
-1.955289308
 21
35.2343500871
  0
LWPOLYLINE
  5
2CB
100
AcDbEntity
  8
RACCORDO
100
AcDbPolyline
 62
250
  6
CONTINUOUS
 90
10
 70
0
 10
3.8231501098
 20
22.5791274994
 10
3.8134055071
 20
22.5342633978
 10
3.8000041271
 20
22.4921796072
 10
3.7830925036
 20
22.4533362834
 10
3.7628535051
 20
22.4181550354
 10
3.7395098957
 20
22.3870244187
 10
3.7133247118
 20
22.3602917653
 10
3.6845920988
 20
22.3382491577
 10
3.6536231489
 20
22.3211277765
 10
3.6265995582
 20
22.3108290553
  0
LINE
  5
2CC
100
AcDbEntity
  8
0
100
AcDbLine
 62
7
  6
CONTINUOUS
 10
-6.3656449629
 20
38.178633061
 11
-6.3638610915
 21
38.1688464816
  0
LINE
  5
2CD
100
AcDbEntity
  8
0
100
AcDbLine
 62
7
  6
CONTINUOUS
 10
-4.9600321261
 20
36.439825325
 11
-4.9428677601
 21
36.3098631716
  0
LINE
  5
2CE
100
AcDbEntity
  8
0
100
AcDbLine
 62
7
  6
CONTINUOUS
 10
-6.022881575
 20
35.2756104809
 11
-6.0236363721
 21
35.2824323702
  0
LWPOLYLINE
  5
2CF
100
AcDbEntity
  8
0
100
AcDbPolyline
 62
7
  6
CONTINUOUS
 90
13
 70
0
 10
-1.3866655605
 20
35.1393908836
 10
-1.3854739258
 20
35.1274303355
 10
-1.3831393127
 20
35.1154264236
 10
-1.3796617212
 20
35.1033791479
 10
-1.3749377006
 20
35.0909796049
 10
-1.3690707016
 20
35.0785366981
 10
-1.3623710771
 20
35.0669771384
 10
-1.3547372756
 20
35.0564474582
 10
-1.3462708486
 20
35.0468011251
 10
-1.3375868027
 20
35.038525253
 10
-1.3288901402
 20
35.0317822132
 10
-1.3199758589
 20
35.0264096345
 10
-1.3108439587
 20
35.0224075168
  0
LINE
  5
2D0
100
AcDbEntity
  8
0
100
AcDbLine
 62
7
  6
CONTINUOUS
 10
-1.3858164063
 20
35.1299704127
 11
-1.3866655599
 21
35.1393908714
  0
LINE
  5
2D1
100
AcDbEntity
  8
0
100
AcDbLine
 62
7
  6
CONTINUOUS
 10
-0.4849920218
 20
34.8180277513
 11
-0.5046155122
 21
35.181445056
  0
LINE
  5
2D2
100
AcDbEntity
  8
RACCORDO
100
AcDbLine
 62
250
  6
CONTINUOUS
 10
5.0626497062
 20
65.3003963276
 11
5.0617303802
 21
52.1392951759
  0
LINE
  5
2D3
100
AcDbEntity
  8
RACCORDO
100
AcDbLine
 62
250
  6
CONTINUOUS
 10
5.7603803846
 20
65.2951225889
 11
5.759475438
 21
52.1330178239
  0
LINE
  5
2D4
100
AcDbEntity
  8
RACCORDO
100
AcDbLine
 62
250
  6
CONTINUOUS
 10
5.0617303802
 20
52.1392951759
 11
5.0567785344
 21
50.9167597961
  0
LINE
  5
2D5
100
AcDbEntity
  8
RACCORDO
100
AcDbLine
 62
250
  6
CONTINUOUS
 10
5.759475438
 20
52.1330178239
 11
5.7545142646
 21
50.9086947039
  0
LINE
  5
2D6
100
AcDbEntity
  8
RACCORDO
100
AcDbLine
 62
250
  6
CONTINUOUS
 10
5.0567785344
 20
50.9167597961
 11
5.0508655525
 21
50.1324827665
  0
LINE
  5
2D7
100
AcDbEntity
  8
RACCORDO
100
AcDbLine
 62
250
  6
CONTINUOUS
 10
5.7545142646
 20
50.9086947039
 11
5.7485706863
 21
50.1229893751
  0
LINE
  5
2D8
100
AcDbEntity
  8
RACCORDO
100
AcDbLine
 62
250
  6
CONTINUOUS
 10
5.0508655525
 20
50.1324827665
 11
5.0426000678
 21
49.3675791243
  0
LINE
  5
2D9
100
AcDbEntity
  8
RACCORDO
100
AcDbLine
 62
250
  6
CONTINUOUS
 10
5.7485706863
 20
50.1229893751
 11
5.7402948549
 21
49.3564678907
  0
LINE
  5
2DA
100
AcDbEntity
  8
RACCORDO
100
AcDbLine
 62
250
  6
CONTINUOUS
 10
5.7402948549
 20
49.3564678907
 11
5.7294108963
 21
48.6034772097
  0
LINE
  5
2DB
100
AcDbEntity
  8
RACCORDO
100
AcDbLine
 62
250
  6
CONTINUOUS
 10
5.0426000678
 20
49.3675791243
 11
5.0317320715
 21
48.6163968899
  0
LINE
  5
2DC
100
AcDbEntity
  8
RACCORDO
100
AcDbLine
 62
250
  6
CONTINUOUS
 10
5.0317320715
 20
48.6163968899
 11
5.0179801182
 21
47.8732514374
  0
LINE
  5
2DD
100
AcDbEntity
  8
RACCORDO
100
AcDbLine
 62
250
  6
CONTINUOUS
 10
5.7294108963
 20
48.6034772097
 11
5.7156111085
 21
47.8583372755
  0
LINE
  5
2DE
100
AcDbEntity
  8
RACCORDO
100
AcDbLine
 62
250
  6
CONTINUOUS
 10
5.0179801182
 20
47.8732514374
 11
5.0010783532
 21
47.1343490934
  0
LINE
  5
2DF
100
AcDbEntity
  8
RACCORDO
100
AcDbLine
 62
250
  6
CONTINUOUS
 10
5.7156111085
 20
47.8583372755
 11
5.6986633696
 21
47.1172739864
  0
LINE
  5
2E0
100
AcDbEntity
  8
RACCORDO
100
AcDbLine
 62
250
  6
CONTINUOUS
 10
5.0010783532
 20
47.1343490934
 11
4.9806310282
 21
46.3931138528
  0
LINE
  5
2E1
100
AcDbEntity
  8
RACCORDO
100
AcDbLine
 62
250
  6
CONTINUOUS
 10
5.6986633696
 20
47.1172739864
 11
5.6781671511
 21
46.3736976307
  0
LINE
  5
2E2
100
AcDbEntity
  8
RACCORDO
100
AcDbLine
 62
250
  6
CONTINUOUS
 10
4.9806310282
 20
46.3931138528
 11
4.9563110771
 21
45.6484361424
  0
LINE
  5
2E3
100
AcDbEntity
  8
RACCORDO
100
AcDbLine
 62
250
  6
CONTINUOUS
 10
5.6781671511
 20
46.3736976307
 11
5.6537303082
 21
45.6264555214
  0
LINE
  5
2E4
100
AcDbEntity
  8
RACCORDO
100
AcDbLine
 62
250
  6
CONTINUOUS
 10
4.9563110771
 20
45.6484361424
 11
4.9278621646
 21
44.9013875153
  0
LINE
  5
2E5
100
AcDbEntity
  8
RACCORDO
100
AcDbLine
 62
250
  6
CONTINUOUS
 10
5.6537303082
 20
45.6264555214
 11
5.6252016367
 21
44.8766888113
  0
LINE
  5
2E6
100
AcDbEntity
  8
RACCORDO
100
AcDbLine
 62
250
  6
CONTINUOUS
 10
4.9278621646
 20
44.9013875153
 11
4.8953512675
 21
44.1595023452
  0
LINE
  5
2E7
100
AcDbEntity
  8
RACCORDO
100
AcDbLine
 62
250
  6
CONTINUOUS
 10
5.6252016367
 20
44.8766888113
 11
5.5925377477
 21
44.1319013362
  0
LWPOLYLINE
  5
2E8
100
AcDbEntity
  8
RACCORDO
100
AcDbPolyline
 62
250
  6
CONTINUOUS
 90
11
 70
0
 10
3.1273562339
 20
22.6281917153
 10
3.1254280083
 20
22.5872497402
 10
3.1268755284
 20
22.5482297272
 10
3.1316849727
 20
22.5115042504
 10
3.1398104193
 20
22.477423975
 10
3.1511742843
 20
22.4463143091
 10
3.1656680622
 20
22.4184722967
 10
3.1831533622
 20
22.3941637813
 10
3.2034632299
 20
22.3736208672
 10
3.2264037409
 20
22.357039704
 10
3.2289607419
 20
22.3555328076
  0
LINE
  5
2E9
100
AcDbEntity
  8
RACCORDO
100
AcDbLine
 62
250
  6
CONTINUOUS
 10
4.8953512675
 20
44.1595023452
 11
4.8585249103
 21
43.417526752
  0
LINE
  5
2EA
100
AcDbEntity
  8
RACCORDO
100
AcDbLine
 62
250
  6
CONTINUOUS
 10
5.5925377477
 20
44.1319013362
 11
5.5556338793
 21
43.3871499139
  0
LINE
  5
2EB
100
AcDbEntity
  8
RACCORDO
100
AcDbLine
 62
250
  6
CONTINUOUS
 10
4.8585249103
 20
43.417526752
 11
4.8172843357
 21
42.6693250668
  0
LINE
  5
2EC
100
AcDbEntity
  8
RACCORDO
100
AcDbLine
 62
250
  6
CONTINUOUS
 10
5.5556338793
 20
43.3871499139
 11
5.5142222121
 21
42.6362700543
  0
LINE
  5
2ED
100
AcDbEntity
  8
RACCORDO
100
AcDbLine
 62
250
  6
CONTINUOUS
 10
4.8172843357
 20
42.6693250668
 11
4.7708690679
 21
41.8994645985
  0
LINE
  5
2EE
100
AcDbEntity
  8
RACCORDO
100
AcDbLine
 62
250
  6
CONTINUOUS
 10
5.5142222121
 20
42.6362700543
 11
5.4676846993
 21
41.8638773473
  0
LINE
  5
2EF
100
AcDbEntity
  8
RACCORDO
100
AcDbLine
 62
250
  6
CONTINUOUS
 10
4.7708690679
 20
41.8994645985
 11
4.7182491036
 21
41.0928264124
  0
LINE
  5
2F0
100
AcDbEntity
  8
RACCORDO
100
AcDbLine
 62
250
  6
CONTINUOUS
 10
5.4676846993
 20
41.8638773473
 11
5.4148835003
 21
41.0547679492
  0
LWPOLYLINE
  5
2F1
100
AcDbEntity
  8
RACCORDO
100
AcDbPolyline
 62
250
  6
CONTINUOUS
 90
9
 70
0
 10
5.9581140681
 20
23.2458664967
 10
5.9552386453
 20
23.2038303017
 10
5.9486271065
 20
23.1645466144
 10
5.9383518262
 20
23.1284454599
 10
5.9245252843
 20
23.0959220254
 10
5.9072988353
 20
23.0673323338
 10
5.8868610513
 20
23.0429893469
 10
5.8634356577
 20
23.023159539
 10
5.8440734477
 20
23.0113889038
  0
LINE
  5
2F2
100
AcDbEntity
  8
RACCORDO
100
AcDbLine
 62
250
  6
CONTINUOUS
 10
4.7182491036
 20
41.0928264124
 11
4.6585238636
 21
40.2392884864
  0
LINE
  5
2F3
100
AcDbEntity
  8
RACCORDO
100
AcDbLine
 62
250
  6
CONTINUOUS
 10
5.4148835003
 20
41.0547679492
 11
5.3549948327
 21
40.1988567056
  0
LINE
  5
2F4
100
AcDbEntity
  8
RACCORDO
100
AcDbLine
 62
250
  6
CONTINUOUS
 10
5.3549948327
 20
40.1988567056
 11
5.2866162245
 21
39.2809429854
  0
LINE
  5
2F5
100
AcDbEntity
  8
RACCORDO
100
AcDbLine
 62
250
  6
CONTINUOUS
 10
4.6585238636
 20
40.2392884864
 11
4.5902987597
 21
39.3236484681
  0
LINE
  5
2F6
100
AcDbEntity
  8
RACCORDO
100
AcDbLine
 62
250
  6
CONTINUOUS
 10
4.5902987597
 20
39.3236484681
 11
4.5120792352
 21
38.3306442962
  0
LINE
  5
2F7
100
AcDbEntity
  8
RACCORDO
100
AcDbLine
 62
250
  6
CONTINUOUS
 10
5.2866162245
 20
39.2809429854
 11
5.2082088401
 21
38.2858232013
  0
LINE
  5
2F8
100
AcDbEntity
  8
RACCORDO
100
AcDbLine
 62
250
  6
CONTINUOUS
 10
4.5120792352
 20
38.3306442962
 11
4.422801346
 21
37.2500964912
  0
LINE
  5
2F9
100
AcDbEntity
  8
RACCORDO
100
AcDbLine
 62
250
  6
CONTINUOUS
 10
5.2082088401
 20
38.2858232013
 11
5.1187943679
 21
37.2033948663
  0
LINE
  5
2FA
100
AcDbEntity
  8
RACCORDO
100
AcDbLine
 62
250
  6
CONTINUOUS
 10
4.422801346
 20
37.2500964912
 11
4.3208054633
 21
36.0635466584
  0
LINE
  5
2FB
100
AcDbEntity
  8
RACCORDO
100
AcDbLine
 62
250
  6
CONTINUOUS
 10
5.1187943679
 20
37.2033948663
 11
5.0166339775
 21
36.0151942989
  0
LINE
  5
2FC
100
AcDbEntity
  8
RACCORDO
100
AcDbLine
 62
250
  6
CONTINUOUS
 10
4.3208054633
 20
36.0635466584
 11
3.1273562339
 21
22.6281917153
  0
LINE
  5
2FD
100
AcDbEntity
  8
RACCORDO
100
AcDbLine
 62
250
  6
CONTINUOUS
 10
5.0166339775
 20
36.0151942989
 11
3.8231501098
 21
22.5791274994
  0
LWPOLYLINE
  5
2FE
100
AcDbEntity
  8
RACCORDO
100
AcDbPolyline
 62
250
  6
CONTINUOUS
 90
4
 70
0
 10
5.8922626718
 20
23.2185461157
 10
5.8825465928
 20
23.1737892135
 10
5.869191387
 20
23.1317977986
 10
5.8523423656
 20
23.0930287617
  0
LINE
  5
2FF
100
AcDbEntity
  8
0
100
AcDbLine
 62
7
  6
CONTINUOUS
 10
-3.972920582
 20
32.6221492665
 11
-3.9760862689
 21
32.6323186964
  0
LWPOLYLINE
  5
300
100
AcDbEntity
  8
0
100
AcDbPolyline
 62
7
  6
CONTINUOUS
 90
3
 70
0
 10
-4.8614859741
 20
35.9414792917
 10
-4.8230753601
 20
35.8171689733
 10
-4.7777124785
 20
35.6892521415
  0
LINE
  5
301
100
AcDbEntity
  8
0
100
AcDbLine
 62
7
  6
CONTINUOUS
 10
-4.8944560952
 20
36.0665651055
 11
-4.8598909457
 21
35.9359325953
  0
LINE
  5
302
100
AcDbEntity
  8
0
100
AcDbLine
 62
7
  6
CONTINUOUS
 10
-4.9220373539
 20
36.1922217161
 11
-4.8929770908
 21
36.0604521423
  0
LINE
  5
303
100
AcDbEntity
  8
0
100
AcDbLine
 62
7
  6
CONTINUOUS
 10
-2.5241361283
 20
38.1758947665
 11
-2.5299717986
 21
38.2061185979
  0
LINE
  5
304
100
AcDbEntity
  8
0
100
AcDbLine
 62
7
  6
CONTINUOUS
 10
-4.943923681
 20
36.3167075211
 11
-4.9207465526
 21
36.1856247824
  0
LWPOLYLINE
  5
305
100
AcDbEntity
  8
0
100
AcDbPolyline
 62
7
  6
CONTINUOUS
 90
6
 70
0
 10
-2.1461465013
 20
33.3790300222
 10
-2.1477010373
 20
33.3890744484
 10
-2.1483973836
 20
33.3989814554
 10
-2.1482951813
 20
33.4087501449
 10
-2.1473845396
 20
33.417948584
 10
-2.1455937653
 20
33.4265324598
  0
LWPOLYLINE
  5
306
100
AcDbEntity
  8
0
100
AcDbPolyline
 62
7
  6
CONTINUOUS
 90
6
 70
0
 10
-1.2747198903
 20
32.5944237748
 10
-1.2731653543
 20
32.5843793485
 10
-1.272469008
 20
32.5744723416
 10
-1.2725712102
 20
32.564703652
 10
-1.273481852
 20
32.555505213
 10
-1.2752726262
 20
32.5469213371
  0
LWPOLYLINE
  5
307
100
AcDbEntity
  8
0
100
AcDbPolyline
 62
7
  6
CONTINUOUS
 90
3
 70
0
 10
-2.5241310538
 20
38.175861768
 10
-2.5206622348
 20
38.1470740678
 10
-2.519498244
 20
38.119199475
  0
LWPOLYLINE
  5
308
100
AcDbEntity
  8
RACCORDO
100
AcDbPolyline
 62
250
  6
CONTINUOUS
 90
16
 70
0
 10
5.7603803846
 20
65.2951225889
 10
5.757490437
 20
65.3384995109
 10
5.7508417361
 20
65.3837049065
 10
5.7405075433
 20
65.4302408921
 10
5.7265998919
 20
65.4776004649
 10
5.7092730086
 20
65.5252565752
 10
5.6887254931
 20
65.5726678308
 10
5.6651923662
 20
65.6193025809
 10
5.6389311864
 20
65.6646597081
 10
5.6102237139
 20
65.7082560191
 10
5.5793408074
 20
65.7496691653
 10
5.5466616758
 20
65.7883803824
 10
5.5126818592
 20
65.8238312997
 10
5.4778336783
 20
65.8556340963
 10
5.44246071
 20
65.8835362723
 10
5.4069481432
 20
65.9072851764
  0
LINE
  5
309
100
AcDbEntity
  8
RACCORDO
100
AcDbLine
 62
7
  6
CONTINUOUS
 10
6.8583122187
 20
65.929051543
 11
6.8583122187
 21
23.712579517
  0
LINE
  5
30A
100
AcDbEntity
  8
DRAFT
100
AcDbLine
 62
7
  6
CONTINUOUS
 10
7.7048142539
 20
36.42217932
 11
7.7048142539
 21
34.1166315756
  0
LINE
  5
30B
100
AcDbEntity
  8
DRAFT
100
AcDbLine
 62
7
  6
CONTINUOUS
 10
8.2624917898
 20
36.3152801351
 11
8.2624917898
 21
34.0509736135
  0
LINE
  5
30C
100
AcDbEntity
  8
RACCORDO
100
AcDbLine
 62
7
  6
CONTINUOUS
 10
8.4392684851
 20
36.6499570419
 11
8.4392684851
 21
36.3994908101
  0
LINE
  5
30D
100
AcDbEntity
  8
DRAFT
100
AcDbLine
 62
7
  6
CONTINUOUS
 10
8.4392684851
 20
36.3994908101
 11
8.4392684851
 21
34.1709002352
  0
LINE
  5
30E
100
AcDbEntity
  8
0
100
AcDbLine
 62
7
  6
CONTINUOUS
 10
-4.7305485051
 20
35.5713882348
 11
-4.6753889684
 21
35.4479445988
  0
LINE
  5
30F
100
AcDbEntity
  8
0
100
AcDbLine
 62
7
  6
CONTINUOUS
 10
-5.1041130744
 20
35.1766894458
 11
-5.2630806598
 21
35.5448199151
  0
LINE
  5
310
100
AcDbEntity
  8
0
100
AcDbLine
 62
7
  6
CONTINUOUS
 10
-6.0124851051
 20
35.2401833612
 11
-5.8535303642
 21
34.8719049579
  0
LINE
  5
311
100
AcDbEntity
  8
0
100
AcDbLine
 62
7
  6
CONTINUOUS
 10
-4.7792758837
 20
35.6934294517
 11
-4.7290639811
 21
35.5678798578
  0
LWPOLYLINE
  5
312
100
AcDbEntity
  8
0
100
AcDbPolyline
 62
7
  6
CONTINUOUS
 90
5
 70
0
 10
-5.1041131289
 20
35.1766895719
 10
-5.1004049207
 20
35.1673164608
 10
-5.0973717663
 20
35.1578290669
 10
-5.0950136658
 20
35.1482273901
 10
-5.0932852519
 20
35.138365027
  0
LWPOLYLINE
  5
313
100
AcDbEntity
  8
0
100
AcDbPolyline
 62
7
  6
CONTINUOUS
 90
3
 70
0
 10
-6.0124851112
 20
35.2401833755
 10
-6.0170286175
 20
35.25181966
 10
-6.0204877842
 20
35.2635715638
  0
LINE
  5
314
100
AcDbEntity
  8
0
100
AcDbLine
 62
7
  6
CONTINUOUS
 10
-5.0995057071
 20
35.1647395675
 11
-5.1041130744
 21
35.1766894458
  0
LWPOLYLINE
  5
315
100
AcDbEntity
  8
0
100
AcDbPolyline
 62
7
  6
CONTINUOUS
 90
3
 70
0
 10
-2.5483664792
 20
38.2677035129
 10
-2.5380991203
 20
38.2372079602
 10
-2.529962673
 20
38.2060783104
  0
LINE
  5
316
100
AcDbEntity
  8
0
100
AcDbLine
 62
7
  6
CONTINUOUS
 10
-4.8214600538
 20
35.8122658218
 11
-4.8598909457
 21
35.9359325953
  0
LWPOLYLINE
  5
317
100
AcDbEntity
  8
0
100
AcDbPolyline
 62
7
  6
CONTINUOUS
 90
5
 70
0
 10
-2.0430768669
 20
36.078139272
 10
-2.0689340073
 20
36.1742495102
 10
-2.097830009
 20
36.270132489
 10
-2.129779795
 20
36.3657712386
 10
-2.1647084852
 20
36.4605098551
  0
LWPOLYLINE
  5
318
100
AcDbEntity
  8
0
100
AcDbPolyline
 62
7
  6
CONTINUOUS
 90
3
 70
0
 10
-2.0430776863
 20
36.0781421785
 10
-2.0202745031
 20
35.9817882744
 10
-2.0006449492
 20
35.8857983246
  0
LINE
  5
319
100
AcDbEntity
  8
0
100
AcDbLine
 62
7
  6
CONTINUOUS
 10
-4.4884612499
 20
35.1046653058
 11
-4.4165729974
 21
34.994612288
  0
LINE
  5
31A
100
AcDbEntity
  8
0
100
AcDbLine
 62
7
  6
CONTINUOUS
 10
-4.1584501519
 20
35.3089663874
 11
-4.2184812159
 21
35.4033739046
  0
LINE
  5
31B
100
AcDbEntity
  8
0
100
AcDbLine
 62
7
  6
CONTINUOUS
 10
-4.5552599167
 20
35.2165819187
 11
-4.487405048
 21
35.1029845811
  0
LWPOLYLINE
  5
31C
100
AcDbEntity
  8
0
100
AcDbPolyline
 62
7
  6
CONTINUOUS
 90
3
 70
0
 10
-5.8443205419
 20
34.8550337274
 10
-5.8491995283
 20
34.8632488602
 10
-5.8535304804
 20
34.8719052271
  0
LWPOLYLINE
  5
31D
100
AcDbEntity
  8
0
100
AcDbPolyline
 62
7
  6
CONTINUOUS
 90
19
 70
0
 10
-4.2154555454
 20
35.3982203125
 10
-4.2742611341
 20
35.500885335
 10
-4.3255534518
 20
35.6013336626
 10
-4.3724311783
 20
35.7047320797
 10
-4.4141441746
 20
35.8094565757
 10
-4.450606473
 20
35.915536686
 10
-4.4819040411
 20
36.0229428752
 10
-4.5075446431
 20
36.129962527
 10
-4.5274248754
 20
36.2365851198
 10
-4.5416481415
 20
36.3428211752
 10
-4.5500324161
 20
36.446989641
 10
-4.5525077403
 20
36.5490588487
 10
-4.5491440729
 20
36.6490604667
 10
-4.539969265
 20
36.745408448
 10
-4.5248730512
 20
36.8380857129
 10
-4.5039656969
 20
36.9271093411
 10
-4.4776058491
 20
37.0109445243
 10
-4.4459130569
 20
37.0890796598
 10
-4.4087677712
 20
37.1620263503
  0
LINE
  5
31E
100
AcDbEntity
  8
0
100
AcDbLine
 62
7
  6
CONTINUOUS
 10
-2.1284726257
 20
33.3314548876
 11
-1.5991436058
 21
32.4044401165
  0
LINE
  5
31F
100
AcDbEntity
  8
0
100
AcDbLine
 62
7
  6
CONTINUOUS
 10
-1.2923937659
 20
32.6419989094
 11
-1.8217227858
 21
33.5690136804
  0
LINE
  5
320
100
AcDbEntity
  8
0
100
AcDbLine
 62
7
  6
CONTINUOUS
 10
-4.6180544484
 20
35.3320570666
 11
-4.5541287172
 21
35.2145996904
  0
LINE
  5
321
100
AcDbEntity
  8
0
100
AcDbLine
 62
7
  6
CONTINUOUS
 10
-2.1284725552
 20
33.3314547641
 11
-2.1332016368
 21
33.3403307398
  0
LWPOLYLINE
  5
322
100
AcDbEntity
  8
0
100
AcDbPolyline
 62
7
  6
CONTINUOUS
 90
5
 70
0
 10
-1.2923938363
 20
32.6419990328
 10
-1.2876647548
 20
32.6331230572
 10
-1.2835454071
 20
32.6239561595
 10
-1.2800357931
 20
32.6144983398
 10
-1.2770729748
 20
32.6046065183
  0
LINE
  5
323
100
AcDbEntity
  8
0
100
AcDbLine
 62
7
  6
CONTINUOUS
 10
-1.2864752437
 20
32.6306509939
 11
-1.2923937659
 21
32.6419989094
  0
LINE
  5
324
100
AcDbEntity
  8
0
100
AcDbLine
 62
7
  6
CONTINUOUS
 10
-2.9732030269
 20
37.2572046414
 11
-2.618946048
 21
36.5473511196
  0
LINE
  5
325
100
AcDbEntity
  8
0
100
AcDbLine
 62
7
  6
CONTINUOUS
 10
-2.287293101
 20
36.7386690028
 11
-2.5859419275
 21
37.3371232019
  0
LINE
  5
326
100
AcDbEntity
  8
0
100
AcDbLine
 62
7
  6
CONTINUOUS
 10
-4.6767654278
 20
35.4508734984
 11
-4.6168130335
 21
35.3296507365
  0
LINE
  5
327
100
AcDbEntity
  8
0
100
AcDbLine
 62
7
  6
CONTINUOUS
 10
-2.6189459915
 20
36.5473510065
 11
-2.5708080405
 21
36.4447800583
  0
LWPOLYLINE
  5
328
100
AcDbEntity
  8
0
100
AcDbPolyline
 62
7
  6
CONTINUOUS
 90
4
 70
0
 10
-2.1332016368
 20
33.3403307398
 10
-2.1373209845
 20
33.3494976374
 10
-2.1408305984
 20
33.3589554571
 10
-2.1437934167
 20
33.3688472786
  0
LWPOLYLINE
  5
329
100
AcDbEntity
  8
0
100
AcDbPolyline
 62
7
  6
CONTINUOUS
 90
3
 70
0
 10
-2.5483843732
 20
38.2677510182
 10
-2.5609430968
 20
38.2974660996
 10
-2.5756316771
 20
38.3265438335
  0
LWPOLYLINE
  5
32A
100
AcDbEntity
  8
0
100
AcDbPolyline
 62
7
  6
CONTINUOUS
 90
20
 70
0
 10
-2.5730220277
 20
36.4498021137
 10
-2.5278489304
 20
36.3412750616
 10
-2.4900687176
 20
36.2368361296
 10
-2.4572973633
 20
36.1308789449
 10
-2.4297049064
 20
36.0239878249
 10
-2.4078014635
 20
35.9179157216
 10
-2.3917255164
 20
35.8127377467
 10
-2.3813385834
 20
35.7083787885
 10
-2.3767353349
 20
35.6063664647
 10
-2.3779881236
 20
35.5067043113
 10
-2.385024597
 20
35.4093887923
 10
-2.3977223677
 20
35.3159369175
 10
-2.4161387802
 20
35.226369914
 10
-2.44021649
 20
35.1406665546
 10
-2.4696610768
 20
35.0602801673
 10
-2.5045851473
 20
34.985286212
 10
-2.5448760948
 20
34.9156092288
 10
-2.5899016786
 20
34.852476167
 10
-2.6397382046
 20
34.7960687918
 10
-2.6943093668
 20
34.7462053379
  0
LWPOLYLINE
  5
32B
100
AcDbEntity
  8
0
100
AcDbPolyline
 62
7
  6
CONTINUOUS
 90
4
 70
0
 10
-2.1647101833
 20
36.4605140517
 10
-2.2025911196
 20
36.554129704
 10
-2.2434526582
 20
36.6468494199
 10
-2.287293101
 20
36.7386690028
  0
LINE
  5
32C
100
AcDbEntity
  8
RACCORDO
100
AcDbLine
 62
7
  6
CONTINUOUS
 10
-11.54038604
 20
30.8831685361
 11
3.2289607419
 21
22.3555328076
  0
LINE
  5
32D
100
AcDbEntity
  8
RACCORDO
100
AcDbLine
 62
250
  6
CONTINUOUS
 10
-11.641990548
 20
31.1558274438
 11
3.1273562339
 21
22.6281917153
  0
LINE
  5
32E
100
AcDbEntity
  8
RACCORDO
100
AcDbLine
 62
250
  6
CONTINUOUS
 10
-11.54038604
 20
30.8831685361
 11
-11.542943041
 21
30.8846754325
  0
LWPOLYLINE
  5
32F
100
AcDbEntity
  8
RACCORDO
100
AcDbPolyline
 62
250
  6
CONTINUOUS
 90
10
 70
0
 10
-11.542943041
 20
30.8846754325
 10
-11.565883552
 20
30.9012565957
 10
-11.5861934197
 20
30.9217995097
 10
-11.6036787197
 20
30.9461080252
 10
-11.6181724976
 20
30.9739500376
 10
-11.6295363626
 20
31.0050597034
 10
-11.6376618093
 20
31.0391399788
 10
-11.6424712536
 20
31.0758654556
 10
-11.6439187736
 20
31.1148854687
 10
-11.641990548
 20
31.1558274438
  0
LINE
  5
330
100
AcDbEntity
  8
0
100
AcDbLine
 62
7
  6
CONTINUOUS
 10
-4.183707629
 20
34.6961409618
 11
-4.0986009937
 21
34.6047939118
  0
LWPOLYLINE
  5
331
100
AcDbEntity
  8
0
100
AcDbPolyline
 62
7
  6
CONTINUOUS
 90
19
 70
0
 10
-4.0333777275
 20
35.1408408484
 10
-3.9667067334
 20
35.0636338114
 10
-3.8978120344
 20
34.9918043495
 10
-3.826558398
 20
34.9250567151
 10
-3.7537328768
 20
34.8640376831
 10
-3.6791322444
 20
34.8086475618
 10
-3.6029597274
 20
34.7589860429
 10
-3.5266120581
 20
34.7159989764
 10
-3.4502816624
 20
34.679888922
 10
-3.3737761145
 20
34.6504533201
 10
-3.2979148691
 20
34.6280303414
 10
-3.2224611834
 20
34.6126538125
 10
-3.1476518001
 20
34.6042899069
 10
-3.0750164024
 20
34.6031753156
 10
-3.0048461671
 20
34.6094865988
 10
-2.9368499174
 20
34.6230471964
 10
-2.8716838056
 20
34.6435641187
 10
-2.8092142994
 20
34.6711646038
 10
-2.7797187803
 20
34.6871851862
  0
LINE
  5
332
100
AcDbEntity
  8
0
100
AcDbLine
 62
7
  6
CONTINUOUS
 10
-4.0976897841
 20
35.2231297129
 11
-4.0274997463
 21
35.1336722983
  0
LWPOLYLINE
  5
333
100
AcDbEntity
  8
0
100
AcDbPolyline
 62
7
  6
CONTINUOUS
 90
3
 70
0
 10
-4.3432193586
 20
34.8918471585
 10
-4.2652022204
 20
34.7918278048
 10
-4.1825437904
 20
34.6948417024
  0
LWPOLYLINE
  5
334
100
AcDbEntity
  8
0
100
AcDbPolyline
 62
7
  6
CONTINUOUS
 90
3
 70
0
 10
-1.5882979812
 20
32.3890732484
 10
-1.5939440276
 20
32.3964598416
 10
-1.5991438296
 20
32.4044405086
  0
LINE
  5
335
100
AcDbEntity
  8
0
100
AcDbLine
 62
7
  6
CONTINUOUS
 10
-4.4175790308
 20
34.9960899768
 11
-4.3422180212
 21
34.8905048687
  0
LINE
  5
336
100
AcDbEntity
  8
0
100
AcDbLine
 62
7
  6
CONTINUOUS
 10
-4.0946467734
 20
35.2188648992
 11
-4.1582867066
 21
35.3088125635
  0
LWPOLYLINE
  5
337
100
AcDbEntity
  8
0
100
AcDbPolyline
 62
7
  6
CONTINUOUS
 90
3
 70
0
 10
-2.6095270014
 20
38.379288107
 10
-2.5917801091
 20
38.3538383833
 10
-2.5756100295
 20
38.326504372
  0
LINE
  5
338
100
AcDbEntity
  8
0
100
AcDbLine
 62
7
  6
CONTINUOUS
 10
-3.9172694892
 20
32.5423990473
 11
-3.6344422061
 21
32.3790981187
  0
LINE
  5
339
100
AcDbEntity
  8
0
100
AcDbLine
 62
7
  6
CONTINUOUS
 10
-3.744043399
 20
34.305332348
 11
-3.6491930327
 21
34.2446834373
  0
LINE
  5
33A
100
AcDbEntity
  8
0
100
AcDbLine
 62
7
  6
CONTINUOUS
 10
-3.835562238
 20
34.3712207142
 11
-3.742278264
 21
34.3041334035
  0
LINE
  5
33B
100
AcDbEntity
  8
0
100
AcDbLine
 62
7
  6
CONTINUOUS
 10
-3.9254474605
 20
34.4434111387
 11
-3.8338860001
 21
34.3699451547
  0
LINE
  5
33C
100
AcDbEntity
  8
0
100
AcDbLine
 62
7
  6
CONTINUOUS
 10
-5.4667637524
 20
37.9551068199
 11
-6.1987797531
 21
38.5456043715
  0
LINE
  5
33D
100
AcDbEntity
  8
0
100
AcDbLine
 62
7
  6
CONTINUOUS
 10
-6.3162736081
 20
38.080183123
 11
-5.5844227409
 21
37.4897629249
  0
LINE
  5
33E
100
AcDbEntity
  8
0
100
AcDbLine
 62
7
  6
CONTINUOUS
 10
-4.4052913245
 20
37.3837066176
 11
-4.683111684
 21
37.6078405938
  0
LWPOLYLINE
  5
33F
100
AcDbEntity
  8
0
100
AcDbPolyline
 62
7
  6
CONTINUOUS
 90
7
 70
0
 10
-5.8195353838
 20
34.8265891153
 10
-5.8122502012
 20
34.8206535893
 10
-5.8046291033
 20
34.8152743047
 10
-5.7969878606
 20
34.8107229425
 10
-5.7893032063
 20
34.807002147
 10
-5.7815984072
 20
34.8041092739
 10
-5.7742590346
 20
34.8023080702
  0
LWPOLYLINE
  5
340
100
AcDbEntity
  8
0
100
AcDbPolyline
 62
7
  6
CONTINUOUS
 90
7
 70
0
 10
-5.2970756403
 20
35.5901357577
 10
-5.3043608229
 20
35.5960712838
 10
-5.3119819208
 20
35.6014505683
 10
-5.3196231635
 20
35.6060019306
 10
-5.3273078179
 20
35.609722726
 10
-5.335012617
 20
35.6126155992
 10
-5.3423519895
 20
35.6144168028
  0
LWPOLYLINE
  5
341
100
AcDbEntity
  8
0
100
AcDbPolyline
 62
7
  6
CONTINUOUS
 90
3
 70
0
 10
-3.5268465852
 20
33.4615378263
 10
-3.5333094173
 20
33.4669799712
 10
-3.5399652271
 20
33.4715802857
  0
LINE
  5
342
100
AcDbEntity
  8
0
100
AcDbLine
 62
7
  6
CONTINUOUS
 10
-4.013830249
 20
34.5219326288
 11
-3.9238907342
 21
34.4421030986
  0
LWPOLYLINE
  5
343
100
AcDbEntity
  8
0
100
AcDbPolyline
 62
7
  6
CONTINUOUS
 90
11
 70
0
 10
-5.4667637362
 20
37.9551068069
 10
-5.4583284685
 20
37.9475944944
 10
-5.450436553
 20
37.9389907163
 10
-5.4430879899
 20
37.9292954726
 10
-5.4360862891
 20
37.9182545925
 10
-5.4296279407
 20
37.9061222469
 10
-5.4243024142
 20
37.8936609478
 10
-5.4202788717
 20
37.8807969118
 10
-5.4173881513
 20
37.8676039223
 10
-5.4157122369
 20
37.8550658423
 10
-5.4152784565
 20
37.8435106262
  0
LINE
  5
344
100
AcDbEntity
  8
0
100
AcDbLine
 62
7
  6
CONTINUOUS
 10
-4.397189856
 20
37.3764098865
 11
-4.4052913245
 21
37.3837066176
  0
LWPOLYLINE
  5
345
100
AcDbEntity
  8
0
100
AcDbPolyline
 62
7
  6
CONTINUOUS
 90
14
 70
0
 10
-6.3162733818
 20
38.0801829405
 10
-6.3226668225
 20
38.0861140742
 10
-6.3287597421
 20
38.0928494463
 10
-6.3345521405
 20
38.1003890566
 10
-6.3401082818
 20
38.1088902656
 10
-6.3453639019
 20
38.1181957129
 10
-6.3501262091
 20
38.1278333175
 10
-6.354379241
 20
38.1377959465
 10
-6.3581389601
 20
38.1480907328
 10
-6.3612604616
 20
38.1582669938
 10
-6.3637380338
 20
38.1682830769
 10
-6.3655773885
 20
38.1781806348
 10
-6.3666507567
 20
38.1876339422
 10
-6.3669155487
 20
38.1965344241
  0
LINE
  5
346
100
AcDbEntity
  8
0
100
AcDbLine
 62
7
  6
CONTINUOUS
 10
-4.0998817213
 20
34.6061049948
 11
-4.0124179732
 21
34.5206228274
  0
LWPOLYLINE
  5
347
100
AcDbEntity
  8
0
100
AcDbPolyline
 62
7
  6
CONTINUOUS
 90
15
 70
0
 10
-4.3971925555
 20
37.376400864
 10
-4.3896012427
 20
37.3681469332
 10
-4.382517507
 20
37.3589449226
 10
-4.3757841774
 20
37.3486040468
 10
-4.3695584247
 20
37.3373150911
 10
-4.364311762
 20
37.3256504125
 10
-4.3601365823
 20
37.3135768845
 10
-4.3569404925
 20
37.3011276336
 10
-4.3549178254
 20
37.2889743956
 10
-4.3541941917
 20
37.2771125594
 10
-4.3546439808
 20
37.2655467362
 10
-4.3560846936
 20
37.2549624956
 10
-4.3584554972
 20
37.2455883607
 10
-4.3618172245
 20
37.2371958085
 10
-4.3661698756
 20
37.2297848388
  0
LWPOLYLINE
  5
348
100
AcDbEntity
  8
0
100
AcDbPolyline
 62
7
  6
CONTINUOUS
 90
10
 70
0
 10
-1.3463744285
 20
35.0467978559
 10
-1.3530388337
 20
35.0542727878
 10
-1.3592919511
 20
35.0625470229
 10
-1.365156818
 20
35.0715543057
 10
-1.3703738861
 20
35.0809150885
 10
-1.3748895229
 20
35.0906640894
 10
-1.3787573608
 20
35.1007665902
 10
-1.3818787486
 20
35.1107388891
 10
-1.3842208025
 20
35.1204197519
 10
-1.3855948994
 20
35.1286445594
  0
LWPOLYLINE
  5
349
100
AcDbEntity
  8
0
100
AcDbPolyline
 62
7
  6
CONTINUOUS
 90
3
 70
0
 10
-2.6095450322
 20
38.3793129
 10
-2.6287698069
 20
38.4030042326
 10
-2.6485479319
 20
38.4242374273
  0
LINE
  5
34A
100
AcDbEntity
  8
0
100
AcDbLine
 62
7
  6
CONTINUOUS
 10
-3.5934017279
 20
32.3750624391
 11
-3.5998010515
 21
32.3733584674
  0
LWPOLYLINE
  5
34B
100
AcDbEntity
  8
0
100
AcDbPolyline
 62
7
  6
CONTINUOUS
 90
12
 70
0
 10
-1.5097817724
 20
32.3523423772
 10
-1.5161067115
 20
32.3513238269
 10
-1.523042825
 20
32.3513673775
 10
-1.5304686593
 20
32.352425159
 10
-1.5380198535
 20
32.3543535619
 10
-1.5456884055
 20
32.3571672653
 10
-1.5534823174
 20
32.36085159
 10
-1.561061235
 20
32.365218889
 10
-1.5683930149
 20
32.3702417738
 10
-1.5755098004
 20
32.3759476328
 10
-1.5821676671
 20
32.382230984
 10
-1.5882853068
 20
32.3890566667
  0
LINE
  5
34C
100
AcDbEntity
  8
0
100
AcDbLine
 62
7
  6
CONTINUOUS
 10
-3.6105173512
 20
32.3724620732
 11
-3.6137520972
 21
32.3725179137
  0
LINE
  5
34D
100
AcDbEntity
  8
0
100
AcDbLine
 62
7
  6
CONTINUOUS
 10
-3.2773594283
 20
34.0792958302
 11
-3.1848180205
 21
34.0562259498
  0
LINE
  5
34E
100
AcDbEntity
  8
0
100
AcDbLine
 62
7
  6
CONTINUOUS
 10
-3.3704738808
 20
34.1099237482
 11
-3.2757528274
 21
34.0788306943
  0
LINE
  5
34F
100
AcDbEntity
  8
0
100
AcDbLine
 62
7
  6
CONTINUOUS
 10
-3.4642373669
 20
34.1480707474
 11
-3.3687464612
 21
34.1092910939
  0
LINE
  5
350
100
AcDbEntity
  8
0
100
AcDbLine
 62
7
  6
CONTINUOUS
 10
-1.3108439183
 20
35.0224075024
 11
-1.3180253775
 21
35.0254338116
  0
LWPOLYLINE
  5
351
100
AcDbEntity
  8
0
100
AcDbPolyline
 62
7
  6
CONTINUOUS
 90
9
 70
0
 10
-3.6344422061
 20
32.3790981187
 10
-3.6274797582
 20
32.3758614691
 10
-3.6205376277
 20
32.3736604187
 10
-3.6136158147
 20
32.3724949673
 10
-3.60661323
 20
32.3724206259
 10
-3.5996309629
 20
32.3733818837
 10
-3.5929722801
 20
32.3752122074
 10
-3.5866614713
 20
32.377920365
 10
-3.5842300338
 20
32.3792489512
  0
LWPOLYLINE
  5
352
100
AcDbEntity
  8
0
100
AcDbPolyline
 62
7
  6
CONTINUOUS
 90
3
 70
0
 10
-3.8227925102
 20
33.6348812143
 10
-3.8297549581
 20
33.6381178638
 10
-3.8366833954
 20
33.6403145727
  0
LINE
  5
353
100
AcDbEntity
  8
0
100
AcDbLine
 62
7
  6
CONTINUOUS
 10
-3.5577208494
 20
34.193316024
 11
-3.4624271313
 21
34.1472622825
  0
LINE
  5
354
100
AcDbEntity
  8
0
100
AcDbLine
 62
7
  6
CONTINUOUS
 10
-6.2077558126
 20
38.5520707701
 11
-6.2167679539
 21
38.5570327044
  0
LWPOLYLINE
  5
355
100
AcDbEntity
  8
0
100
AcDbPolyline
 62
7
  6
CONTINUOUS
 90
4
 70
0
 10
-1.3180253775
 20
35.0254338116
 10
-1.3251472473
 20
35.0293739495
 10
-1.3322095278
 20
35.0342279161
 10
-1.3393217728
 20
35.0400559716
  0
LWPOLYLINE
  5
356
100
AcDbEntity
  8
0
100
AcDbPolyline
 62
7
  6
CONTINUOUS
 90
10
 70
0
 10
-4.6899538709
 20
37.612710745
 10
-4.6970037268
 20
37.6166616532
 10
-4.7042612519
 20
37.6196933185
 10
-4.7118642953
 20
37.6218375535
 10
-4.7196750077
 20
37.6230625455
 10
-4.7272798419
 20
37.6232728569
 10
-4.7346847275
 20
37.6224399303
 10
-4.7418837349
 20
37.6205923229
 10
-4.748445527
 20
37.6177202692
 10
-4.7495260756
 20
37.6170981072
  0
LINE
  5
357
100
AcDbEntity
  8
0
100
AcDbLine
 62
7
  6
CONTINUOUS
 10
-3.651022126
 20
34.2457750473
 11
-3.5558735491
 21
34.1923524626
  0
LINE
  5
358
100
AcDbEntity
  8
0
100
AcDbLine
 62
7
  6
CONTINUOUS
 10
-3.5399652271
 20
33.4715802857
 11
-3.8227925102
 21
33.6348812143
  0
LINE
  5
359
100
AcDbEntity
  8
0
100
AcDbLine
 62
7
  6
CONTINUOUS
 10
-3.9806996251
 20
38.6645093387
 11
-2.9673003695
 21
38.0793853093
  0
LINE
  5
35A
100
AcDbEntity
  8
0
100
AcDbLine
 62
7
  6
CONTINUOUS
 10
-2.7102746864
 20
38.4724804724
 11
-3.9360959741
 21
39.1802543207
  0
LWPOLYLINE
  5
35B
100
AcDbEntity
  8
0
100
AcDbPolyline
 62
7
  6
CONTINUOUS
 90
7
 70
0
 10
-1.5614735117
 20
32.3654802454
 10
-1.5539359839
 20
32.3610896589
 10
-1.546169342
 20
32.3573655384
 10
-1.5384988018
 20
32.3545053136
 10
-1.5309047225
 20
32.3525177096
 10
-1.5234067449
 20
32.3513940013
 10
-1.5163890072
 20
32.3513054434
  0
LWPOLYLINE
  5
35C
100
AcDbEntity
  8
0
100
AcDbPolyline
 62
7
  6
CONTINUOUS
 90
7
 70
0
 10
-1.8593928799
 20
33.6079735515
 10
-1.8669304077
 20
33.6123641381
 10
-1.8746970496
 20
33.6160882586
 10
-1.8823675897
 20
33.6189484834
 10
-1.8899616691
 20
33.6209360874
 10
-1.8974596467
 20
33.6220597956
 10
-1.9044773844
 20
33.6221483536
  0
LWPOLYLINE
  5
35D
100
AcDbEntity
  8
0
100
AcDbPolyline
 62
7
  6
CONTINUOUS
 90
3
 70
0
 10
-6.2130171312
 20
38.5551143265
 10
-6.2058483104
 20
38.5508158562
 10
-6.1987797859
 20
38.545604398
  0
LINE
  5
35E
100
AcDbEntity
  8
0
100
AcDbLine
 62
7
  6
CONTINUOUS
 10
-2.6891457513
 20
38.4588575953
 11
-2.7102746864
 21
38.4724804724
  0
LWPOLYLINE
  5
35F
100
AcDbEntity
  8
0
100
AcDbPolyline
 62
7
  6
CONTINUOUS
 90
14
 70
0
 10
-3.9806993328
 20
38.6645091699
 10
-3.9874191093
 20
38.6691345202
 10
-3.9939709951
 20
38.6746776786
 10
-4.0003549902
 20
38.681138645
 10
-4.0066525321
 20
38.6886675009
 10
-4.0127821834
 20
38.6971141648
 10
-4.0184996311
 20
38.7060283928
 10
-4.0237889239
 20
38.7154064517
 10
-4.0286660133
 20
38.7252520748
 10
-4.0329344411
 20
38.7351262172
 10
-4.0365829683
 20
38.7449857296
 10
-4.0396228339
 20
38.7548737614
 10
-4.0418912975
 20
38.7644807152
 10
-4.043334112
 20
38.7737033921
  0
LWPOLYLINE
  5
360
100
AcDbEntity
  8
0
100
AcDbPolyline
 62
7
  6
CONTINUOUS
 90
11
 70
0
 10
-5.5844227409
 20
37.4897629249
 10
-5.5780606314
 20
37.4852917933
 10
-5.5715209456
 20
37.4816785193
 10
-5.5648036835
 20
37.4789231029
 10
-5.5578102534
 20
37.4770264561
 10
-5.550639247
 20
37.475987667
 10
-5.5435864392
 20
37.4758039992
 10
-5.5366633137
 20
37.4764771733
 10
-5.5298583868
 20
37.4780054687
 10
-5.5234329833
 20
37.4803809868
 10
-5.5186606988
 20
37.4828318469
  0
LINE
  5
361
100
AcDbEntity
  8
0
100
AcDbLine
 62
7
  6
CONTINUOUS
 10
-4.683111684
 20
37.6078405938
 11
-4.6899381448
 21
37.6126995514
  0
LINE
  5
362
100
AcDbEntity
  8
0
100
AcDbLine
 62
7
  6
CONTINUOUS
 10
-6.1987797531
 20
38.5456043715
 11
-6.2068355755
 21
38.5514078266
  0
LWPOLYLINE
  5
363
100
AcDbEntity
  8
0
100
AcDbPolyline
 62
7
  6
CONTINUOUS
 90
3
 70
0
 10
-2.6891433582
 20
38.4588565135
 10
-2.6685649208
 20
38.4427726643
 10
-2.6485393772
 20
38.4242289268
  0
LINE
  5
364
100
AcDbEntity
  8
0
100
AcDbLine
 62
7
  6
CONTINUOUS
 10
-3.8574336648
 20
33.6406208656
 11
-3.8640520323
 21
33.6388249609
  0
LWPOLYLINE
  5
365
100
AcDbEntity
  8
0
100
AcDbPolyline
 62
7
  6
CONTINUOUS
 90
4
 70
0
 10
-3.8638329884
 20
33.6389168939
 10
-3.857193259
 20
33.6406848794
 10
-3.8502574511
 20
33.6415783713
 10
-3.8433200033
 20
33.6414586121
  0
LWPOLYLINE
  5
366
100
AcDbEntity
  8
0
100
AcDbPolyline
 62
7
  6
CONTINUOUS
 90
14
 70
0
 10
-5.7548187075
 20
34.8037183619
 10
-5.7608129049
 20
34.8021567839
 10
-5.7671859837
 20
34.8016681002
 10
-5.7739379441
 20
34.8022523107
 10
-5.781191134
 20
34.8039862917
 10
-5.7888232053
 20
34.8067931669
 10
-5.796467114
 20
34.8104423074
 10
-5.8041114686
 20
34.8149449188
 10
-5.8117676606
 20
34.8202897955
 10
-5.8191028202
 20
34.8262126924
 10
-5.8260865787
 20
34.8326794088
 10
-5.8327493049
 20
34.8397241454
 10
-5.8388492345
 20
34.8471852598
 10
-5.8443057797
 20
34.8550088711
  0
LWPOLYLINE
  5
367
100
AcDbEntity
  8
0
100
AcDbPolyline
 62
7
  6
CONTINUOUS
 90
16
 70
0
 10
-5.3617923158
 20
35.6130065113
 10
-5.3557981188
 20
35.6145680892
 10
-5.3494250402
 20
35.6150567729
 10
-5.34267308
 20
35.6144725624
 10
-5.3354198902
 20
35.6127385814
 10
-5.3277878188
 20
35.6099317062
 10
-5.3201439101
 20
35.6062825656
 10
-5.3124995555
 20
35.6017799543
 10
-5.3048433635
 20
35.5964350776
 10
-5.2975082039
 20
35.5905121807
 10
-5.2905244454
 20
35.5840454643
 10
-5.2838617192
 20
35.5770007277
 10
-5.2777617896
 20
35.5695396133
 10
-5.2723052444
 20
35.5617160019
 10
-5.2674114957
 20
35.5534760127
 10
-5.2630805434
 20
35.5448196456
  0
LINE
  5
368
100
AcDbEntity
  8
0
100
AcDbLine
 62
7
  6
CONTINUOUS
 10
-5.7609336164
 20
34.8021565031
 11
-5.7548190471
 21
34.8037182238
  0
LINE
  5
369
100
AcDbEntity
  8
0
100
AcDbLine
 62
7
  6
CONTINUOUS
 10
-5.3556774071
 20
35.61456837
 11
-5.361791976
 21
35.6130066493
  0
LWPOLYLINE
  5
36A
100
AcDbEntity
  8
0
100
AcDbPolyline
 62
7
  6
CONTINUOUS
 90
3
 70
0
 10
-0.5250714203
 20
34.7513823573
 10
-0.5312330009
 20
34.7499182138
 10
-0.5370037788
 20
34.7495454274
  0
LWPOLYLINE
  5
36B
100
AcDbEntity
  8
0
100
AcDbPolyline
 62
7
  6
CONTINUOUS
 90
5
 70
0
 10
-1.3664908239
 20
35.5732975391
 10
-1.3603292433
 20
35.5747616826
 10
-1.3538942651
 20
35.5751773757
 10
-1.3472765497
 20
35.5745679167
 10
-1.3404760969
 20
35.5729333055
  0
LINE
  5
36C
100
AcDbEntity
  8
0
100
AcDbLine
 62
7
  6
CONTINUOUS
 10
-0.5314501669
 20
34.7498836573
 11
-0.52519443
 21
34.7513326717
  0
LINE
  5
36D
100
AcDbEntity
  8
0
100
AcDbLine
 62
7
  6
CONTINUOUS
 10
-1.3601120773
 20
35.5747962391
 11
-1.3629557071
 21
35.57413757
  0
LINE
  5
36E
100
AcDbEntity
  8
0
100
AcDbLine
 62
7
  6
CONTINUOUS
 10
-3.8536991408
 20
33.6411350023
 11
-3.8574336648
 21
33.6406208656
  0
LINE
  5
36F
100
AcDbEntity
  8
0
100
AcDbLine
 62
7
  6
CONTINUOUS
 10
-3.6000414573
 20
32.3732944536
 11
-3.6068085251
 21
32.3724226993
  0
LINE
  5
370
100
AcDbEntity
  8
0
100
AcDbLine
 62
7
  6
CONTINUOUS
 10
-3.8467173651
 20
33.6415172598
 11
-3.8504261912
 21
33.6415566337
  0
LINE
  5
371
100
AcDbEntity
  8
0
100
AcDbLine
 62
7
  6
CONTINUOUS
 10
-3.0018154326
 20
34.0329060261
 11
-3.091691943
 21
34.040516583
  0
LWPOLYLINE
  5
372
100
AcDbEntity
  8
0
100
AcDbPolyline
 62
7
  6
CONTINUOUS
 90
3
 70
0
 10
-0.5376679791
 20
34.7495025207
 10
-0.5442856946
 20
34.7501119797
 10
-0.5510861474
 20
34.7517465909
  0
LINE
  5
373
100
AcDbEntity
  8
DRAFT
100
AcDbLine
 62
7
  6
CONTINUOUS
 10
8.2624917898
 20
34.0509736135
 11
7.7048142539
 21
34.1166315756
  0
LINE
  5
374
100
AcDbEntity
  8
0
100
AcDbLine
 62
7
  6
CONTINUOUS
 10
-3.091691943
 20
34.040516583
 11
-3.183378867
 21
34.0559182442
  0
LINE
  5
375
100
AcDbEntity
  8
0
100
AcDbLine
 62
7
  6
CONTINUOUS
 10
-3.8366833954
 20
33.6403145727
 11
-3.8434826191
 21
33.6414614193
  0
LINE
  5
376
100
AcDbEntity
  8
DRAFT
100
AcDbLine
 62
7
  6
CONTINUOUS
 10
8.2624917898
 20
36.3152801351
 11
7.7048142539
 21
36.42217932
  0
LWPOLYLINE
  5
377
100
AcDbEntity
  8
0
100
AcDbPolyline
 62
7
  6
CONTINUOUS
 90
3
 70
0
 10
-6.2277776183
 20
38.5610370287
 10
-6.220286248
 20
38.5584998089
 10
-6.2130171312
 20
38.5551143265
  0
LINE
  5
378
100
AcDbEntity
  8
0
100
AcDbLine
 62
7
  6
CONTINUOUS
 10
-1.3108439587
 20
35.0224075168
 11
-0.5510858634
 21
34.7517464897
  0
LINE
  5
379
100
AcDbEntity
  8
0
100
AcDbLine
 62
7
  6
CONTINUOUS
 10
-0.5835423985
 20
35.3031437772
 11
-1.3404763808
 21
35.5729334067
  0
LWPOLYLINE
  5
37A
100
AcDbEntity
  8
0
100
AcDbPolyline
 62
7
  6
CONTINUOUS
 90
3
 70
0
 10
-6.2167679539
 20
38.5570327044
 10
-6.2258161769
 20
38.5604901745
 10
-6.2353692848
 20
38.5626612606
  0
LWPOLYLINE
  5
37B
100
AcDbEntity
  8
0
100
AcDbPolyline
 62
7
  6
CONTINUOUS
 90
4
 70
0
 10
-3.9360959741
 20
39.1802543207
 10
-3.9425857232
 20
39.1833573503
 10
-3.9491205719
 20
39.1855175961
 10
-3.955637337
 20
39.1867233676
  0
LINE
  5
37C
100
AcDbEntity
  8
RACCORDO
100
AcDbLine
 62
250
  6
CONTINUOUS
 10
-10.5623126753
 20
43.9929149886
 11
4.2650993179
 21
35.4317531348
  0
LINE
  5
37D
100
AcDbEntity
  8
RACCORDO
100
AcDbLine
 62
250
  6
CONTINUOUS
 10
8.4392684851
 20
36.5149115181
 11
7.7208226699
 21
36.9297331275
  0
LINE
  5
37E
100
AcDbEntity
  8
RACCORDO
100
AcDbLine
 62
7
  6
CONTINUOUS
 10
8.4392684851
 20
36.6500059311
 11
7.9653863211
 21
36.9236195535
  0
LINE
  5
37F
100
AcDbEntity
  8
0
100
AcDbLine
 62
7
  6
CONTINUOUS
 10
-3.9691016438
 20
39.1862983352
 11
-3.9756554071
 21
39.1847440048
  0
LINE
  5
380
100
AcDbEntity
  8
0
100
AcDbLine
 62
7
  6
CONTINUOUS
 10
-6.2443465409
 20
38.5630166951
 11
-6.2531773364
 21
38.5618357994
  0
LINE
  5
381
100
AcDbEntity
  8
0
100
AcDbLine
 62
7
  6
CONTINUOUS
 10
-3.9623111282
 20
39.186980321
 11
-3.9691016438
 21
39.1862983352
  0
LINE
  5
382
100
AcDbEntity
  8
0
100
AcDbLine
 62
7
  6
CONTINUOUS
 10
-3.955637337
 20
39.1867233676
 11
-3.9623111282
 21
39.186980321
  0
LINE
  5
383
100
AcDbEntity
  8
0
100
AcDbLine
 62
7
  6
CONTINUOUS
 10
-6.2351346977
 20
38.5625095962
 11
-6.2443465409
 21
38.5630166951
  0
LINE
  5
384
100
AcDbEntity
  8
0
100
AcDbLine
 62
7
  6
CONTINUOUS
 10
-6.2426953756
 20
38.5631783285
 11
-6.2353692848
 21
38.5626612606
  0
LINE
  5
385
100
AcDbEntity
  8
RACCORDO
100
AcDbLine
 62
250
  6
CONTINUOUS
 10
-9.8055644621
 20
61.5757885729
 11
5.0626497062
 21
52.9910680546
  0
LINE
  5
386
100
AcDbEntity
  8
RACCORDO
100
AcDbLine
 62
250
  6
CONTINUOUS
 10
5.0626497062
 20
65.3003963276
 11
-9.8055644621
 21
73.8851168459
  0
LINE
  5
387
100
AcDbEntity
  8
RACCORDO
100
AcDbLine
 62
250
  6
CONTINUOUS
 10
5.406948148
 20
65.9072851792
 11
-9.4612660204
 21
74.4920056975
  0
LINE
  5
388
100
AcDbEntity
  8
RACCORDO
100
AcDbLine
 62
7
  6
CONTINUOUS
 10
-8.4193676132
 20
75.15828765
 11
6.504879982
 21
66.5412141333
  0
ARC
  5
389
100
AcDbEntity
  8
RACCORDO
100
AcDbCircle
 62
7
  6
CONTINUOUS
 10
-11.2903739599
 20
31.3161742633
 40
0.5
100
AcDbArc
 50
175.1839975096
 51
239.998401565
  0
ARC
  5
38A
100
AcDbEntity
  8
RACCORDO
100
AcDbCircle
 62
7
  6
CONTINUOUS
 10
-9.4520110716
 20
74.0892541426
 40
0.5
100
AcDbArc
 50
122.5979811561
 51
179.9999235732
  0
ARC
  5
38B
100
AcDbEntity
  8
RACCORDO
100
AcDbCircle
 62
7
  6
CONTINUOUS
 10
3.478972822
 20
22.7885385348
 40
0.5
100
AcDbArc
 50
239.9984015654
 51
287.1696386886
  0
ELLIPSE
  5
38C
100
AcDbEntity
  8
RACCORDO
100
AcDbEllipse
 62
7
  6
CONTINUOUS
 10
7.686442613
 20
36.5073185856
 30
0.0
 11
0.2984123604
 21
0.4035436801
 31
0.0
 40
0.639288975
 41
0.0724911956
 42
0.7706710139
  0
ELLIPSE
  5
38D
100
AcDbEntity
  8
0
100
AcDbEllipse
 62
7
  6
CONTINUOUS
 10
-0.5783808959
 20
35.207750454
 30
0.0
 11
-0.0427354314
 21
0.0951672576
 31
0.0
 40
0.634096402
 41
-2.1172798052
 42
-0.5463378271
  0
ELLIPSE
  5
38E
100
AcDbEntity
  8
RACCORDO
100
AcDbEllipse
 62
7
  6
CONTINUOUS
 10
6.5046376327
 20
23.9170666224
 30
0.0
 11
-0.2501834304
 21
0.4333025529
 31
0.0
 40
0.5769361983
 41
-3.1677535987
 42
-2.3565853618
  0
ELLIPSE
  5
38F
100
AcDbEntity
  8
RACCORDO
100
AcDbEllipse
 62
7
  6
CONTINUOUS
 10
6.5046376327
 20
66.1329789845
 30
0.0
 11
-0.2500121049
 21
0.4330057129
 31
0.0
 40
0.5777274115
 41
-2.3559002616
 42
-0.7857891675
  0
ELLIPSE
  5
390
100
AcDbEntity
  8
RACCORDO
100
AcDbEllipse
 62
7
  6
CONTINUOUS
 10
-8.4191252638
 20
74.7497726422
 30
0.0
 11
-0.2501834304
 21
0.4333025529
 31
0.0
 40
0.5769361983
 41
-0.7851038024
 42
0.0261609458
  0
ENDSEC
  0
SECTION
  2
OBJECTS
  0
DICTIONARY
  5
C
100
AcDbDictionary
280
0
281
1
  3
ACAD_GROUP
350
D
  3
ACAD_MLINESTYLE
350
17
  3
ACAD_LAYOUT
350
1A
  3
ACAD_PLOTSETTINGS
350
19
  3
ACAD_PLOTSTYLENAME
350
E
  0
DICTIONARY
  5
D
102
{ACAD_REACTORS
330
C
102
}
100
AcDbDictionary
280
0
281
1
  0
ACDBDICTIONARYWDFLT
  5
E
102
{ACAD_REACTORS
330
C
102
}
100
AcDbDictionary
281
1
  3
Normal
350
F
100
AcDbDictionaryWithDefault
340
F
  0
DICTIONARY
  5
17
102
{ACAD_REACTORS
330
C
102
}
100
AcDbDictionary
280
0
281
1
  3
Standard
350
18
  0
DICTIONARY
  5
19
102
{ACAD_REACTORS
330
C
102
}
100
AcDbDictionary
281
1
  0
DICTIONARY
  5
1A
102
{ACAD_REACTORS
330
C
102
}
100
AcDbDictionary
281
1
  3
Model
350
391
  3
Layout1
350
392
  0
ACDBPLACEHOLDER
  5
F
102
{ACAD_REACTORS
330
E
102
}
  0
MLINESTYLE
  5
18
102
{ACAD_REACTORS
330
17
102
}
100
AcDbMlineStyle
  2
STANDARD
 70
0
  3

 62
256
 51
90.0
 52
90.0
 71
2
 49
0.5
 62
256
  6
BYLAYER
 49
-0.5
 62
256
  6
BYLAYER
  0
LAYOUT
  5
391
102
{ACAD_REACTORS
330
1A
102
}
100
AcDbPlotSettings
  1

  2
none_device
  4
ISO_A4_(297.00_x_210.00_MM)
  6

 40
0.0
 41
0.0
 42
0.0
 43
0.0
 44
297.0
 45
210.0
 46
0.0
 47
0.0
 48
0.0
 49
0.0
140
0.0
141
0.0
142
1.0
143
1.0
 70
1024
 72
1
 73
0
 74
0
  7

 75
0
147
1.0
148
0.0
149
0.0
100
AcDbLayout
  1
Model
 70
0
 71
0
 10
0.0
 20
0.0
 11
297.0
 21
210.0
 12
0.0
 22
0.0
 32
0.0
 14
0.0
 24
0.0
 34
0.0
 15
0.0
 25
0.0
 35
0.0
146
0.0
 13
0.0
 23
0.0
 33
0.0
 16
1.0
 26
0.0
 36
0.0
 17
0.0
 27
1.0
 37
0.0
 76
0
330
21A
345
0
346
0
  0
LAYOUT
  5
392
102
{ACAD_REACTORS
330
1A
102
}
100
AcDbPlotSettings
  1

  2
none_device
  4
ISO_A4_(297.00_x_210.00_MM)
  6

 40
0.0
 41
0.0
 42
0.0
 43
0.0
 44
297.0
 45
210.0
 46
0.0
 47
0.0
 48
0.0
 49
0.0
140
0.0
141
0.0
142
1.0
143
1.0
 70
0
 72
1
 73
0
 74
0
  7

 75
0
147
1.0
148
0.0
149
0.0
100
AcDbLayout
  1
Layout1
 70
0
 71
1
 10
0.0
 20
0.0
 11
297.0
 21
210.0
 12
0.0
 22
0.0
 32
0.0
 14
0.0
 24
0.0
 34
0.0
 15
0.0
 25
0.0
 35
0.0
146
0.0
 13
0.0
 23
0.0
 33
0.0
 16
1.0
 26
0.0
 36
0.0
 17
0.0
 27
1.0
 37
0.0
 76
0
330
21B
345
0
346
0
  0
ENDSEC
  0
EOF
