  0
SECTION
  2
HEADER
  9
$ACADVER
  1
AC1024
  9
$DWGCODEPAGE
  3
ANSI_1252
  9
$EXTMAX
 10
297.0
 20
210.0
 30
0.0
  9
$EXTMIN
 10
0.0
 20
0.0
 30
0.0
  9
$LIMMIN
 10
0.0
 20
0.0
  9
$LIMMAX
 10
297.0
 20
210.0
  9
$VIEWCTR
 10
148.5
 20
105.0
  9
$VIEWSIZE
 40
210.0
  9
$CLAYER
  8
0
  9
$LTSCALE
 40
16.335
  9
$CELTYPE
  6
BYLAYER
  9
$DIMSCALE
 40
1.0
  9
$DIMASZ
 40
3.0
  9
$DIMEXO
 40
0.5
  9
$DIMDLI
 40
11.286
  9
$DIMEXE
 40
1.5
  9
$DIMCEN
 40
2.673
  9
$DIMLFAC
 40
1.0
  9
$DIMBLK
  1
_FILLED
  9
$DIMALT
 70
0
  9
$DIMALTF
 40
0.0393700787
  9
$DIMTXT
 40
3.0
  9
$DIMTOL
 70
1
  9
$DIMLIM
 70
0
  9
$DIMTFAC
 40
1.0
  9
$DIMTP
 40
0.01
  9
$DIMTM
 40
0.01
  9
$DIMGAP
 40
0.625
  9
$DIMDSEP
 70
44
  9
$AUNITS
 70
0
  9
$PDMODE
 70
3
  9
$PDSIZE
 40
3.0
  9
$HANDSEED
  5
2C6
  9
$TILEMODE
 70
1
  9
$MEASUREMENT
 70
1
  9
$INSUNITS
 70
4
  0
ENDSEC
  0
SECTION
  2
CLASSES
  0
CLASS
  1
ACDBDICTIONARYWDFLT
  2
AcDbDictionaryWithDefault
  3
AutoCAD 2000
 90
0
 91
1
280
0
281
0
  0
CLASS
  1
ACDBPLACEHOLDER
  2
AcDbPlaceHolder
  3
AutoCAD 2000
 90
0
 91
1
280
0
281
0
  0
CLASS
  1
LAYOUT
  2
AcDbLayout
  3
AutoCAD 2000
 90
0
 91
0
280
0
281
0
  0
ENDSEC
  0
SECTION
  2
TABLES
  0
TABLE
  2
VPORT
  5
8
100
AcDbSymbolTable
 70
2
  0
VPORT
  5
1F4
100
AcDbSymbolTableRecord
100
AcDbViewportTableRecord
  2
*ACTIVE
 70
0
 10
0.0
 20
0.0
 11
1.0
 21
1.0
 12
148.5
 22
105.0
 13
0.0
 23
0.0
 14
1.0
 24
1.0
 15
0.0
 25
0.0
 16
0.0
 26
0.0
 36
1.0
 17
0.0
 27
0.0
 37
0.0
 40
210.0
 41
1.4142857143
 42
50.0
 43
0.0
 44
0.0
 50
0.0
 51
0.0
 71
0
 72
100
 73
1
 74
1
 75
0
 76
0
 77
0
 78
0
  0
ENDTAB
  0
TABLE
  2
LTYPE
  5
5
100
AcDbSymbolTable
 70
6
  0
LTYPE
  5
14
100
AcDbSymbolTableRecord
100
AcDbLinetypeTableRecord
  2
BYBLOCK
 70
0
  3

 72
65
 73
0
 40
0.0
  0
LTYPE
  5
15
100
AcDbSymbolTableRecord
100
AcDbLinetypeTableRecord
  2
BYLAYER
 70
0
  3

 72
65
 73
0
 40
0.0
  0
LTYPE
  5
16
100
AcDbSymbolTableRecord
100
AcDbLinetypeTableRecord
  2
CONTINUOUS
 70
64
  3
Solid line
 72
65
 73
0
 40
0.0
  0
LTYPE
  5
1F5
100
AcDbSymbolTableRecord
100
AcDbLinetypeTableRecord
  2
CENTER
 70
64
  3
____ _ ____ _ ____ _ ____ _ ____ _ ____ _ ____
 72
65
 73
4
 40
0.6
 49
0.375
 74
0
 49
-0.075
 74
0
 49
0.075
 74
0
 49
-0.075
 74
0
  0
LTYPE
  5
1F6
100
AcDbSymbolTableRecord
100
AcDbLinetypeTableRecord
  2
HIDDEN
 70
64
  3
- - - - - - - - - - - - - - - - - - - -
 72
65
 73
2
 40
0.2
 49
0.1
 74
0
 49
-0.1
 74
0
  0
LTYPE
  5
1F7
100
AcDbSymbolTableRecord
100
AcDbLinetypeTableRecord
  2
PHANTOM
 70
64
  3
_____ _ _ _____ _ _ _____ _ _ _____
 72
65
 73
6
 40
0.8
 49
0.45
 74
0
 49
-0.05
 74
0
 49
0.1
 74
0
 49
-0.05
 74
0
 49
0.1
 74
0
 49
-0.05
 74
0
  0
LTYPE
  5
1F8
100
AcDbSymbolTableRecord
100
AcDbLinetypeTableRecord
  2
DOT
 70
64
  3
. . . . . . . . . . . . . . . . . . . .
 72
65
 73
2
 40
0.2
 49
0.1
 74
0
 49
-0.1
 74
0
  0
LTYPE
  5
1F9
100
AcDbSymbolTableRecord
100
AcDbLinetypeTableRecord
  2
DASHED
 70
64
  3
- - - - - - - - - - - - - - - - - - - -
 72
65
 73
2
 40
0.2
 49
0.1
 74
0
 49
-0.1
 74
0
  0
ENDTAB
  0
TABLE
  2
LAYER
  5
2
100
AcDbSymbolTable
 70
36
  0
LAYER
  5
10
100
AcDbSymbolTableRecord
100
AcDbLayerTableRecord
  2
0
 70
0
 62
7
  6
CONTINUOUS
370
-3
390
F
  0
LAYER
  5
1FA
100
AcDbSymbolTableRecord
100
AcDbLayerTableRecord
  2
DEFAULT_1
 70
0
 62
7
  6
CENTER
370
-3
390
F
  0
LAYER
  5
1FB
100
AcDbSymbolTableRecord
100
AcDbLayerTableRecord
  2
DEFAULT_2
 70
0
 62
7
  6
HIDDEN
370
-3
390
F
  0
LAYER
  5
1FC
100
AcDbSymbolTableRecord
100
AcDbLayerTableRecord
  2
DEFAULT_3
 70
0
 62
7
  6
PHANTOM
370
-3
390
F
  0
LAYER
  5
1FD
100
AcDbSymbolTableRecord
100
AcDbLayerTableRecord
  2
ASSI
 70
0
 62
7
  6
CONTINUOUS
370
-3
390
F
  0
LAYER
  5
1FE
100
AcDbSymbolTableRecord
100
AcDbLayerTableRecord
  2
COORDINATE
 70
0
 62
7
  6
CONTINUOUS
370
-3
390
F
  0
LAYER
  5
1FF
100
AcDbSymbolTableRecord
100
AcDbLayerTableRecord
  2
COPY_PUBLISH
 70
0
 62
7
  6
CONTINUOUS
370
-3
390
F
  0
LAYER
  5
200
100
AcDbSymbolTableRecord
100
AcDbLayerTableRecord
  2
COSMETICI
 70
0
 62
7
  6
CONTINUOUS
370
-3
390
F
  0
LAYER
  5
201
100
AcDbSymbolTableRecord
100
AcDbLayerTableRecord
  2
CURVE
 70
0
 62
7
  6
CONTINUOUS
370
-3
390
F
  0
LAYER
  5
202
100
AcDbSymbolTableRecord
100
AcDbLayerTableRecord
  2
DRAFT
 70
0
 62
7
  6
CONTINUOUS
370
-3
390
F
  0
LAYER
  5
203
100
AcDbSymbolTableRecord
100
AcDbLayerTableRecord
  2
IMPORT_IGES
 70
0
 62
7
  6
CONTINUOUS
370
-3
390
F
  0
LAYER
  5
204
100
AcDbSymbolTableRecord
100
AcDbLayerTableRecord
  2
INTF_1
 70
0
 62
7
  6
CONTINUOUS
370
-3
390
F
  0
LAYER
  5
205
100
AcDbSymbolTableRecord
100
AcDbLayerTableRecord
  2
INTF_10
 70
0
 62
7
  6
CONTINUOUS
370
-3
390
F
  0
LAYER
  5
206
100
AcDbSymbolTableRecord
100
AcDbLayerTableRecord
  2
INTF_11
 70
0
 62
7
  6
CONTINUOUS
370
-3
390
F
  0
LAYER
  5
207
100
AcDbSymbolTableRecord
100
AcDbLayerTableRecord
  2
INTF_17
 70
0
 62
7
  6
CONTINUOUS
370
-3
390
F
  0
LAYER
  5
208
100
AcDbSymbolTableRecord
100
AcDbLayerTableRecord
  2
INTF_2
 70
0
 62
7
  6
CONTINUOUS
370
-3
390
F
  0
LAYER
  5
209
100
AcDbSymbolTableRecord
100
AcDbLayerTableRecord
  2
INTF_3
 70
0
 62
7
  6
CONTINUOUS
370
-3
390
F
  0
LAYER
  5
20A
100
AcDbSymbolTableRecord
100
AcDbLayerTableRecord
  2
INTF_4
 70
0
 62
7
  6
CONTINUOUS
370
-3
390
F
  0
LAYER
  5
20B
100
AcDbSymbolTableRecord
100
AcDbLayerTableRecord
  2
INTF_5
 70
0
 62
7
  6
CONTINUOUS
370
-3
390
F
  0
LAYER
  5
20C
100
AcDbSymbolTableRecord
100
AcDbLayerTableRecord
  2
INTF_6
 70
0
 62
7
  6
CONTINUOUS
370
-3
390
F
  0
LAYER
  5
20D
100
AcDbSymbolTableRecord
100
AcDbLayerTableRecord
  2
INTF_7
 70
0
 62
7
  6
CONTINUOUS
370
-3
390
F
  0
LAYER
  5
20E
100
AcDbSymbolTableRecord
100
AcDbLayerTableRecord
  2
INTF_8
 70
0
 62
7
  6
CONTINUOUS
370
-3
390
F
  0
LAYER
  5
20F
100
AcDbSymbolTableRecord
100
AcDbLayerTableRecord
  2
INTF_9
 70
0
 62
7
  6
CONTINUOUS
370
-3
390
F
  0
LAYER
  5
210
100
AcDbSymbolTableRecord
100
AcDbLayerTableRecord
  2
INTF_BLANK
 70
0
 62
7
  6
CONTINUOUS
370
-3
390
F
  0
LAYER
  5
211
100
AcDbSymbolTableRecord
100
AcDbLayerTableRecord
  2
INTF_RED
 70
0
 62
7
  6
CONTINUOUS
370
-3
390
F
  0
LAYER
  5
212
100
AcDbSymbolTableRecord
100
AcDbLayerTableRecord
  2
NOTE
 70
0
 62
7
  6
CONTINUOUS
370
-3
390
F
  0
LAYER
  5
213
100
AcDbSymbolTableRecord
100
AcDbLayerTableRecord
  2
PIANI
 70
0
 62
7
  6
CONTINUOUS
370
-3
390
F
  0
LAYER
  5
214
100
AcDbSymbolTableRecord
100
AcDbLayerTableRecord
  2
PUNTI
 70
0
 62
7
  6
CONTINUOUS
370
-3
390
F
  0
LAYER
  5
215
100
AcDbSymbolTableRecord
100
AcDbLayerTableRecord
  2
RACCORDO
 70
0
 62
7
  6
CONTINUOUS
370
-3
390
F
  0
LAYER
  5
216
100
AcDbSymbolTableRecord
100
AcDbLayerTableRecord
  2
RGB____0____0____0__
 70
0
 62
7
  6
CONTINUOUS
370
-3
390
F
  0
LAYER
  5
217
100
AcDbSymbolTableRecord
100
AcDbLayerTableRecord
  2
SIMBOLI
 70
0
 62
7
  6
CONTINUOUS
370
-3
390
F
  0
LAYER
  5
218
100
AcDbSymbolTableRecord
100
AcDbLayerTableRecord
  2
SMUSSO
 70
0
 62
7
  6
CONTINUOUS
370
-3
390
F
  0
LAYER
  5
219
100
AcDbSymbolTableRecord
100
AcDbLayerTableRecord
  2
SNAPLINE
 70
0
 62
7
  6
CONTINUOUS
370
-3
390
F
  0
LAYER
  5
21A
100
AcDbSymbolTableRecord
100
AcDbLayerTableRecord
  2
SUPERFICI
 70
0
 62
7
  6
CONTINUOUS
370
-3
390
F
  0
LAYER
  5
21B
100
AcDbSymbolTableRecord
100
AcDbLayerTableRecord
  2
TRASH
 70
0
 62
7
  6
CONTINUOUS
370
-3
390
F
  0
ENDTAB
  0
TABLE
  2
STYLE
  5
3
100
AcDbSymbolTable
 70
1
  0
STYLE
  5
11
100
AcDbSymbolTableRecord
100
AcDbTextStyleTableRecord
  2
STANDARD
 70
0
 40
0.0
 41
0.8
 50
0.0
 71
0
 42
0.2
  3
txt
  4

  0
STYLE
  5
21C
100
AcDbSymbolTableRecord
100
AcDbTextStyleTableRecord
  2
TEXTSTYLE_1
 70
0
 40
0.0
 41
0.8
 50
0.0
 71
0
 42
0.2
  3
gdt
  4

  0
ENDTAB
  0
TABLE
  2
VIEW
  5
6
100
AcDbSymbolTable
 70
0
  0
ENDTAB
  0
TABLE
  2
UCS
  5
7
100
AcDbSymbolTable
 70
0
  0
ENDTAB
  0
TABLE
  2
APPID
  5
9
100
AcDbSymbolTable
 70
1
  0
APPID
  5
21D
100
AcDbSymbolTableRecord
100
AcDbRegAppTableRecord
  2
ACAD
 70
0
  0
ENDTAB
  0
TABLE
  2
BLOCK_RECORD
  5
1
100
AcDbSymbolTable
 70
0
  0
BLOCK_RECORD
  5
21E
100
AcDbSymbolTableRecord
100
AcDbBlockTableRecord
  2
*Model_Space
  0
BLOCK_RECORD
  5
21F
100
AcDbSymbolTableRecord
100
AcDbBlockTableRecord
  2
*Paper_Space
  0
BLOCK_RECORD
  5
220
100
AcDbSymbolTableRecord
100
AcDbBlockTableRecord
  2
_FILLED
  0
ENDTAB
  0
TABLE
  2
DIMSTYLE
  5
A
100
AcDbSymbolTable
 70
1
100
AcDbDimStyleTable
 71
0
  0
DIMSTYLE
105
221
100
AcDbSymbolTableRecord
100
AcDbDimStyleTableRecord
  2
STANDARD
 70
0
  3

  4

 40
1.0
 41
3.0
 42
0.5
 43
0.38
 44
1.5
 45
0.0
 46
0.0
 47
0.01
 48
0.01
140
3.0
141
0.09
142
0.0
143
25.4
144
1.0
145
0.0
146
1.0
147
0.625
 71
1
 72
0
 73
0
 74
0
 75
0
 76
0
 77
1
 78
8
 79
2
170
0
171
1
172
0
173
0
174
0
175
0
176
0
177
0
178
0
270
2
179
2
271
2
272
2
273
2
274
2
275
0
280
0
281
0
282
0
283
1
284
8
285
0
286
0
287
3
288
0
340
11
278
44
341
220
342
220
343
220
344
220
  0
ENDTAB
  0
ENDSEC
  0
SECTION
  2
BLOCKS
  0
BLOCK
  5
20
100
AcDbEntity
  8
0
100
AcDbBlockBegin
  2
*Model_Space
 70
0
 10
0.0
 20
0.0
 30
0.0
  3
*Model_Space
  1

  0
ENDBLK
  5
21
100
AcDbEntity
  8
0
100
AcDbBlockEnd
  0
BLOCK
  5
1C
100
AcDbEntity
  8
0
100
AcDbBlockBegin
  2
*Paper_Space
 70
0
 10
0.0
 20
0.0
 30
0.0
  3
*Paper_Space
  1

  0
ENDBLK
  5
1D
100
AcDbEntity
  8
0
100
AcDbBlockEnd
  0
BLOCK
  5
222
100
AcDbEntity
  8
0
100
AcDbBlockBegin
  2
_FILLED
 70
64
 10
0.0
 20
0.0
  3
_FILLED
  1

  0
SOLID
  5
223
100
AcDbEntity
  8
0
  6
BYBLOCK
 62
0
100
AcDbTrace
 10
0.0
 20
0.0
 11
-1.0
 21
0.3166666667
 12
-1.0
 22
-0.3166666667
 13
-1.0
 23
-0.3166666667
  0
ENDBLK
  5
224
100
AcDbEntity
  8
0
  6
BYBLOCK
 62
0
100
AcDbBlockEnd
  0
ENDSEC
  0
SECTION
  2
ENTITIES
  0
LINE
  5
225
100
AcDbEntity
  8
RACCORDO
100
AcDbLine
 62
7
  6
CONTINUOUS
 10
-17.67633631
 20
28.8629721106
 11
-16.6307135024
 21
29.531635774
  0
LINE
  5
226
100
AcDbEntity
  8
RACCORDO
100
AcDbLine
 62
250
  6
CONTINUOUS
 10
-17.4162173087
 20
28.8444901495
 11
-16.3743189016
 21
29.5107721021
  0
LWPOLYLINE
  5
227
100
AcDbEntity
  8
RACCORDO
100
AcDbPolyline
 62
250
  6
CONTINUOUS
 90
11
 70
0
 10
-17.6763329101
 20
28.8629742847
 10
-17.6695680622
 20
28.8670769625
 10
-17.6467369061
 20
28.8779969369
 10
-17.6220841897
 20
28.8855912966
 10
-17.595792682
 20
28.8898049498
 10
-17.5680367287
 20
28.8906048745
 10
-17.5390513462
 20
28.8879794796
 10
-17.5091339184
 20
28.8819680375
 10
-17.4785442402
 20
28.8726506347
 10
-17.447493303
 20
28.8601186437
 10
-17.4162173087
 20
28.8444901495
  0
LINE
  5
228
100
AcDbEntity
  8
RACCORDO
100
AcDbLine
 62
7
  6
CONTINUOUS
 10
11.1839120303
 20
-32.4781610903
 11
-19.4953373283
 21
-14.7643470119
  0
LINE
  5
229
100
AcDbEntity
  8
RACCORDO
100
AcDbLine
 62
250
  6
CONTINUOUS
 10
-19.4953373283
 20
-14.7643470119
 11
-19.4978943286
 21
-14.7628401159
  0
LWPOLYLINE
  5
22A
100
AcDbEntity
  8
RACCORDO
100
AcDbPolyline
 62
250
  6
CONTINUOUS
 90
10
 70
0
 10
-19.4978943286
 20
-14.7628401159
 10
-19.5208348396
 20
-14.7462589529
 10
-19.5411447074
 20
-14.725716039
 10
-19.5586300076
 20
-14.7014075236
 10
-19.5731237856
 20
-14.6735655112
 10
-19.5844876507
 20
-14.6424558453
 10
-19.5926130975
 20
-14.6083755698
 10
-19.5974225419
 20
-14.5716500928
 10
-19.5988700619
 20
-14.5326300796
 10
-19.5969418364
 20
-14.4916881042
  0
LINE
  5
22B
100
AcDbEntity
  8
RACCORDO
100
AcDbLine
 62
250
  6
CONTINUOUS
 10
11.0823075222
 20
-32.2055021826
 11
-19.5969418364
 21
-14.4916881042
  0
LWPOLYLINE
  5
22C
100
AcDbEntity
  8
RACCORDO
100
AcDbPolyline
 62
250
  6
CONTINUOUS
 90
9
 70
0
 10
-18.6638882645
 20
-1.4523488888
 10
-18.6632182892
 20
-1.4807411184
 10
-18.6571293435
 20
-1.507367494
 10
-18.6458324931
 20
-1.5338549031
 10
-18.6294474439
 20
-1.5599226765
 10
-18.6081478176
 20
-1.585294593
 10
-18.5821593122
 20
-1.6097018035
 10
-18.5517573109
 20
-1.6328856804
 10
-18.5172639636
 20
-1.6546005594
  0
LWPOLYLINE
  5
22D
100
AcDbEntity
  8
RACCORDO
100
AcDbPolyline
 62
250
  6
CONTINUOUS
 90
11
 70
0
 10
-17.9069623599
 20
28.4417385946
 10
-17.9069047409
 20
28.4373559354
 10
-17.9043999156
 20
28.4125483707
 10
-17.8982059888
 20
28.3879463536
 10
-17.8883848198
 20
28.3637754311
 10
-17.8750230353
 20
28.3402116057
 10
-17.8582336147
 20
28.3174268522
 10
-17.8381948594
 20
28.2956258716
 10
-17.8151003148
 20
28.2749711319
 10
-17.7891356005
 20
28.2555872149
 10
-17.7605157505
 20
28.2376012979
  0
LINE
  5
22E
100
AcDbEntity
  8
RACCORDO
100
AcDbLine
 62
7
  6
CONTINUOUS
 10
-17.9069623599
 20
16.1324103216
 11
-17.9069623599
 21
28.4417385946
  0
LINE
  5
22F
100
AcDbEntity
  8
RACCORDO
100
AcDbLine
 62
250
  6
CONTINUOUS
 10
-17.7622449495
 20
14.7410124977
 11
-17.7605157505
 21
28.2376012979
  0
LWPOLYLINE
  5
230
100
AcDbEntity
  8
RACCORDO
100
AcDbPolyline
 62
7
  6
CONTINUOUS
 90
10
 70
0
 10
-17.9069623598
 20
16.1324164404
 10
-17.9114898537
 20
14.2511005191
 10
-17.9284883876
 20
12.3067866857
 10
-17.9634315474
 20
10.3568006979
 10
-18.0213812348
 20
8.3984042595
 10
-18.1068344508
 20
6.4293833603
 10
-18.2194260697
 20
4.4499188352
 10
-18.3542877146
 20
2.4630182013
 10
-18.5061896998
 20
0.4716055841
 10
-18.663888246
 20
-1.4523486684
  0
LINE
  5
231
100
AcDbEntity
  8
RACCORDO
100
AcDbLine
 62
250
  6
CONTINUOUS
 10
-17.7673262753
 20
13.6503186668
 11
-17.7622449495
 21
14.7410124977
  0
LINE
  5
232
100
AcDbEntity
  8
RACCORDO
100
AcDbLine
 62
250
  6
CONTINUOUS
 10
-17.7756688792
 20
12.6514195031
 11
-17.7673262753
 21
13.6503186668
  0
LINE
  5
233
100
AcDbEntity
  8
RACCORDO
100
AcDbLine
 62
250
  6
CONTINUOUS
 10
-17.7871939371
 20
11.7283090221
 11
-17.7756688792
 21
12.6514195031
  0
LINE
  5
234
100
AcDbEntity
  8
RACCORDO
100
AcDbLine
 62
250
  6
CONTINUOUS
 10
-17.8017879864
 20
10.8664979011
 11
-17.7871939371
 21
11.7283090221
  0
LINE
  5
235
100
AcDbEntity
  8
RACCORDO
100
AcDbLine
 62
250
  6
CONTINUOUS
 10
-17.8192561343
 20
10.0563989879
 11
-17.8017879864
 21
10.8664979011
  0
LWPOLYLINE
  5
236
100
AcDbEntity
  8
RACCORDO
100
AcDbPolyline
 62
250
  6
CONTINUOUS
 90
11
 70
0
 10
-19.743566115
 20
-14.289436169
 10
-19.7439575752
 20
-14.3047948262
 10
-19.7413983783
 20
-14.3269655899
 10
-19.7351828535
 20
-14.3491651317
 10
-19.7253566284
 20
-14.3712334344
 10
-19.7119812126
 20
-14.3930233308
 10
-19.6951610412
 20
-14.4143580491
 10
-19.6750635042
 20
-14.4350395595
 10
-19.6518721001
 20
-14.4549069342
 10
-19.6257624282
 20
-14.473833806
 10
-19.5969418364
 20
-14.4916881042
  0
LINE
  5
237
100
AcDbEntity
  8
RACCORDO
100
AcDbLine
 62
250
  6
CONTINUOUS
 10
-17.8396108626
 20
9.2834748497
 11
-17.8192561343
 21
10.0563989879
  0
LINE
  5
238
100
AcDbEntity
  8
RACCORDO
100
AcDbLine
 62
250
  6
CONTINUOUS
 10
-17.863076777
 20
8.5330231932
 11
-17.8396108626
 21
9.2834748497
  0
LWPOLYLINE
  5
239
100
AcDbEntity
  8
RACCORDO
100
AcDbPolyline
 62
250
  6
CONTINUOUS
 90
19
 70
0
 10
-17.7605157505
 20
28.2376012979
 10
-17.759214818
 20
28.2733409449
 10
-17.7553215943
 20
28.3103198614
 10
-17.7488647304
 20
28.3482659127
 10
-17.7398917436
 20
28.3868998467
 10
-17.7284686676
 20
28.4259373493
 10
-17.7146795671
 20
28.4650911362
 10
-17.6986259186
 20
28.5040730674
 10
-17.6804258638
 20
28.5425962677
 10
-17.6602133404
 20
28.5803772377
 10
-17.6381370962
 20
28.61713794
 10
-17.6143595942
 20
28.6526078459
 10
-17.5890558175
 20
28.686525926
 10
-17.5624119812
 20
28.7186425708
 10
-17.5346241623
 20
28.748721428
 10
-17.5058968565
 20
28.7765411414
 10
-17.4764414734
 20
28.8018969809
 10
-17.4464747807
 20
28.8246023479
 10
-17.4162173087
 20
28.8444901495
  0
LINE
  5
23A
100
AcDbEntity
  8
RACCORDO
100
AcDbLine
 62
250
  6
CONTINUOUS
 10
-17.8899319809
 20
7.7953494007
 11
-17.863076777
 21
8.5330231932
  0
LINE
  5
23B
100
AcDbEntity
  8
RACCORDO
100
AcDbLine
 62
250
  6
CONTINUOUS
 10
-17.9209349282
 20
7.0538212167
 11
-17.8899319809
 21
7.7953494007
  0
LINE
  5
23C
100
AcDbEntity
  8
RACCORDO
100
AcDbLine
 62
250
  6
CONTINUOUS
 10
-17.9563620518
 20
6.3051097798
 11
-17.9209349282
 21
7.0538212167
  0
LINE
  5
23D
100
AcDbEntity
  8
RACCORDO
100
AcDbLine
 62
250
  6
CONTINUOUS
 10
-17.9960501745
 20
5.5494679119
 11
-17.9563620518
 21
6.3051097798
  0
LINE
  5
23E
100
AcDbEntity
  8
RACCORDO
100
AcDbLine
 62
250
  6
CONTINUOUS
 10
-18.0393600683
 20
4.7944181302
 11
-17.9960501745
 21
5.5494679119
  0
LINE
  5
23F
100
AcDbEntity
  8
RACCORDO
100
AcDbLine
 62
250
  6
CONTINUOUS
 10
-18.1107099173
 20
3.6593618997
 11
-18.0393600683
 21
4.7944181302
  0
LINE
  5
240
100
AcDbEntity
  8
RACCORDO
100
AcDbLine
 62
250
  6
CONTINUOUS
 10
-18.1898032354
 20
2.5090989387
 11
-18.1107099173
 21
3.6593618997
  0
LINE
  5
241
100
AcDbEntity
  8
RACCORDO
100
AcDbLine
 62
250
  6
CONTINUOUS
 10
-18.277198545
 20
1.3263781964
 11
-18.1898032354
 21
2.5090989387
  0
LINE
  5
242
100
AcDbEntity
  8
RACCORDO
100
AcDbLine
 62
250
  6
CONTINUOUS
 10
-18.4077849373
 20
-0.3304868649
 11
-18.277198545
 21
1.3263781964
  0
LINE
  5
243
100
AcDbEntity
  8
RACCORDO
100
AcDbLine
 62
250
  6
CONTINUOUS
 10
-18.5172639636
 20
-1.6546005594
 11
-18.4077849373
 21
-0.3304868649
  0
LINE
  5
244
100
AcDbEntity
  8
RACCORDO
100
AcDbLine
 62
7
  6
CONTINUOUS
 10
-19.743566115
 20
-14.289436169
 11
-18.6638882645
 21
-1.4523488888
  0
LINE
  5
245
100
AcDbEntity
  8
RACCORDO
100
AcDbLine
 62
250
  6
CONTINUOUS
 10
-19.5969418364
 20
-14.4916881042
 11
-18.5172639636
 21
-1.6546005594
  0
LINE
  5
246
100
AcDbEntity
  8
DRAFT
100
AcDbLine
 62
7
  6
CONTINUOUS
 10
16.2174430781
 20
-20.7827202843
 11
15.6597655423
 21
-20.7170623222
  0
LWPOLYLINE
  5
247
100
AcDbEntity
  8
RACCORDO
100
AcDbPolyline
 62
250
  6
CONTINUOUS
 90
9
 70
0
 10
-17.9069623599
 20
16.1324103216
 10
-17.905920169
 20
16.1137802486
 10
-17.8999603784
 20
16.0842652295
 10
-17.8887775865
 20
16.0552602771
 10
-17.8724902678
 20
16.0270726804
 10
-17.8512709762
 20
16.0000010693
 10
-17.8253445166
 20
15.9743322503
 10
-17.7949855634
 20
15.9503381681
 10
-17.7605157505
 20
15.9282730249
  0
LINE
  5
248
100
AcDbEntity
  8
DRAFT
100
AcDbLine
 62
7
  6
CONTINUOUS
 10
16.2174430781
 20
-18.5184137627
 11
15.6597655423
 21
-18.4115145778
  0
LINE
  5
249
100
AcDbEntity
  8
RACCORDO
100
AcDbLine
 62
250
  6
CONTINUOUS
 10
-18.5172639636
 20
-1.6546005594
 11
12.2200506062
 21
-19.401940763
  0
LINE
  5
24A
100
AcDbEntity
  8
RACCORDO
100
AcDbLine
 62
250
  6
CONTINUOUS
 10
16.3942197734
 20
-18.3187823797
 11
15.6757739583
 21
-17.9039607703
  0
LINE
  5
24B
100
AcDbEntity
  8
RACCORDO
100
AcDbLine
 62
7
  6
CONTINUOUS
 10
16.3942197734
 20
-18.1836879667
 11
15.9203376094
 21
-17.9100743444
  0
LINE
  5
24C
100
AcDbEntity
  8
0
100
AcDbLine
 62
7
  6
CONTINUOUS
 10
-5.9505001094
 20
3.9666334844
 11
-5.9793639478
 21
2.7259358007
  0
LINE
  5
24D
100
AcDbEntity
  8
0
100
AcDbLine
 62
7
  6
CONTINUOUS
 10
-5.9691592422
 20
3.1262672374
 11
-5.9924659567
 21
2.2916040205
  0
LINE
  5
24E
100
AcDbEntity
  8
0
100
AcDbLine
 62
7
  6
CONTINUOUS
 10
-5.986623793
 20
2.5008243783
 11
-6.0204202527
 21
1.4626438339
  0
LWPOLYLINE
  5
24F
100
AcDbEntity
  8
0
100
AcDbPolyline
 62
7
  6
CONTINUOUS
 90
19
 70
0
 10
-6.294219059
 20
-3.5800580204
 10
-6.2954744241
 20
-3.6124229147
 10
-6.2947283772
 20
-3.6457143571
 10
-6.2920013099
 20
-3.6797518989
 10
-6.2873401899
 20
-3.7143362122
 10
-6.2807733485
 20
-3.7492953472
 10
-6.2722983408
 20
-3.7844878475
 10
-6.2619540235
 20
-3.8197626151
 10
-6.2498119642
 20
-3.8548909801
 10
-6.2359303828
 20
-3.8896155214
 10
-6.220404325
 20
-3.9237290408
 10
-6.2033257486
 20
-3.9570653671
 10
-6.1847669654
 20
-3.9894336733
 10
-6.1648355158
 20
-4.0206588517
 10
-6.1436541367
 20
-4.0505680113
 10
-6.1213277428
 20
-4.078982226
 10
-6.0979830735
 20
-4.105745428
 10
-6.0737600908
 20
-4.1307102229
 10
-6.0487915476
 20
-4.1537253932
  0
LINE
  5
250
100
AcDbEntity
  8
0
100
AcDbLine
 62
7
  6
CONTINUOUS
 10
-6.0195968448
 20
1.478404425
 11
-6.0711988051
 21
0.2240393547
  0
LINE
  5
251
100
AcDbEntity
  8
0
100
AcDbLine
 62
7
  6
CONTINUOUS
 10
-6.0527082853
 20
0.6463757281
 11
-6.0896438995
 21
-0.1641893475
  0
LINE
  5
252
100
AcDbEntity
  8
0
100
AcDbLine
 62
7
  6
CONTINUOUS
 10
-6.0798343943
 20
0.0510837022
 11
-6.1341698286
 21
-1.0371594103
  0
LINE
  5
253
100
AcDbEntity
  8
0
100
AcDbLine
 62
7
  6
CONTINUOUS
 10
-5.9505001076
 20
3.9666334854
 11
-5.9488906614
 21
3.9969077149
  0
LINE
  5
254
100
AcDbEntity
  8
0
100
AcDbLine
 62
7
  6
CONTINUOUS
 10
-6.1321686306
 20
-0.990018545
 11
-6.2085099154
 21
-2.3051918699
  0
LINE
  5
255
100
AcDbEntity
  8
0
100
AcDbLine
 62
7
  6
CONTINUOUS
 10
-6.1805963236
 20
-1.8381009152
 11
-6.2346131334
 21
-2.7014474072
  0
LINE
  5
256
100
AcDbEntity
  8
0
100
AcDbLine
 62
7
  6
CONTINUOUS
 10
-6.2085099154
 20
-2.3051918699
 11
-6.2942190654
 21
-3.5800580241
  0
LWPOLYLINE
  5
257
100
AcDbEntity
  8
0
100
AcDbPolyline
 62
7
  6
CONTINUOUS
 90
4
 70
0
 10
-5.9488906187
 20
3.9969085175
 10
-5.9453258484
 20
4.0258774507
 10
-5.9398203033
 20
4.0533789294
 10
-5.9323959982
 20
4.0792631782
  0
LINE
  5
258
100
AcDbEntity
  8
0
100
AcDbLine
 62
7
  6
CONTINUOUS
 10
-5.9230954927
 20
4.1033745054
 11
-5.932397955
 21
4.0792573267
  0
LWPOLYLINE
  5
259
100
AcDbEntity
  8
0
100
AcDbPolyline
 62
7
  6
CONTINUOUS
 90
3
 70
0
 10
-5.923092412
 20
4.1033814932
 10
-5.9119678783
 20
4.1255886139
 10
-5.8990824401
 20
4.1457600593
  0
LWPOLYLINE
  5
25A
100
AcDbEntity
  8
0
100
AcDbPolyline
 62
7
  6
CONTINUOUS
 90
5
 70
0
 10
-5.8413346807
 20
4.1987492103
 10
-5.85062638
 20
4.1929881253
 10
-5.8683268088
 20
4.179552558
 10
-5.8845107193
 20
4.1637778585
 10
-5.8990880532
 20
4.1457522518
  0
LINE
  5
25B
100
AcDbEntity
  8
0
100
AcDbLine
 62
7
  6
CONTINUOUS
 10
-5.8315010981
 20
4.2040136729
 11
-5.8413346807
 21
4.1987492103
  0
LINE
  5
25C
100
AcDbEntity
  8
0
100
AcDbLine
 62
7
  6
CONTINUOUS
 10
-5.8110674563
 20
4.2125628021
 11
-5.8315010981
 21
4.2040136729
  0
LWPOLYLINE
  5
25D
100
AcDbEntity
  8
0
100
AcDbPolyline
 62
7
  6
CONTINUOUS
 90
12
 70
0
 10
0.3931094122
 20
-7.8843307847
 10
0.4196534512
 20
-7.8984079176
 10
0.4461985993
 20
-7.910015079
 10
0.4725980732
 20
-7.9190909021
 10
0.498697045
 20
-7.9255823527
 10
0.5243648941
 20
-7.9294642196
 10
0.5494923038
 20
-7.9307249705
 10
0.5739697788
 20
-7.9293421039
 10
0.5976329553
 20
-7.9253105687
 10
0.6202976174
 20
-7.9186651153
 10
0.6418363296
 20
-7.9094465412
 10
0.652060818
 20
-7.9039399189
  0
LINE
  5
25E
100
AcDbEntity
  8
0
100
AcDbLine
 62
7
  6
CONTINUOUS
 10
-5.9708516184
 20
-4.2098594447
 11
0.3931094122
 21
-7.8843307847
  0
LWPOLYLINE
  5
25F
100
AcDbEntity
  8
0
100
AcDbPolyline
 62
7
  6
CONTINUOUS
 90
3
 70
0
 10
-6.0232186226
 20
-4.1746607626
 10
-5.9971895559
 20
-4.1934063727
 10
-5.9708516184
 20
-4.2098594447
  0
LINE
  5
260
100
AcDbEntity
  8
0
100
AcDbLine
 62
7
  6
CONTINUOUS
 10
-6.0232568736
 20
-4.1746313562
 11
-6.0488490032
 21
-4.1536754185
  0
LINE
  5
261
100
AcDbEntity
  8
RACCORDO
100
AcDbLine
 62
250
  6
CONTINUOUS
 10
14.4598312704
 20
11.7075202355
 11
13.3618994363
 21
11.0735912814
  0
LINE
  5
262
100
AcDbEntity
  8
RACCORDO
100
AcDbLine
 62
250
  6
CONTINUOUS
 10
14.813263507
 20
11.0953576452
 11
13.715331673
 21
10.461428691
  0
LWPOLYLINE
  5
263
100
AcDbEntity
  8
RACCORDO
100
AcDbPolyline
 62
250
  6
CONTINUOUS
 90
19
 70
0
 10
13.715331673
 20
10.461428691
 10
13.6829308112
 20
10.4451443937
 10
13.6482284584
 20
10.4305258479
 10
13.6114807069
 20
10.4176809937
 10
13.5729586485
 20
10.4067046557
 10
13.5329466899
 20
10.3976779353
 10
13.4917404919
 20
10.3906675577
 10
13.4496414812
 20
10.3857250142
 10
13.4069630746
 20
10.3828873068
 10
13.3640290118
 20
10.3821753089
 10
13.3211620756
 20
10.3835926421
 10
13.2786723516
 20
10.3871273212
 10
13.2368639759
 20
10.3927534224
 10
13.1960097403
 20
10.4004371772
 10
13.1564485375
 20
10.4101178606
 10
13.1185626241
 20
10.4216935873
 10
13.0826463673
 20
10.4350540802
 10
13.0489161984
 20
10.4500975044
 10
13.0176009946
 20
10.4667024297
  0
LWPOLYLINE
  5
264
100
AcDbEntity
  8
RACCORDO
100
AcDbPolyline
 62
250
  6
CONTINUOUS
 90
19
 70
0
 10
13.3618994363
 20
11.0735912814
 10
13.3316419644
 20
11.0537034797
 10
13.3016752717
 20
11.0309981127
 10
13.2722198886
 20
11.0056422733
 10
13.2434925828
 20
10.9778225598
 10
13.2157047638
 20
10.9477437026
 10
13.1890609275
 20
10.9156270578
 10
13.1637571508
 20
10.8817089777
 10
13.1399796489
 20
10.8462390718
 10
13.1179034046
 20
10.8094783695
 10
13.0976908812
 20
10.7716973996
 10
13.0794908265
 20
10.7331741992
 10
13.0634371779
 20
10.694192268
 10
13.0496480774
 20
10.6550384811
 10
13.0382250015
 20
10.6160009786
 10
13.0292520146
 20
10.5773670445
 10
13.0227951507
 20
10.5394209932
 10
13.0189019271
 20
10.5024420767
 10
13.0176009946
 20
10.4667024297
  0
LWPOLYLINE
  5
265
100
AcDbEntity
  8
0
100
AcDbPolyline
 62
7
  6
CONTINUOUS
 90
20
 70
0
 10
1.1202024616
 20
-0.084691462
 10
1.1178542298
 20
-0.0523290525
 10
1.1135425045
 20
-0.0192052161
 10
1.1073046937
 20
0.0144773806
 10
1.0991768377
 20
0.0485505561
 10
1.0891821575
 20
0.0828836089
 10
1.0773582114
 20
0.1173241732
 10
1.0637776312
 20
0.1516443427
 10
1.0485289146
 20
0.1856003845
 10
1.0317094029
 20
0.2189858278
 10
1.0134094283
 20
0.2516334214
 10
0.9937263881
 20
0.2833636206
 10
0.972770259
 20
0.3140019887
 10
0.9506623683
 20
0.3433755067
 10
0.9275272046
 20
0.3713157725
 10
0.9034943121
 20
0.3976684862
 10
0.8787014465
 20
0.4222859526
 10
0.8532933305
 20
0.4450246497
 10
0.8274150921
 20
0.4657576521
 10
0.8012115847
 20
0.4843732965
  0
LINE
  5
266
100
AcDbEntity
  8
0
100
AcDbLine
 62
7
  6
CONTINUOUS
 10
1.1205677043
 20
-0.1161124478
 11
1.1202024689
 21
-0.0846920848
  0
LINE
  5
267
100
AcDbEntity
  8
0
100
AcDbLine
 62
7
  6
CONTINUOUS
 10
1.1205677025
 20
-0.1161124489
 11
1.0917038641
 21
-1.3568101326
  0
LINE
  5
268
100
AcDbEntity
  8
0
100
AcDbLine
 62
7
  6
CONTINUOUS
 10
1.1019085697
 20
-0.9564786959
 11
1.0786018552
 21
-1.7911419127
  0
LINE
  5
269
100
AcDbEntity
  8
0
100
AcDbLine
 62
7
  6
CONTINUOUS
 10
1.0917038641
 20
-1.3568101326
 11
1.0506475591
 21
-2.6201020994
  0
LWPOLYLINE
  5
26A
100
AcDbEntity
  8
0
100
AcDbPolyline
 62
7
  6
CONTINUOUS
 90
3
 70
0
 10
1.0514709671
 20
-2.6043415083
 10
0.9998690068
 20
-3.8587065786
 10
0.9368979833
 20
-5.1199053436
  0
LINE
  5
26B
100
AcDbEntity
  8
0
100
AcDbLine
 62
7
  6
CONTINUOUS
 10
1.0183595266
 20
-3.4363702052
 11
0.9814239124
 21
-4.2469352808
  0
LWPOLYLINE
  5
26C
100
AcDbEntity
  8
0
100
AcDbPolyline
 62
7
  6
CONTINUOUS
 90
3
 70
0
 10
0.9388991813
 20
-5.0727644783
 10
0.8625578965
 20
-6.3879378032
 10
0.7768487465
 20
-7.6628039574
  0
LINE
  5
26D
100
AcDbEntity
  8
0
100
AcDbLine
 62
7
  6
CONTINUOUS
 10
0.8904714883
 20
-5.9208468484
 11
0.8364546784
 21
-6.7841933405
  0
LINE
  5
26E
100
AcDbEntity
  8
0
100
AcDbLine
 62
7
  6
CONTINUOUS
 10
0.7768487529
 20
-7.6628039537
 11
0.7736185248
 21
-7.6940173139
  0
LINE
  5
26F
100
AcDbEntity
  8
0
100
AcDbLine
 62
7
  6
CONTINUOUS
 10
-5.5891332615
 20
4.1752427184
 11
0.7748277691
 21
0.5007713785
  0
LINE
  5
270
100
AcDbEntity
  8
0
100
AcDbLine
 62
7
  6
CONTINUOUS
 10
0.7748277691
 20
0.5007713785
 11
0.8012122883
 21
0.4843728592
  0
LINE
  5
271
100
AcDbEntity
  8
RACCORDO
100
AcDbLine
 62
250
  6
CONTINUOUS
 10
-17.7605157505
 20
15.9282730249
 11
13.0176009946
 21
-1.8426258433
  0
LWPOLYLINE
  5
272
100
AcDbEntity
  8
0
100
AcDbPolyline
 62
7
  6
CONTINUOUS
 90
10
 70
0
 10
0.6621492174
 20
-7.8977034311
 10
0.6811081947
 20
-7.8835131858
 10
0.6986201376
 20
-7.8669497643
 10
0.7145960591
 20
-7.8481030647
 10
0.7289259865
 20
-7.8270916234
 10
0.7415431003
 20
-7.8040263264
 10
0.7523879833
 20
-7.7790314844
 10
0.7613763728
 20
-7.7522619621
 10
0.7684589627
 20
-7.7238682148
 10
0.7736196159
 20
-7.69400677
  0
LINE
  5
273
100
AcDbEntity
  8
0
100
AcDbLine
 62
7
  6
CONTINUOUS
 10
0.652060818
 20
-7.9039399189
 11
0.6620641372
 21
-7.8977560263
  0
LWPOLYLINE
  5
274
100
AcDbEntity
  8
RACCORDO
100
AcDbPolyline
 62
250
  6
CONTINUOUS
 90
16
 70
0
 10
13.715331673
 20
-1.847899582
 10
13.6762269474
 20
-1.8672175663
 10
13.633890172
 20
-1.8841123138
 10
13.588769879
 20
-1.8984048352
 10
13.5413440905
 20
-1.9099437104
 10
13.4921152531
 20
-1.9186066929
 10
13.4416049153
 20
-1.9243020051
 10
13.3903482024
 20
-1.9269693094
 10
13.3388881467
 20
-1.9265803478
 10
13.2877699341
 20
-1.9231392416
 10
13.2375351293
 20
-1.916682448
 10
13.1887159378
 20
-1.907278373
 10
13.1418295666
 20
-1.8950266464
 10
13.0973727461
 20
-1.8800570677
 10
13.0558164682
 20
-1.8625282308
 10
13.0176009946
 20
-1.8426258433
  0
LWPOLYLINE
  5
275
100
AcDbEntity
  8
0
100
AcDbPolyline
 62
7
  6
CONTINUOUS
 90
10
 70
0
 10
-5.8110578831
 20
4.212566119
 10
-5.789407175
 20
4.2185958803
 10
-5.7666716794
 20
4.2220676683
 10
-5.7430144321
 20
4.2229605647
 10
-5.7185971301
 20
4.2212831211
 10
-5.693532297
 20
4.2170577453
 10
-5.6679158077
 20
4.210302763
 10
-5.6418734068
 20
4.2010457284
 10
-5.6155638357
 20
4.1893384355
 10
-5.5891332615
 20
4.1752427184
  0
LINE
  5
276
100
AcDbEntity
  8
RACCORDO
100
AcDbLine
 62
250
  6
CONTINUOUS
 10
13.0176009946
 20
10.4667024297
 11
13.0166816686
 21
-2.6943987219
  0
LINE
  5
277
100
AcDbEntity
  8
RACCORDO
100
AcDbLine
 62
250
  6
CONTINUOUS
 10
13.0166816686
 20
-2.6943987219
 11
13.0138712257
 21
-3.5168053285
  0
LWPOLYLINE
  5
278
100
AcDbEntity
  8
RACCORDO
100
AcDbPolyline
 62
250
  6
CONTINUOUS
 90
11
 70
0
 10
11.0823075222
 20
-32.2055021826
 10
11.0803792967
 20
-32.2464441579
 10
11.0818268167
 20
-32.2854641712
 10
11.0866362611
 20
-32.3221896481
 10
11.0947617079
 20
-32.3562699236
 10
11.106125573
 20
-32.3873795896
 10
11.120619351
 20
-32.4152216019
 10
11.1381046512
 20
-32.4395301173
 10
11.158414519
 20
-32.4600730313
 10
11.18135503
 20
-32.4766541943
 10
11.1839120303
 20
-32.4781610903
  0
LWPOLYLINE
  5
279
100
AcDbEntity
  8
RACCORDO
100
AcDbPolyline
 62
250
  6
CONTINUOUS
 90
19
 70
0
 10
13.715331673
 20
10.461428691
 10
13.7131866972
 20
10.4974262714
 10
13.7084254916
 20
10.5347555497
 10
13.7010833008
 20
10.5731315395
 10
13.6912127795
 20
10.6122694323
 10
13.6788896721
 20
10.6518617515
 10
13.664217394
 20
10.6915800033
 10
13.6473210759
 20
10.7310995095
 10
13.6283257911
 20
10.7701399141
 10
13.6073587416
 20
10.8084400318
 10
13.5845556183
 20
10.8457400538
 10
13.5601071639
 20
10.8817169671
 10
13.5342470989
 20
10.9160319836
 10
13.5071778666
 20
10.9484308422
 10
13.4791111351
 20
10.978673891
 10
13.4503199061
 20
11.0064894704
 10
13.4210474934
 20
11.0316762374
 10
13.3914998345
 20
11.0540899236
 10
13.3618994348
 20
11.0735912805
  0
LINE
  5
27A
100
AcDbEntity
  8
RACCORDO
100
AcDbLine
 62
7
  6
CONTINUOUS
 10
14.813263507
 20
11.0953576452
 11
14.813263507
 21
-31.1211143808
  0
LINE
  5
27B
100
AcDbEntity
  8
RACCORDO
100
AcDbLine
 62
250
  6
CONTINUOUS
 10
13.715331673
 20
10.461428691
 11
13.7144267264
 21
-2.7006760739
  0
LINE
  5
27C
100
AcDbEntity
  8
RACCORDO
100
AcDbLine
 62
250
  6
CONTINUOUS
 10
13.7144267264
 20
-2.7006760739
 11
13.709465553
 21
-3.9249991939
  0
LINE
  5
27D
100
AcDbEntity
  8
RACCORDO
100
AcDbLine
 62
250
  6
CONTINUOUS
 10
13.0138712257
 20
-3.5168053285
 11
13.0090536147
 21
-4.3117330096
  0
LINE
  5
27E
100
AcDbEntity
  8
RACCORDO
100
AcDbLine
 62
250
  6
CONTINUOUS
 10
13.709465553
 20
-3.9249991939
 11
13.7035219747
 21
-4.7107045228
  0
LINE
  5
27F
100
AcDbEntity
  8
RACCORDO
100
AcDbLine
 62
250
  6
CONTINUOUS
 10
13.0090536147
 20
-4.3117330096
 11
13.0019972358
 21
-5.085384211
  0
LINE
  5
280
100
AcDbEntity
  8
RACCORDO
100
AcDbLine
 62
250
  6
CONTINUOUS
 10
13.7035219747
 20
-4.7107045228
 11
13.6952461432
 21
-5.4772260071
  0
LINE
  5
281
100
AcDbEntity
  8
RACCORDO
100
AcDbLine
 62
250
  6
CONTINUOUS
 10
13.0019972358
 20
-5.085384211
 11
12.9924542906
 21
-5.8434148501
  0
LINE
  5
282
100
AcDbEntity
  8
RACCORDO
100
AcDbLine
 62
250
  6
CONTINUOUS
 10
13.6952461432
 20
-5.4772260071
 11
13.6843621847
 21
-6.2302166881
  0
LINE
  5
283
100
AcDbEntity
  8
RACCORDO
100
AcDbLine
 62
250
  6
CONTINUOUS
 10
12.9924542906
 20
-5.8434148501
 11
12.980183816
 21
-6.5896321496
  0
LINE
  5
284
100
AcDbEntity
  8
RACCORDO
100
AcDbLine
 62
250
  6
CONTINUOUS
 10
13.6843621847
 20
-6.2302166881
 11
13.6705623969
 21
-6.9753566223
  0
LINE
  5
285
100
AcDbEntity
  8
RACCORDO
100
AcDbLine
 62
250
  6
CONTINUOUS
 10
12.980183816
 20
-6.5896321496
 11
12.9649033751
 21
-7.3297300529
  0
LINE
  5
286
100
AcDbEntity
  8
RACCORDO
100
AcDbLine
 62
250
  6
CONTINUOUS
 10
13.6705623969
 20
-6.9753566223
 11
13.653614658
 21
-7.7164199114
  0
LINE
  5
287
100
AcDbEntity
  8
RACCORDO
100
AcDbLine
 62
250
  6
CONTINUOUS
 10
12.9649033751
 20
-7.3297300529
 11
12.946263661
 21
-8.069780842
  0
LINE
  5
288
100
AcDbEntity
  8
RACCORDO
100
AcDbLine
 62
250
  6
CONTINUOUS
 10
13.653614658
 20
-7.7164199114
 11
13.6331184394
 21
-8.4599962671
  0
LINE
  5
289
100
AcDbEntity
  8
RACCORDO
100
AcDbLine
 62
250
  6
CONTINUOUS
 10
12.946263661
 20
-8.069780842
 11
12.923935629
 21
-8.8121716949
  0
LINE
  5
28A
100
AcDbEntity
  8
RACCORDO
100
AcDbLine
 62
250
  6
CONTINUOUS
 10
13.6331184394
 20
-8.4599962671
 11
13.6086815966
 21
-9.2072383764
  0
LINE
  5
28B
100
AcDbEntity
  8
RACCORDO
100
AcDbLine
 62
250
  6
CONTINUOUS
 10
12.923935629
 20
-8.8121716949
 11
12.8975459387
 21
-9.5591764861
  0
LINE
  5
28C
100
AcDbEntity
  8
RACCORDO
100
AcDbLine
 62
250
  6
CONTINUOUS
 10
13.6086815966
 20
-9.2072383764
 11
13.580152925
 21
-9.9570050865
  0
LINE
  5
28D
100
AcDbEntity
  8
RACCORDO
100
AcDbLine
 62
250
  6
CONTINUOUS
 10
12.8975459387
 20
-9.5591764861
 11
12.8670854924
 21
-10.3036333271
  0
LINE
  5
28E
100
AcDbEntity
  8
RACCORDO
100
AcDbLine
 62
250
  6
CONTINUOUS
 10
13.580152925
 20
-9.9570050865
 11
13.547489036
 21
-10.7017925617
  0
LINE
  5
28F
100
AcDbEntity
  8
RACCORDO
100
AcDbLine
 62
250
  6
CONTINUOUS
 10
12.8670854924
 20
-10.3036333271
 11
12.8324029688
 21
-11.0454158781
  0
LINE
  5
290
100
AcDbEntity
  8
RACCORDO
100
AcDbLine
 62
250
  6
CONTINUOUS
 10
13.547489036
 20
-10.7017925617
 11
13.5105851676
 21
-11.4465439839
  0
LINE
  5
291
100
AcDbEntity
  8
RACCORDO
100
AcDbLine
 62
250
  6
CONTINUOUS
 10
12.8324029688
 20
-11.0454158781
 11
12.7935019567
 21
-11.7875487567
  0
LINE
  5
292
100
AcDbEntity
  8
RACCORDO
100
AcDbLine
 62
250
  6
CONTINUOUS
 10
13.5105851676
 20
-11.4465439839
 11
13.4691735004
 21
-12.1974238435
  0
LINE
  5
293
100
AcDbEntity
  8
RACCORDO
100
AcDbLine
 62
250
  6
CONTINUOUS
 10
12.7935019567
 20
-11.7875487567
 11
12.7496771164
 21
-12.546578241
  0
LINE
  5
294
100
AcDbEntity
  8
RACCORDO
100
AcDbLine
 62
250
  6
CONTINUOUS
 10
13.4691735004
 20
-12.1974238435
 11
13.4226359876
 21
-12.9698165505
  0
LINE
  5
295
100
AcDbEntity
  8
RACCORDO
100
AcDbLine
 62
250
  6
CONTINUOUS
 10
12.7496771164
 20
-12.546578241
 11
12.7003388324
 21
-13.3323199681
  0
LINE
  5
296
100
AcDbEntity
  8
RACCORDO
100
AcDbLine
 62
250
  6
CONTINUOUS
 10
13.4226359876
 20
-12.9698165505
 11
13.3698347886
 21
-13.7789259486
  0
LINE
  5
297
100
AcDbEntity
  8
RACCORDO
100
AcDbLine
 62
250
  6
CONTINUOUS
 10
12.7003388324
 20
-13.3323199681
 11
12.6443754628
 21
-14.1598865172
  0
LINE
  5
298
100
AcDbEntity
  8
RACCORDO
100
AcDbLine
 62
250
  6
CONTINUOUS
 10
13.3698347886
 20
-13.7789259486
 11
13.309946121
 21
-14.6348371922
  0
LINE
  5
299
100
AcDbEntity
  8
RACCORDO
100
AcDbLine
 62
250
  6
CONTINUOUS
 10
12.6443754628
 20
-14.1598865172
 11
12.5804472786
 21
-15.0444512026
  0
LINE
  5
29A
100
AcDbEntity
  8
RACCORDO
100
AcDbLine
 62
250
  6
CONTINUOUS
 10
13.309946121
 20
-14.6348371922
 11
13.2415675129
 21
-15.5527509125
  0
LINE
  5
29B
100
AcDbEntity
  8
RACCORDO
100
AcDbLine
 62
250
  6
CONTINUOUS
 10
12.5804472786
 20
-15.0444512026
 11
12.5074590791
 21
-15.9962345924
  0
LINE
  5
29C
100
AcDbEntity
  8
RACCORDO
100
AcDbLine
 62
250
  6
CONTINUOUS
 10
13.2415675129
 20
-15.5527509125
 11
13.1631601284
 21
-16.5478706965
  0
LINE
  5
29D
100
AcDbEntity
  8
RACCORDO
100
AcDbLine
 62
250
  6
CONTINUOUS
 10
12.5074590791
 20
-15.9962345924
 11
12.4239390892
 21
-17.0304952834
  0
LINE
  5
29E
100
AcDbEntity
  8
RACCORDO
100
AcDbLine
 62
250
  6
CONTINUOUS
 10
13.1631601284
 20
-16.5478706965
 11
13.0737456562
 21
-17.6302990315
  0
LINE
  5
29F
100
AcDbEntity
  8
RACCORDO
100
AcDbLine
 62
250
  6
CONTINUOUS
 10
12.4239390892
 20
-17.0304952834
 11
12.3283160305
 21
-18.1640369553
  0
LINE
  5
2A0
100
AcDbEntity
  8
RACCORDO
100
AcDbLine
 62
250
  6
CONTINUOUS
 10
13.0737456562
 20
-17.6302990315
 11
12.9715852659
 21
-18.818499599
  0
LINE
  5
2A1
100
AcDbEntity
  8
RACCORDO
100
AcDbLine
 62
250
  6
CONTINUOUS
 10
12.3283160305
 20
-18.1640369553
 11
12.2200506062
 21
-19.401940763
  0
LINE
  5
2A2
100
AcDbEntity
  8
RACCORDO
100
AcDbLine
 62
250
  6
CONTINUOUS
 10
12.2200506062
 20
-19.401940763
 11
11.0823075222
 21
-32.2055021826
  0
LINE
  5
2A3
100
AcDbEntity
  8
RACCORDO
100
AcDbLine
 62
250
  6
CONTINUOUS
 10
12.9715852659
 20
-18.818499599
 11
11.7781013982
 21
-32.2545663984
  0
LINE
  5
2A4
100
AcDbEntity
  8
DRAFT
100
AcDbLine
 62
7
  6
CONTINUOUS
 10
15.6597655423
 20
-18.4115145778
 11
15.6597655423
 21
-20.7170623222
  0
LINE
  5
2A5
100
AcDbEntity
  8
DRAFT
100
AcDbLine
 62
7
  6
CONTINUOUS
 10
16.2174430781
 20
-18.5184137627
 11
16.2174430781
 21
-20.7827202843
  0
LINE
  5
2A6
100
AcDbEntity
  8
RACCORDO
100
AcDbLine
 62
7
  6
CONTINUOUS
 10
16.3942197734
 20
-18.1837370201
 11
16.3942197734
 21
-18.4342030877
  0
LINE
  5
2A7
100
AcDbEntity
  8
DRAFT
100
AcDbLine
 62
7
  6
CONTINUOUS
 10
16.3942197734
 20
-18.4342030877
 11
16.3942197734
 21
-20.6627936626
  0
LWPOLYLINE
  5
2A8
100
AcDbEntity
  8
RACCORDO
100
AcDbPolyline
 62
250
  6
CONTINUOUS
 90
9
 70
0
 10
13.9130653565
 20
-31.5878274012
 10
13.9101899336
 20
-31.6298635961
 10
13.9035783949
 20
-31.6691472835
 10
13.8933031146
 20
-31.7052484379
 10
13.8794765727
 20
-31.7377718725
 10
13.8622501237
 20
-31.766361564
 10
13.8418123396
 20
-31.7907045509
 10
13.8183869461
 20
-31.8105343588
 10
13.799024736
 20
-31.8223049941
  0
LINE
  5
2A9
100
AcDbEntity
  8
RACCORDO
100
AcDbLine
 62
250
  6
CONTINUOUS
 10
13.0176009946
 20
10.4667024297
 11
-17.7605157505
 21
28.2376012979
  0
LINE
  5
2AA
100
AcDbEntity
  8
RACCORDO
100
AcDbLine
 62
250
  6
CONTINUOUS
 10
13.3618994363
 20
11.0735912814
 11
-17.4162173087
 21
28.8444901495
  0
LINE
  5
2AB
100
AcDbEntity
  8
RACCORDO
100
AcDbLine
 62
7
  6
CONTINUOUS
 10
-16.3743189016
 20
29.5107721021
 11
14.4598312704
 21
11.7075202355
  0
LWPOLYLINE
  5
2AC
100
AcDbEntity
  8
RACCORDO
100
AcDbPolyline
 62
250
  6
CONTINUOUS
 90
12
 70
0
 10
11.7781013982
 20
-32.2545663984
 10
11.7702486364
 20
-32.2920915713
 10
11.7598473628
 20
-32.3277448937
 10
11.7469765155
 20
-32.3612562851
 10
11.7317338353
 20
-32.3923717422
 10
11.7142348614
 20
-32.420855816
 10
11.6946119256
 20
-32.4464932354
 10
11.6730122858
 20
-32.4690910487
 10
11.6496007824
 20
-32.48847629
 10
11.6245592292
 20
-32.5044995949
 10
11.5980812438
 20
-32.5170400676
 10
11.5815508465
 20
-32.5228648425
  0
LWPOLYLINE
  5
2AD
100
AcDbEntity
  8
RACCORDO
100
AcDbPolyline
 62
250
  6
CONTINUOUS
 90
4
 70
0
 10
13.8472139602
 20
-31.6151477822
 10
13.8374978812
 20
-31.6599046843
 10
13.8241426753
 20
-31.7018960993
 10
13.807293654
 20
-31.7406651361
  0
LWPOLYLINE
  5
2AE
100
AcDbEntity
  8
RACCORDO
100
AcDbPolyline
 62
250
  6
CONTINUOUS
 90
16
 70
0
 10
12.9158444822
 20
-19.4510049789
 10
12.8769403778
 20
-19.4658244177
 10
12.8348014974
 20
-19.478267836
 10
12.7898743587
 20
-19.4882033792
 10
12.7426350243
 20
-19.4955257669
 10
12.6935840581
 20
-19.5001574088
 10
12.6432412204
 20
-19.5020492264
 10
12.5921399605
 20
-19.5011811733
 10
12.5408217644
 20
-19.4975624478
 10
12.4898304167
 20
-19.4912313951
 10
12.4397062386
 20
-19.482255101
 10
12.3909803627
 20
-19.4707286815
 10
12.3441691044
 20
-19.4567742742
 10
12.2997684913
 20
-19.4405397447
 10
12.2582490072
 20
-19.4221971194
 10
12.2200506062
 20
-19.401940763
  0
LINE
  5
2AF
100
AcDbEntity
  8
RACCORDO
100
AcDbLine
 62
7
  6
CONTINUOUS
 10
14.813263507
 20
-18.2205655953
 11
15.6757739583
 21
-17.9039607703
  0
LINE
  5
2B0
100
AcDbEntity
  8
DRAFT
100
AcDbLine
 62
7
  6
CONTINUOUS
 10
15.6597655423
 20
-18.4115145778
 11
14.813263507
 21
-18.8147606485
  0
LINE
  5
2B1
100
AcDbEntity
  8
DRAFT
100
AcDbLine
 62
7
  6
CONTINUOUS
 10
16.3942197734
 20
-18.4342030877
 11
16.2174430781
 21
-18.5184137627
  0
LWPOLYLINE
  5
2B2
100
AcDbEntity
  8
RACCORDO
100
AcDbPolyline
 62
250
  6
CONTINUOUS
 90
3
 70
0
 10
13.807293654
 20
-31.7406651361
 10
13.7871341433
 20
-31.7757899652
 10
13.7638834897
 20
-31.8068884077
  0
LINE
  5
2B3
100
AcDbEntity
  8
DRAFT
100
AcDbLine
 62
7
  6
CONTINUOUS
 10
15.6597655423
 20
-20.7170623222
 11
14.813263507
 21
-21.2913355835
  0
LINE
  5
2B4
100
AcDbEntity
  8
DRAFT
100
AcDbLine
 62
7
  6
CONTINUOUS
 10
16.3942197734
 20
-20.6627936626
 11
16.2174430781
 21
-20.7827202843
  0
LWPOLYLINE
  5
2B5
100
AcDbEntity
  8
RACCORDO
100
AcDbPolyline
 62
250
  6
CONTINUOUS
 90
5
 70
0
 10
13.7638834897
 20
-31.8068884077
 10
13.7377946727
 20
-31.833622094
 10
13.7091515532
 20
-31.8557001454
 10
13.678265784
 20
-31.8728823392
 10
13.6506650287
 20
-31.8834457256
  0
LINE
  5
2B6
100
AcDbEntity
  8
RACCORDO
100
AcDbLine
 62
250
  6
CONTINUOUS
 10
13.9130653565
 20
-31.5878274012
 11
14.813263507
 21
-31.1211143808
  0
LINE
  5
2B7
100
AcDbEntity
  8
RACCORDO
100
AcDbLine
 62
7
  6
CONTINUOUS
 10
13.799024736
 20
-31.8223049941
 11
14.7031476197
 21
-31.3535571728
  0
LWPOLYLINE
  5
2B8
100
AcDbEntity
  8
RACCORDO
100
AcDbPolyline
 62
250
  6
CONTINUOUS
 90
19
 70
0
 10
11.7781013982
 20
-32.2545663984
 10
11.7458429901
 20
-32.2671031395
 10
11.7112739175
 20
-32.2780001931
 10
11.6746490036
 20
-32.2871763346
 10
11.6362318865
 20
-32.294564103
 10
11.5963122519
 20
-32.3001064472
 10
11.555206005
 20
-32.3037602731
 10
11.5132359753
 20
-32.3055003626
 10
11.470696186
 20
-32.3053179271
 10
11.4278692804
 20
-32.3032142042
 10
11.3850398837
 20
-32.2991989616
 10
11.3425568975
 20
-32.2933006879
 10
11.3007966583
 20
-32.2855737855
 10
11.2600633319
 20
-32.2760809303
 10
11.2206554026
 20
-32.264898227
 10
11.1829176817
 20
-32.2521353765
 10
11.1471312662
 20
-32.2379066542
 10
11.1135195503
 20
-32.2223210137
 10
11.0823075222
 20
-32.2055021826
  0
LWPOLYLINE
  5
2B9
100
AcDbEntity
  8
RACCORDO
100
AcDbPolyline
 62
7
  6
CONTINUOUS
 90
6
 70
0
 10
13.6538882835
 20
-31.8824425895
 10
13.6834666836
 20
-31.8725765655
 10
13.7130823493
 20
-31.8614930441
 10
13.7426963984
 20
-31.849184904
 10
13.7722840023
 20
-31.8356408731
 10
13.7990112589
 20
-31.8223119806
  0
LWPOLYLINE
  5
2BA
100
AcDbEntity
  8
RACCORDO
100
AcDbPolyline
 62
250
  6
CONTINUOUS
 90
10
 70
0
 10
13.8472139602
 20
-31.6151477822
 10
13.8544491832
 20
-31.6128253147
 10
13.8617063187
 20
-31.610324004
 10
13.8689853666
 20
-31.6076438499
 10
13.8762883437
 20
-31.6047841049
 10
13.8836132333
 20
-31.6017455165
 10
13.8909539844
 20
-31.5985303277
 10
13.8983085802
 20
-31.595139286
 10
13.9056790375
 20
-31.5915716438
 10
13.9130653565
 20
-31.5878274012
  0
LINE
  5
2BB
100
AcDbEntity
  8
RACCORDO
100
AcDbLine
 62
250
  6
CONTINUOUS
 10
11.7781013982
 20
-32.2545663984
 11
13.8472139602
 21
-31.6151477822
  0
LINE
  5
2BC
100
AcDbEntity
  8
RACCORDO
100
AcDbLine
 62
7
  6
CONTINUOUS
 10
11.5815508465
 20
-32.5228648425
 11
13.6538882835
 21
-31.8824425895
  0
ARC
  5
2BD
100
AcDbEntity
  8
RACCORDO
100
AcDbCircle
 62
7
  6
CONTINUOUS
 10
-19.2453252483
 20
-14.3313412847
 40
0.5
100
AcDbArc
 50
175.1839975092
 51
239.9984015652
  0
ARC
  5
2BE
100
AcDbEntity
  8
RACCORDO
100
AcDbCircle
 62
7
  6
CONTINUOUS
 10
11.4339241103
 20
-32.045155363
 40
0.5
100
AcDbArc
 50
239.9984015652
 51
287.1696386884
  0
ARC
  5
2BF
100
AcDbEntity
  8
RACCORDO
100
AcDbCircle
 62
7
  6
CONTINUOUS
 10
-17.4069623599
 20
28.4417385946
 40
0.5
100
AcDbArc
 50
122.5979811578
 51
179.9999235613
  0
ELLIPSE
  5
2C0
100
AcDbEntity
  8
RACCORDO
100
AcDbEllipse
 62
7
  6
CONTINUOUS
 10
15.6413939014
 20
-18.3263753122
 30
0.0
 11
0.2984123604
 21
0.4035436801
 31
0.0
 40
0.639288975
 41
0.0724911956
 42
0.7706710139
  0
ELLIPSE
  5
2C1
100
AcDbEntity
  8
RACCORDO
100
AcDbEllipse
 62
7
  6
CONTINUOUS
 10
14.459588921
 20
-30.9166272755
 30
0.0
 11
-0.2501834304
 21
0.4333025529
 31
0.0
 40
0.5769361983
 41
-3.16775339
 42
-2.3565853618
  0
ELLIPSE
  5
2C2
100
AcDbEntity
  8
RACCORDO
100
AcDbEllipse
 62
7
  6
CONTINUOUS
 10
14.459588921
 20
11.2992850866
 30
0.0
 11
-0.2500121049
 21
0.4330057129
 31
0.0
 40
0.5777274115
 41
-2.3559002616
 42
-0.7857891675
  0
ELLIPSE
  5
2C3
100
AcDbEntity
  8
RACCORDO
100
AcDbEllipse
 62
7
  6
CONTINUOUS
 10
-16.3740765522
 20
29.1022570943
 30
0.0
 11
-0.2501834304
 21
0.4333025529
 31
0.0
 40
0.5769361983
 41
-0.7851038024
 42
0.0261607363
  0
ENDSEC
  0
SECTION
  2
OBJECTS
  0
DICTIONARY
  5
C
100
AcDbDictionary
280
0
281
1
  3
ACAD_GROUP
350
D
  3
ACAD_MLINESTYLE
350
17
  3
ACAD_LAYOUT
350
1A
  3
ACAD_PLOTSETTINGS
350
19
  3
ACAD_PLOTSTYLENAME
350
E
  0
DICTIONARY
  5
D
102
{ACAD_REACTORS
330
C
102
}
100
AcDbDictionary
280
0
281
1
  0
ACDBDICTIONARYWDFLT
  5
E
102
{ACAD_REACTORS
330
C
102
}
100
AcDbDictionary
281
1
  3
Normal
350
F
100
AcDbDictionaryWithDefault
340
F
  0
DICTIONARY
  5
17
102
{ACAD_REACTORS
330
C
102
}
100
AcDbDictionary
280
0
281
1
  3
Standard
350
18
  0
DICTIONARY
  5
19
102
{ACAD_REACTORS
330
C
102
}
100
AcDbDictionary
281
1
  0
DICTIONARY
  5
1A
102
{ACAD_REACTORS
330
C
102
}
100
AcDbDictionary
281
1
  3
Model
350
2C4
  3
Layout1
350
2C5
  0
ACDBPLACEHOLDER
  5
F
102
{ACAD_REACTORS
330
E
102
}
  0
MLINESTYLE
  5
18
102
{ACAD_REACTORS
330
17
102
}
100
AcDbMlineStyle
  2
STANDARD
 70
0
  3

 62
256
 51
90.0
 52
90.0
 71
2
 49
0.5
 62
256
  6
BYLAYER
 49
-0.5
 62
256
  6
BYLAYER
  0
LAYOUT
  5
2C4
102
{ACAD_REACTORS
330
1A
102
}
100
AcDbPlotSettings
  1

  2
none_device
  4
ISO_A4_(297.00_x_210.00_MM)
  6

 40
0.0
 41
0.0
 42
0.0
 43
0.0
 44
297.0
 45
210.0
 46
0.0
 47
0.0
 48
0.0
 49
0.0
140
0.0
141
0.0
142
1.0
143
1.0
 70
1024
 72
1
 73
0
 74
0
  7

 75
0
147
1.0
148
0.0
149
0.0
100
AcDbLayout
  1
Model
 70
0
 71
0
 10
0.0
 20
0.0
 11
297.0
 21
210.0
 12
0.0
 22
0.0
 32
0.0
 14
0.0
 24
0.0
 34
0.0
 15
0.0
 25
0.0
 35
0.0
146
0.0
 13
0.0
 23
0.0
 33
0.0
 16
1.0
 26
0.0
 36
0.0
 17
0.0
 27
1.0
 37
0.0
 76
0
330
21E
345
0
346
0
  0
LAYOUT
  5
2C5
102
{ACAD_REACTORS
330
1A
102
}
100
AcDbPlotSettings
  1

  2
none_device
  4
ISO_A4_(297.00_x_210.00_MM)
  6

 40
0.0
 41
0.0
 42
0.0
 43
0.0
 44
297.0
 45
210.0
 46
0.0
 47
0.0
 48
0.0
 49
0.0
140
0.0
141
0.0
142
1.0
143
1.0
 70
0
 72
1
 73
0
 74
0
  7

 75
0
147
1.0
148
0.0
149
0.0
100
AcDbLayout
  1
Layout1
 70
0
 71
1
 10
0.0
 20
0.0
 11
297.0
 21
210.0
 12
0.0
 22
0.0
 32
0.0
 14
0.0
 24
0.0
 34
0.0
 15
0.0
 25
0.0
 35
0.0
146
0.0
 13
0.0
 23
0.0
 33
0.0
 16
1.0
 26
0.0
 36
0.0
 17
0.0
 27
1.0
 37
0.0
 76
0
330
21F
345
0
346
0
  0
ENDSEC
  0
EOF
