  0
SECTION
  2
HEADER
  9
$ACADVER
  1
AC1024
  9
$DWGCODEPAGE
  3
ANSI_1252
  9
$EXTMAX
 10
297.0
 20
210.0
 30
0.0
  9
$EXTMIN
 10
0.0
 20
0.0
 30
0.0
  9
$LIMMIN
 10
0.0
 20
0.0
  9
$LIMMAX
 10
297.0
 20
210.0
  9
$VIEWCTR
 10
148.5
 20
105.0
  9
$VIEWSIZE
 40
210.0
  9
$CLAYER
  8
0
  9
$LTSCALE
 40
16.335
  9
$CELTYPE
  6
BYLAYER
  9
$DIMSCALE
 40
1.0
  9
$DIMASZ
 40
3.0
  9
$DIMEXO
 40
0.5
  9
$DIMDLI
 40
11.286
  9
$DIMEXE
 40
1.5
  9
$DIMCEN
 40
2.673
  9
$DIMLFAC
 40
1.0
  9
$DIMBLK
  1
_FILLED
  9
$DIMALT
 70
0
  9
$DIMALTF
 40
0.0393700787
  9
$DIMTXT
 40
3.0
  9
$DIMTOL
 70
1
  9
$DIMLIM
 70
0
  9
$DIMTFAC
 40
1.0
  9
$DIMTP
 40
0.01
  9
$DIMTM
 40
0.01
  9
$DIMGAP
 40
0.625
  9
$DIMDSEP
 70
44
  9
$AUNITS
 70
0
  9
$PDMODE
 70
3
  9
$PDSIZE
 40
3.0
  9
$HANDSEED
  5
2C2
  9
$TILEMODE
 70
1
  9
$MEASUREMENT
 70
1
  9
$INSUNITS
 70
4
  0
ENDSEC
  0
SECTION
  2
CLASSES
  0
CLASS
  1
ACDBDICTIONARYWDFLT
  2
AcDbDictionaryWithDefault
  3
AutoCAD 2000
 90
0
 91
1
280
0
281
0
  0
CLASS
  1
ACDBPLACEHOLDER
  2
AcDbPlaceHolder
  3
AutoCAD 2000
 90
0
 91
1
280
0
281
0
  0
CLASS
  1
LAYOUT
  2
AcDbLayout
  3
AutoCAD 2000
 90
0
 91
0
280
0
281
0
  0
ENDSEC
  0
SECTION
  2
TABLES
  0
TABLE
  2
VPORT
  5
8
100
AcDbSymbolTable
 70
2
  0
VPORT
  5
1F4
100
AcDbSymbolTableRecord
100
AcDbViewportTableRecord
  2
*ACTIVE
 70
0
 10
0.0
 20
0.0
 11
1.0
 21
1.0
 12
148.5
 22
105.0
 13
0.0
 23
0.0
 14
1.0
 24
1.0
 15
0.0
 25
0.0
 16
0.0
 26
0.0
 36
1.0
 17
0.0
 27
0.0
 37
0.0
 40
210.0
 41
1.4142857143
 42
50.0
 43
0.0
 44
0.0
 50
0.0
 51
0.0
 71
0
 72
100
 73
1
 74
1
 75
0
 76
0
 77
0
 78
0
  0
ENDTAB
  0
TABLE
  2
LTYPE
  5
5
100
AcDbSymbolTable
 70
6
  0
LTYPE
  5
14
100
AcDbSymbolTableRecord
100
AcDbLinetypeTableRecord
  2
BYBLOCK
 70
0
  3

 72
65
 73
0
 40
0.0
  0
LTYPE
  5
15
100
AcDbSymbolTableRecord
100
AcDbLinetypeTableRecord
  2
BYLAYER
 70
0
  3

 72
65
 73
0
 40
0.0
  0
LTYPE
  5
16
100
AcDbSymbolTableRecord
100
AcDbLinetypeTableRecord
  2
CONTINUOUS
 70
64
  3
Solid line
 72
65
 73
0
 40
0.0
  0
LTYPE
  5
1F5
100
AcDbSymbolTableRecord
100
AcDbLinetypeTableRecord
  2
CENTER
 70
64
  3
____ _ ____ _ ____ _ ____ _ ____ _ ____ _ ____
 72
65
 73
4
 40
0.6
 49
0.375
 74
0
 49
-0.075
 74
0
 49
0.075
 74
0
 49
-0.075
 74
0
  0
LTYPE
  5
1F6
100
AcDbSymbolTableRecord
100
AcDbLinetypeTableRecord
  2
HIDDEN
 70
64
  3
- - - - - - - - - - - - - - - - - - - -
 72
65
 73
2
 40
0.2
 49
0.1
 74
0
 49
-0.1
 74
0
  0
LTYPE
  5
1F7
100
AcDbSymbolTableRecord
100
AcDbLinetypeTableRecord
  2
PHANTOM
 70
64
  3
_____ _ _ _____ _ _ _____ _ _ _____
 72
65
 73
6
 40
0.8
 49
0.45
 74
0
 49
-0.05
 74
0
 49
0.1
 74
0
 49
-0.05
 74
0
 49
0.1
 74
0
 49
-0.05
 74
0
  0
LTYPE
  5
1F8
100
AcDbSymbolTableRecord
100
AcDbLinetypeTableRecord
  2
DOT
 70
64
  3
. . . . . . . . . . . . . . . . . . . .
 72
65
 73
2
 40
0.2
 49
0.1
 74
0
 49
-0.1
 74
0
  0
LTYPE
  5
1F9
100
AcDbSymbolTableRecord
100
AcDbLinetypeTableRecord
  2
DASHED
 70
64
  3
- - - - - - - - - - - - - - - - - - - -
 72
65
 73
2
 40
0.2
 49
0.1
 74
0
 49
-0.1
 74
0
  0
ENDTAB
  0
TABLE
  2
LAYER
  5
2
100
AcDbSymbolTable
 70
36
  0
LAYER
  5
10
100
AcDbSymbolTableRecord
100
AcDbLayerTableRecord
  2
0
 70
0
 62
7
  6
CONTINUOUS
370
-3
390
F
  0
LAYER
  5
1FA
100
AcDbSymbolTableRecord
100
AcDbLayerTableRecord
  2
DEFAULT_1
 70
0
 62
7
  6
CENTER
370
-3
390
F
  0
LAYER
  5
1FB
100
AcDbSymbolTableRecord
100
AcDbLayerTableRecord
  2
DEFAULT_2
 70
0
 62
7
  6
HIDDEN
370
-3
390
F
  0
LAYER
  5
1FC
100
AcDbSymbolTableRecord
100
AcDbLayerTableRecord
  2
DEFAULT_3
 70
0
 62
7
  6
PHANTOM
370
-3
390
F
  0
LAYER
  5
1FD
100
AcDbSymbolTableRecord
100
AcDbLayerTableRecord
  2
ASSI
 70
0
 62
7
  6
CONTINUOUS
370
-3
390
F
  0
LAYER
  5
1FE
100
AcDbSymbolTableRecord
100
AcDbLayerTableRecord
  2
COORDINATE
 70
0
 62
7
  6
CONTINUOUS
370
-3
390
F
  0
LAYER
  5
1FF
100
AcDbSymbolTableRecord
100
AcDbLayerTableRecord
  2
COPY_PUBLISH
 70
0
 62
7
  6
CONTINUOUS
370
-3
390
F
  0
LAYER
  5
200
100
AcDbSymbolTableRecord
100
AcDbLayerTableRecord
  2
COSMETICI
 70
0
 62
7
  6
CONTINUOUS
370
-3
390
F
  0
LAYER
  5
201
100
AcDbSymbolTableRecord
100
AcDbLayerTableRecord
  2
CURVE
 70
0
 62
7
  6
CONTINUOUS
370
-3
390
F
  0
LAYER
  5
202
100
AcDbSymbolTableRecord
100
AcDbLayerTableRecord
  2
DRAFT
 70
0
 62
7
  6
CONTINUOUS
370
-3
390
F
  0
LAYER
  5
203
100
AcDbSymbolTableRecord
100
AcDbLayerTableRecord
  2
IMPORT_IGES
 70
0
 62
7
  6
CONTINUOUS
370
-3
390
F
  0
LAYER
  5
204
100
AcDbSymbolTableRecord
100
AcDbLayerTableRecord
  2
INTF_1
 70
0
 62
7
  6
CONTINUOUS
370
-3
390
F
  0
LAYER
  5
205
100
AcDbSymbolTableRecord
100
AcDbLayerTableRecord
  2
INTF_10
 70
0
 62
7
  6
CONTINUOUS
370
-3
390
F
  0
LAYER
  5
206
100
AcDbSymbolTableRecord
100
AcDbLayerTableRecord
  2
INTF_11
 70
0
 62
7
  6
CONTINUOUS
370
-3
390
F
  0
LAYER
  5
207
100
AcDbSymbolTableRecord
100
AcDbLayerTableRecord
  2
INTF_2
 70
0
 62
7
  6
CONTINUOUS
370
-3
390
F
  0
LAYER
  5
208
100
AcDbSymbolTableRecord
100
AcDbLayerTableRecord
  2
INTF_3
 70
0
 62
7
  6
CONTINUOUS
370
-3
390
F
  0
LAYER
  5
209
100
AcDbSymbolTableRecord
100
AcDbLayerTableRecord
  2
INTF_4
 70
0
 62
7
  6
CONTINUOUS
370
-3
390
F
  0
LAYER
  5
20A
100
AcDbSymbolTableRecord
100
AcDbLayerTableRecord
  2
INTF_5
 70
0
 62
7
  6
CONTINUOUS
370
-3
390
F
  0
LAYER
  5
20B
100
AcDbSymbolTableRecord
100
AcDbLayerTableRecord
  2
INTF_6
 70
0
 62
7
  6
CONTINUOUS
370
-3
390
F
  0
LAYER
  5
20C
100
AcDbSymbolTableRecord
100
AcDbLayerTableRecord
  2
INTF_7
 70
0
 62
7
  6
CONTINUOUS
370
-3
390
F
  0
LAYER
  5
20D
100
AcDbSymbolTableRecord
100
AcDbLayerTableRecord
  2
INTF_9
 70
0
 62
7
  6
CONTINUOUS
370
-3
390
F
  0
LAYER
  5
20E
100
AcDbSymbolTableRecord
100
AcDbLayerTableRecord
  2
INTF_BLANK
 70
0
 62
7
  6
CONTINUOUS
370
-3
390
F
  0
LAYER
  5
20F
100
AcDbSymbolTableRecord
100
AcDbLayerTableRecord
  2
INTF_RED
 70
0
 62
7
  6
CONTINUOUS
370
-3
390
F
  0
LAYER
  5
210
100
AcDbSymbolTableRecord
100
AcDbLayerTableRecord
  2
NOTE
 70
0
 62
7
  6
CONTINUOUS
370
-3
390
F
  0
LAYER
  5
211
100
AcDbSymbolTableRecord
100
AcDbLayerTableRecord
  2
PIANI
 70
0
 62
7
  6
CONTINUOUS
370
-3
390
F
  0
LAYER
  5
212
100
AcDbSymbolTableRecord
100
AcDbLayerTableRecord
  2
PUNTI
 70
0
 62
7
  6
CONTINUOUS
370
-3
390
F
  0
LAYER
  5
213
100
AcDbSymbolTableRecord
100
AcDbLayerTableRecord
  2
RACCORDO
 70
0
 62
7
  6
CONTINUOUS
370
-3
390
F
  0
LAYER
  5
214
100
AcDbSymbolTableRecord
100
AcDbLayerTableRecord
  2
RGB____0____0____0__
 70
0
 62
7
  6
CONTINUOUS
370
-3
390
F
  0
LAYER
  5
215
100
AcDbSymbolTableRecord
100
AcDbLayerTableRecord
  2
SIMBOLI
 70
0
 62
7
  6
CONTINUOUS
370
-3
390
F
  0
LAYER
  5
216
100
AcDbSymbolTableRecord
100
AcDbLayerTableRecord
  2
SMUSSO
 70
0
 62
7
  6
CONTINUOUS
370
-3
390
F
  0
LAYER
  5
217
100
AcDbSymbolTableRecord
100
AcDbLayerTableRecord
  2
SNAPLINE
 70
0
 62
7
  6
CONTINUOUS
370
-3
390
F
  0
LAYER
  5
218
100
AcDbSymbolTableRecord
100
AcDbLayerTableRecord
  2
SUPERFICI
 70
0
 62
7
  6
CONTINUOUS
370
-3
390
F
  0
LAYER
  5
219
100
AcDbSymbolTableRecord
100
AcDbLayerTableRecord
  2
TRASH
 70
0
 62
7
  6
CONTINUOUS
370
-3
390
F
  0
ENDTAB
  0
TABLE
  2
STYLE
  5
3
100
AcDbSymbolTable
 70
1
  0
STYLE
  5
11
100
AcDbSymbolTableRecord
100
AcDbTextStyleTableRecord
  2
STANDARD
 70
0
 40
0.0
 41
0.8
 50
0.0
 71
0
 42
0.2
  3
txt
  4

  0
STYLE
  5
21A
100
AcDbSymbolTableRecord
100
AcDbTextStyleTableRecord
  2
TEXTSTYLE_1
 70
0
 40
0.0
 41
0.8
 50
0.0
 71
0
 42
0.2
  3
gdt
  4

  0
ENDTAB
  0
TABLE
  2
VIEW
  5
6
100
AcDbSymbolTable
 70
0
  0
ENDTAB
  0
TABLE
  2
UCS
  5
7
100
AcDbSymbolTable
 70
0
  0
ENDTAB
  0
TABLE
  2
APPID
  5
9
100
AcDbSymbolTable
 70
1
  0
APPID
  5
21B
100
AcDbSymbolTableRecord
100
AcDbRegAppTableRecord
  2
ACAD
 70
0
  0
ENDTAB
  0
TABLE
  2
BLOCK_RECORD
  5
1
100
AcDbSymbolTable
 70
0
  0
BLOCK_RECORD
  5
21C
100
AcDbSymbolTableRecord
100
AcDbBlockTableRecord
  2
*Model_Space
  0
BLOCK_RECORD
  5
21D
100
AcDbSymbolTableRecord
100
AcDbBlockTableRecord
  2
*Paper_Space
  0
BLOCK_RECORD
  5
21E
100
AcDbSymbolTableRecord
100
AcDbBlockTableRecord
  2
_FILLED
  0
ENDTAB
  0
TABLE
  2
DIMSTYLE
  5
A
100
AcDbSymbolTable
 70
1
100
AcDbDimStyleTable
 71
0
  0
DIMSTYLE
105
21F
100
AcDbSymbolTableRecord
100
AcDbDimStyleTableRecord
  2
STANDARD
 70
0
  3

  4

 40
1.0
 41
3.0
 42
0.5
 43
0.38
 44
1.5
 45
0.0
 46
0.0
 47
0.01
 48
0.01
140
3.0
141
0.09
142
0.0
143
25.4
144
1.0
145
0.0
146
1.0
147
0.625
 71
1
 72
0
 73
0
 74
0
 75
0
 76
0
 77
1
 78
8
 79
2
170
0
171
1
172
0
173
0
174
0
175
0
176
0
177
0
178
0
270
2
179
2
271
2
272
2
273
2
274
2
275
0
280
0
281
0
282
0
283
1
284
8
285
0
286
0
287
3
288
0
340
11
278
44
341
21E
342
21E
343
21E
344
21E
  0
ENDTAB
  0
ENDSEC
  0
SECTION
  2
BLOCKS
  0
BLOCK
  5
20
100
AcDbEntity
  8
0
100
AcDbBlockBegin
  2
*Model_Space
 70
0
 10
0.0
 20
0.0
 30
0.0
  3
*Model_Space
  1

  0
ENDBLK
  5
21
100
AcDbEntity
  8
0
100
AcDbBlockEnd
  0
BLOCK
  5
1C
100
AcDbEntity
  8
0
100
AcDbBlockBegin
  2
*Paper_Space
 70
0
 10
0.0
 20
0.0
 30
0.0
  3
*Paper_Space
  1

  0
ENDBLK
  5
1D
100
AcDbEntity
  8
0
100
AcDbBlockEnd
  0
BLOCK
  5
220
100
AcDbEntity
  8
0
100
AcDbBlockBegin
  2
_FILLED
 70
64
 10
0.0
 20
0.0
  3
_FILLED
  1

  0
SOLID
  5
221
100
AcDbEntity
  8
0
  6
BYBLOCK
 62
0
100
AcDbTrace
 10
0.0
 20
0.0
 11
-1.0
 21
0.3166666667
 12
-1.0
 22
-0.3166666667
 13
-1.0
 23
-0.3166666667
  0
ENDBLK
  5
222
100
AcDbEntity
  8
0
  6
BYBLOCK
 62
0
100
AcDbBlockEnd
  0
ENDSEC
  0
SECTION
  2
ENTITIES
  0
LINE
  5
223
100
AcDbEntity
  8
RACCORDO
100
AcDbLine
 62
7
  6
CONTINUOUS
 10
-9.7213850216
 20
24.2698829357
 11
-8.675762214
 21
24.9385465991
  0
LINE
  5
224
100
AcDbEntity
  8
RACCORDO
100
AcDbLine
 62
250
  6
CONTINUOUS
 10
-9.4612660204
 20
24.2514009746
 11
-8.4193676132
 21
24.9176829271
  0
LWPOLYLINE
  5
225
100
AcDbEntity
  8
RACCORDO
100
AcDbPolyline
 62
250
  6
CONTINUOUS
 90
9
 70
0
 10
-9.7213850216
 20
24.2698829357
 10
-9.7008830743
 20
24.2810559187
 10
-9.671885649
 20
24.2913343763
 10
-9.6404263688
 20
24.2967538812
 10
-9.6068911333
 20
24.2972366195
 10
-9.5717893305
 20
24.2928040794
 10
-9.5355703231
 20
24.2835769134
 10
-9.4985941743
 20
24.2697082016
 10
-9.4612660204
 20
24.2514009746
  0
LINE
  5
226
100
AcDbEntity
  8
RACCORDO
100
AcDbLine
 62
7
  6
CONTINUOUS
 10
-11.54038604
 20
-19.3574361869
 11
3.2289607419
 21
-27.8850719153
  0
LINE
  5
227
100
AcDbEntity
  8
RACCORDO
100
AcDbLine
 62
250
  6
CONTINUOUS
 10
-11.641990548
 20
-19.0847772791
 11
3.1273562339
 21
-27.6124130076
  0
LINE
  5
228
100
AcDbEntity
  8
RACCORDO
100
AcDbLine
 62
250
  6
CONTINUOUS
 10
-11.54038604
 20
-19.3574361869
 11
-11.542943041
 21
-19.3559292904
  0
LWPOLYLINE
  5
229
100
AcDbEntity
  8
RACCORDO
100
AcDbPolyline
 62
250
  6
CONTINUOUS
 90
10
 70
0
 10
-11.542943041
 20
-19.3559292904
 10
-11.565883552
 20
-19.3393481272
 10
-11.5861934197
 20
-19.3188052132
 10
-11.6036787197
 20
-19.2944966977
 10
-11.6181724976
 20
-19.2666546853
 10
-11.6295363626
 20
-19.2355450195
 10
-11.6376618093
 20
-19.2014647441
 10
-11.6424712536
 20
-19.1647392673
 10
-11.6439187736
 20
-19.1257192543
 10
-11.641990548
 20
-19.0847772791
  0
LINE
  5
22A
100
AcDbEntity
  8
DRAFT
100
AcDbLine
 62
7
  6
CONTINUOUS
 10
8.2624917898
 20
-16.1896311094
 11
7.7048142539
 21
-16.1239731473
  0
LWPOLYLINE
  5
22B
100
AcDbEntity
  8
RACCORDO
100
AcDbPolyline
 62
250
  6
CONTINUOUS
 90
9
 70
0
 10
-11.7886148266
 20
-18.8825253439
 10
-11.7878825623
 20
-18.9113902512
 10
-11.7816869691
 20
-18.9380570762
 10
-11.7702530709
 20
-18.9646098792
 10
-11.7537067531
 20
-18.9907347436
 10
-11.732301059
 20
-19.0160729547
 10
-11.7063393232
 20
-19.0403387547
 10
-11.6761172236
 20
-19.0633157461
 10
-11.641990548
 20
-19.0847772791
  0
LINE
  5
22C
100
AcDbEntity
  8
DRAFT
100
AcDbLine
 62
7
  6
CONTINUOUS
 10
8.2624917898
 20
-13.9253245878
 11
7.7048142539
 21
-13.8184254029
  0
LWPOLYLINE
  5
22D
100
AcDbEntity
  8
RACCORDO
100
AcDbPolyline
 62
250
  6
CONTINUOUS
 90
9
 70
0
 10
-10.7089369762
 20
-6.0454380637
 10
-10.7082670008
 20
-6.0738302934
 10
-10.7021780552
 20
-6.1004566689
 10
-10.6908812048
 20
-6.126944078
 10
-10.6744961556
 20
-6.1530118515
 10
-10.6531965293
 20
-6.1783837679
 10
-10.6272080239
 20
-6.2027909785
 10
-10.5968060226
 20
-6.2259748554
 10
-10.5623126753
 20
-6.2476897343
  0
LINE
  5
22E
100
AcDbEntity
  8
RACCORDO
100
AcDbLine
 62
7
  6
CONTINUOUS
 10
-9.9520110716
 20
11.5393211466
 11
-9.9520110716
 21
23.8486494197
  0
LWPOLYLINE
  5
22F
100
AcDbEntity
  8
RACCORDO
100
AcDbPolyline
 62
7
  6
CONTINUOUS
 90
10
 70
0
 10
-9.9520110714
 20
11.5393272654
 10
-9.9565385654
 20
9.6580113442
 10
-9.9735370992
 20
7.7136975107
 10
-10.008480259
 20
5.763711523
 10
-10.0664299465
 20
3.8053150846
 10
-10.1518831624
 20
1.8362941854
 10
-10.2644747813
 20
-0.1431703397
 10
-10.3993364263
 20
-2.1300709736
 10
-10.5512384115
 20
-4.1214835908
 10
-10.7089369576
 20
-6.0454378433
  0
LINE
  5
230
100
AcDbEntity
  8
RACCORDO
100
AcDbLine
 62
250
  6
CONTINUOUS
 10
-9.8123749869
 20
9.0572294919
 11
-9.8072936612
 21
10.1479233228
  0
LINE
  5
231
100
AcDbEntity
  8
RACCORDO
100
AcDbLine
 62
250
  6
CONTINUOUS
 10
-9.8207175909
 20
8.0583303281
 11
-9.8123749869
 21
9.0572294919
  0
LINE
  5
232
100
AcDbEntity
  8
RACCORDO
100
AcDbLine
 62
250
  6
CONTINUOUS
 10
-9.8322426488
 20
7.1352198472
 11
-9.8207175909
 21
8.0583303281
  0
LINE
  5
233
100
AcDbEntity
  8
RACCORDO
100
AcDbLine
 62
250
  6
CONTINUOUS
 10
-9.8468366981
 20
6.2734087262
 11
-9.8322426488
 21
7.1352198472
  0
LINE
  5
234
100
AcDbEntity
  8
RACCORDO
100
AcDbLine
 62
250
  6
CONTINUOUS
 10
-9.8643048459
 20
5.463309813
 11
-9.8468366981
 21
6.2734087262
  0
LINE
  5
235
100
AcDbEntity
  8
RACCORDO
100
AcDbLine
 62
250
  6
CONTINUOUS
 10
-9.8846595743
 20
4.6903856747
 11
-9.8643048459
 21
5.463309813
  0
LINE
  5
236
100
AcDbEntity
  8
RACCORDO
100
AcDbLine
 62
250
  6
CONTINUOUS
 10
-9.9081254886
 20
3.9399340183
 11
-9.8846595743
 21
4.6903856747
  0
LINE
  5
237
100
AcDbEntity
  8
RACCORDO
100
AcDbLine
 62
250
  6
CONTINUOUS
 10
-9.9349806926
 20
3.2022602258
 11
-9.9081254886
 21
3.9399340183
  0
LINE
  5
238
100
AcDbEntity
  8
RACCORDO
100
AcDbLine
 62
250
  6
CONTINUOUS
 10
-9.9659836399
 20
2.4607320418
 11
-9.9349806926
 21
3.2022602258
  0
LWPOLYLINE
  5
239
100
AcDbEntity
  8
RACCORDO
100
AcDbPolyline
 62
250
  6
CONTINUOUS
 90
16
 70
0
 10
-9.8055644621
 20
23.644512123
 10
-9.8036916252
 20
23.6875570004
 10
-9.798092956
 20
23.7323085499
 10
-9.7888277687
 20
23.7782926573
 10
-9.7759942221
 20
23.8250221503
 10
-9.7597282794
 20
23.8720019595
 10
-9.7402022681
 20
23.9187343632
 10
-9.717623054
 20
23.9647242612
 10
-9.6922298493
 20
24.0094844198
 10
-9.6642916791
 20
24.0525406337
 10
-9.6341045302
 20
24.0934367497
 10
-9.6019882165
 20
24.1317394994
 10
-9.5682829901
 20
24.1670430891
 10
-9.5333459365
 20
24.1989734997
 10
-9.4975471916
 20
24.2271924489
 10
-9.4612660204
 20
24.2514009746
  0
LINE
  5
23A
100
AcDbEntity
  8
RACCORDO
100
AcDbLine
 62
250
  6
CONTINUOUS
 10
-10.0014107634
 20
1.7120206049
 11
-9.9659836399
 21
2.4607320418
  0
LINE
  5
23B
100
AcDbEntity
  8
RACCORDO
100
AcDbLine
 62
250
  6
CONTINUOUS
 10
-10.0410988862
 20
0.9563787369
 11
-10.0014107634
 21
1.7120206049
  0
LINE
  5
23C
100
AcDbEntity
  8
RACCORDO
100
AcDbLine
 62
250
  6
CONTINUOUS
 10
-10.08440878
 20
0.2013289553
 11
-10.0410988862
 21
0.9563787369
  0
LINE
  5
23D
100
AcDbEntity
  8
RACCORDO
100
AcDbLine
 62
250
  6
CONTINUOUS
 10
-10.155758629
 20
-0.9337272752
 11
-10.08440878
 21
0.2013289553
  0
LINE
  5
23E
100
AcDbEntity
  8
RACCORDO
100
AcDbLine
 62
250
  6
CONTINUOUS
 10
-10.2348519471
 20
-2.0839902362
 11
-10.155758629
 21
-0.9337272752
  0
LINE
  5
23F
100
AcDbEntity
  8
RACCORDO
100
AcDbLine
 62
250
  6
CONTINUOUS
 10
-10.3222472566
 20
-3.2667109785
 11
-10.2348519471
 21
-2.0839902362
  0
LINE
  5
240
100
AcDbEntity
  8
RACCORDO
100
AcDbLine
 62
250
  6
CONTINUOUS
 10
-10.452833649
 20
-4.9235760399
 11
-10.3222472566
 21
-3.2667109785
  0
LINE
  5
241
100
AcDbEntity
  8
RACCORDO
100
AcDbLine
 62
250
  6
CONTINUOUS
 10
-10.5623126753
 20
-6.2476897343
 11
-10.452833649
 21
-4.9235760399
  0
LINE
  5
242
100
AcDbEntity
  8
RACCORDO
100
AcDbLine
 62
7
  6
CONTINUOUS
 10
-11.7886148266
 20
-18.8825253439
 11
-10.7089369762
 21
-6.0454380637
  0
LINE
  5
243
100
AcDbEntity
  8
RACCORDO
100
AcDbLine
 62
250
  6
CONTINUOUS
 10
-11.641990548
 20
-19.0847772791
 11
-10.5623126753
 21
-6.2476897343
  0
LWPOLYLINE
  5
244
100
AcDbEntity
  8
RACCORDO
100
AcDbPolyline
 62
250
  6
CONTINUOUS
 90
16
 70
0
 10
5.406948148
 20
15.6666804563
 10
5.3706669768
 20
15.6424719305
 10
5.3348682319
 20
15.6142529814
 10
5.2999311783
 20
15.5823225708
 10
5.2662259518
 20
15.5470189811
 10
5.2341096381
 20
15.5087162314
 10
5.2039224893
 20
15.4678201154
 10
5.175984319
 20
15.4247639014
 10
5.1505911144
 20
15.3800037429
 10
5.1280119002
 20
15.3340138449
 10
5.1084858889
 20
15.2872814411
 10
5.0922199462
 20
15.240301632
 10
5.0793863996
 20
15.193572139
 10
5.0701212124
 20
15.1475880316
 10
5.0645225431
 20
15.102836482
 10
5.0626497062
 20
15.0597916047
  0
LINE
  5
245
100
AcDbEntity
  8
RACCORDO
100
AcDbLine
 62
250
  6
CONTINUOUS
 10
6.504879982
 20
16.3006094104
 11
5.406948148
 21
15.6666804563
  0
LINE
  5
246
100
AcDbEntity
  8
RACCORDO
100
AcDbLine
 62
250
  6
CONTINUOUS
 10
6.8583122187
 20
15.6884468201
 11
5.7603803846
 21
15.054517866
  0
LWPOLYLINE
  5
247
100
AcDbEntity
  8
RACCORDO
100
AcDbPolyline
 62
250
  6
CONTINUOUS
 90
16
 70
0
 10
5.7603803846
 20
15.054517866
 10
5.7211561383
 20
15.0351467093
 10
5.6786821613
 20
15.018213566
 10
5.6334110765
 20
15.0038988843
 10
5.5858196538
 20
14.9923540304
 10
5.5364202899
 20
14.9837038849
 10
5.4857574074
 20
14.9780420999
 10
5.4343838175
 20
14.9754260798
 10
5.3828348097
 20
14.975878773
 10
5.331640296
 20
14.9793939436
 10
5.2812751039
 20
14.9859455049
 10
5.2323482115
 20
14.9954608768
 10
5.1855570535
 20
15.0077858665
 10
5.1414266249
 20
15.0227371543
 10
5.1003270318
 20
15.0401420463
 10
5.0626497062
 20
15.0597916047
  0
LINE
  5
248
100
AcDbEntity
  8
RACCORDO
100
AcDbLine
 62
250
  6
CONTINUOUS
 10
-10.5623126753
 20
-6.2476897343
 11
4.2650993179
 21
-14.8088515881
  0
LWPOLYLINE
  5
249
100
AcDbEntity
  8
RACCORDO
100
AcDbPolyline
 62
250
  6
CONTINUOUS
 90
9
 70
0
 10
-9.9520110712
 20
23.8486380127
 10
-9.9508945353
 20
23.8293670159
 10
-9.9448031114
 20
23.7998063798
 10
-9.9334529481
 20
23.7707262383
 10
-9.9169703237
 20
23.7424777803
 10
-9.8956231122
 20
23.7154638175
 10
-9.8697295575
 20
23.6899873081
 10
-9.8395892393
 20
23.6662615344
 10
-9.8055644621
 20
23.644512123
  0
LWPOLYLINE
  5
24A
100
AcDbEntity
  8
RACCORDO
100
AcDbPolyline
 62
250
  6
CONTINUOUS
 90
9
 70
0
 10
-9.9520110716
 20
11.5393211466
 10
-9.9509688807
 20
11.5206910736
 10
-9.9450090901
 20
11.4911760545
 10
-9.9338262982
 20
11.4621711021
 10
-9.9175389795
 20
11.4339835055
 10
-9.8963196879
 20
11.4069118944
 10
-9.8703932283
 20
11.3812430753
 10
-9.8400342751
 20
11.3572489932
 10
-9.8055644621
 20
11.33518385
  0
LINE
  5
24B
100
AcDbEntity
  8
RACCORDO
100
AcDbLine
 62
250
  6
CONTINUOUS
 10
-9.8072936612
 20
10.1479233228
 11
-9.8055644621
 21
23.644512123
  0
LWPOLYLINE
  5
24C
100
AcDbEntity
  8
0
100
AcDbPolyline
 62
7
  6
CONTINUOUS
 90
3
 70
0
 10
-6.2920079387
 20
-3.6796901383
 10
-6.2947302812
 20
-3.6456763656
 10
-6.2954742438
 20
-3.6124055564
  0
LWPOLYLINE
  5
24D
100
AcDbEntity
  8
0
100
AcDbPolyline
 62
7
  6
CONTINUOUS
 90
7
 70
0
 10
-5.9505001076
 20
3.9666334854
 10
-5.9793639449
 20
2.7259358023
 10
-6.0195968441
 20
1.4784044254
 10
-6.0711988051
 20
0.2240393547
 10
-6.1341698279
 20
-1.0371594099
 10
-6.2085099125
 20
-2.3051918683
 10
-6.294219059
 20
-3.5800580204
  0
LINE
  5
24E
100
AcDbEntity
  8
0
100
AcDbLine
 62
7
  6
CONTINUOUS
 10
-6.2954737783
 20
-3.6123935601
 11
-6.294219059
 21
-3.5800580204
  0
LWPOLYLINE
  5
24F
100
AcDbEntity
  8
0
100
AcDbPolyline
 62
7
  6
CONTINUOUS
 90
3
 70
0
 10
-5.9505001076
 20
3.9666334854
 10
-5.9488906181
 20
3.9969085242
 10
-5.9453268641
 20
4.0258691919
  0
LINE
  5
250
100
AcDbEntity
  8
0
100
AcDbLine
 62
7
  6
CONTINUOUS
 10
-5.945325846
 20
4.025877465
 11
-5.9398202979
 21
4.0533789519
  0
LWPOLYLINE
  5
251
100
AcDbEntity
  8
0
100
AcDbPolyline
 62
7
  6
CONTINUOUS
 90
9
 70
0
 10
-5.9398312327
 20
4.0533338018
 10
-5.932427391
 20
4.0791691323
 10
-5.9231572002
 20
4.1032343222
 10
-5.9120645569
 20
4.1254178118
 10
-5.8991933606
 20
4.1456056874
 10
-5.8846147213
 20
4.1636635086
 10
-5.868427747
 20
4.1794654805
 10
-5.8507294084
 20
4.1929196347
 10
-5.8413346738
 20
4.1987492143
  0
LWPOLYLINE
  5
252
100
AcDbEntity
  8
0
100
AcDbPolyline
 62
7
  6
CONTINUOUS
 90
8
 70
0
 10
-5.8413346738
 20
4.1987492143
 10
-5.8316099336
 20
4.2039600219
 10
-5.8111759093
 20
4.2125251833
 10
-5.7895331628
 20
4.2185688807
 10
-5.7668065511
 20
4.2220549777
 10
-5.7431433096
 20
4.2229626472
 10
-5.7186876925
 20
4.2212938391
 10
-5.693566322
 20
4.2170650267
  0
LWPOLYLINE
  5
253
100
AcDbEntity
  8
0
100
AcDbPolyline
 62
7
  6
CONTINUOUS
 90
3
 70
0
 10
0.4725509341
 20
-7.9190769264
 10
0.4461688796
 20
-7.9100034345
 10
0.4196395478
 20
-7.8984011387
  0
LINE
  5
254
100
AcDbEntity
  8
0
100
AcDbLine
 62
7
  6
CONTINUOUS
 10
0.4196335955
 20
-7.8983979819
 11
0.3931094122
 21
-7.8843307847
  0
LINE
  5
255
100
AcDbEntity
  8
RACCORDO
100
AcDbLine
 62
250
  6
CONTINUOUS
 10
8.4392684851
 20
-13.7256932048
 11
7.7208226699
 21
-13.3108715954
  0
LINE
  5
256
100
AcDbEntity
  8
RACCORDO
100
AcDbLine
 62
7
  6
CONTINUOUS
 10
8.4392684851
 20
-13.5905987918
 11
7.9653863211
 21
-13.3169851694
  0
LINE
  5
257
100
AcDbEntity
  8
0
100
AcDbLine
 62
7
  6
CONTINUOUS
 10
-5.9708516184
 20
-4.2098594447
 11
0.3931094122
 21
-7.8843307847
  0
LINE
  5
258
100
AcDbEntity
  8
0
100
AcDbLine
 62
7
  6
CONTINUOUS
 10
-5.9708516184
 20
-4.2098594447
 11
-5.997206668
 21
-4.1933943683
  0
LWPOLYLINE
  5
259
100
AcDbEntity
  8
0
100
AcDbPolyline
 62
7
  6
CONTINUOUS
 90
3
 70
0
 10
-5.9972084235
 20
-4.1933937107
 10
-6.0232566456
 20
-4.1746315315
 10
-6.0488486603
 20
-4.1536757167
  0
LWPOLYLINE
  5
25A
100
AcDbEntity
  8
0
100
AcDbPolyline
 62
7
  6
CONTINUOUS
 90
16
 70
0
 10
-6.0488052883
 20
-4.1537134428
 10
-6.0737438131
 20
-4.1307267498
 10
-6.0979267294
 20
-4.1058074625
 10
-6.1212524423
 20
-4.079073198
 10
-6.1435968603
 20
-4.0506440113
 10
-6.1648119691
 20
-4.0206932132
 10
-6.184768254
 20
-3.9894315439
 10
-6.2033365906
 20
-3.9570455402
 10
-6.2204182613
 20
-3.9237002056
 10
-6.2359428189
 20
-3.8895864013
 10
-6.2498163879
 20
-3.854879522
 10
-6.2619491577
 20
-3.8197783343
 10
-6.2722916987
 20
-3.7845127356
 10
-6.2807745764
 20
-3.7492889682
 10
-6.2873489733
 20
-3.714281085
 10
-6.2920100658
 20
-3.6796703083
  0
LWPOLYLINE
  5
25B
100
AcDbEntity
  8
RACCORDO
100
AcDbPolyline
 62
250
  6
CONTINUOUS
 90
16
 70
0
 10
5.7603803846
 20
2.745189593
 10
5.7212756591
 20
2.7258716086
 10
5.6789388836
 20
2.7089768612
 10
5.6338185906
 20
2.6946843397
 10
5.5863928021
 20
2.6831454645
 10
5.5371639648
 20
2.674482482
 10
5.486653627
 20
2.6687871698
 10
5.435396914
 20
2.6661198655
 10
5.3839368584
 20
2.6665088271
 10
5.3328186457
 20
2.6699499333
 10
5.2825838409
 20
2.6764067269
 10
5.2337646495
 20
2.685810802
 10
5.1868782782
 20
2.6980625286
 10
5.1424214578
 20
2.7130321073
 10
5.1008651798
 20
2.7305609441
 10
5.0626497062
 20
2.7504633317
  0
LWPOLYLINE
  5
25C
100
AcDbEntity
  8
0
100
AcDbPolyline
 62
7
  6
CONTINUOUS
 90
4
 70
0
 10
1.1205677043
 20
-0.1161124478
 10
1.0917038669
 20
-1.3568101309
 10
1.0514709678
 20
-2.6043415079
 10
0.9998690068
 20
-3.8587065786
  0
LWPOLYLINE
  5
25D
100
AcDbEntity
  8
0
100
AcDbPolyline
 62
7
  6
CONTINUOUS
 90
4
 70
0
 10
0.9998690068
 20
-3.8587065786
 10
0.936897984
 20
-5.1199053432
 10
0.8625578993
 20
-6.3879378015
 10
0.7768487529
 20
-7.6628039537
  0
LWPOLYLINE
  5
25E
100
AcDbEntity
  8
0
100
AcDbPolyline
 62
7
  6
CONTINUOUS
 90
11
 70
0
 10
0.7768487529
 20
-7.6628039537
 10
0.773618235
 20
-7.694020296
 10
0.7684521279
 20
-7.7239009919
 10
0.7613688626
 20
-7.7522877096
 10
0.7523896968
 20
-7.7790267326
 10
0.7415641539
 20
-7.8039829305
 10
0.7289619299
 20
-7.827032825
 10
0.7146262505
 20
-7.848063482
 10
0.6986291539
 20
-7.8669403062
 10
0.6810968635
 20
-7.8835227396
 10
0.662127592
 20
-7.897717709
  0
LWPOLYLINE
  5
25F
100
AcDbEntity
  8
0
100
AcDbPolyline
 62
7
  6
CONTINUOUS
 90
3
 70
0
 10
-5.6679077047
 20
4.2103002518
 10
-5.6418504039
 20
4.2010366203
 10
-5.6155434023
 20
4.1893285798
  0
LWPOLYLINE
  5
260
100
AcDbEntity
  8
RACCORDO
100
AcDbPolyline
 62
7
  6
CONTINUOUS
 90
8
 70
0
 10
8.8691069285
 20
-3.1035709731
 10
8.8555814985
 20
-3.0965542366
 10
8.8301886695
 20
-3.0872412798
 10
8.8027592957
 20
-3.0817158302
 10
8.7739957091
 20
-3.0801193676
 10
8.7441320207
 20
-3.0824990519
 10
8.7129341196
 20
-3.0888077232
 10
8.6804020058
 20
-3.0990453814
  0
LINE
  5
261
100
AcDbEntity
  8
0
100
AcDbLine
 62
7
  6
CONTINUOUS
 10
-5.615563829
 20
4.1893384322
 11
-5.5891332615
 21
4.1752427184
  0
LINE
  5
262
100
AcDbEntity
  8
0
100
AcDbLine
 62
7
  6
CONTINUOUS
 10
-5.5891332615
 20
4.1752427184
 11
0.7748277691
 21
0.5007713785
  0
LINE
  5
263
100
AcDbEntity
  8
RACCORDO
100
AcDbLine
 62
250
  6
CONTINUOUS
 10
7.9732952246
 20
-2.6907707881
 11
8.6804020058
 21
-3.0990453814
  0
LINE
  5
264
100
AcDbEntity
  8
RACCORDO
100
AcDbLine
 62
7
  6
CONTINUOUS
 10
8.1619134027
 20
-2.6952462598
 11
8.8690201839
 21
-3.1035208531
  0
LINE
  5
265
100
AcDbEntity
  8
0
100
AcDbLine
 62
7
  6
CONTINUOUS
 10
0.7748277691
 20
0.5007713785
 11
0.8012122816
 21
0.4843728636
  0
LWPOLYLINE
  5
266
100
AcDbEntity
  8
0
100
AcDbPolyline
 62
7
  6
CONTINUOUS
 90
18
 70
0
 10
0.8012108519
 20
0.4843736881
 10
0.8274016533
 20
0.4657676968
 10
0.8532537178
 20
0.4450582232
 10
0.8786122225
 20
0.4223702721
 10
0.903345767
 20
0.3978237124
 10
0.927344681
 20
0.3715257911
 10
0.9504878033
 20
0.343596376
 10
0.9726236993
 20
0.3142060268
 10
0.993604504
 20
0.2835506259
 10
1.0133024254
 20
0.2518147376
 10
1.0316150524
 20
0.2191631744
 10
1.0484457709
 20
0.1857749302
 10
1.0637014346
 20
0.151824809
 10
1.0772887623
 20
0.1175122074
 10
1.0891269226
 20
0.0830576897
 10
1.0991458439
 20
0.0486672825
 10
1.1072963152
 20
0.0145166099
 10
1.1135448045
 20
-0.0192197869
  0
LWPOLYLINE
  5
267
100
AcDbEntity
  8
0
100
AcDbPolyline
 62
7
  6
CONTINUOUS
 90
4
 70
0
 10
1.1135431985
 20
-0.0192096125
 10
1.1178545032
 20
-0.0523317521
 10
1.120202513
 20
-0.0846926928
 10
1.1205677043
 20
-0.1161124478
  0
LINE
  5
268
100
AcDbEntity
  8
0
100
AcDbLine
 62
7
  6
CONTINUOUS
 10
-5.6935322642
 20
4.2170577382
 11
-5.6679157847
 21
4.2103027559
  0
LINE
  5
269
100
AcDbEntity
  8
RACCORDO
100
AcDbLine
 62
250
  6
CONTINUOUS
 10
5.0626497062
 20
15.0597916047
 11
5.0617303802
 21
1.898690453
  0
LINE
  5
26A
100
AcDbEntity
  8
RACCORDO
100
AcDbLine
 62
250
  6
CONTINUOUS
 10
5.7603803846
 20
15.054517866
 11
5.759475438
 21
1.892413101
  0
LINE
  5
26B
100
AcDbEntity
  8
RACCORDO
100
AcDbLine
 62
250
  6
CONTINUOUS
 10
5.0617303802
 20
1.898690453
 11
5.0567785344
 21
0.6761550732
  0
LINE
  5
26C
100
AcDbEntity
  8
RACCORDO
100
AcDbLine
 62
250
  6
CONTINUOUS
 10
5.759475438
 20
1.892413101
 11
5.7545142646
 21
0.668089981
  0
LINE
  5
26D
100
AcDbEntity
  8
RACCORDO
100
AcDbLine
 62
250
  6
CONTINUOUS
 10
5.0567785344
 20
0.6761550732
 11
5.0508655525
 21
-0.1081219564
  0
LINE
  5
26E
100
AcDbEntity
  8
RACCORDO
100
AcDbLine
 62
250
  6
CONTINUOUS
 10
5.7545142646
 20
0.668089981
 11
5.7485706863
 21
-0.1176153478
  0
LINE
  5
26F
100
AcDbEntity
  8
RACCORDO
100
AcDbLine
 62
250
  6
CONTINUOUS
 10
5.0508655525
 20
-0.1081219564
 11
5.0426000678
 21
-0.8730255986
  0
LINE
  5
270
100
AcDbEntity
  8
RACCORDO
100
AcDbLine
 62
250
  6
CONTINUOUS
 10
5.7485706863
 20
-0.1176153478
 11
5.7402948549
 21
-0.8841368322
  0
LINE
  5
271
100
AcDbEntity
  8
RACCORDO
100
AcDbLine
 62
250
  6
CONTINUOUS
 10
5.7402948549
 20
-0.8841368322
 11
5.7294108963
 21
-1.6371275132
  0
LINE
  5
272
100
AcDbEntity
  8
RACCORDO
100
AcDbLine
 62
250
  6
CONTINUOUS
 10
5.0426000678
 20
-0.8730255986
 11
5.0317320715
 21
-1.624207833
  0
LINE
  5
273
100
AcDbEntity
  8
RACCORDO
100
AcDbLine
 62
250
  6
CONTINUOUS
 10
5.0317320715
 20
-1.624207833
 11
5.0179801182
 21
-2.3673532855
  0
LINE
  5
274
100
AcDbEntity
  8
RACCORDO
100
AcDbLine
 62
250
  6
CONTINUOUS
 10
5.7294108963
 20
-1.6371275132
 11
5.7156111085
 21
-2.3822674474
  0
LINE
  5
275
100
AcDbEntity
  8
RACCORDO
100
AcDbLine
 62
250
  6
CONTINUOUS
 10
5.0179801182
 20
-2.3673532855
 11
5.0010783532
 21
-3.1062556295
  0
LINE
  5
276
100
AcDbEntity
  8
RACCORDO
100
AcDbLine
 62
250
  6
CONTINUOUS
 10
5.7156111085
 20
-2.3822674474
 11
5.6986633696
 21
-3.1233307365
  0
LINE
  5
277
100
AcDbEntity
  8
RACCORDO
100
AcDbLine
 62
250
  6
CONTINUOUS
 10
5.0010783532
 20
-3.1062556295
 11
4.9806310282
 21
-3.8474908701
  0
LINE
  5
278
100
AcDbEntity
  8
RACCORDO
100
AcDbLine
 62
250
  6
CONTINUOUS
 10
5.6986633696
 20
-3.1233307365
 11
5.6781671511
 21
-3.8669070922
  0
LINE
  5
279
100
AcDbEntity
  8
RACCORDO
100
AcDbLine
 62
250
  6
CONTINUOUS
 10
4.9806310282
 20
-3.8474908701
 11
4.9563110771
 21
-4.5921685805
  0
LINE
  5
27A
100
AcDbEntity
  8
RACCORDO
100
AcDbLine
 62
250
  6
CONTINUOUS
 10
5.6781671511
 20
-3.8669070922
 11
5.6537303082
 21
-4.6141492015
  0
LINE
  5
27B
100
AcDbEntity
  8
RACCORDO
100
AcDbLine
 62
250
  6
CONTINUOUS
 10
4.9563110771
 20
-4.5921685805
 11
4.9278621646
 21
-5.3392172076
  0
LINE
  5
27C
100
AcDbEntity
  8
RACCORDO
100
AcDbLine
 62
250
  6
CONTINUOUS
 10
5.6537303082
 20
-4.6141492015
 11
5.6252016367
 21
-5.3639159116
  0
LINE
  5
27D
100
AcDbEntity
  8
RACCORDO
100
AcDbLine
 62
250
  6
CONTINUOUS
 10
4.9278621646
 20
-5.3392172076
 11
4.8953512675
 21
-6.0811023777
  0
LINE
  5
27E
100
AcDbEntity
  8
RACCORDO
100
AcDbLine
 62
250
  6
CONTINUOUS
 10
5.6252016367
 20
-5.3639159116
 11
5.5925377477
 21
-6.1087033867
  0
LWPOLYLINE
  5
27F
100
AcDbEntity
  8
RACCORDO
100
AcDbPolyline
 62
250
  6
CONTINUOUS
 90
11
 70
0
 10
3.1273562339
 20
-27.6124130076
 10
3.1254280083
 20
-27.6533549827
 10
3.1268755284
 20
-27.6923749957
 10
3.1316849727
 20
-27.7291004725
 10
3.1398104193
 20
-27.7631807479
 10
3.1511742843
 20
-27.7942904138
 10
3.1656680622
 20
-27.8221324262
 10
3.1831533622
 20
-27.8464409417
 10
3.2034632299
 20
-27.8669838557
 10
3.2264037409
 20
-27.8835650189
 10
3.2289607419
 20
-27.8850719153
  0
LINE
  5
280
100
AcDbEntity
  8
RACCORDO
100
AcDbLine
 62
250
  6
CONTINUOUS
 10
4.8953512675
 20
-6.0811023777
 11
4.8585249103
 21
-6.8230779709
  0
LINE
  5
281
100
AcDbEntity
  8
RACCORDO
100
AcDbLine
 62
250
  6
CONTINUOUS
 10
5.5925377477
 20
-6.1087033867
 11
5.5556338793
 21
-6.853454809
  0
LINE
  5
282
100
AcDbEntity
  8
RACCORDO
100
AcDbLine
 62
250
  6
CONTINUOUS
 10
4.8585249103
 20
-6.8230779709
 11
4.8172843357
 21
-7.5712796561
  0
LINE
  5
283
100
AcDbEntity
  8
RACCORDO
100
AcDbLine
 62
250
  6
CONTINUOUS
 10
5.5556338793
 20
-6.853454809
 11
5.5142222121
 21
-7.6043346686
  0
LINE
  5
284
100
AcDbEntity
  8
RACCORDO
100
AcDbLine
 62
250
  6
CONTINUOUS
 10
4.8172843357
 20
-7.5712796561
 11
4.7708690679
 21
-8.3411401244
  0
LINE
  5
285
100
AcDbEntity
  8
RACCORDO
100
AcDbLine
 62
250
  6
CONTINUOUS
 10
5.5142222121
 20
-7.6043346686
 11
5.4676846993
 21
-8.3767273756
  0
LINE
  5
286
100
AcDbEntity
  8
RACCORDO
100
AcDbLine
 62
250
  6
CONTINUOUS
 10
4.7708690679
 20
-8.3411401244
 11
4.7182491036
 21
-9.1477783106
  0
LINE
  5
287
100
AcDbEntity
  8
RACCORDO
100
AcDbLine
 62
250
  6
CONTINUOUS
 10
5.4676846993
 20
-8.3767273756
 11
5.4148835003
 21
-9.1858367737
  0
LINE
  5
288
100
AcDbEntity
  8
RACCORDO
100
AcDbLine
 62
250
  6
CONTINUOUS
 10
4.7182491036
 20
-9.1477783106
 11
4.6585238636
 21
-10.0013162365
  0
LINE
  5
289
100
AcDbEntity
  8
RACCORDO
100
AcDbLine
 62
250
  6
CONTINUOUS
 10
5.4148835003
 20
-9.1858367737
 11
5.3549948327
 21
-10.0417480173
  0
LINE
  5
28A
100
AcDbEntity
  8
RACCORDO
100
AcDbLine
 62
250
  6
CONTINUOUS
 10
5.3549948327
 20
-10.0417480173
 11
5.2866162245
 21
-10.9596617375
  0
LINE
  5
28B
100
AcDbEntity
  8
RACCORDO
100
AcDbLine
 62
250
  6
CONTINUOUS
 10
4.6585238636
 20
-10.0013162365
 11
4.5902987597
 21
-10.9169562548
  0
LINE
  5
28C
100
AcDbEntity
  8
RACCORDO
100
AcDbLine
 62
250
  6
CONTINUOUS
 10
4.5902987597
 20
-10.9169562548
 11
4.5120792352
 21
-11.9099604267
  0
LINE
  5
28D
100
AcDbEntity
  8
RACCORDO
100
AcDbLine
 62
250
  6
CONTINUOUS
 10
5.2866162245
 20
-10.9596617375
 11
5.2082088401
 21
-11.9547815216
  0
LINE
  5
28E
100
AcDbEntity
  8
RACCORDO
100
AcDbLine
 62
250
  6
CONTINUOUS
 10
4.5120792352
 20
-11.9099604267
 11
4.422801346
 21
-12.9905082317
  0
LINE
  5
28F
100
AcDbEntity
  8
RACCORDO
100
AcDbLine
 62
250
  6
CONTINUOUS
 10
5.2082088401
 20
-11.9547815216
 11
5.1187943679
 21
-13.0372098566
  0
LINE
  5
290
100
AcDbEntity
  8
RACCORDO
100
AcDbLine
 62
250
  6
CONTINUOUS
 10
4.422801346
 20
-12.9905082317
 11
4.3208054633
 21
-14.1770580645
  0
LINE
  5
291
100
AcDbEntity
  8
RACCORDO
100
AcDbLine
 62
250
  6
CONTINUOUS
 10
5.1187943679
 20
-13.0372098566
 11
5.0166339775
 21
-14.225410424
  0
LINE
  5
292
100
AcDbEntity
  8
RACCORDO
100
AcDbLine
 62
250
  6
CONTINUOUS
 10
4.3208054633
 20
-14.1770580645
 11
3.1273562339
 21
-27.6124130076
  0
LINE
  5
293
100
AcDbEntity
  8
RACCORDO
100
AcDbLine
 62
250
  6
CONTINUOUS
 10
5.0166339775
 20
-14.225410424
 11
3.8231501098
 21
-27.6614772235
  0
LINE
  5
294
100
AcDbEntity
  8
RACCORDO
100
AcDbLine
 62
7
  6
CONTINUOUS
 10
6.8583122187
 20
-3.1075393569
 11
7.9732952246
 21
-2.6907707881
  0
LINE
  5
295
100
AcDbEntity
  8
RACCORDO
100
AcDbLine
 62
7
  6
CONTINUOUS
 10
6.8583122187
 20
-3.7801228048
 11
8.6804020058
 21
-3.0990453814
  0
LWPOLYLINE
  5
296
100
AcDbEntity
  8
RACCORDO
100
AcDbPolyline
 62
7
  6
CONTINUOUS
 90
8
 70
0
 10
7.9732952246
 20
-2.6907707881
 10
8.0058273384
 20
-2.6805331299
 10
8.0370252395
 20
-2.6742244586
 10
8.0668889279
 20
-2.6718447743
 10
8.0956525145
 20
-2.6734412369
 10
8.1230818883
 20
-2.6789666865
 10
8.1484747173
 20
-2.6882796432
 10
8.1620001474
 20
-2.6952963798
  0
LINE
  5
297
100
AcDbEntity
  8
RACCORDO
100
AcDbLine
 62
250
  6
CONTINUOUS
 10
-9.8055644621
 20
11.33518385
 11
5.0626497062
 21
2.7504633317
  0
LWPOLYLINE
  5
298
100
AcDbEntity
  8
RACCORDO
100
AcDbPolyline
 62
250
  6
CONTINUOUS
 90
16
 70
0
 10
5.7603803846
 20
15.054517866
 10
5.757490437
 20
15.097894788
 10
5.7508417361
 20
15.1431001836
 10
5.7405075433
 20
15.1896361692
 10
5.7265998919
 20
15.236995742
 10
5.7092730086
 20
15.2846518523
 10
5.6887254931
 20
15.3320631079
 10
5.6651923662
 20
15.378697858
 10
5.6389311864
 20
15.4240549852
 10
5.6102237139
 20
15.4676512962
 10
5.5793408074
 20
15.5090644424
 10
5.5466616758
 20
15.5477756595
 10
5.5126818592
 20
15.5832265768
 10
5.4778336783
 20
15.6150293734
 10
5.44246071
 20
15.6429315494
 10
5.4069481432
 20
15.6666804535
  0
LINE
  5
299
100
AcDbEntity
  8
RACCORDO
100
AcDbLine
 62
7
  6
CONTINUOUS
 10
6.8583122187
 20
15.6884468201
 11
6.8583122187
 21
-26.5280252059
  0
LINE
  5
29A
100
AcDbEntity
  8
DRAFT
100
AcDbLine
 62
7
  6
CONTINUOUS
 10
7.7048142539
 20
-13.8184254029
 11
7.7048142539
 21
-16.1239731473
  0
LINE
  5
29B
100
AcDbEntity
  8
DRAFT
100
AcDbLine
 62
7
  6
CONTINUOUS
 10
8.2624917898
 20
-13.9253245878
 11
8.2624917898
 21
-16.1896311094
  0
LWPOLYLINE
  5
29C
100
AcDbEntity
  8
RACCORDO
100
AcDbPolyline
 62
250
  6
CONTINUOUS
 90
9
 70
0
 10
5.9581140681
 20
-26.9947382263
 10
5.9552386453
 20
-27.0367744212
 10
5.9486271065
 20
-27.0760581085
 10
5.9383518262
 20
-27.112159263
 10
5.9245252843
 20
-27.1446826975
 10
5.9072988353
 20
-27.1732723891
 10
5.8868610513
 20
-27.197615376
 10
5.8634356577
 20
-27.2174451839
 10
5.8440734477
 20
-27.2292158191
  0
LINE
  5
29D
100
AcDbEntity
  8
0
100
AcDbLine
 62
7
  6
CONTINUOUS
 10
0.662127592
 20
-7.897717709
 11
0.6520608446
 21
-7.9039399036
  0
LWPOLYLINE
  5
29E
100
AcDbEntity
  8
0
100
AcDbPolyline
 62
7
  6
CONTINUOUS
 90
9
 70
0
 10
0.6520608446
 20
-7.9039399036
 10
0.6418096133
 20
-7.9094599168
 10
0.6202711158
 20
-7.9186746269
 10
0.5976185178
 20
-7.925313975
 10
0.5739750102
 20
-7.9293416445
 10
0.5495057812
 20
-7.930724938
 10
0.5243572645
 20
-7.929463184
 10
0.4986532879
 20
-7.9255732628
 10
0.4725329099
 20
-7.9190715805
  0
LWPOLYLINE
  5
29F
100
AcDbEntity
  8
RACCORDO
100
AcDbPolyline
 62
7
  6
CONTINUOUS
 90
10
 70
0
 10
8.9725614944
 20
-3.3323892837
 10
8.9709218074
 20
-3.2948590621
 10
8.9663564545
 20
-3.259986755
 10
8.9588654357
 20
-3.2277723623
 10
8.9483338931
 20
-3.1979843273
 10
8.9348766847
 20
-3.1708542067
 10
8.9188383836
 20
-3.1470766704
 10
8.9001523319
 20
-3.1267383006
 10
8.8788851877
 20
-3.109752515
 10
8.8691069285
 20
-3.1035709731
  0
LINE
  5
2A0
100
AcDbEntity
  8
RACCORDO
100
AcDbLine
 62
7
  6
CONTINUOUS
 10
8.4392684851
 20
-13.5906476811
 11
8.4392684851
 21
-13.8411139128
  0
LINE
  5
2A1
100
AcDbEntity
  8
DRAFT
100
AcDbLine
 62
7
  6
CONTINUOUS
 10
8.4392684851
 20
-13.8411139128
 11
8.4392684851
 21
-16.0697044877
  0
LINE
  5
2A2
100
AcDbEntity
  8
RACCORDO
100
AcDbLine
 62
7
  6
CONTINUOUS
 10
8.9725614944
 20
-5.0493760503
 11
8.9725614944
 21
-3.3323892837
  0
LWPOLYLINE
  5
2A3
100
AcDbEntity
  8
RACCORDO
100
AcDbPolyline
 62
250
  6
CONTINUOUS
 90
10
 70
0
 10
3.8231501098
 20
-27.6614772235
 10
3.8134055071
 20
-27.7063413251
 10
3.8000041271
 20
-27.7484251157
 10
3.7830925036
 20
-27.7872684395
 10
3.7628535051
 20
-27.8224496875
 10
3.7395098957
 20
-27.8535803042
 10
3.7133247118
 20
-27.8803129577
 10
3.6845920988
 20
-27.9023555652
 10
3.6536231489
 20
-27.9194769464
 10
3.6265995582
 20
-27.9297756676
  0
LWPOLYLINE
  5
2A4
100
AcDbEntity
  8
RACCORDO
100
AcDbPolyline
 62
7
  6
CONTINUOUS
 90
16
 70
0
 10
8.6804020058
 20
-5.6200984067
 10
8.7129341196
 20
-5.5927687954
 10
8.7441320207
 20
-5.5630509125
 10
8.7739957091
 20
-5.530944758
 10
8.8027592957
 20
-5.4961328266
 10
8.8301886695
 20
-5.4589326237
 10
8.8555814985
 20
-5.4202966645
 10
8.8788851877
 20
-5.38018787
 10
8.9001523319
 20
-5.3386433193
 10
8.9188383836
 20
-5.2967267653
 10
8.9348766847
 20
-5.2544286009
 10
8.9483338931
 20
-5.2117584333
 10
8.9588654357
 20
-5.169808837
 10
8.9663564545
 20
-5.1289440035
 10
8.9709218074
 20
-5.0887997412
 10
8.9725614944
 20
-5.0493760503
  0
LINE
  5
2A5
100
AcDbEntity
  8
RACCORDO
100
AcDbLine
 62
7
  6
CONTINUOUS
 10
6.8583122187
 20
-7.0431245972
 11
8.6804020058
 21
-5.6200984067
  0
LWPOLYLINE
  5
2A6
100
AcDbEntity
  8
RACCORDO
100
AcDbPolyline
 62
250
  6
CONTINUOUS
 90
4
 70
0
 10
5.8922626718
 20
-27.0220586072
 10
5.8825465928
 20
-27.0668155094
 10
5.869191387
 20
-27.1088069243
 10
5.8523423656
 20
-27.1475759612
  0
LINE
  5
2A7
100
AcDbEntity
  8
DRAFT
100
AcDbLine
 62
7
  6
CONTINUOUS
 10
7.7048142539
 20
-13.8184254029
 11
6.8583122187
 21
-14.2216714736
  0
LINE
  5
2A8
100
AcDbEntity
  8
DRAFT
100
AcDbLine
 62
7
  6
CONTINUOUS
 10
8.4392684851
 20
-13.8411139128
 11
8.2624917898
 21
-13.9253245878
  0
LWPOLYLINE
  5
2A9
100
AcDbEntity
  8
RACCORDO
100
AcDbPolyline
 62
250
  6
CONTINUOUS
 90
16
 70
0
 10
4.9608931938
 20
-14.8579158039
 10
4.9219890895
 20
-14.8727352428
 10
4.8798502091
 20
-14.8851786611
 10
4.8349230703
 20
-14.8951142043
 10
4.787683736
 20
-14.902436592
 10
4.7386327698
 20
-14.9070682339
 10
4.688289932
 20
-14.9089600514
 10
4.6371886722
 20
-14.9080919984
 10
4.585870476
 20
-14.9044732729
 10
4.5348791283
 20
-14.8981422201
 10
4.4847549503
 20
-14.8891659261
 10
4.4360290743
 20
-14.8776395065
 10
4.389217816
 20
-14.8636850992
 10
4.344817203
 20
-14.8474505697
 10
4.3032977189
 20
-14.8291079445
 10
4.2650993179
 20
-14.8088515881
  0
LINE
  5
2AA
100
AcDbEntity
  8
RACCORDO
100
AcDbLine
 62
7
  6
CONTINUOUS
 10
6.8583122187
 20
-13.6274764203
 11
7.7208226699
 21
-13.3108715954
  0
LINE
  5
2AB
100
AcDbEntity
  8
RACCORDO
100
AcDbLine
 62
250
  6
CONTINUOUS
 10
5.0626497062
 20
15.0597916047
 11
-9.8055644621
 21
23.644512123
  0
LINE
  5
2AC
100
AcDbEntity
  8
RACCORDO
100
AcDbLine
 62
250
  6
CONTINUOUS
 10
5.406948148
 20
15.6666804563
 11
-9.4612660204
 21
24.2514009746
  0
LINE
  5
2AD
100
AcDbEntity
  8
DRAFT
100
AcDbLine
 62
7
  6
CONTINUOUS
 10
7.7048142539
 20
-16.1239731473
 11
6.8583122187
 21
-16.6982464085
  0
LINE
  5
2AE
100
AcDbEntity
  8
DRAFT
100
AcDbLine
 62
7
  6
CONTINUOUS
 10
8.4392684851
 20
-16.0697044877
 11
8.2624917898
 21
-16.1896311094
  0
LINE
  5
2AF
100
AcDbEntity
  8
RACCORDO
100
AcDbLine
 62
7
  6
CONTINUOUS
 10
-8.4193676132
 20
24.9176829271
 11
6.504879982
 21
16.3006094104
  0
LWPOLYLINE
  5
2B0
100
AcDbEntity
  8
RACCORDO
100
AcDbPolyline
 62
250
  6
CONTINUOUS
 90
3
 70
0
 10
5.8523423656
 20
-27.1475759612
 10
5.832182855
 20
-27.1827007903
 10
5.8089322013
 20
-27.2137992328
  0
LWPOLYLINE
  5
2B1
100
AcDbEntity
  8
RACCORDO
100
AcDbPolyline
 62
250
  6
CONTINUOUS
 90
5
 70
0
 10
5.8089322013
 20
-27.2137992328
 10
5.7828433844
 20
-27.240532919
 10
5.7542002648
 20
-27.2626109705
 10
5.7233144957
 20
-27.2797931643
 10
5.6957137404
 20
-27.2903565506
  0
LINE
  5
2B2
100
AcDbEntity
  8
RACCORDO
100
AcDbLine
 62
250
  6
CONTINUOUS
 10
5.9581140681
 20
-26.9947382263
 11
6.8583122187
 21
-26.5280252059
  0
LINE
  5
2B3
100
AcDbEntity
  8
RACCORDO
100
AcDbLine
 62
7
  6
CONTINUOUS
 10
5.8440734477
 20
-27.2292158191
 11
6.7481963313
 21
-26.7604679979
  0
LWPOLYLINE
  5
2B4
100
AcDbEntity
  8
RACCORDO
100
AcDbPolyline
 62
250
  6
CONTINUOUS
 90
16
 70
0
 10
3.8231501098
 20
-27.6614772235
 10
3.7841461537
 20
-27.6763302419
 10
3.7418926577
 20
-27.6887951671
 10
3.6968395739
 20
-27.6987392823
 10
3.6494624777
 20
-27.7060572315
 10
3.600269739
 20
-27.7106701229
 10
3.5497984957
 20
-27.7125287229
 10
3.4985953506
 20
-27.711615794
 10
3.4471969443
 20
-27.707943752
 10
3.3961374225
 20
-27.7015519232
 10
3.345902155
 20
-27.6924964635
 10
3.2970856122
 20
-27.6808798454
 10
3.2503553349
 20
-27.6668750993
 10
3.2062310725
 20
-27.6506720905
 10
3.1650984711
 20
-27.6324482617
 10
3.1273562339
 20
-27.6124130076
  0
LWPOLYLINE
  5
2B5
100
AcDbEntity
  8
RACCORDO
100
AcDbPolyline
 62
7
  6
CONTINUOUS
 90
6
 70
0
 10
5.6989369952
 20
-27.2893534146
 10
5.7285153953
 20
-27.2794873905
 10
5.7581310609
 20
-27.2684038691
 10
5.7877451101
 20
-27.2560957291
 10
5.817332714
 20
-27.2425516982
 10
5.8440599705
 20
-27.2292228057
  0
LWPOLYLINE
  5
2B6
100
AcDbEntity
  8
RACCORDO
100
AcDbPolyline
 62
250
  6
CONTINUOUS
 90
10
 70
0
 10
5.8922626718
 20
-27.0220586072
 10
5.8994978949
 20
-27.0197361398
 10
5.9067550304
 20
-27.017234829
 10
5.9140340782
 20
-27.014554675
 10
5.9213370554
 20
-27.0116949299
 10
5.928661945
 20
-27.0086563416
 10
5.9360026961
 20
-27.0054411528
 10
5.9433572919
 20
-27.0020501111
 10
5.9507277492
 20
-26.9984824689
 10
5.9581140681
 20
-26.9947382263
  0
LINE
  5
2B7
100
AcDbEntity
  8
RACCORDO
100
AcDbLine
 62
250
  6
CONTINUOUS
 10
3.8231501098
 20
-27.6614772235
 11
5.8922626718
 21
-27.0220586072
  0
LINE
  5
2B8
100
AcDbEntity
  8
RACCORDO
100
AcDbLine
 62
7
  6
CONTINUOUS
 10
3.6265995582
 20
-27.9297756676
 11
5.6989369952
 21
-27.2893534146
  0
ARC
  5
2B9
100
AcDbEntity
  8
RACCORDO
100
AcDbCircle
 62
7
  6
CONTINUOUS
 10
-11.2903739599
 20
-18.9244304596
 40
0.5
100
AcDbArc
 50
175.1827163511
 51
239.998401565
  0
ARC
  5
2BA
100
AcDbEntity
  8
RACCORDO
100
AcDbCircle
 62
7
  6
CONTINUOUS
 10
3.478972822
 20
-27.4520661881
 40
0.5
100
AcDbArc
 50
239.9984015654
 51
287.1696386886
  0
ARC
  5
2BB
100
AcDbEntity
  8
RACCORDO
100
AcDbCircle
 62
7
  6
CONTINUOUS
 10
-9.4520110716
 20
23.8486494197
 40
0.5
100
AcDbArc
 50
122.5992954198
 51
180.0013071436
  0
ELLIPSE
  5
2BC
100
AcDbEntity
  8
RACCORDO
100
AcDbEllipse
 62
7
  6
CONTINUOUS
 10
7.686442613
 20
-13.7332861373
 30
0.0
 11
0.2984123604
 21
0.4035436801
 31
0.0
 40
0.639288975
 41
0.0724911956
 42
0.7706710139
  0
ELLIPSE
  5
2BD
100
AcDbEntity
  8
RACCORDO
100
AcDbEllipse
 62
7
  6
CONTINUOUS
 10
6.5046376327
 20
-26.3235381006
 30
0.0
 11
-0.2501834304
 21
0.4333025529
 31
0.0
 40
0.5769361983
 41
-3.1677535987
 42
-2.3565853618
  0
ELLIPSE
  5
2BE
100
AcDbEntity
  8
RACCORDO
100
AcDbEllipse
 62
7
  6
CONTINUOUS
 10
6.5046376327
 20
15.8923742616
 30
0.0
 11
-0.2500121049
 21
0.4330057129
 31
0.0
 40
0.5777274115
 41
-2.3559002616
 42
-0.7857891675
  0
ELLIPSE
  5
2BF
100
AcDbEntity
  8
RACCORDO
100
AcDbEllipse
 62
7
  6
CONTINUOUS
 10
-8.4191252638
 20
24.5091679193
 30
0.0
 11
-0.2501834304
 21
0.4333025529
 31
0.0
 40
0.5769361983
 41
-0.7851038024
 42
0.0261609458
  0
ENDSEC
  0
SECTION
  2
OBJECTS
  0
DICTIONARY
  5
C
100
AcDbDictionary
280
0
281
1
  3
ACAD_GROUP
350
D
  3
ACAD_MLINESTYLE
350
17
  3
ACAD_LAYOUT
350
1A
  3
ACAD_PLOTSETTINGS
350
19
  3
ACAD_PLOTSTYLENAME
350
E
  0
DICTIONARY
  5
D
102
{ACAD_REACTORS
330
C
102
}
100
AcDbDictionary
280
0
281
1
  0
ACDBDICTIONARYWDFLT
  5
E
102
{ACAD_REACTORS
330
C
102
}
100
AcDbDictionary
281
1
  3
Normal
350
F
100
AcDbDictionaryWithDefault
340
F
  0
DICTIONARY
  5
17
102
{ACAD_REACTORS
330
C
102
}
100
AcDbDictionary
280
0
281
1
  3
Standard
350
18
  0
DICTIONARY
  5
19
102
{ACAD_REACTORS
330
C
102
}
100
AcDbDictionary
281
1
  0
DICTIONARY
  5
1A
102
{ACAD_REACTORS
330
C
102
}
100
AcDbDictionary
281
1
  3
Model
350
2C0
  3
Layout1
350
2C1
  0
ACDBPLACEHOLDER
  5
F
102
{ACAD_REACTORS
330
E
102
}
  0
MLINESTYLE
  5
18
102
{ACAD_REACTORS
330
17
102
}
100
AcDbMlineStyle
  2
STANDARD
 70
0
  3

 62
256
 51
90.0
 52
90.0
 71
2
 49
0.5
 62
256
  6
BYLAYER
 49
-0.5
 62
256
  6
BYLAYER
  0
LAYOUT
  5
2C0
102
{ACAD_REACTORS
330
1A
102
}
100
AcDbPlotSettings
  1

  2
none_device
  4
ISO_A4_(297.00_x_210.00_MM)
  6

 40
0.0
 41
0.0
 42
0.0
 43
0.0
 44
297.0
 45
210.0
 46
0.0
 47
0.0
 48
0.0
 49
0.0
140
0.0
141
0.0
142
1.0
143
1.0
 70
1024
 72
1
 73
0
 74
0
  7

 75
0
147
1.0
148
0.0
149
0.0
100
AcDbLayout
  1
Model
 70
0
 71
0
 10
0.0
 20
0.0
 11
297.0
 21
210.0
 12
0.0
 22
0.0
 32
0.0
 14
0.0
 24
0.0
 34
0.0
 15
0.0
 25
0.0
 35
0.0
146
0.0
 13
0.0
 23
0.0
 33
0.0
 16
1.0
 26
0.0
 36
0.0
 17
0.0
 27
1.0
 37
0.0
 76
0
330
21C
345
0
346
0
  0
LAYOUT
  5
2C1
102
{ACAD_REACTORS
330
1A
102
}
100
AcDbPlotSettings
  1

  2
none_device
  4
ISO_A4_(297.00_x_210.00_MM)
  6

 40
0.0
 41
0.0
 42
0.0
 43
0.0
 44
297.0
 45
210.0
 46
0.0
 47
0.0
 48
0.0
 49
0.0
140
0.0
141
0.0
142
1.0
143
1.0
 70
0
 72
1
 73
0
 74
0
  7

 75
0
147
1.0
148
0.0
149
0.0
100
AcDbLayout
  1
Layout1
 70
0
 71
1
 10
0.0
 20
0.0
 11
297.0
 21
210.0
 12
0.0
 22
0.0
 32
0.0
 14
0.0
 24
0.0
 34
0.0
 15
0.0
 25
0.0
 35
0.0
146
0.0
 13
0.0
 23
0.0
 33
0.0
 16
1.0
 26
0.0
 36
0.0
 17
0.0
 27
1.0
 37
0.0
 76
0
330
21D
345
0
346
0
  0
ENDSEC
  0
EOF
