  0
SECTION
  2
HEADER
  9
$ACADVER
  1
AC1024
  9
$DWGCODEPAGE
  3
ANSI_1252
  9
$EXTMAX
 10
297.0
 20
210.0
 30
0.0
  9
$EXTMIN
 10
0.0
 20
0.0
 30
0.0
  9
$LIMMIN
 10
0.0
 20
0.0
  9
$LIMMAX
 10
297.0
 20
210.0
  9
$VIEWCTR
 10
148.5
 20
105.0
  9
$VIEWSIZE
 40
210.0
  9
$CLAYER
  8
0
  9
$LTSCALE
 40
16.335
  9
$CELTYPE
  6
BYLAYER
  9
$DIMSCALE
 40
1.0
  9
$DIMASZ
 40
3.0
  9
$DIMEXO
 40
0.5
  9
$DIMDLI
 40
11.286
  9
$DIMEXE
 40
1.5
  9
$DIMCEN
 40
2.673
  9
$DIMLFAC
 40
1.0
  9
$DIMBLK
  1
_FILLED
  9
$DIMALT
 70
0
  9
$DIMALTF
 40
0.0393700787
  9
$DIMTXT
 40
3.0
  9
$DIMTOL
 70
1
  9
$DIMLIM
 70
0
  9
$DIMTFAC
 40
1.0
  9
$DIMTP
 40
0.01
  9
$DIMTM
 40
0.01
  9
$DIMGAP
 40
0.625
  9
$DIMDSEP
 70
44
  9
$AUNITS
 70
0
  9
$PDMODE
 70
3
  9
$PDSIZE
 40
3.0
  9
$HANDSEED
  5
2DA
  9
$TILEMODE
 70
1
  9
$MEASUREMENT
 70
1
  9
$INSUNITS
 70
4
  0
ENDSEC
  0
SECTION
  2
CLASSES
  0
CLASS
  1
ACDBDICTIONARYWDFLT
  2
AcDbDictionaryWithDefault
  3
AutoCAD 2000
 90
0
 91
1
280
0
281
0
  0
CLASS
  1
ACDBPLACEHOLDER
  2
AcDbPlaceHolder
  3
AutoCAD 2000
 90
0
 91
1
280
0
281
0
  0
CLASS
  1
LAYOUT
  2
AcDbLayout
  3
AutoCAD 2000
 90
0
 91
0
280
0
281
0
  0
ENDSEC
  0
SECTION
  2
TABLES
  0
TABLE
  2
VPORT
  5
8
100
AcDbSymbolTable
 70
2
  0
VPORT
  5
1F4
100
AcDbSymbolTableRecord
100
AcDbViewportTableRecord
  2
*ACTIVE
 70
0
 10
0.0
 20
0.0
 11
1.0
 21
1.0
 12
148.5
 22
105.0
 13
0.0
 23
0.0
 14
1.0
 24
1.0
 15
0.0
 25
0.0
 16
0.0
 26
0.0
 36
1.0
 17
0.0
 27
0.0
 37
0.0
 40
210.0
 41
1.4142857143
 42
50.0
 43
0.0
 44
0.0
 50
0.0
 51
0.0
 71
0
 72
100
 73
1
 74
1
 75
0
 76
0
 77
0
 78
0
  0
ENDTAB
  0
TABLE
  2
LTYPE
  5
5
100
AcDbSymbolTable
 70
6
  0
LTYPE
  5
14
100
AcDbSymbolTableRecord
100
AcDbLinetypeTableRecord
  2
BYBLOCK
 70
0
  3

 72
65
 73
0
 40
0.0
  0
LTYPE
  5
15
100
AcDbSymbolTableRecord
100
AcDbLinetypeTableRecord
  2
BYLAYER
 70
0
  3

 72
65
 73
0
 40
0.0
  0
LTYPE
  5
16
100
AcDbSymbolTableRecord
100
AcDbLinetypeTableRecord
  2
CONTINUOUS
 70
64
  3
Solid line
 72
65
 73
0
 40
0.0
  0
LTYPE
  5
1F5
100
AcDbSymbolTableRecord
100
AcDbLinetypeTableRecord
  2
CENTER
 70
64
  3
____ _ ____ _ ____ _ ____ _ ____ _ ____ _ ____
 72
65
 73
4
 40
0.6
 49
0.375
 74
0
 49
-0.075
 74
0
 49
0.075
 74
0
 49
-0.075
 74
0
  0
LTYPE
  5
1F6
100
AcDbSymbolTableRecord
100
AcDbLinetypeTableRecord
  2
HIDDEN
 70
64
  3
- - - - - - - - - - - - - - - - - - - -
 72
65
 73
2
 40
0.2
 49
0.1
 74
0
 49
-0.1
 74
0
  0
LTYPE
  5
1F7
100
AcDbSymbolTableRecord
100
AcDbLinetypeTableRecord
  2
PHANTOM
 70
64
  3
_____ _ _ _____ _ _ _____ _ _ _____
 72
65
 73
6
 40
0.8
 49
0.45
 74
0
 49
-0.05
 74
0
 49
0.1
 74
0
 49
-0.05
 74
0
 49
0.1
 74
0
 49
-0.05
 74
0
  0
LTYPE
  5
1F8
100
AcDbSymbolTableRecord
100
AcDbLinetypeTableRecord
  2
DOT
 70
64
  3
. . . . . . . . . . . . . . . . . . . .
 72
65
 73
2
 40
0.2
 49
0.1
 74
0
 49
-0.1
 74
0
  0
LTYPE
  5
1F9
100
AcDbSymbolTableRecord
100
AcDbLinetypeTableRecord
  2
DASHED
 70
64
  3
- - - - - - - - - - - - - - - - - - - -
 72
65
 73
2
 40
0.2
 49
0.1
 74
0
 49
-0.1
 74
0
  0
ENDTAB
  0
TABLE
  2
LAYER
  5
2
100
AcDbSymbolTable
 70
36
  0
LAYER
  5
10
100
AcDbSymbolTableRecord
100
AcDbLayerTableRecord
  2
0
 70
0
 62
7
  6
CONTINUOUS
370
-3
390
F
  0
LAYER
  5
1FA
100
AcDbSymbolTableRecord
100
AcDbLayerTableRecord
  2
DEFAULT_1
 70
0
 62
7
  6
CENTER
370
-3
390
F
  0
LAYER
  5
1FB
100
AcDbSymbolTableRecord
100
AcDbLayerTableRecord
  2
DEFAULT_2
 70
0
 62
7
  6
HIDDEN
370
-3
390
F
  0
LAYER
  5
1FC
100
AcDbSymbolTableRecord
100
AcDbLayerTableRecord
  2
DEFAULT_3
 70
0
 62
7
  6
PHANTOM
370
-3
390
F
  0
LAYER
  5
1FD
100
AcDbSymbolTableRecord
100
AcDbLayerTableRecord
  2
ASSI
 70
0
 62
7
  6
CONTINUOUS
370
-3
390
F
  0
LAYER
  5
1FE
100
AcDbSymbolTableRecord
100
AcDbLayerTableRecord
  2
COORDINATE
 70
0
 62
7
  6
CONTINUOUS
370
-3
390
F
  0
LAYER
  5
1FF
100
AcDbSymbolTableRecord
100
AcDbLayerTableRecord
  2
COPY_PUBLISH
 70
0
 62
7
  6
CONTINUOUS
370
-3
390
F
  0
LAYER
  5
200
100
AcDbSymbolTableRecord
100
AcDbLayerTableRecord
  2
COSMETICI
 70
0
 62
7
  6
CONTINUOUS
370
-3
390
F
  0
LAYER
  5
201
100
AcDbSymbolTableRecord
100
AcDbLayerTableRecord
  2
CURVE
 70
0
 62
7
  6
CONTINUOUS
370
-3
390
F
  0
LAYER
  5
202
100
AcDbSymbolTableRecord
100
AcDbLayerTableRecord
  2
DRAFT
 70
0
 62
7
  6
CONTINUOUS
370
-3
390
F
  0
LAYER
  5
203
100
AcDbSymbolTableRecord
100
AcDbLayerTableRecord
  2
IMPORT_IGES
 70
0
 62
7
  6
CONTINUOUS
370
-3
390
F
  0
LAYER
  5
204
100
AcDbSymbolTableRecord
100
AcDbLayerTableRecord
  2
INTF_2
 70
0
 62
7
  6
CONTINUOUS
370
-3
390
F
  0
LAYER
  5
205
100
AcDbSymbolTableRecord
100
AcDbLayerTableRecord
  2
INTF_3
 70
0
 62
7
  6
CONTINUOUS
370
-3
390
F
  0
LAYER
  5
206
100
AcDbSymbolTableRecord
100
AcDbLayerTableRecord
  2
INTF_4
 70
0
 62
7
  6
CONTINUOUS
370
-3
390
F
  0
LAYER
  5
207
100
AcDbSymbolTableRecord
100
AcDbLayerTableRecord
  2
INTF_5
 70
0
 62
7
  6
CONTINUOUS
370
-3
390
F
  0
LAYER
  5
208
100
AcDbSymbolTableRecord
100
AcDbLayerTableRecord
  2
INTF_6
 70
0
 62
7
  6
CONTINUOUS
370
-3
390
F
  0
LAYER
  5
209
100
AcDbSymbolTableRecord
100
AcDbLayerTableRecord
  2
INTF_7
 70
0
 62
7
  6
CONTINUOUS
370
-3
390
F
  0
LAYER
  5
20A
100
AcDbSymbolTableRecord
100
AcDbLayerTableRecord
  2
INTF_9
 70
0
 62
7
  6
CONTINUOUS
370
-3
390
F
  0
LAYER
  5
20B
100
AcDbSymbolTableRecord
100
AcDbLayerTableRecord
  2
INTF_BLANK
 70
0
 62
7
  6
CONTINUOUS
370
-3
390
F
  0
LAYER
  5
20C
100
AcDbSymbolTableRecord
100
AcDbLayerTableRecord
  2
INTF_RED
 70
0
 62
7
  6
CONTINUOUS
370
-3
390
F
  0
LAYER
  5
20D
100
AcDbSymbolTableRecord
100
AcDbLayerTableRecord
  2
NOTE
 70
0
 62
7
  6
CONTINUOUS
370
-3
390
F
  0
LAYER
  5
20E
100
AcDbSymbolTableRecord
100
AcDbLayerTableRecord
  2
PIANI
 70
0
 62
7
  6
CONTINUOUS
370
-3
390
F
  0
LAYER
  5
20F
100
AcDbSymbolTableRecord
100
AcDbLayerTableRecord
  2
PUNTI
 70
0
 62
7
  6
CONTINUOUS
370
-3
390
F
  0
LAYER
  5
210
100
AcDbSymbolTableRecord
100
AcDbLayerTableRecord
  2
RACCORDO
 70
0
 62
7
  6
CONTINUOUS
370
-3
390
F
  0
LAYER
  5
211
100
AcDbSymbolTableRecord
100
AcDbLayerTableRecord
  2
RGB____0____0____0__
 70
0
 62
7
  6
CONTINUOUS
370
-3
390
F
  0
LAYER
  5
212
100
AcDbSymbolTableRecord
100
AcDbLayerTableRecord
  2
SIMBOLI
 70
0
 62
7
  6
CONTINUOUS
370
-3
390
F
  0
LAYER
  5
213
100
AcDbSymbolTableRecord
100
AcDbLayerTableRecord
  2
SMUSSO
 70
0
 62
7
  6
CONTINUOUS
370
-3
390
F
  0
LAYER
  5
214
100
AcDbSymbolTableRecord
100
AcDbLayerTableRecord
  2
SNAPLINE
 70
0
 62
7
  6
CONTINUOUS
370
-3
390
F
  0
LAYER
  5
215
100
AcDbSymbolTableRecord
100
AcDbLayerTableRecord
  2
SUPERFICI
 70
0
 62
7
  6
CONTINUOUS
370
-3
390
F
  0
LAYER
  5
216
100
AcDbSymbolTableRecord
100
AcDbLayerTableRecord
  2
TRASH
 70
0
 62
7
  6
CONTINUOUS
370
-3
390
F
  0
ENDTAB
  0
TABLE
  2
STYLE
  5
3
100
AcDbSymbolTable
 70
1
  0
STYLE
  5
11
100
AcDbSymbolTableRecord
100
AcDbTextStyleTableRecord
  2
STANDARD
 70
0
 40
0.0
 41
0.8
 50
0.0
 71
0
 42
0.2
  3
txt
  4

  0
STYLE
  5
217
100
AcDbSymbolTableRecord
100
AcDbTextStyleTableRecord
  2
TEXTSTYLE_1
 70
0
 40
0.0
 41
0.8
 50
0.0
 71
0
 42
0.2
  3
gdt
  4

  0
ENDTAB
  0
TABLE
  2
VIEW
  5
6
100
AcDbSymbolTable
 70
0
  0
ENDTAB
  0
TABLE
  2
UCS
  5
7
100
AcDbSymbolTable
 70
0
  0
ENDTAB
  0
TABLE
  2
APPID
  5
9
100
AcDbSymbolTable
 70
1
  0
APPID
  5
218
100
AcDbSymbolTableRecord
100
AcDbRegAppTableRecord
  2
ACAD
 70
0
  0
ENDTAB
  0
TABLE
  2
BLOCK_RECORD
  5
1
100
AcDbSymbolTable
 70
0
  0
BLOCK_RECORD
  5
219
100
AcDbSymbolTableRecord
100
AcDbBlockTableRecord
  2
*Model_Space
  0
BLOCK_RECORD
  5
21A
100
AcDbSymbolTableRecord
100
AcDbBlockTableRecord
  2
*Paper_Space
  0
BLOCK_RECORD
  5
21B
100
AcDbSymbolTableRecord
100
AcDbBlockTableRecord
  2
_FILLED
  0
ENDTAB
  0
TABLE
  2
DIMSTYLE
  5
A
100
AcDbSymbolTable
 70
1
100
AcDbDimStyleTable
 71
0
  0
DIMSTYLE
105
21C
100
AcDbSymbolTableRecord
100
AcDbDimStyleTableRecord
  2
STANDARD
 70
0
  3

  4

 40
1.0
 41
3.0
 42
0.5
 43
0.38
 44
1.5
 45
0.0
 46
0.0
 47
0.01
 48
0.01
140
3.0
141
0.09
142
0.0
143
25.4
144
1.0
145
0.0
146
1.0
147
0.625
 71
1
 72
0
 73
0
 74
0
 75
0
 76
0
 77
1
 78
8
 79
2
170
0
171
1
172
0
173
0
174
0
175
0
176
0
177
0
178
0
270
2
179
2
271
2
272
2
273
2
274
2
275
0
280
0
281
0
282
0
283
1
284
8
285
0
286
0
287
3
288
0
340
11
278
44
341
21B
342
21B
343
21B
344
21B
  0
ENDTAB
  0
ENDSEC
  0
SECTION
  2
BLOCKS
  0
BLOCK
  5
20
100
AcDbEntity
  8
0
100
AcDbBlockBegin
  2
*Model_Space
 70
0
 10
0.0
 20
0.0
 30
0.0
  3
*Model_Space
  1

  0
ENDBLK
  5
21
100
AcDbEntity
  8
0
100
AcDbBlockEnd
  0
BLOCK
  5
1C
100
AcDbEntity
  8
0
100
AcDbBlockBegin
  2
*Paper_Space
 70
0
 10
0.0
 20
0.0
 30
0.0
  3
*Paper_Space
  1

  0
ENDBLK
  5
1D
100
AcDbEntity
  8
0
100
AcDbBlockEnd
  0
BLOCK
  5
21D
100
AcDbEntity
  8
0
100
AcDbBlockBegin
  2
_FILLED
 70
64
 10
0.0
 20
0.0
  3
_FILLED
  1

  0
SOLID
  5
21E
100
AcDbEntity
  8
0
  6
BYBLOCK
 62
0
100
AcDbTrace
 10
0.0
 20
0.0
 11
-1.0
 21
0.3166666667
 12
-1.0
 22
-0.3166666667
 13
-1.0
 23
-0.3166666667
  0
ENDBLK
  5
21F
100
AcDbEntity
  8
0
  6
BYBLOCK
 62
0
100
AcDbBlockEnd
  0
ENDSEC
  0
SECTION
  2
ENTITIES
  0
LINE
  5
220
100
AcDbEntity
  8
0
100
AcDbLine
 62
7
  6
CONTINUOUS
 10
-92.3249423514
 20
22.3626039731
 11
-91.7613329207
 21
22.72302567
  0
LINE
  5
221
100
AcDbEntity
  8
0
100
AcDbLine
 62
250
  6
CONTINUOUS
 10
-92.0648233502
 20
22.344122012
 11
-91.5049383199
 21
22.702161998
  0
LWPOLYLINE
  5
222
100
AcDbEntity
  8
0
100
AcDbPolyline
 62
250
  6
CONTINUOUS
 90
11
 70
0
 10
-92.3249423514
 20
22.3626039731
 10
-92.3181741036
 20
22.366708825
 10
-92.2953429475
 20
22.3776287993
 10
-92.2706902311
 20
22.3852231591
 10
-92.2443987234
 20
22.3894368122
 10
-92.2166427701
 20
22.3902367369
 10
-92.1876573876
 20
22.387611342
 10
-92.1577399598
 20
22.3815998999
 10
-92.1271502816
 20
22.3722824972
 10
-92.0960993444
 20
22.3597505062
 10
-92.0648233502
 20
22.344122012
  0
LINE
  5
223
100
AcDbEntity
  8
RACCORDO
100
AcDbLine
 62
7
  6
CONTINUOUS
 10
-91.2191304339
 20
22.9379741718
 11
-91.640145192
 21
22.7487372609
  0
LINE
  5
224
100
AcDbEntity
  8
RACCORDO
100
AcDbLine
 62
250
  6
CONTINUOUS
 10
-91.0084334497
 20
22.9088714529
 11
-91.4889103135
 21
22.692907628
  0
LINE
  5
225
100
AcDbEntity
  8
0
100
AcDbLine
 62
7
  6
CONTINUOUS
 10
-92.3055804814
 20
-20.6434075524
 11
-61.5274637364
 21
-38.4143064206
  0
LINE
  5
226
100
AcDbEntity
  8
0
100
AcDbLine
 62
250
  6
CONTINUOUS
 10
-92.4091217919
 20
-20.4145391218
 11
-61.6310050469
 21
-38.18543799
  0
LWPOLYLINE
  5
227
100
AcDbEntity
  8
0
100
AcDbPolyline
 62
250
  6
CONTINUOUS
 90
9
 70
0
 10
-92.3055804814
 20
-20.6434075524
 10
-92.3211803828
 20
-20.6331987268
 10
-92.3437595971
 20
-20.6132827396
 10
-92.3632856085
 20
-20.5890984845
 10
-92.3795515513
 20
-20.5609021784
 10
-92.3923850981
 20
-20.5289925434
 10
-92.4016502855
 20
-20.4937076418
 10
-92.4072489549
 20
-20.4554212948
 10
-92.4091217919
 20
-20.4145391218
  0
LWPOLYLINE
  5
228
100
AcDbEntity
  8
0
100
AcDbPolyline
 62
250
  6
CONTINUOUS
 90
9
 70
0
 10
-92.5555684013
 20
-20.2104018251
 10
-92.5544537162
 20
-20.2296682563
 10
-92.5483656544
 20
-20.2592273269
 10
-92.5370187482
 20
-20.2883075577
 10
-92.5205387024
 20
-20.3165573322
 10
-92.4991925692
 20
-20.3435739603
 10
-92.4732978474
 20
-20.3690543166
 10
-92.4431536324
 20
-20.3927847064
 10
-92.4091217919
 20
-20.4145391218
  0
LINE
  5
229
100
AcDbEntity
  8
0
100
AcDbLine
 62
7
  6
CONTINUOUS
 10
-92.5555684013
 20
-20.2104018251
 11
-92.5555684013
 21
21.9413704571
  0
LINE
  5
22A
100
AcDbEntity
  8
0
100
AcDbLine
 62
250
  6
CONTINUOUS
 10
-92.4091217919
 20
-20.4145391218
 11
-92.4091217919
 21
21.7372331604
  0
LWPOLYLINE
  5
22B
100
AcDbEntity
  8
0
100
AcDbPolyline
 62
250
  6
CONTINUOUS
 90
16
 70
0
 10
-92.4091217919
 20
21.7372331604
 10
-92.4072489549
 20
21.7802780386
 10
-92.4016502855
 20
21.8250295887
 10
-92.3923850981
 20
21.8710136966
 10
-92.3795515513
 20
21.9177431897
 10
-92.3632856085
 20
21.9647229987
 10
-92.3437595971
 20
22.0114554024
 10
-92.3211803828
 20
22.0574453004
 10
-92.295787178
 20
22.102205459
 10
-92.2678490076
 20
22.1452616728
 10
-92.2376618589
 20
22.1861577886
 10
-92.2055455454
 20
22.2244605378
 10
-92.1718403192
 20
22.2597641272
 10
-92.1369032658
 20
22.2916945375
 10
-92.1011045211
 20
22.3199134864
 10
-92.0648233502
 20
22.344122012
  0
LINE
  5
22C
100
AcDbEntity
  8
DRAFT
100
AcDbLine
 62
7
  6
CONTINUOUS
 10
-58.4311629633
 20
-27.3529381726
 11
-58.9888404991
 21
-27.2790118332
  0
LWPOLYLINE
  5
22D
100
AcDbEntity
  8
0
100
AcDbPolyline
 62
250
  6
CONTINUOUS
 90
9
 70
0
 10
-92.5555684009
 20
21.9413590488
 10
-92.5544518673
 20
21.9220880725
 10
-92.5483604474
 20
21.8925274382
 10
-92.537010288
 20
21.8634472967
 10
-92.5205276669
 20
21.8351988374
 10
-92.4991804569
 20
21.8081848714
 10
-92.4732869008
 20
21.7827083573
 10
-92.4431465778
 20
21.758982578
 10
-92.4091217919
 20
21.7372331604
  0
LINE
  5
22E
100
AcDbEntity
  8
DRAFT
100
AcDbLine
 62
7
  6
CONTINUOUS
 10
-58.4311629633
 20
-24.9489321495
 11
-58.9888404991
 21
-24.8503013419
  0
LWPOLYLINE
  5
22F
100
AcDbEntity
  8
RACCORDO
100
AcDbPolyline
 62
250
  6
CONTINUOUS
 90
22
 70
0
 10
-58.6250313396
 20
-24.3461855046
 10
-58.6326107884
 20
-24.3430002924
 10
-58.6403943918
 20
-24.3401589264
 10
-58.6483734351
 20
-24.3376655026
 10
-58.6565411071
 20
-24.3355225443
 10
-58.6648900992
 20
-24.3337323394
 10
-58.6734106932
 20
-24.3322981454
 10
-58.6820959796
 20
-24.331221375
 10
-58.690937694
 20
-24.3305032983
 10
-58.6999237645
 20
-24.3301462154
 10
-58.7090461561
 20
-24.3301502911
 10
-58.7182966489
 20
-24.3305153732
 10
-58.7276625607
 20
-24.3312423397
 10
-58.7371350527
 20
-24.3323299965
 10
-58.7467058678
 20
-24.3337769051
 10
-58.7563629738
 20
-24.335582779
 10
-58.7660975903
 20
-24.3377453328
 10
-58.7759008495
 20
-24.340261927
 10
-58.7857604566
 20
-24.3431310922
 10
-58.7956662983
 20
-24.3463499163
 10
-58.8056104603
 20
-24.3499141027
 10
-58.8155838703
 20
-24.3538195201
  0
LINE
  5
230
100
AcDbEntity
  8
RACCORDO
100
AcDbLine
 62
7
  6
CONTINUOUS
 10
-59.8856853455
 20
-29.3435860566
 11
-59.9787899928
 21
-29.2898286002
  0
LINE
  5
231
100
AcDbEntity
  8
RACCORDO
100
AcDbLine
 62
250
  6
CONTINUOUS
 10
-58.6099744136
 20
-24.3538826745
 11
-58.6176626962
 21
-24.3497112889
  0
LWPOLYLINE
  5
232
100
AcDbEntity
  8
RACCORDO
100
AcDbPolyline
 62
7
  6
CONTINUOUS
 90
10
 70
0
 10
-58.6099257532
 20
-24.3539108472
 10
-58.6144208496
 20
-24.3513721254
 10
-58.6424673846
 20
-24.3379502823
 10
-58.6720464853
 20
-24.3277609962
 10
-58.7028232558
 20
-24.3208803033
 10
-58.7347306124
 20
-24.3173151629
 10
-58.7675075366
 20
-24.3171219815
 10
-58.8009039118
 20
-24.3203297639
 10
-58.8349738834
 20
-24.3270183856
 10
-58.8730778777
 20
-24.3385377059
  0
LINE
  5
233
100
AcDbEntity
  8
RACCORDO
100
AcDbLine
 62
250
  6
CONTINUOUS
 10
-58.1129649118
 20
-24.7595029008
 11
-58.8155838703
 21
-24.3538195201
  0
LINE
  5
234
100
AcDbEntity
  8
RACCORDO
100
AcDbLine
 62
7
  6
CONTINUOUS
 10
-58.1129649118
 20
-24.6408497318
 11
-58.6099745552
 21
-24.3538825926
  0
LWPOLYLINE
  5
235
100
AcDbEntity
  8
RACCORDO
100
AcDbPolyline
 62
250
  6
CONTINUOUS
 90
7
 70
0
 10
-58.8155838703
 20
-24.3538195201
 10
-58.8268776581
 20
-24.3458459361
 10
-58.8382051299
 20
-24.3401719364
 10
-58.8493747069
 20
-24.3368934838
 10
-58.8601974809
 20
-24.336066026
 10
-58.8704904092
 20
-24.3377035574
 10
-58.8730778777
 20
-24.3385377059
  0
LWPOLYLINE
  5
236
100
AcDbEntity
  8
DRAFT
100
AcDbPolyline
 62
7
  6
CONTINUOUS
 90
4
 70
0
 10
-77.6180313548
 20
-10.7569009489
 10
-77.6173337622
 20
-10.7682708807
 10
-77.6155344947
 20
-10.7797389233
 10
-77.6126400422
 20
-10.7912792019
  0
LWPOLYLINE
  5
237
100
AcDbEntity
  8
0
100
AcDbPolyline
 62
7
  6
CONTINUOUS
 90
13
 70
0
 10
-77.6180313548
 20
-10.7569009489
 10
-77.6173422469
 20
-10.7682423486
 10
-77.6155480703
 20
-10.779693272
 10
-77.6126488249
 20
-10.791253719
 10
-77.6085580823
 20
-10.8031229475
 10
-77.603362271
 20
-10.8151016997
 10
-77.5973206767
 20
-10.8265922018
 10
-77.5903903785
 20
-10.8375696766
 10
-77.5826142973
 20
-10.8480589012
 10
-77.5743804817
 20
-10.8575364337
 10
-77.5658182811
 20
-10.8658277933
 10
-77.5567983461
 20
-10.8731074607
 10
-77.5473206767
 20
-10.8793754359
  0
LINE
  5
238
100
AcDbEntity
  8
0
100
AcDbLine
 62
7
  6
CONTINUOUS
 10
-77.6180313548
 20
-10.4303128382
 11
-77.6180313548
 21
-10.7569009489
  0
LINE
  5
239
100
AcDbEntity
  8
DRAFT
100
AcDbLine
 62
7
  6
CONTINUOUS
 10
-77.6180313548
 20
-10.4303128382
 11
-77.6180313548
 21
-10.7569009489
  0
LWPOLYLINE
  5
23A
100
AcDbEntity
  8
DRAFT
100
AcDbPolyline
 62
7
  6
CONTINUOUS
 90
22
 70
0
 10
-79.2256773959
 20
-7.5176478033
 10
-79.2272168296
 20
-7.5231834483
 10
-79.2282899138
 20
-7.5290695825
 10
-79.2288975444
 20
-7.5353512773
 10
-79.2290388254
 20
-7.5419834614
 10
-79.2287110685
 20
-7.5488309208
 10
-79.2279048274
 20
-7.5558962008
 10
-79.2266295485
 20
-7.5631767562
 10
-79.2249108823
 20
-7.5705297376
 10
-79.2227399217
 20
-7.5779573663
 10
-79.220125574
 20
-7.5854574211
 10
-79.2171202111
 20
-7.5928803886
 10
-79.2137160579
 20
-7.600224454
 10
-79.2099208895
 20
-7.6074914321
 10
-79.2058104038
 20
-7.6145372543
 10
-79.2013786176
 20
-7.6213571766
 10
-79.1966315141
 20
-7.6279559431
 10
-79.1916627405
 20
-7.6342037177
 10
-79.1864679147
 20
-7.6400937243
 10
-79.1810514187
 20
-7.6456327391
 10
-79.1755200464
 20
-7.6507112543
 10
-79.1699093954
 20
-7.6552927672
  0
LWPOLYLINE
  5
23B
100
AcDbEntity
  8
0
100
AcDbPolyline
 62
7
  6
CONTINUOUS
 90
16
 70
0
 10
-79.2236716124
 20
-7.5124626475
 10
-79.2266619068
 20
-7.5211510773
 10
-79.2284560834
 20
-7.5305301306
 10
-79.2290541423
 20
-7.5405998072
 10
-79.2284257338
 20
-7.5515538071
 10
-79.2266012075
 20
-7.5631984304
 10
-79.2236716124
 20
-7.5749525773
 10
-79.2195808698
 20
-7.5868218059
 10
-79.2143850585
 20
-7.598800558
 10
-79.2083434642
 20
-7.6102910601
 10
-79.201413166
 20
-7.6212685349
 10
-79.1936370848
 20
-7.6317577596
 10
-79.1854032692
 20
-7.641235292
 10
-79.1768410686
 20
-7.6495266516
 10
-79.1678211336
 20
-7.656806319
 10
-79.1583434642
 20
-7.6630742942
  0
LWPOLYLINE
  5
23C
100
AcDbEntity
  8
0
100
AcDbPolyline
 62
7
  6
CONTINUOUS
 90
19
 70
0
 10
-79.5527263985
 20
-8.2397449405
 10
-79.5604539127
 20
-8.2609992368
 10
-79.5656850456
 20
-8.28388384
 10
-79.5684197972
 20
-8.3083987502
 10
-79.5686315381
 20
-8.3348715325
 10
-79.5663468978
 20
-8.3629746218
 10
-79.5616457644
 20
-8.3917253224
 10
-79.5544426426
 20
-8.4211465467
 10
-79.5448230279
 20
-8.4512153824
 10
-79.5331232942
 20
-8.4808803965
 10
-79.5192698472
 20
-8.5101273019
 10
-79.5033362814
 20
-8.5389703856
 10
-79.4858797542
 20
-8.5664010763
 10
-79.4668463833
 20
-8.5923694036
 10
-79.446290051
 20
-8.6169253378
 10
-79.4249295615
 20
-8.6392102187
 10
-79.4030045162
 20
-8.658937826
 10
-79.3802753136
 20
-8.6763943799
 10
-79.3567419538
 20
-8.6915798803
  0
LWPOLYLINE
  5
23D
100
AcDbEntity
  8
DRAFT
100
AcDbPolyline
 62
7
  6
CONTINUOUS
 90
19
 70
0
 10
-79.5527263986
 20
-8.2397449408
 10
-79.5604539127
 20
-8.2609992369
 10
-79.5656850456
 20
-8.2838838401
 10
-79.5684197972
 20
-8.3083987502
 10
-79.5686315381
 20
-8.3348715325
 10
-79.5663468978
 20
-8.3629746217
 10
-79.5616457644
 20
-8.3917253224
 10
-79.5544426426
 20
-8.4211465467
 10
-79.5448230279
 20
-8.4512153824
 10
-79.5331232942
 20
-8.4808803965
 10
-79.5192698472
 20
-8.5101273019
 10
-79.5033362814
 20
-8.5389703856
 10
-79.4858797542
 20
-8.5664010763
 10
-79.4668463833
 20
-8.5923694036
 10
-79.446290051
 20
-8.6169253378
 10
-79.4249295615
 20
-8.6392102187
 10
-79.4030045162
 20
-8.658937826
 10
-79.3802753136
 20
-8.6763943799
 10
-79.3567419538
 20
-8.6915798803
  0
LINE
  5
23E
100
AcDbEntity
  8
DRAFT
100
AcDbLine
 62
7
  6
CONTINUOUS
 10
-79.2236716125
 20
-7.5124626477
 11
-79.2256773959
 21
-7.5176478033
  0
LINE
  5
23F
100
AcDbEntity
  8
0
100
AcDbLine
 62
7
  6
CONTINUOUS
 10
-78.1614836094
 20
-5.1647972765
 11
-79.2236716124
 21
-7.5124626475
  0
LINE
  5
240
100
AcDbEntity
  8
DRAFT
100
AcDbLine
 62
7
  6
CONTINUOUS
 10
-78.1614836092
 20
-5.1647972762
 11
-79.2236716125
 21
-7.5124626477
  0
LINE
  5
241
100
AcDbEntity
  8
0
100
AcDbLine
 62
7
  6
CONTINUOUS
 10
-79.5165648314
 20
-8.1598200509
 11
-79.5527263985
 21
-8.2397449405
  0
LINE
  5
242
100
AcDbEntity
  8
DRAFT
100
AcDbLine
 62
7
  6
CONTINUOUS
 10
-79.5165648313
 20
-8.1598200507
 11
-79.5527263986
 21
-8.2397449408
  0
LINE
  5
243
100
AcDbEntity
  8
0
100
AcDbLine
 62
7
  6
CONTINUOUS
 10
-78.7868685702
 20
-7.8271571797
 11
-77.8237570707
 21
-5.6984723243
  0
LINE
  5
244
100
AcDbEntity
  8
DRAFT
100
AcDbLine
 62
7
  6
CONTINUOUS
 10
-78.7868685701
 20
-7.8271571795
 11
-77.8237570707
 21
-5.6984723243
  0
LINE
  5
245
100
AcDbEntity
  8
DRAFT
100
AcDbLine
 62
7
  6
CONTINUOUS
 10
-78.7911321699
 20
-7.8345014258
 11
-78.7868685701
 21
-7.8271571795
  0
LWPOLYLINE
  5
246
100
AcDbEntity
  8
DRAFT
100
AcDbPolyline
 62
7
  6
CONTINUOUS
 90
4
 70
0
 10
-78.1294614387
 20
-5.1216091745
 10
-78.1416881944
 20
-5.1335973392
 10
-78.1523669
 20
-5.1479979312
 10
-78.1614836092
 20
-5.1647972762
  0
LWPOLYLINE
  5
247
100
AcDbEntity
  8
0
100
AcDbPolyline
 62
7
  6
CONTINUOUS
 90
5
 70
0
 10
-78.117291698
 20
-5.1129433335
 10
-78.1294794445
 20
-5.1216219961
 10
-78.1417165963
 20
-5.1336208911
 10
-78.1523846512
 20
-5.1480126512
 10
-78.1614836094
 20
-5.1647972765
  0
LINE
  5
248
100
AcDbEntity
  8
DRAFT
100
AcDbLine
 62
7
  6
CONTINUOUS
 10
-78.1172913561
 20
-5.1129431265
 11
-78.1294614387
 21
-5.1216091745
  0
LWPOLYLINE
  5
249
100
AcDbEntity
  8
0
100
AcDbPolyline
 62
250
  6
CONTINUOUS
 90
16
 70
0
 10
-61.2867066051
 20
4.5732231438
 10
-61.3229877761
 20
4.5490146182
 10
-61.3587865208
 20
4.5207956693
 10
-61.3937235742
 20
4.488865259
 10
-61.4274288003
 20
4.4535616696
 10
-61.4595451138
 20
4.4152589204
 10
-61.4897322626
 20
4.3743628047
 10
-61.5176704329
 20
4.3313065908
 10
-61.5430636377
 20
4.2865464322
 10
-61.565642852
 20
4.2405565342
 10
-61.5851688635
 20
4.1938241306
 10
-61.6014348062
 20
4.1468443215
 10
-61.614268353
 20
4.1001148284
 10
-61.6235335405
 20
4.0541307205
 10
-61.6291322099
 20
4.0093791704
 10
-61.6310050469
 20
3.9663342922
  0
LINE
  5
24A
100
AcDbEntity
  8
0
100
AcDbLine
 62
250
  6
CONTINUOUS
 10
-60.6967108878
 20
4.9138775965
 11
-61.2867066051
 21
4.5732231438
  0
LINE
  5
24B
100
AcDbEntity
  8
0
100
AcDbLine
 62
250
  6
CONTINUOUS
 10
-60.3432786511
 20
4.3017150062
 11
-60.9332743684
 21
3.9610605535
  0
LINE
  5
24C
100
AcDbEntity
  8
RACCORDO
100
AcDbLine
 62
250
  6
CONTINUOUS
 10
-60.2032662644
 20
5.1223539995
 11
-60.6613296622
 21
4.8911680045
  0
LINE
  5
24D
100
AcDbEntity
  8
RACCORDO
100
AcDbLine
 62
250
  6
CONTINUOUS
 10
-59.8856853455
 20
4.5710131209
 11
-60.3447880408
 21
4.3393025894
  0
LWPOLYLINE
  5
24E
100
AcDbEntity
  8
0
100
AcDbPolyline
 62
250
  6
CONTINUOUS
 90
16
 70
0
 10
-60.9332743684
 20
3.9610605535
 10
-60.9724986148
 20
3.9416893968
 10
-61.0149725919
 20
3.9247562535
 10
-61.0602436768
 20
3.9104415718
 10
-61.1078350996
 20
3.8988967179
 10
-61.1572344636
 20
3.8902465724
 10
-61.2078973461
 20
3.8845847873
 10
-61.2592709361
 20
3.8819687673
 10
-61.310819944
 20
3.8824214606
 10
-61.3620144578
 20
3.8859366312
 10
-61.41237965
 20
3.8924881926
 10
-61.4613065424
 20
3.9020035645
 10
-61.5080977003
 20
3.9143285542
 10
-61.5522281288
 20
3.9292798421
 10
-61.5933277216
 20
3.946684734
 10
-61.6310050469
 20
3.9663342922
  0
LWPOLYLINE
  5
24F
100
AcDbEntity
  8
DRAFT
100
AcDbPolyline
 62
7
  6
CONTINUOUS
 90
4
 70
0
 10
-76.6716958927
 20
-11.3787175676
 10
-76.6634696984
 20
-11.3787461818
 10
-76.6557094256
 20
-11.3772337152
 10
-76.6494257095
 20
-11.3746168313
  0
LWPOLYLINE
  5
250
100
AcDbEntity
  8
0
100
AcDbPolyline
 62
7
  6
CONTINUOUS
 90
4
 70
0
 10
-77.5743981594
 20
-10.3800842216
 10
-77.5826142973
 20
-10.3800536161
 10
-77.5903903785
 20
-10.3815632171
 10
-77.5979508523
 20
-10.3849108311
  0
LWPOLYLINE
  5
251
100
AcDbEntity
  8
DRAFT
100
AcDbPolyline
 62
7
  6
CONTINUOUS
 90
4
 70
0
 10
-76.6987925393
 20
-11.3693049479
 10
-76.6892944023
 20
-11.3739835685
 10
-76.6802621867
 20
-11.3771211084
 10
-76.6717150565
 20
-11.3787139961
  0
LWPOLYLINE
  5
252
100
AcDbEntity
  8
DRAFT
100
AcDbPolyline
 62
7
  6
CONTINUOUS
 90
7
 70
0
 10
-77.5473206767
 20
-10.3894932698
 10
-77.5568188137
 20
-10.3848146492
 10
-77.5658510292
 20
-10.3816771093
 10
-77.5744173233
 20
-10.3800806502
 10
-77.5826435175
 20
-10.380052036
 10
-77.5904037903
 20
-10.3815645026
 10
-77.5979508004
 20
-10.3849107996
  0
LWPOLYLINE
  5
253
100
AcDbEntity
  8
0
100
AcDbPolyline
 62
7
  6
CONTINUOUS
 90
7
 70
0
 10
-76.6987925393
 20
-11.3693049479
 10
-76.6893148698
 20
-11.3739815478
 10
-76.6802949348
 20
-11.3771178753
 10
-76.6717327342
 20
-11.3787139303
 10
-76.6634989186
 20
-11.3787446017
 10
-76.6557228375
 20
-11.3772350006
 10
-76.6494257623
 20
-11.3746168603
  0
LWPOLYLINE
  5
254
100
AcDbEntity
  8
0
100
AcDbPolyline
 62
7
  6
CONTINUOUS
 90
4
 70
0
 10
-77.5473206767
 20
-10.3894932698
 10
-77.5567983461
 20
-10.3848166699
 10
-77.5658182811
 20
-10.3816803425
 10
-77.5743804817
 20
-10.3800842875
  0
LWPOLYLINE
  5
255
100
AcDbEntity
  8
0
100
AcDbPolyline
 62
7
  6
CONTINUOUS
 90
7
 70
0
 10
-79.451236683
 20
-8.1471376419
 10
-79.4607143525
 20
-8.142461042
 10
-79.4697342875
 20
-8.1393247146
 10
-79.478296488
 20
-8.1377286596
 10
-79.4865303036
 20
-8.1376979882
 10
-79.4943063848
 20
-8.1392075892
 10
-79.5018683523
 20
-8.1425561098
  0
LWPOLYLINE
  5
256
100
AcDbEntity
  8
DRAFT
100
AcDbPolyline
 62
7
  6
CONTINUOUS
 90
7
 70
0
 10
-79.451236683
 20
-8.1471376419
 10
-79.4607143525
 20
-8.142461042
 10
-79.4697342875
 20
-8.1393247146
 10
-79.478296488
 20
-8.1377286596
 10
-79.4865303037
 20
-8.1376979882
 10
-79.4943063848
 20
-8.1392075892
 10
-79.5018683523
 20
-8.1425561098
  0
LWPOLYLINE
  5
257
100
AcDbEntity
  8
0
100
AcDbPolyline
 62
7
  6
CONTINUOUS
 90
7
 70
0
 10
-78.8521967183
 20
-7.8398395884
 10
-78.8427190489
 20
-7.8445161883
 10
-78.8336991139
 20
-7.8476525157
 10
-78.8251369133
 20
-7.8492485707
 10
-78.8169030977
 20
-7.8492792421
 10
-78.8091270165
 20
-7.8477696411
 10
-78.8028299414
 20
-7.8451515007
  0
LWPOLYLINE
  5
258
100
AcDbEntity
  8
DRAFT
100
AcDbPolyline
 62
7
  6
CONTINUOUS
 90
7
 70
0
 10
-78.8521967183
 20
-7.8398395884
 10
-78.8427190489
 20
-7.8445161883
 10
-78.8336991139
 20
-7.8476525157
 10
-78.8251369133
 20
-7.8492485707
 10
-78.8169030977
 20
-7.8492792422
 10
-78.8091270165
 20
-7.8477696411
 10
-78.8028299414
 20
-7.8451515007
  0
LWPOLYLINE
  5
259
100
AcDbEntity
  8
0
100
AcDbPolyline
 62
7
  6
CONTINUOUS
 90
8
 70
0
 10
-74.683384885
 20
-11.3899176809
 10
-74.6598515252
 20
-11.4019079145
 10
-74.6371223227
 20
-11.410698474
 10
-74.6151972773
 20
-11.4162893595
 10
-74.5938367878
 20
-11.4186710365
 10
-74.5732804555
 20
-11.4178530395
 10
-74.5542470847
 20
-11.4138639718
 10
-74.5351838094
 20
-11.4057980769
  0
LWPOLYLINE
  5
25A
100
AcDbEntity
  8
DRAFT
100
AcDbPolyline
 62
7
  6
CONTINUOUS
 90
8
 70
0
 10
-74.683384885
 20
-11.3899176809
 10
-74.6598515252
 20
-11.4019079145
 10
-74.6371223227
 20
-11.410698474
 10
-74.6151972773
 20
-11.4162893595
 10
-74.5938367878
 20
-11.4186710365
 10
-74.5732804555
 20
-11.4178530395
 10
-74.5542470847
 20
-11.4138639718
 10
-74.5351838094
 20
-11.4057980769
  0
LINE
  5
25B
100
AcDbEntity
  8
0
100
AcDbLine
 62
7
  6
CONTINUOUS
 10
-77.5473206767
 20
-10.8793754359
 11
-76.6987925393
 21
-11.3693049479
  0
LINE
  5
25C
100
AcDbEntity
  8
DRAFT
100
AcDbLine
 62
7
  6
CONTINUOUS
 10
-77.5473206767
 20
-10.8793754359
 11
-76.6987925393
 21
-11.3693049479
  0
LINE
  5
25D
100
AcDbEntity
  8
0
100
AcDbLine
 62
7
  6
CONTINUOUS
 10
-76.6987925393
 20
-10.8794227818
 11
-77.5473206767
 21
-10.3894932698
  0
LINE
  5
25E
100
AcDbEntity
  8
DRAFT
100
AcDbLine
 62
7
  6
CONTINUOUS
 10
-76.6987925393
 20
-10.8794227818
 11
-77.5473206767
 21
-10.3894932698
  0
LINE
  5
25F
100
AcDbEntity
  8
0
100
AcDbLine
 62
7
  6
CONTINUOUS
 10
-79.3567419538
 20
-8.6915798803
 11
-74.683384885
 21
-11.3899176809
  0
LINE
  5
260
100
AcDbEntity
  8
DRAFT
100
AcDbLine
 62
7
  6
CONTINUOUS
 10
-79.3567419538
 20
-8.6915798803
 11
-74.683384885
 21
-11.3899176809
  0
LINE
  5
261
100
AcDbEntity
  8
0
100
AcDbLine
 62
7
  6
CONTINUOUS
 10
-75.0008629101
 20
-10.7167276821
 11
-79.451236683
 21
-8.1471376419
  0
LINE
  5
262
100
AcDbEntity
  8
DRAFT
100
AcDbLine
 62
7
  6
CONTINUOUS
 10
-75.0008629101
 20
-10.7167276821
 11
-79.451236683
 21
-8.1471376419
  0
LINE
  5
263
100
AcDbEntity
  8
0
100
AcDbLine
 62
7
  6
CONTINUOUS
 10
-79.1583434642
 20
-7.6630742942
 11
-78.8521967183
 21
-7.8398395884
  0
LINE
  5
264
100
AcDbEntity
  8
DRAFT
100
AcDbLine
 62
7
  6
CONTINUOUS
 10
-79.1583434642
 20
-7.6630742942
 11
-78.8521967183
 21
-7.8398395884
  0
LWPOLYLINE
  5
265
100
AcDbEntity
  8
DRAFT
100
AcDbPolyline
 62
7
  6
CONTINUOUS
 90
3
 70
0
 10
-79.1699093954
 20
-7.6552927672
 10
-79.164183868
 20
-7.6594137805
 10
-79.1583434642
 20
-7.6630742942
  0
LWPOLYLINE
  5
266
100
AcDbEntity
  8
DRAFT
100
AcDbPolyline
 62
7
  6
CONTINUOUS
 90
4
 70
0
 10
-77.5743981594
 20
-10.8575160857
 10
-77.5658510292
 20
-10.8657932098
 10
-77.5568188137
 20
-10.873085846
 10
-77.5473206767
 20
-10.8793754359
  0
LWPOLYLINE
  5
267
100
AcDbEntity
  8
0
100
AcDbPolyline
 62
7
  6
CONTINUOUS
 90
4
 70
0
 10
-76.6717327342
 20
-10.901261784
 10
-76.6802949348
 20
-10.8929704244
 10
-76.6893148698
 20
-10.885690757
 10
-76.6987925393
 20
-10.8794227818
  0
LWPOLYLINE
  5
268
100
AcDbEntity
  8
0
100
AcDbPolyline
 62
7
  6
CONTINUOUS
 90
4
 70
0
 10
-76.6487925393
 20
-10.9322060159
 10
-76.6557228375
 20
-10.9212285412
 10
-76.6634989186
 20
-10.9107393165
 10
-76.6717150565
 20
-10.901282132
  0
LWPOLYLINE
  5
269
100
AcDbEntity
  8
DRAFT
100
AcDbPolyline
 62
7
  6
CONTINUOUS
 90
7
 70
0
 10
-77.6126335525
 20
-10.7913050767
 10
-77.6085448392
 20
-10.8031643334
 10
-77.6033544511
 20
-10.8151217009
 10
-77.5973206767
 20
-10.8265922018
 10
-77.5904037903
 20
-10.8375529035
 10
-77.5826435175
 20
-10.8480267386
 10
-77.5744173233
 20
-10.8574975273
  0
LWPOLYLINE
  5
26A
100
AcDbEntity
  8
0
100
AcDbPolyline
 62
7
  6
CONTINUOUS
 90
4
 70
0
 10
-76.6334731737
 20
-10.9675190159
 10
-76.6375551336
 20
-10.9556752702
 10
-76.642750945
 20
-10.943696518
 10
-76.6487925393
 20
-10.9322060159
  0
LWPOLYLINE
  5
26B
100
AcDbEntity
  8
DRAFT
100
AcDbPolyline
 62
7
  6
CONTINUOUS
 90
13
 70
0
 10
-76.6280818611
 20
-11.0018972688
 10
-76.6287794538
 20
-10.990527337
 10
-76.6305787212
 20
-10.9790592944
 10
-76.6334796635
 20
-10.967493141
 10
-76.6375683767
 20
-10.9556338843
 10
-76.6427587648
 20
-10.9436765168
 10
-76.6487925393
 20
-10.9322060159
 10
-76.6557094256
 20
-10.9212453142
 10
-76.6634696984
 20
-10.9107714792
 10
-76.6716958927
 20
-10.9013006904
 10
-76.6802621867
 20
-10.8930050079
 10
-76.6892944023
 20
-10.8857123717
 10
-76.6987925393
 20
-10.8794227818
  0
LWPOLYLINE
  5
26C
100
AcDbEntity
  8
0
100
AcDbPolyline
 62
7
  6
CONTINUOUS
 90
4
 70
0
 10
-76.6280818611
 20
-11.0018972688
 10
-76.6287709691
 20
-10.9905558691
 10
-76.6305651457
 20
-10.9791049458
 10
-76.633464391
 20
-10.9675444988
  0
LINE
  5
26D
100
AcDbEntity
  8
0
100
AcDbLine
 62
7
  6
CONTINUOUS
 10
-76.6280818611
 20
-11.3284853796
 11
-76.6280818611
 21
-11.0018972688
  0
LINE
  5
26E
100
AcDbEntity
  8
DRAFT
100
AcDbLine
 62
7
  6
CONTINUOUS
 10
-76.6280818611
 20
-11.3284853796
 11
-76.6280818611
 21
-11.0018972688
  0
LINE
  5
26F
100
AcDbEntity
  8
DRAFT
100
AcDbLine
 62
7
  6
CONTINUOUS
 10
-76.6287794538
 20
-11.3390497489
 11
-76.6280818611
 21
-11.3284853796
  0
LWPOLYLINE
  5
270
100
AcDbEntity
  8
DRAFT
100
AcDbPolyline
 62
7
  6
CONTINUOUS
 90
4
 70
0
 10
-77.6126400422
 20
-10.4021603378
 10
-77.6155344947
 20
-10.4103581752
 10
-77.6173337622
 20
-10.4197484688
 10
-77.6180313548
 20
-10.4303128382
  0
LWPOLYLINE
  5
271
100
AcDbEntity
  8
0
100
AcDbPolyline
 62
7
  6
CONTINUOUS
 90
4
 70
0
 10
-76.633464391
 20
-11.3566225391
 10
-76.6305651457
 20
-11.3484100679
 10
-76.6287709691
 20
-11.3390310147
 10
-76.6280818611
 20
-11.3284853796
  0
LWPOLYLINE
  5
272
100
AcDbEntity
  8
0
100
AcDbPolyline
 62
7
  6
CONTINUOUS
 90
4
 70
0
 10
-79.5018683523
 20
-8.1425561098
 10
-79.5071918488
 20
-8.1465964974
 10
-79.5123012316
 20
-8.1524758046
 10
-79.5165648314
 20
-8.1598200509
  0
LWPOLYLINE
  5
273
100
AcDbEntity
  8
DRAFT
100
AcDbPolyline
 62
7
  6
CONTINUOUS
 90
4
 70
0
 10
-79.5018683523
 20
-8.1425561098
 10
-79.5071918488
 20
-8.1465964974
 10
-79.5123012315
 20
-8.1524758045
 10
-79.5165648313
 20
-8.1598200507
  0
LWPOLYLINE
  5
274
100
AcDbEntity
  8
0
100
AcDbPolyline
 62
7
  6
CONTINUOUS
 90
4
 70
0
 10
-78.8028299414
 20
-7.8451515007
 10
-78.7962415526
 20
-7.840380733
 10
-78.7911321699
 20
-7.8345014258
 10
-78.7868685702
 20
-7.8271571797
  0
LWPOLYLINE
  5
275
100
AcDbEntity
  8
DRAFT
100
AcDbPolyline
 62
7
  6
CONTINUOUS
 90
3
 70
0
 10
-78.8028299414
 20
-7.8451515007
 10
-78.7962415526
 20
-7.8403807329
 10
-78.7911321699
 20
-7.8345014258
  0
LINE
  5
276
100
AcDbEntity
  8
0
100
AcDbLine
 62
7
  6
CONTINUOUS
 10
-77.8237570707
 20
-5.6984723243
 11
-76.2163697681
 21
-6.6265576075
  0
LINE
  5
277
100
AcDbEntity
  8
DRAFT
100
AcDbLine
 62
7
  6
CONTINUOUS
 10
-77.8237570707
 20
-5.6984723243
 11
-76.2163697681
 21
-6.6265576075
  0
LWPOLYLINE
  5
278
100
AcDbEntity
  8
0
100
AcDbPolyline
 62
7
  6
CONTINUOUS
 90
4
 70
0
 10
-76.0130489952
 20
-6.2646173883
 10
-76.0329859867
 20
-6.247347453
 10
-76.053512213
 20
-6.2319801736
 10
-76.0746276744
 20
-6.2185155499
  0
LWPOLYLINE
  5
279
100
AcDbEntity
  8
0
100
AcDbPolyline
 62
7
  6
CONTINUOUS
 90
4
 70
0
 10
-75.9567734306
 20
-6.3278431289
 10
-75.9745837236
 20
-6.3052685565
 10
-75.9935217419
 20
-6.2839916445
 10
-76.0130254377
 20
-6.2646407612
  0
LWPOLYLINE
  5
27A
100
AcDbEntity
  8
0
100
AcDbPolyline
 62
7
  6
CONTINUOUS
 90
4
 70
0
 10
-75.9106473943
 20
-6.4027478134
 10
-75.9246007667
 20
-6.3769597575
 10
-75.940123236
 20
-6.351752613
 10
-75.9567734306
 20
-6.3278431289
  0
LWPOLYLINE
  5
27B
100
AcDbEntity
  8
DRAFT
100
AcDbPolyline
 62
7
  6
CONTINUOUS
 90
13
 70
0
 10
-75.8786432296
 20
-6.4828807007
 10
-75.8877599388
 20
-6.4555536084
 10
-75.8984386444
 20
-6.4288215148
 10
-75.9106793464
 20
-6.4026844201
 10
-75.9246274031
 20
-6.3769087957
 10
-75.9401374562
 20
-6.35172817
 10
-75.9567734306
 20
-6.3278431289
 10
-75.9745652938
 20
-6.3052881555
 10
-75.9934830782
 20
-6.2840287666
 10
-76.0130008063
 20
-6.264662098
 10
-76.032943152
 20
-6.247387195
 10
-76.0534854414
 20
-6.2320050123
 10
-76.0746276744
 20
-6.2185155499
  0
LWPOLYLINE
  5
27C
100
AcDbEntity
  8
0
100
AcDbPolyline
 62
7
  6
CONTINUOUS
 90
4
 70
0
 10
-75.8786432297
 20
-6.4828807006
 10
-75.8877421877
 20
-6.4555888268
 10
-75.8984102426
 20
-6.4288778644
 10
-75.9106473943
 20
-6.4027478134
  0
LINE
  5
27D
100
AcDbEntity
  8
0
100
AcDbLine
 62
7
  6
CONTINUOUS
 10
-76.2163697681
 20
-6.6265576075
 11
-75.0008629101
 21
-10.7167276821
  0
LINE
  5
27E
100
AcDbEntity
  8
DRAFT
100
AcDbLine
 62
7
  6
CONTINUOUS
 10
-76.2163697681
 20
-6.6265576075
 11
-75.0008629101
 21
-10.7167276821
  0
LINE
  5
27F
100
AcDbEntity
  8
0
100
AcDbLine
 62
7
  6
CONTINUOUS
 10
-74.4874004404
 20
-11.1644006652
 11
-75.8786432297
 21
-6.4828807006
  0
LINE
  5
280
100
AcDbEntity
  8
DRAFT
100
AcDbLine
 62
7
  6
CONTINUOUS
 10
-74.4874004403
 20
-11.1644006656
 11
-75.8786432296
 21
-6.4828807007
  0
LWPOLYLINE
  5
281
100
AcDbEntity
  8
0
100
AcDbPolyline
 62
7
  6
CONTINUOUS
 90
7
 70
0
 10
-77.5979508523
 20
-10.3849108311
 10
-77.603362271
 20
-10.3890515777
 10
-77.6085580823
 20
-10.3950303372
 10
-77.6126488249
 20
-10.4021756787
 10
-77.6155480703
 20
-10.4103881498
 10
-77.6173422469
 20
-10.419767203
 10
-77.6180313548
 20
-10.4303128382
  0
LWPOLYLINE
  5
282
100
AcDbEntity
  8
DRAFT
100
AcDbPolyline
 62
7
  6
CONTINUOUS
 90
4
 70
0
 10
-77.5979508004
 20
-10.3849107996
 10
-77.6033544511
 20
-10.3890406066
 10
-77.6085448392
 20
-10.395004244
 10
-77.6126335525
 20
-10.4021419572
  0
LWPOLYLINE
  5
283
100
AcDbEntity
  8
0
100
AcDbPolyline
 62
7
  6
CONTINUOUS
 90
4
 70
0
 10
-76.6494257623
 20
-11.3746168603
 10
-76.642750945
 20
-11.3697466401
 10
-76.6375551336
 20
-11.3637678806
 10
-76.6334731737
 20
-11.3566378799
  0
LWPOLYLINE
  5
284
100
AcDbEntity
  8
DRAFT
100
AcDbPolyline
 62
7
  6
CONTINUOUS
 90
6
 70
0
 10
-76.6494257095
 20
-11.3746168313
 10
-76.6427587648
 20
-11.3697576112
 10
-76.6375683767
 20
-11.3637939737
 10
-76.6334796635
 20
-11.3566562606
 10
-76.6305787212
 20
-11.3484400426
 10
-76.6287794538
 20
-11.3390497489
  0
LINE
  5
285
100
AcDbEntity
  8
RACCORDO
100
AcDbLine
 62
7
  6
CONTINUOUS
 10
-58.8730946351
 20
-2.7020813761
 11
-59.8856853455
 21
-3.0594279607
  0
LINE
  5
286
100
AcDbEntity
  8
RACCORDO
100
AcDbLine
 62
250
  6
CONTINUOUS
 10
-58.8155838703
 20
-2.7173571851
 11
-59.8856853455
 21
-3.0949426391
  0
LWPOLYLINE
  5
287
100
AcDbEntity
  8
0
100
AcDbPolyline
 62
7
  6
CONTINUOUS
 90
4
 70
0
 10
-78.0271014011
 20
-5.1017385423
 10
-78.0466050969
 20
-5.0985670465
 10
-78.0655431152
 20
-5.0979748096
 10
-78.0833534082
 20
-5.0999825021
  0
LWPOLYLINE
  5
288
100
AcDbEntity
  8
DRAFT
100
AcDbPolyline
 62
7
  6
CONTINUOUS
 90
10
 70
0
 10
-77.9654991644
 20
-5.1267500497
 10
-77.9866413974
 20
-5.1158249914
 10
-78.0071836868
 20
-5.1074854533
 10
-78.0271260325
 20
-5.1017314353
 10
-78.0466437606
 20
-5.0985595208
 10
-78.065561545
 20
-5.0979731264
 10
-78.0833534082
 20
-5.0999825021
 10
-78.0999893826
 20
-5.1046567371
 10
-78.1154994357
 20
-5.1119267422
 10
-78.1172913561
 20
-5.1129431265
  0
LWPOLYLINE
  5
289
100
AcDbEntity
  8
0
100
AcDbPolyline
 62
7
  6
CONTINUOUS
 90
4
 70
0
 10
-77.9654991644
 20
-5.1267500497
 10
-77.9866146258
 20
-5.1158310679
 10
-78.0071408521
 20
-5.1074951757
 10
-78.0270778436
 20
-5.101742373
  0
LINE
  5
28A
100
AcDbEntity
  8
0
100
AcDbLine
 62
7
  6
CONTINUOUS
 10
-76.0746276744
 20
-6.2185155499
 11
-77.9654991644
 21
-5.1267500497
  0
LINE
  5
28B
100
AcDbEntity
  8
DRAFT
100
AcDbLine
 62
7
  6
CONTINUOUS
 10
-76.0746276744
 20
-6.2185155499
 11
-77.9654991644
 21
-5.1267500497
  0
LINE
  5
28C
100
AcDbEntity
  8
0
100
AcDbLine
 62
7
  6
CONTINUOUS
 10
-59.2156110498
 20
-13.8929642481
 11
-58.5085042686
 21
-14.3012388414
  0
LWPOLYLINE
  5
28D
100
AcDbEntity
  8
0
100
AcDbPolyline
 62
7
  6
CONTINUOUS
 90
12
 70
0
 10
-74.5351838094
 20
-11.4057980769
 10
-74.5208569916
 20
-11.3961482399
 10
-74.5070035447
 20
-11.3828989478
 10
-74.495303811
 20
-11.3667444929
 10
-74.4856841962
 20
-11.3477841472
 10
-74.4784810745
 20
-11.3266809073
 10
-74.4737799411
 20
-11.3033589577
 10
-74.4714953007
 20
-11.2778941139
 10
-74.4717070417
 20
-11.2511768184
 10
-74.4744417933
 20
-11.2235038856
 10
-74.4796729262
 20
-11.1945785012
 10
-74.4874004404
 20
-11.1644006652
  0
LWPOLYLINE
  5
28E
100
AcDbEntity
  8
DRAFT
100
AcDbPolyline
 62
7
  6
CONTINUOUS
 90
12
 70
0
 10
-74.5351838094
 20
-11.4057980769
 10
-74.5208569916
 20
-11.3961482399
 10
-74.5070035447
 20
-11.3828989478
 10
-74.495303811
 20
-11.3667444929
 10
-74.4856841962
 20
-11.3477841472
 10
-74.4784810745
 20
-11.3266809073
 10
-74.4737799411
 20
-11.3033589577
 10
-74.4714953007
 20
-11.2778941138
 10
-74.4717070417
 20
-11.2511768184
 10
-74.4744417933
 20
-11.2235038857
 10
-74.4796729261
 20
-11.1945785014
 10
-74.4874004403
 20
-11.1644006656
  0
LINE
  5
28F
100
AcDbEntity
  8
DRAFT
100
AcDbLine
 62
7
  6
CONTINUOUS
 10
-60.3432786511
 20
-3.9031901511
 11
-59.8856853455
 21
-3.6247723377
  0
LINE
  5
290
100
AcDbEntity
  8
DRAFT
100
AcDbLine
 62
7
  6
CONTINUOUS
 10
-58.1129649118
 20
-3.1480014748
 11
-58.4311629633
 21
-3.3124698145
  0
LINE
  5
291
100
AcDbEntity
  8
RACCORDO
100
AcDbLine
 62
7
  6
CONTINUOUS
 10
-58.9888404991
 20
-3.2138390069
 11
-59.8856853455
 21
-3.6132550245
  0
LWPOLYLINE
  5
292
100
AcDbEntity
  8
0
100
AcDbPolyline
 62
7
  6
CONTINUOUS
 90
4
 70
0
 10
-78.0833534082
 20
-5.0999825021
 10
-78.1000036028
 20
-5.1046647588
 10
-78.1155260721
 20
-5.1119469449
 10
-78.117291698
 20
-5.1129433335
  0
LINE
  5
293
100
AcDbEntity
  8
DRAFT
100
AcDbLine
 62
7
  6
CONTINUOUS
 10
-58.4311629633
 20
-5.7164758376
 11
-58.9888404991
 21
-5.6425494982
  0
LINE
  5
294
100
AcDbEntity
  8
RACCORDO
100
AcDbLine
 62
7
  6
CONTINUOUS
 10
-58.9888404991
 20
-5.6425494982
 11
-60.120211349
 21
-6.2743903186
  0
LINE
  5
295
100
AcDbEntity
  8
DRAFT
100
AcDbLine
 62
7
  6
CONTINUOUS
 10
-58.4311629633
 20
-3.3124698145
 11
-58.9888404991
 21
-3.2138390069
  0
LINE
  5
296
100
AcDbEntity
  8
RACCORDO
100
AcDbLine
 62
7
  6
CONTINUOUS
 10
-59.8856853455
 20
-7.7071237216
 11
-59.9787899928
 21
-7.6533662652
  0
LINE
  5
297
100
AcDbEntity
  8
DRAFT
100
AcDbLine
 62
7
  6
CONTINUOUS
 10
-58.1129649118
 20
-5.5134970432
 11
-58.4311629633
 21
-5.7164758376
  0
LINE
  5
298
100
AcDbEntity
  8
DRAFT
100
AcDbLine
 62
7
  6
CONTINUOUS
 10
-60.3432786511
 20
-7.985541535
 11
-59.8856853455
 21
-7.7071237216
  0
LINE
  5
299
100
AcDbEntity
  8
RACCORDO
100
AcDbLine
 62
250
  6
CONTINUOUS
 10
-60.120211349
 20
-7.4084172911
 11
-60.3432786511
 21
-7.5372135557
  0
LINE
  5
29A
100
AcDbEntity
  8
RACCORDO
100
AcDbLine
 62
250
  6
CONTINUOUS
 10
-59.9787899928
 20
-7.6533662652
 11
-60.3432786511
 21
-7.8638174484
  0
LWPOLYLINE
  5
29B
100
AcDbEntity
  8
0
100
AcDbPolyline
 62
250
  6
CONTINUOUS
 90
9
 70
0
 10
-61.6310050469
 20
-38.18543799
 10
-61.6291322099
 20
-38.226320163
 10
-61.6235335405
 20
-38.26460651
 10
-61.614268353
 20
-38.2998914116
 10
-61.6014348062
 20
-38.3318010466
 10
-61.5851688635
 20
-38.3599973527
 10
-61.565642852
 20
-38.3841816077
 10
-61.5430636377
 20
-38.404097595
 10
-61.5274637364
 20
-38.4143064206
  0
LINE
  5
29C
100
AcDbEntity
  8
0
100
AcDbLine
 62
7
  6
CONTINUOUS
 10
-59.8856853455
 20
-14.1434307608
 11
-59.2156110498
 21
-13.8929642481
  0
LWPOLYLINE
  5
29D
100
AcDbEntity
  8
RACCORDO
100
AcDbPolyline
 62
250
  6
CONTINUOUS
 90
22
 70
0
 10
-58.6250313396
 20
-2.7097231696
 10
-58.6326107884
 20
-2.7065379574
 10
-58.6403943918
 20
-2.7036965914
 10
-58.6483734351
 20
-2.7012031676
 10
-58.6565411071
 20
-2.6990602093
 10
-58.6648900992
 20
-2.6972700044
 10
-58.6734106932
 20
-2.6958358104
 10
-58.6820959796
 20
-2.69475904
 10
-58.690937694
 20
-2.6940409633
 10
-58.6999237645
 20
-2.6936838804
 10
-58.7090461561
 20
-2.6936879561
 10
-58.7182966489
 20
-2.6940530382
 10
-58.7276625607
 20
-2.6947800047
 10
-58.7371350527
 20
-2.6958676614
 10
-58.7467058678
 20
-2.6973145701
 10
-58.7563629738
 20
-2.699120444
 10
-58.7660975903
 20
-2.7012829978
 10
-58.7759008495
 20
-2.703799592
 10
-58.7857604566
 20
-2.7066687572
 10
-58.7956662983
 20
-2.7098875813
 10
-58.8056104603
 20
-2.7134517677
 10
-58.8155838703
 20
-2.7173571851
  0
LINE
  5
29E
100
AcDbEntity
  8
RACCORDO
100
AcDbLine
 62
250
  6
CONTINUOUS
 10
-58.6099744136
 20
-2.7174203394
 11
-58.6176626962
 21
-2.7132489539
  0
LWPOLYLINE
  5
29F
100
AcDbEntity
  8
RACCORDO
100
AcDbPolyline
 62
7
  6
CONTINUOUS
 90
10
 70
0
 10
-58.6099257532
 20
-2.7174485122
 10
-58.6144208496
 20
-2.7149097904
 10
-58.6424673846
 20
-2.7014879473
 10
-58.6720464853
 20
-2.6912986612
 10
-58.7028232558
 20
-2.6844179683
 10
-58.7347306124
 20
-2.6808528279
 10
-58.7675075366
 20
-2.6806596465
 10
-58.8009039118
 20
-2.6838674288
 10
-58.8349738834
 20
-2.6905560506
 10
-58.8730778777
 20
-2.7020753709
  0
LINE
  5
2A0
100
AcDbEntity
  8
RACCORDO
100
AcDbLine
 62
250
  6
CONTINUOUS
 10
-58.1129649118
 20
-3.1230405658
 11
-58.8155838703
 21
-2.7173571851
  0
LINE
  5
2A1
100
AcDbEntity
  8
RACCORDO
100
AcDbLine
 62
7
  6
CONTINUOUS
 10
-58.1129649118
 20
-3.0043873968
 11
-58.6099745552
 21
-2.7174202576
  0
LWPOLYLINE
  5
2A2
100
AcDbEntity
  8
RACCORDO
100
AcDbPolyline
 62
7
  6
CONTINUOUS
 90
16
 70
0
 10
-60.120211349
 20
-29.0448796261
 10
-60.1193669942
 20
-29.0627361853
 10
-60.1170597763
 20
-29.0808885568
 10
-60.1132896952
 20
-29.0993367405
 10
-60.1079839252
 20
-29.1182878198
 10
-60.1012152921
 20
-29.1375347113
 10
-60.0932022734
 20
-29.1564561655
 10
-60.0839042659
 20
-29.1750415635
 10
-60.0733618727
 20
-29.1933015241
 10
-60.0619153804
 20
-29.2106466537
 10
-60.0495352891
 20
-29.2270471023
 10
-60.0362510987
 20
-29.2425327198
 10
-60.0224915952
 20
-29.2566036627
 10
-60.0083997075
 20
-29.2690933165
 10
-59.9938325067
 20
-29.2801682956
 10
-59.9787899928
 20
-29.2898286002
  0
LINE
  5
2A3
100
AcDbEntity
  8
0
100
AcDbLine
 62
250
  6
CONTINUOUS
 10
-61.6310050469
 20
3.9663342922
 11
-61.6310050469
 21
-38.18543799
  0
LINE
  5
2A4
100
AcDbEntity
  8
0
100
AcDbLine
 62
250
  6
CONTINUOUS
 10
-60.9332743684
 20
3.9610605535
 11
-60.9332743684
 21
-38.1907117287
  0
LINE
  5
2A5
100
AcDbEntity
  8
DRAFT
100
AcDbLine
 62
7
  6
CONTINUOUS
 10
-59.8856853455
 20
-14.8512386436
 11
-58.5085042686
 21
-14.3012388414
  0
LWPOLYLINE
  5
2A6
100
AcDbEntity
  8
RACCORDO
100
AcDbPolyline
 62
250
  6
CONTINUOUS
 90
7
 70
0
 10
-58.8155838703
 20
-2.7173571851
 10
-58.8268776581
 20
-2.7093836011
 10
-58.8382051299
 20
-2.7037096014
 10
-58.8493747069
 20
-2.7004311488
 10
-58.8601974809
 20
-2.6996036909
 10
-58.8704904092
 20
-2.7012412224
 10
-58.8730778777
 20
-2.7020753709
  0
LWPOLYLINE
  5
2A7
100
AcDbEntity
  8
0
100
AcDbPolyline
 62
250
  6
CONTINUOUS
 90
19
 70
0
 10
-60.9332743684
 20
3.9610605535
 10
-60.9354193443
 20
3.9970581339
 10
-60.9401805499
 20
4.0343874122
 10
-60.9475227407
 20
4.072763402
 10
-60.9573932619
 20
4.1119012948
 10
-60.9697163694
 20
4.1514936139
 10
-60.9843886474
 20
4.1912118658
 10
-61.0012849655
 20
4.230731372
 10
-61.0202802503
 20
4.2697717766
 10
-61.0412472998
 20
4.3080718943
 10
-61.0640504231
 20
4.3453719163
 10
-61.0884988776
 20
4.3813488296
 10
-61.1143589425
 20
4.4156638461
 10
-61.1414281748
 20
4.4480627046
 10
-61.1694949063
 20
4.4783057535
 10
-61.1982861353
 20
4.5061213328
 10
-61.227558548
 20
4.5313080999
 10
-61.2571062069
 20
4.5537217861
 10
-61.2867066066
 20
4.573223143
  0
LWPOLYLINE
  5
2A8
100
AcDbEntity
  8
RACCORDO
100
AcDbPolyline
 62
7
  6
CONTINUOUS
 90
16
 70
0
 10
-60.120211349
 20
-7.4084172911
 10
-60.1193669942
 20
-7.4262738503
 10
-60.1170597763
 20
-7.4444262218
 10
-60.1132896952
 20
-7.4628744055
 10
-60.1079839252
 20
-7.4818254848
 10
-60.1012152921
 20
-7.5010723763
 10
-60.0932022734
 20
-7.5199938305
 10
-60.0839042659
 20
-7.5385792285
 10
-60.0733618727
 20
-7.5568391891
 10
-60.0619153804
 20
-7.5741843187
 10
-60.0495352891
 20
-7.5905847673
 10
-60.0362510987
 20
-7.6060703848
 10
-60.0224915952
 20
-7.6201413277
 10
-60.0083997075
 20
-7.6326309815
 10
-59.9938325067
 20
-7.6437059606
 10
-59.9787899928
 20
-7.6533662652
  0
LINE
  5
2A9
100
AcDbEntity
  8
0
100
AcDbLine
 62
7
  6
CONTINUOUS
 10
-60.3432786511
 20
-37.8848249825
 11
-60.3432786511
 21
4.3017150062
  0
LINE
  5
2AA
100
AcDbEntity
  8
RACCORDO
100
AcDbLine
 62
7
  6
CONTINUOUS
 10
-60.120211349
 20
-29.0448796261
 11
-60.120211349
 21
-25.4039295423
  0
LINE
  5
2AB
100
AcDbEntity
  8
RACCORDO
100
AcDbLine
 62
7
  6
CONTINUOUS
 10
-60.120211349
 20
-7.4084172911
 11
-60.120211349
 21
-3.7674672073
  0
LINE
  5
2AC
100
AcDbEntity
  8
RACCORDO
100
AcDbLine
 62
7
  6
CONTINUOUS
 10
-59.8856853455
 20
-37.5393715152
 11
-59.8856853455
 21
-29.3435860566
  0
LINE
  5
2AD
100
AcDbEntity
  8
DRAFT
100
AcDbLine
 62
7
  6
CONTINUOUS
 10
-59.8856853455
 20
-25.2612346727
 11
-59.8856853455
 21
-18.1171197507
  0
LINE
  5
2AE
100
AcDbEntity
  8
DRAFT
100
AcDbLine
 62
7
  6
CONTINUOUS
 10
-59.8856853455
 20
-14.8512386436
 11
-59.8856853455
 21
-7.7071237216
  0
LINE
  5
2AF
100
AcDbEntity
  8
RACCORDO
100
AcDbLine
 62
7
  6
CONTINUOUS
 10
-59.8856853455
 20
-3.6247723377
 11
-59.8856853455
 21
4.5710131209
  0
LINE
  5
2B0
100
AcDbEntity
  8
DRAFT
100
AcDbLine
 62
7
  6
CONTINUOUS
 10
-58.9888404991
 20
-3.2138390069
 11
-58.9888404991
 21
-5.6425494982
  0
LINE
  5
2B1
100
AcDbEntity
  8
DRAFT
100
AcDbLine
 62
7
  6
CONTINUOUS
 10
-58.9888404991
 20
-27.2790118332
 11
-58.9888404991
 21
-24.8503013419
  0
LINE
  5
2B2
100
AcDbEntity
  8
DRAFT
100
AcDbLine
 62
7
  6
CONTINUOUS
 10
-58.5085042686
 20
-14.3012388414
 11
-58.5085042686
 21
-16.9912569936
  0
LINE
  5
2B3
100
AcDbEntity
  8
DRAFT
100
AcDbLine
 62
7
  6
CONTINUOUS
 10
-58.4311629633
 20
-3.3124698145
 11
-58.4311629633
 21
-5.7164758376
  0
LINE
  5
2B4
100
AcDbEntity
  8
DRAFT
100
AcDbLine
 62
7
  6
CONTINUOUS
 10
-58.4311629633
 20
-27.3529381726
 11
-58.4311629633
 21
-24.9489321495
  0
LINE
  5
2B5
100
AcDbEntity
  8
RACCORDO
100
AcDbLine
 62
7
  6
CONTINUOUS
 10
-58.1129649118
 20
-3.0044345575
 11
-58.1129649118
 21
-3.1480014748
  0
LINE
  5
2B6
100
AcDbEntity
  8
DRAFT
100
AcDbLine
 62
7
  6
CONTINUOUS
 10
-58.1129649118
 20
-3.1480014748
 11
-58.1129649118
 21
-5.5134970432
  0
LINE
  5
2B7
100
AcDbEntity
  8
DRAFT
100
AcDbLine
 62
7
  6
CONTINUOUS
 10
-58.1129649118
 20
-27.1499593783
 11
-58.1129649118
 21
-24.7844638098
  0
LINE
  5
2B8
100
AcDbEntity
  8
RACCORDO
100
AcDbLine
 62
7
  6
CONTINUOUS
 10
-58.1129649118
 20
-24.6408968925
 11
-58.1129649118
 21
-24.7844638098
  0
LWPOLYLINE
  5
2B9
100
AcDbEntity
  8
0
100
AcDbPolyline
 62
250
  6
CONTINUOUS
 90
11
 70
0
 10
-60.9332743684
 20
-38.1907117287
 10
-60.9354150317
 20
-38.2259736962
 10
-60.9401645804
 20
-38.2593697553
 10
-60.9474868585
 20
-38.2906451236
 10
-60.9573261205
 20
-38.3195612739
 10
-60.9696073624
 20
-38.3458974653
 10
-60.9842368141
 20
-38.3694525155
 10
-61.0011041143
 20
-38.3900480671
 10
-61.0200796501
 20
-38.4075252827
 10
-61.0410139185
 20
-38.4217481161
 10
-61.0472013292
 20
-38.4251303386
  0
LINE
  5
2BA
100
AcDbEntity
  8
0
100
AcDbLine
 62
250
  6
CONTINUOUS
 10
-61.6310050469
 20
3.9663342922
 11
-92.4091217919
 21
21.7372331604
  0
LINE
  5
2BB
100
AcDbEntity
  8
DRAFT
100
AcDbLine
 62
7
  6
CONTINUOUS
 10
-59.8856853455
 20
-18.1171197507
 11
-58.5085042686
 21
-16.9912569936
  0
LINE
  5
2BC
100
AcDbEntity
  8
0
100
AcDbLine
 62
250
  6
CONTINUOUS
 10
-61.2867066051
 20
4.5732231438
 11
-92.0648233502
 21
22.344122012
  0
LINE
  5
2BD
100
AcDbEntity
  8
0
100
AcDbLine
 62
7
  6
CONTINUOUS
 10
-60.6967108878
 20
4.9138775965
 11
-91.5049383199
 21
22.702161998
  0
LINE
  5
2BE
100
AcDbEntity
  8
RACCORDO
100
AcDbLine
 62
7
  6
CONTINUOUS
 10
-60.2032662644
 20
5.1223539995
 11
-91.0084334497
 21
22.9088714529
  0
LINE
  5
2BF
100
AcDbEntity
  8
RACCORDO
100
AcDbLine
 62
7
  6
CONTINUOUS
 10
-58.8730946351
 20
-24.3385437112
 11
-59.8856853455
 21
-24.6958902957
  0
LINE
  5
2C0
100
AcDbEntity
  8
RACCORDO
100
AcDbLine
 62
250
  6
CONTINUOUS
 10
-58.8155838703
 20
-24.3538195201
 11
-59.8856853455
 21
-24.7314049741
  0
LINE
  5
2C1
100
AcDbEntity
  8
DRAFT
100
AcDbLine
 62
7
  6
CONTINUOUS
 10
-60.3432786511
 20
-25.5396524861
 11
-59.8856853455
 21
-25.2612346727
  0
LINE
  5
2C2
100
AcDbEntity
  8
DRAFT
100
AcDbLine
 62
7
  6
CONTINUOUS
 10
-58.1129649118
 20
-24.7844638098
 11
-58.4311629633
 21
-24.9489321495
  0
LINE
  5
2C3
100
AcDbEntity
  8
RACCORDO
100
AcDbLine
 62
7
  6
CONTINUOUS
 10
-58.9888404991
 20
-24.8503013419
 11
-59.8856853455
 21
-25.2497173595
  0
LINE
  5
2C4
100
AcDbEntity
  8
DRAFT
100
AcDbLine
 62
7
  6
CONTINUOUS
 10
-58.1129649118
 20
-27.1499593783
 11
-58.4311629633
 21
-27.3529381726
  0
LINE
  5
2C5
100
AcDbEntity
  8
RACCORDO
100
AcDbLine
 62
250
  6
CONTINUOUS
 10
-60.120211349
 20
-29.0448796261
 11
-60.3432786511
 21
-29.1736758907
  0
LINE
  5
2C6
100
AcDbEntity
  8
RACCORDO
100
AcDbLine
 62
7
  6
CONTINUOUS
 10
-58.9888404991
 20
-27.2790118332
 11
-60.120211349
 21
-27.9108526536
  0
LINE
  5
2C7
100
AcDbEntity
  8
DRAFT
100
AcDbLine
 62
7
  6
CONTINUOUS
 10
-60.3432786511
 20
-29.62200387
 11
-59.8856853455
 21
-29.3435860566
  0
LINE
  5
2C8
100
AcDbEntity
  8
RACCORDO
100
AcDbLine
 62
250
  6
CONTINUOUS
 10
-59.9787899928
 20
-29.2898286002
 11
-60.3432786511
 21
-29.5002797834
  0
LINE
  5
2C9
100
AcDbEntity
  8
RACCORDO
100
AcDbLine
 62
250
  6
CONTINUOUS
 10
-59.8856853455
 20
-37.5393715152
 11
-60.3432786511
 21
-37.865258404
  0
LINE
  5
2CA
100
AcDbEntity
  8
RACCORDO
100
AcDbLine
 62
7
  6
CONTINUOUS
 10
-59.9670037989
 20
-37.7384212314
 11
-60.3709661941
 21
-38.0261134825
  0
LINE
  5
2CB
100
AcDbEntity
  8
0
100
AcDbLine
 62
250
  6
CONTINUOUS
 10
-61.0472013292
 20
-38.4251303386
 11
-61.0473149888
 21
-38.4251893216
  0
LINE
  5
2CC
100
AcDbEntity
  8
0
100
AcDbLine
 62
250
  6
CONTINUOUS
 10
-60.9332743684
 20
-38.1907117287
 11
-60.3432786511
 21
-37.8848249825
  0
LINE
  5
2CD
100
AcDbEntity
  8
0
100
AcDbLine
 62
7
  6
CONTINUOUS
 10
-61.0473149888
 20
-38.4251893216
 11
-60.4533945385
 21
-38.1172677745
  0
LWPOLYLINE
  5
2CE
100
AcDbEntity
  8
0
100
AcDbPolyline
 62
250
  6
CONTINUOUS
 90
16
 70
0
 10
-60.9332743684
 20
-38.1907117287
 10
-60.9725013374
 20
-38.2100840952
 10
-61.0149783019
 20
-38.2270180621
 10
-61.0602525212
 20
-38.2413331733
 10
-61.1078469113
 20
-38.2528780237
 10
-61.1572491504
 20
-38.2615278102
 10
-61.2079153464
 20
-38.2671889547
 10
-61.2592936197
 20
-38.2698039912
 10
-61.3108475743
 20
-38.2693497541
 10
-61.3620447963
 20
-38.2658326446
 10
-61.412409834
 20
-38.2592792048
 10
-61.4613344486
 20
-38.249762346
 10
-61.5081209958
 20
-38.2374367344
 10
-61.5522447697
 20
-38.2224861197
 10
-61.5933363775
 20
-38.205083475
 10
-61.6310050469
 20
-38.18543799
  0
ARC
  5
2CF
100
AcDbEntity
  8
0
100
AcDbCircle
 62
7
  6
CONTINUOUS
 10
-61.2774516563
 20
-37.9813006933
 40
0.5
100
AcDbArc
 50
239.9984015652
 51
297.4194204712
  0
ARC
  5
2D0
100
AcDbEntity
  8
0
100
AcDbCircle
 62
7
  6
CONTINUOUS
 10
-92.0555684013
 20
-20.2104018251
 40
0.5
100
AcDbArc
 50
179.9840060023
 51
239.9984015651
  0
ARC
  5
2D1
100
AcDbEntity
  8
0
100
AcDbCircle
 62
7
  6
CONTINUOUS
 10
-92.0555684013
 20
21.9413704571
 40
0.5
100
AcDbArc
 50
122.5992953906
 51
180.0013072924
  0
ELLIPSE
  5
2D2
100
AcDbEntity
  8
RACCORDO
100
AcDbEllipse
 62
7
  6
CONTINUOUS
 10
-91.0077072411
 20
22.5396370719
 30
0.0
 11
-0.2245667503
 21
0.3916366537
 31
0.0
 40
0.576009292
 41
-0.7808516838
 42
-0.0566951759
  0
ELLIPSE
  5
2D3
100
AcDbEntity
  8
RACCORDO
100
AcDbEllipse
 62
7
  6
CONTINUOUS
 10
-60.203992473
 20
-37.3547435281
 30
0.0
 11
-0.2245667503
 21
0.3916366537
 31
0.0
 40
0.576009292
 41
-3.0848974781
 42
-2.3539294839
  0
ELLIPSE
  5
2D4
100
AcDbEntity
  8
RACCORDO
100
AcDbEllipse
 62
7
  6
CONTINUOUS
 10
-60.203992473
 20
4.753958226
 30
0.0
 11
-0.224044438
 21
0.3907502414
 31
0.0
 40
0.5786435377
 41
-2.35161679
 42
-0.7831019366
  0
ELLIPSE
  5
2D5
100
AcDbEntity
  8
RACCORDO
100
AcDbEllipse
 62
7
  6
CONTINUOUS
 10
-60.6969532372
 20
-37.6803378772
 30
0.0
 11
-0.2501834304
 21
0.4333025529
 31
0.0
 40
0.5769361983
 41
3.1154319183
 42
3.9265999453
  0
ELLIPSE
  5
2D6
100
AcDbEntity
  8
RACCORDO
100
AcDbEllipse
 62
7
  6
CONTINUOUS
 10
-60.6969532372
 20
4.5056424477
 30
0.0
 11
-0.2500121049
 21
0.4330057129
 31
0.0
 40
0.5777274115
 41
-2.3559002616
 42
-0.7857891675
  0
ELLIPSE
  5
2D7
100
AcDbEntity
  8
RACCORDO
100
AcDbEllipse
 62
7
  6
CONTINUOUS
 10
-91.5046959706
 20
22.2936469902
 30
0.0
 11
-0.2501834304
 21
0.4333025529
 31
0.0
 40
0.5769361983
 41
5.4980815048
 42
6.3093460435
  0
ENDSEC
  0
SECTION
  2
OBJECTS
  0
DICTIONARY
  5
C
100
AcDbDictionary
280
0
281
1
  3
ACAD_GROUP
350
D
  3
ACAD_MLINESTYLE
350
17
  3
ACAD_LAYOUT
350
1A
  3
ACAD_PLOTSETTINGS
350
19
  3
ACAD_PLOTSTYLENAME
350
E
  0
DICTIONARY
  5
D
102
{ACAD_REACTORS
330
C
102
}
100
AcDbDictionary
280
0
281
1
  0
ACDBDICTIONARYWDFLT
  5
E
102
{ACAD_REACTORS
330
C
102
}
100
AcDbDictionary
281
1
  3
Normal
350
F
100
AcDbDictionaryWithDefault
340
F
  0
DICTIONARY
  5
17
102
{ACAD_REACTORS
330
C
102
}
100
AcDbDictionary
280
0
281
1
  3
Standard
350
18
  0
DICTIONARY
  5
19
102
{ACAD_REACTORS
330
C
102
}
100
AcDbDictionary
281
1
  0
DICTIONARY
  5
1A
102
{ACAD_REACTORS
330
C
102
}
100
AcDbDictionary
281
1
  3
Model
350
2D8
  3
Layout1
350
2D9
  0
ACDBPLACEHOLDER
  5
F
102
{ACAD_REACTORS
330
E
102
}
  0
MLINESTYLE
  5
18
102
{ACAD_REACTORS
330
17
102
}
100
AcDbMlineStyle
  2
STANDARD
 70
0
  3

 62
256
 51
90.0
 52
90.0
 71
2
 49
0.5
 62
256
  6
BYLAYER
 49
-0.5
 62
256
  6
BYLAYER
  0
LAYOUT
  5
2D8
102
{ACAD_REACTORS
330
1A
102
}
100
AcDbPlotSettings
  1

  2
none_device
  4
ISO_A4_(297.00_x_210.00_MM)
  6

 40
0.0
 41
0.0
 42
0.0
 43
0.0
 44
297.0
 45
210.0
 46
0.0
 47
0.0
 48
0.0
 49
0.0
140
0.0
141
0.0
142
1.0
143
1.0
 70
1024
 72
1
 73
0
 74
0
  7

 75
0
147
1.0
148
0.0
149
0.0
100
AcDbLayout
  1
Model
 70
0
 71
0
 10
0.0
 20
0.0
 11
297.0
 21
210.0
 12
0.0
 22
0.0
 32
0.0
 14
0.0
 24
0.0
 34
0.0
 15
0.0
 25
0.0
 35
0.0
146
0.0
 13
0.0
 23
0.0
 33
0.0
 16
1.0
 26
0.0
 36
0.0
 17
0.0
 27
1.0
 37
0.0
 76
0
330
219
345
0
346
0
  0
LAYOUT
  5
2D9
102
{ACAD_REACTORS
330
1A
102
}
100
AcDbPlotSettings
  1

  2
none_device
  4
ISO_A4_(297.00_x_210.00_MM)
  6

 40
0.0
 41
0.0
 42
0.0
 43
0.0
 44
297.0
 45
210.0
 46
0.0
 47
0.0
 48
0.0
 49
0.0
140
0.0
141
0.0
142
1.0
143
1.0
 70
0
 72
1
 73
0
 74
0
  7

 75
0
147
1.0
148
0.0
149
0.0
100
AcDbLayout
  1
Layout1
 70
0
 71
1
 10
0.0
 20
0.0
 11
297.0
 21
210.0
 12
0.0
 22
0.0
 32
0.0
 14
0.0
 24
0.0
 34
0.0
 15
0.0
 25
0.0
 35
0.0
146
0.0
 13
0.0
 23
0.0
 33
0.0
 16
1.0
 26
0.0
 36
0.0
 17
0.0
 27
1.0
 37
0.0
 76
0
330
21A
345
0
346
0
  0
ENDSEC
  0
EOF
