  0
SECTION
  2
HEADER
  9
$ACADVER
  1
AC1024
  9
$DWGCODEPAGE
  3
ANSI_1252
  9
$EXTMAX
 10
420.0
 20
297.0
 30
0.0
  9
$EXTMIN
 10
0.0
 20
-0.0
 30
0.0
  9
$LIMMIN
 10
0.0
 20
-0.0
  9
$LIMMAX
 10
420.0
 20
297.0
  9
$VIEWCTR
 10
210.0
 20
148.5
  9
$VIEWSIZE
 40
297.0
  9
$CLAYER
  8
0
  9
$LTSCALE
 40
23.1
  9
$CELTYPE
  6
BYLAYER
  9
$DIMSCALE
 40
1.0
  9
$DIMASZ
 40
3.0
  9
$DIMEXO
 40
0.5
  9
$DIMDLI
 40
15.96
  9
$DIMEXE
 40
1.5
  9
$DIMCEN
 40
3.78
  9
$DIMLFAC
 40
1.0
  9
$DIMBLK
  1
_FILLED
  9
$DIMALT
 70
0
  9
$DIMALTF
 40
0.0393700787
  9
$DIMTXT
 40
3.0
  9
$DIMTOL
 70
1
  9
$DIMLIM
 70
0
  9
$DIMTFAC
 40
1.0
  9
$DIMTP
 40
0.01
  9
$DIMTM
 40
0.01
  9
$DIMGAP
 40
0.625
  9
$DIMDSEP
 70
44
  9
$AUNITS
 70
0
  9
$PDMODE
 70
3
  9
$PDSIZE
 40
3.0
  9
$HANDSEED
  5
2DE
  9
$TILEMODE
 70
1
  9
$MEASUREMENT
 70
1
  9
$INSUNITS
 70
4
  0
ENDSEC
  0
SECTION
  2
CLASSES
  0
CLASS
  1
ACDBDICTIONARYWDFLT
  2
AcDbDictionaryWithDefault
  3
AutoCAD 2000
 90
0
 91
1
280
0
281
0
  0
CLASS
  1
ACDBPLACEHOLDER
  2
AcDbPlaceHolder
  3
AutoCAD 2000
 90
0
 91
1
280
0
281
0
  0
CLASS
  1
LAYOUT
  2
AcDbLayout
  3
AutoCAD 2000
 90
0
 91
0
280
0
281
0
  0
ENDSEC
  0
SECTION
  2
TABLES
  0
TABLE
  2
VPORT
  5
8
100
AcDbSymbolTable
 70
2
  0
VPORT
  5
1F4
100
AcDbSymbolTableRecord
100
AcDbViewportTableRecord
  2
*ACTIVE
 70
0
 10
0.0
 20
0.0
 11
1.0
 21
1.0
 12
210.0
 22
148.5
 13
0.0
 23
0.0
 14
1.0
 24
1.0
 15
0.0
 25
0.0
 16
0.0
 26
0.0
 36
1.0
 17
0.0
 27
0.0
 37
0.0
 40
297.0
 41
1.4141414141
 42
50.0
 43
0.0
 44
0.0
 50
0.0
 51
0.0
 71
0
 72
100
 73
1
 74
1
 75
0
 76
0
 77
0
 78
0
  0
ENDTAB
  0
TABLE
  2
LTYPE
  5
5
100
AcDbSymbolTable
 70
6
  0
LTYPE
  5
14
100
AcDbSymbolTableRecord
100
AcDbLinetypeTableRecord
  2
BYBLOCK
 70
0
  3

 72
65
 73
0
 40
0.0
  0
LTYPE
  5
15
100
AcDbSymbolTableRecord
100
AcDbLinetypeTableRecord
  2
BYLAYER
 70
0
  3

 72
65
 73
0
 40
0.0
  0
LTYPE
  5
16
100
AcDbSymbolTableRecord
100
AcDbLinetypeTableRecord
  2
CONTINUOUS
 70
64
  3
Solid line
 72
65
 73
0
 40
0.0
  0
LTYPE
  5
1F5
100
AcDbSymbolTableRecord
100
AcDbLinetypeTableRecord
  2
CENTER
 70
64
  3
____ _ ____ _ ____ _ ____ _ ____ _ ____ _ ____
 72
65
 73
4
 40
0.6
 49
0.375
 74
0
 49
-0.075
 74
0
 49
0.075
 74
0
 49
-0.075
 74
0
  0
LTYPE
  5
1F6
100
AcDbSymbolTableRecord
100
AcDbLinetypeTableRecord
  2
HIDDEN
 70
64
  3
- - - - - - - - - - - - - - - - - - - -
 72
65
 73
2
 40
0.2
 49
0.1
 74
0
 49
-0.1
 74
0
  0
LTYPE
  5
1F7
100
AcDbSymbolTableRecord
100
AcDbLinetypeTableRecord
  2
PHANTOM
 70
64
  3
_____ _ _ _____ _ _ _____ _ _ _____
 72
65
 73
6
 40
0.8
 49
0.45
 74
0
 49
-0.05
 74
0
 49
0.1
 74
0
 49
-0.05
 74
0
 49
0.1
 74
0
 49
-0.05
 74
0
  0
LTYPE
  5
1F8
100
AcDbSymbolTableRecord
100
AcDbLinetypeTableRecord
  2
DOT
 70
64
  3
. . . . . . . . . . . . . . . . . . . .
 72
65
 73
2
 40
0.2
 49
0.1
 74
0
 49
-0.1
 74
0
  0
LTYPE
  5
1F9
100
AcDbSymbolTableRecord
100
AcDbLinetypeTableRecord
  2
DASHED
 70
64
  3
- - - - - - - - - - - - - - - - - - - -
 72
65
 73
2
 40
0.2
 49
0.1
 74
0
 49
-0.1
 74
0
  0
ENDTAB
  0
TABLE
  2
LAYER
  5
2
100
AcDbSymbolTable
 70
36
  0
LAYER
  5
10
100
AcDbSymbolTableRecord
100
AcDbLayerTableRecord
  2
0
 70
0
 62
7
  6
CONTINUOUS
370
-3
390
F
  0
LAYER
  5
1FA
100
AcDbSymbolTableRecord
100
AcDbLayerTableRecord
  2
DEFAULT_1
 70
0
 62
7
  6
CENTER
370
-3
390
F
  0
LAYER
  5
1FB
100
AcDbSymbolTableRecord
100
AcDbLayerTableRecord
  2
DEFAULT_2
 70
0
 62
7
  6
HIDDEN
370
-3
390
F
  0
LAYER
  5
1FC
100
AcDbSymbolTableRecord
100
AcDbLayerTableRecord
  2
DEFAULT_3
 70
0
 62
7
  6
PHANTOM
370
-3
390
F
  0
LAYER
  5
1FD
100
AcDbSymbolTableRecord
100
AcDbLayerTableRecord
  2
ASSI
 70
0
 62
7
  6
CONTINUOUS
370
-3
390
F
  0
LAYER
  5
1FE
100
AcDbSymbolTableRecord
100
AcDbLayerTableRecord
  2
COORDINATE
 70
0
 62
7
  6
CONTINUOUS
370
-3
390
F
  0
LAYER
  5
1FF
100
AcDbSymbolTableRecord
100
AcDbLayerTableRecord
  2
COPY_PUBLISH
 70
0
 62
7
  6
CONTINUOUS
370
-3
390
F
  0
LAYER
  5
200
100
AcDbSymbolTableRecord
100
AcDbLayerTableRecord
  2
COSMETICI
 70
0
 62
7
  6
CONTINUOUS
370
-3
390
F
  0
LAYER
  5
201
100
AcDbSymbolTableRecord
100
AcDbLayerTableRecord
  2
CURVE
 70
0
 62
7
  6
CONTINUOUS
370
-3
390
F
  0
LAYER
  5
202
100
AcDbSymbolTableRecord
100
AcDbLayerTableRecord
  2
DRAFT
 70
0
 62
7
  6
CONTINUOUS
370
-3
390
F
  0
LAYER
  5
203
100
AcDbSymbolTableRecord
100
AcDbLayerTableRecord
  2
IMPORT_IGES
 70
0
 62
7
  6
CONTINUOUS
370
-3
390
F
  0
LAYER
  5
204
100
AcDbSymbolTableRecord
100
AcDbLayerTableRecord
  2
INTF_2
 70
0
 62
7
  6
CONTINUOUS
370
-3
390
F
  0
LAYER
  5
205
100
AcDbSymbolTableRecord
100
AcDbLayerTableRecord
  2
INTF_3
 70
0
 62
7
  6
CONTINUOUS
370
-3
390
F
  0
LAYER
  5
206
100
AcDbSymbolTableRecord
100
AcDbLayerTableRecord
  2
INTF_4
 70
0
 62
7
  6
CONTINUOUS
370
-3
390
F
  0
LAYER
  5
207
100
AcDbSymbolTableRecord
100
AcDbLayerTableRecord
  2
INTF_5
 70
0
 62
7
  6
CONTINUOUS
370
-3
390
F
  0
LAYER
  5
208
100
AcDbSymbolTableRecord
100
AcDbLayerTableRecord
  2
INTF_6
 70
0
 62
7
  6
CONTINUOUS
370
-3
390
F
  0
LAYER
  5
209
100
AcDbSymbolTableRecord
100
AcDbLayerTableRecord
  2
INTF_7
 70
0
 62
7
  6
CONTINUOUS
370
-3
390
F
  0
LAYER
  5
20A
100
AcDbSymbolTableRecord
100
AcDbLayerTableRecord
  2
INTF_9
 70
0
 62
7
  6
CONTINUOUS
370
-3
390
F
  0
LAYER
  5
20B
100
AcDbSymbolTableRecord
100
AcDbLayerTableRecord
  2
INTF_BLANK
 70
0
 62
7
  6
CONTINUOUS
370
-3
390
F
  0
LAYER
  5
20C
100
AcDbSymbolTableRecord
100
AcDbLayerTableRecord
  2
INTF_RED
 70
0
 62
7
  6
CONTINUOUS
370
-3
390
F
  0
LAYER
  5
20D
100
AcDbSymbolTableRecord
100
AcDbLayerTableRecord
  2
NOTE
 70
0
 62
7
  6
CONTINUOUS
370
-3
390
F
  0
LAYER
  5
20E
100
AcDbSymbolTableRecord
100
AcDbLayerTableRecord
  2
PIANI
 70
0
 62
7
  6
CONTINUOUS
370
-3
390
F
  0
LAYER
  5
20F
100
AcDbSymbolTableRecord
100
AcDbLayerTableRecord
  2
PUNTI
 70
0
 62
7
  6
CONTINUOUS
370
-3
390
F
  0
LAYER
  5
210
100
AcDbSymbolTableRecord
100
AcDbLayerTableRecord
  2
RACCORDO
 70
0
 62
7
  6
CONTINUOUS
370
-3
390
F
  0
LAYER
  5
211
100
AcDbSymbolTableRecord
100
AcDbLayerTableRecord
  2
RGB____0____0____0__
 70
0
 62
7
  6
CONTINUOUS
370
-3
390
F
  0
LAYER
  5
212
100
AcDbSymbolTableRecord
100
AcDbLayerTableRecord
  2
SIMBOLI
 70
0
 62
7
  6
CONTINUOUS
370
-3
390
F
  0
LAYER
  5
213
100
AcDbSymbolTableRecord
100
AcDbLayerTableRecord
  2
SMUSSO
 70
0
 62
7
  6
CONTINUOUS
370
-3
390
F
  0
LAYER
  5
214
100
AcDbSymbolTableRecord
100
AcDbLayerTableRecord
  2
SUPERFICI
 70
0
 62
7
  6
CONTINUOUS
370
-3
390
F
  0
LAYER
  5
215
100
AcDbSymbolTableRecord
100
AcDbLayerTableRecord
  2
TRASH
 70
0
 62
7
  6
CONTINUOUS
370
-3
390
F
  0
ENDTAB
  0
TABLE
  2
STYLE
  5
3
100
AcDbSymbolTable
 70
1
  0
STYLE
  5
11
100
AcDbSymbolTableRecord
100
AcDbTextStyleTableRecord
  2
STANDARD
 70
0
 40
0.0
 41
0.8
 50
0.0
 71
0
 42
0.2
  3
txt
  4

  0
STYLE
  5
216
100
AcDbSymbolTableRecord
100
AcDbTextStyleTableRecord
  2
TEXTSTYLE_1
 70
0
 40
0.0
 41
0.8
 50
0.0
 71
0
 42
0.2
  3
gdt
  4

  0
ENDTAB
  0
TABLE
  2
VIEW
  5
6
100
AcDbSymbolTable
 70
0
  0
ENDTAB
  0
TABLE
  2
UCS
  5
7
100
AcDbSymbolTable
 70
0
  0
ENDTAB
  0
TABLE
  2
APPID
  5
9
100
AcDbSymbolTable
 70
1
  0
APPID
  5
217
100
AcDbSymbolTableRecord
100
AcDbRegAppTableRecord
  2
ACAD
 70
0
  0
ENDTAB
  0
TABLE
  2
BLOCK_RECORD
  5
1
100
AcDbSymbolTable
 70
0
  0
BLOCK_RECORD
  5
218
100
AcDbSymbolTableRecord
100
AcDbBlockTableRecord
  2
*Model_Space
  0
BLOCK_RECORD
  5
219
100
AcDbSymbolTableRecord
100
AcDbBlockTableRecord
  2
*Paper_Space
  0
BLOCK_RECORD
  5
21A
100
AcDbSymbolTableRecord
100
AcDbBlockTableRecord
  2
_FILLED
  0
ENDTAB
  0
TABLE
  2
DIMSTYLE
  5
A
100
AcDbSymbolTable
 70
1
100
AcDbDimStyleTable
 71
0
  0
DIMSTYLE
105
21B
100
AcDbSymbolTableRecord
100
AcDbDimStyleTableRecord
  2
STANDARD
 70
0
  3

  4

 40
1.0
 41
3.0
 42
0.5
 43
0.38
 44
1.5
 45
0.0
 46
0.0
 47
0.01
 48
0.01
140
3.0
141
0.09
142
0.0
143
25.4
144
1.0
145
0.0
146
1.0
147
0.625
 71
1
 72
0
 73
0
 74
0
 75
0
 76
0
 77
1
 78
8
 79
2
170
0
171
1
172
0
173
0
174
0
175
0
176
0
177
0
178
0
270
2
179
2
271
2
272
2
273
2
274
2
275
0
280
0
281
0
282
0
283
1
284
8
285
0
286
0
287
3
288
0
340
11
278
44
341
21A
342
21A
343
21A
344
21A
  0
ENDTAB
  0
ENDSEC
  0
SECTION
  2
BLOCKS
  0
BLOCK
  5
20
100
AcDbEntity
  8
0
100
AcDbBlockBegin
  2
*Model_Space
 70
0
 10
0.0
 20
0.0
 30
0.0
  3
*Model_Space
  1

  0
ENDBLK
  5
21
100
AcDbEntity
  8
0
100
AcDbBlockEnd
  0
BLOCK
  5
1C
100
AcDbEntity
  8
0
100
AcDbBlockBegin
  2
*Paper_Space
 70
0
 10
0.0
 20
0.0
 30
0.0
  3
*Paper_Space
  1

  0
ENDBLK
  5
1D
100
AcDbEntity
  8
0
100
AcDbBlockEnd
  0
BLOCK
  5
21C
100
AcDbEntity
  8
0
100
AcDbBlockBegin
  2
_FILLED
 70
64
 10
0.0
 20
0.0
  3
_FILLED
  1

  0
SOLID
  5
21D
100
AcDbEntity
  8
0
  6
BYBLOCK
 62
0
100
AcDbTrace
 10
0.0
 20
0.0
 11
-1.0
 21
0.3166666667
 12
-1.0
 22
-0.3166666667
 13
-1.0
 23
-0.3166666667
  0
ENDBLK
  5
21E
100
AcDbEntity
  8
0
  6
BYBLOCK
 62
0
100
AcDbBlockEnd
  0
ENDSEC
  0
SECTION
  2
ENTITIES
  0
LINE
  5
21F
100
AcDbEntity
  8
0
100
AcDbLine
 62
7
  6
CONTINUOUS
 10
-8.8257129336
 20
26.3816707432
 11
-8.2621035029
 21
26.7420924401
  0
LINE
  5
220
100
AcDbEntity
  8
0
100
AcDbLine
 62
250
  6
CONTINUOUS
 10
-8.5655939323
 20
26.3631887821
 11
-8.0057089021
 21
26.7212287682
  0
LWPOLYLINE
  5
221
100
AcDbEntity
  8
0
100
AcDbPolyline
 62
250
  6
CONTINUOUS
 90
11
 70
0
 10
-8.8257129336
 20
26.3816707432
 10
-8.8189446858
 20
26.3857755951
 10
-8.7961135297
 20
26.3966955694
 10
-8.7714608133
 20
26.4042899292
 10
-8.7451693056
 20
26.4085035823
 10
-8.7174133523
 20
26.409303507
 10
-8.6884279698
 20
26.4066781122
 10
-8.658510542
 20
26.40066667
 10
-8.6279208638
 20
26.3913492673
 10
-8.5968699266
 20
26.3788172763
 10
-8.5655939323
 20
26.3631887821
  0
LINE
  5
222
100
AcDbEntity
  8
RACCORDO
100
AcDbLine
 62
7
  6
CONTINUOUS
 10
-7.719901016
 20
26.9570409419
 11
-8.1409157742
 21
26.767804031
  0
LINE
  5
223
100
AcDbEntity
  8
RACCORDO
100
AcDbLine
 62
250
  6
CONTINUOUS
 10
-7.5092040319
 20
26.927938223
 11
-7.9896808957
 21
26.7119743982
  0
LINE
  5
224
100
AcDbEntity
  8
0
100
AcDbLine
 62
7
  6
CONTINUOUS
 10
-8.8063510636
 20
-16.6243407823
 11
21.9717656815
 21
-34.3952396505
  0
LINE
  5
225
100
AcDbEntity
  8
0
100
AcDbLine
 62
250
  6
CONTINUOUS
 10
-8.9098923741
 20
-16.3954723517
 11
21.868224371
 21
-34.1663712199
  0
LWPOLYLINE
  5
226
100
AcDbEntity
  8
0
100
AcDbPolyline
 62
250
  6
CONTINUOUS
 90
9
 70
0
 10
-8.8063510636
 20
-16.6243407823
 10
-8.8219509649
 20
-16.6141319567
 10
-8.8445301793
 20
-16.5942159694
 10
-8.8640561907
 20
-16.5700317144
 10
-8.8803221335
 20
-16.5418354083
 10
-8.8931556802
 20
-16.5099257733
 10
-8.9024208677
 20
-16.4746408717
 10
-8.9080195371
 20
-16.4363545247
 10
-8.9098923741
 20
-16.3954723517
  0
LWPOLYLINE
  5
227
100
AcDbEntity
  8
0
100
AcDbPolyline
 62
250
  6
CONTINUOUS
 90
9
 70
0
 10
-9.0563389835
 20
-16.191335055
 10
-9.0552242984
 20
-16.2106014862
 10
-9.0491362365
 20
-16.2401605568
 10
-9.0377893304
 20
-16.2692407876
 10
-9.0213092845
 20
-16.297490562
 10
-8.9999631514
 20
-16.3245071902
 10
-8.9740684296
 20
-16.3499875465
 10
-8.9439242146
 20
-16.3737179363
 10
-8.9098923741
 20
-16.3954723517
  0
LINE
  5
228
100
AcDbEntity
  8
0
100
AcDbLine
 62
7
  6
CONTINUOUS
 10
-9.0563389835
 20
-16.191335055
 11
-9.0563389835
 21
25.9604372272
  0
LINE
  5
229
100
AcDbEntity
  8
0
100
AcDbLine
 62
250
  6
CONTINUOUS
 10
-8.9098923741
 20
-16.3954723517
 11
-8.9098923741
 21
25.7562999305
  0
LWPOLYLINE
  5
22A
100
AcDbEntity
  8
0
100
AcDbPolyline
 62
250
  6
CONTINUOUS
 90
16
 70
0
 10
-8.9098923741
 20
25.7562999305
 10
-8.9080195371
 20
25.7993448087
 10
-8.9024208677
 20
25.8440963588
 10
-8.8931556802
 20
25.8900804667
 10
-8.8803221335
 20
25.9368099598
 10
-8.8640561907
 20
25.9837897689
 10
-8.8445301793
 20
26.0305221725
 10
-8.8219509649
 20
26.0765120705
 10
-8.7965577602
 20
26.1212722291
 10
-8.7686195898
 20
26.164328443
 10
-8.738432441
 20
26.2052245587
 10
-8.7063161276
 20
26.2435273079
 10
-8.6726109014
 20
26.2788308973
 10
-8.637673848
 20
26.3107613076
 10
-8.6018751033
 20
26.3389802565
 10
-8.5655939323
 20
26.3631887821
  0
LINE
  5
22B
100
AcDbEntity
  8
DRAFT
100
AcDbLine
 62
7
  6
CONTINUOUS
 10
25.0680664545
 20
-23.3338714025
 11
24.5103889187
 21
-23.2599450631
  0
LWPOLYLINE
  5
22C
100
AcDbEntity
  8
0
100
AcDbPolyline
 62
250
  6
CONTINUOUS
 90
9
 70
0
 10
-9.0563389831
 20
25.9604258189
 10
-9.0552224495
 20
25.9411548427
 10
-9.0491310296
 20
25.9115942083
 10
-9.0377808702
 20
25.8825140668
 10
-9.0212982491
 20
25.8542656075
 10
-8.999951039
 20
25.8272516415
 10
-8.974057483
 20
25.8017751274
 10
-8.94391716
 20
25.7780493481
 10
-8.9098923741
 20
25.7562999305
  0
LINE
  5
22D
100
AcDbEntity
  8
DRAFT
100
AcDbLine
 62
7
  6
CONTINUOUS
 10
25.0680664545
 20
-20.9298653794
 11
24.5103889187
 21
-20.8312345718
  0
LWPOLYLINE
  5
22E
100
AcDbEntity
  8
RACCORDO
100
AcDbPolyline
 62
250
  6
CONTINUOUS
 90
22
 70
0
 10
24.8741980783
 20
-20.3271187345
 10
24.8666186295
 20
-20.3239335223
 10
24.858835026
 20
-20.3210921563
 10
24.8508559827
 20
-20.3185987325
 10
24.8426883107
 20
-20.3164557742
 10
24.8343393186
 20
-20.3146655693
 10
24.8258187246
 20
-20.3132313753
 10
24.8171334382
 20
-20.3121546049
 10
24.8082917238
 20
-20.3114365282
 10
24.7993056534
 20
-20.3110794453
 10
24.7901832618
 20
-20.311083521
 10
24.780932769
 20
-20.3114486031
 10
24.7715668572
 20
-20.3121755696
 10
24.7620943652
 20
-20.3132632264
 10
24.75252355
 20
-20.314710135
 10
24.742866444
 20
-20.3165160089
 10
24.7331318276
 20
-20.3186785627
 10
24.7233285683
 20
-20.3211951569
 10
24.7134689612
 20
-20.3240643221
 10
24.7035631195
 20
-20.3272831462
 10
24.6936189575
 20
-20.3308473326
 10
24.6836455475
 20
-20.33475275
  0
LINE
  5
22F
100
AcDbEntity
  8
RACCORDO
100
AcDbLine
 62
7
  6
CONTINUOUS
 10
23.6135440723
 20
-25.3245192865
 11
23.520439425
 21
-25.2707618301
  0
LINE
  5
230
100
AcDbEntity
  8
RACCORDO
100
AcDbLine
 62
250
  6
CONTINUOUS
 10
24.8892550043
 20
-20.3348159044
 11
24.8815667217
 21
-20.3306445188
  0
LWPOLYLINE
  5
231
100
AcDbEntity
  8
DRAFT
100
AcDbPolyline
 62
7
  6
CONTINUOUS
 90
4
 70
0
 10
3.5446728565
 20
-3.8712972216
 10
3.5453704491
 20
-3.8826671534
 10
3.5471697166
 20
-3.894135196
 10
3.550064294
 20
-3.9056759724
  0
LWPOLYLINE
  5
232
100
AcDbEntity
  8
DRAFT
100
AcDbPolyline
 62
7
  6
CONTINUOUS
 90
4
 70
0
 10
3.4739621784
 20
-2.6331626784
 10
3.474659771
 20
-2.6445326102
 10
3.4764590384
 20
-2.6560006528
 10
3.4793536158
 20
-2.6675414293
  0
LWPOLYLINE
  5
233
100
AcDbEntity
  8
0
100
AcDbPolyline
 62
7
  6
CONTINUOUS
 90
13
 70
0
 10
3.5446728565
 20
-3.8712972216
 10
3.5453621271
 20
-3.8826391688
 10
3.5471564014
 20
-3.8940904206
 10
3.5500556792
 20
-3.9056509771
 10
3.554146383
 20
-3.9175200143
 10
3.5593420903
 20
-3.9294983562
 10
3.5653835346
 20
-3.9409884745
 10
3.5723135755
 20
-3.9519656275
 10
3.5800893533
 20
-3.9624545569
 10
3.5883230226
 20
-3.97193196
 10
3.5968853017
 20
-3.9802234025
 10
3.6059054724
 20
-3.9875033187
 10
3.6153835346
 20
-3.9937717086
  0
LWPOLYLINE
  5
234
100
AcDbEntity
  8
0
100
AcDbPolyline
 62
7
  6
CONTINUOUS
 90
13
 70
0
 10
3.4739621784
 20
-2.6331626784
 10
3.474651449
 20
-2.6445046256
 10
3.4764457232
 20
-2.6559558775
 10
3.4793450011
 20
-2.6675164339
 10
3.4834357048
 20
-2.6793854712
 10
3.4886314122
 20
-2.691363813
 10
3.4946728565
 20
-2.7028539313
 10
3.5016028973
 20
-2.7138310843
 10
3.5093786751
 20
-2.7243200137
 10
3.5176123445
 20
-2.7337974169
 10
3.5261746236
 20
-2.7420888594
 10
3.5351947943
 20
-2.7493687756
 10
3.5446728565
 20
-2.7556371654
  0
LINE
  5
235
100
AcDbEntity
  8
0
100
AcDbLine
 62
7
  6
CONTINUOUS
 10
3.4739621784
 20
-2.3065745677
 11
3.4739621784
 21
-2.6331626784
  0
LINE
  5
236
100
AcDbEntity
  8
DRAFT
100
AcDbLine
 62
7
  6
CONTINUOUS
 10
3.4739621784
 20
-2.3065745677
 11
3.4739621784
 21
-2.6331626784
  0
LINE
  5
237
100
AcDbEntity
  8
0
100
AcDbLine
 62
7
  6
CONTINUOUS
 10
3.5446728565
 20
-3.5447091108
 11
3.5446728565
 21
-3.8712972216
  0
LINE
  5
238
100
AcDbEntity
  8
DRAFT
100
AcDbLine
 62
7
  6
CONTINUOUS
 10
3.5446728565
 20
-3.5447091108
 11
3.5446728565
 21
-3.8712972216
  0
LWPOLYLINE
  5
239
100
AcDbEntity
  8
DRAFT
100
AcDbPolyline
 62
7
  6
CONTINUOUS
 90
4
 70
0
 10
3.4793536158
 20
-2.2784217137
 10
3.4764590384
 20
-2.2866199047
 10
3.474659771
 20
-2.2960101983
 10
3.4739621784
 20
-2.3065745677
  0
LWPOLYLINE
  5
23A
100
AcDbEntity
  8
DRAFT
100
AcDbPolyline
 62
7
  6
CONTINUOUS
 90
4
 70
0
 10
3.550064294
 20
-3.5165562568
 10
3.5471697166
 20
-3.5247544478
 10
3.5453704491
 20
-3.5341447415
 10
3.5446728565
 20
-3.5447091108
  0
LWPOLYLINE
  5
23B
100
AcDbEntity
  8
RACCORDO
100
AcDbPolyline
 62
7
  6
CONTINUOUS
 90
10
 70
0
 10
24.8893036647
 20
-20.3348440771
 10
24.8848085682
 20
-20.3323053553
 10
24.8567620333
 20
-20.3188835122
 10
24.8271829325
 20
-20.3086942261
 10
24.7964061621
 20
-20.3018135332
 10
24.7644988055
 20
-20.2982483928
 10
24.7317218812
 20
-20.2980552114
 10
24.698325506
 20
-20.3012629938
 10
24.6642555344
 20
-20.3079516155
 10
24.6261515402
 20
-20.3194709358
  0
LINE
  5
23C
100
AcDbEntity
  8
RACCORDO
100
AcDbLine
 62
250
  6
CONTINUOUS
 10
25.386264506
 20
-20.7404361307
 11
24.6836455475
 21
-20.33475275
  0
LINE
  5
23D
100
AcDbEntity
  8
RACCORDO
100
AcDbLine
 62
7
  6
CONTINUOUS
 10
25.386264506
 20
-20.6217829617
 11
24.8892548626
 21
-20.3348158225
  0
LWPOLYLINE
  5
23E
100
AcDbEntity
  8
RACCORDO
100
AcDbPolyline
 62
250
  6
CONTINUOUS
 90
7
 70
0
 10
24.6836455475
 20
-20.33475275
 10
24.6723517597
 20
-20.326779166
 10
24.661024288
 20
-20.3211051663
 10
24.6498547109
 20
-20.3178267137
 10
24.6390319369
 20
-20.3169992558
 10
24.6287390086
 20
-20.3186367873
 10
24.6261515402
 20
-20.3194709358
  0
LWPOLYLINE
  5
23F
100
AcDbEntity
  8
DRAFT
100
AcDbPolyline
 62
7
  6
CONTINUOUS
 90
7
 70
0
 10
3.5500706588
 20
-3.9057013494
 10
3.5541593721
 20
-3.9175606061
 10
3.5593497602
 20
-3.9295179736
 10
3.5653835346
 20
-3.9409884745
 10
3.572300421
 20
-3.9519491762
 10
3.5800606938
 20
-3.9624230112
 10
3.588286888
 20
-3.9718938
  0
LWPOLYLINE
  5
240
100
AcDbEntity
  8
DRAFT
100
AcDbPolyline
 62
7
  6
CONTINUOUS
 90
7
 70
0
 10
3.4793599807
 20
-2.6675668063
 10
3.483448694
 20
-2.6794260629
 10
3.488639082
 20
-2.6913834304
 10
3.4946728565
 20
-2.7028539313
 10
3.5015897429
 20
-2.713814633
 10
3.5093500157
 20
-2.7242884681
 10
3.5175762099
 20
-2.7337592568
  0
LWPOLYLINE
  5
241
100
AcDbEntity
  8
DRAFT
100
AcDbPolyline
 62
7
  6
CONTINUOUS
 90
13
 70
0
 10
4.6053330283
 20
-4.1571210008
 10
4.6046354357
 20
-4.145751069
 10
4.6028361682
 20
-4.1342830264
 10
4.599935226
 20
-4.122716873
 10
4.5958465127
 20
-4.1108576163
 10
4.5906561246
 20
-4.0989002488
 10
4.5846223502
 20
-4.0874297479
 10
4.5777054638
 20
-4.0764690462
 10
4.569945191
 20
-4.0659952112
 10
4.5617189968
 20
-4.0565244224
 10
4.5531527027
 20
-4.0482287399
 10
4.5441204872
 20
-4.0409361037
 10
4.5346223502
 20
-4.0346465138
  0
LWPOLYLINE
  5
242
100
AcDbEntity
  8
0
100
AcDbPolyline
 62
7
  6
CONTINUOUS
 90
4
 70
0
 10
4.6053330283
 20
-4.1571210008
 10
4.6046437577
 20
-4.1457790536
 10
4.6028494834
 20
-4.1343278018
 10
4.5999502056
 20
-4.1227672453
  0
LINE
  5
243
100
AcDbEntity
  8
0
100
AcDbLine
 62
7
  6
CONTINUOUS
 10
4.6053330283
 20
-4.4837091116
 11
4.6053330283
 21
-4.1571210008
  0
LINE
  5
244
100
AcDbEntity
  8
DRAFT
100
AcDbLine
 62
7
  6
CONTINUOUS
 10
4.6053330283
 20
-4.4837091116
 11
4.6053330283
 21
-4.1571210008
  0
LINE
  5
245
100
AcDbEntity
  8
DRAFT
100
AcDbLine
 62
7
  6
CONTINUOUS
 10
4.6046354357
 20
-4.4942734809
 11
4.6053330283
 21
-4.4837091116
  0
LWPOLYLINE
  5
246
100
AcDbEntity
  8
0
100
AcDbPolyline
 62
7
  6
CONTINUOUS
 90
4
 70
0
 10
4.5999502056
 20
-4.5118469183
 10
4.6028494834
 20
-4.5036343752
 10
4.6046437577
 20
-4.4942551063
 10
4.6053330283
 20
-4.4837091116
  0
LWPOLYLINE
  5
247
100
AcDbEntity
  8
0
100
AcDbPolyline
 62
7
  6
CONTINUOUS
 90
7
 70
0
 10
3.4940426818
 20
-2.26117256
 10
3.4886314122
 20
-2.2653130966
 10
3.4834357048
 20
-2.2712915658
 10
3.4793450011
 20
-2.2784367609
 10
3.4764457232
 20
-2.286649304
 10
3.474651449
 20
-2.2960285729
 10
3.4739621784
 20
-2.3065745677
  0
LWPOLYLINE
  5
248
100
AcDbEntity
  8
0
100
AcDbPolyline
 62
7
  6
CONTINUOUS
 90
7
 70
0
 10
3.56475336
 20
-3.4993071031
 10
3.5593420903
 20
-3.5034476397
 10
3.554146383
 20
-3.509426109
 10
3.5500556792
 20
-3.5165713041
 10
3.5471564014
 20
-3.5247838471
 10
3.5453621271
 20
-3.5341631161
 10
3.5446728565
 20
-3.5447091108
  0
LWPOLYLINE
  5
249
100
AcDbEntity
  8
DRAFT
100
AcDbPolyline
 62
7
  6
CONTINUOUS
 90
4
 70
0
 10
3.4940427328
 20
-2.2611725291
 10
3.488639082
 20
-2.2653023361
 10
3.483448694
 20
-2.2712659736
 10
3.4793599807
 20
-2.2784036867
  0
LWPOLYLINE
  5
24A
100
AcDbEntity
  8
DRAFT
100
AcDbPolyline
 62
7
  6
CONTINUOUS
 90
4
 70
0
 10
3.5647534109
 20
-3.4993070722
 10
3.5593497602
 20
-3.5034368792
 10
3.5541593721
 20
-3.5094005167
 10
3.5500706588
 20
-3.5165382298
  0
LWPOLYLINE
  5
24B
100
AcDbEntity
  8
0
100
AcDbPolyline
 62
250
  6
CONTINUOUS
 90
16
 70
0
 10
22.2125228127
 20
8.5922899139
 10
22.1762416417
 20
8.5680813883
 10
22.1404428971
 20
8.5398624394
 10
22.1055058437
 20
8.5079320291
 10
22.0718006175
 20
8.4726284397
 10
22.039684304
 20
8.4343256905
 10
22.0094971552
 20
8.3934295748
 10
21.9815589849
 20
8.3503733609
 10
21.9561657801
 20
8.3056132023
 10
21.9335865658
 20
8.2596233043
 10
21.9140605544
 20
8.2128909007
 10
21.8977946116
 20
8.1659110916
 10
21.8849610648
 20
8.1191815985
 10
21.8756958773
 20
8.0731974906
 10
21.8700972079
 20
8.0284459405
 10
21.868224371
 20
7.9854010623
  0
LINE
  5
24C
100
AcDbEntity
  8
0
100
AcDbLine
 62
250
  6
CONTINUOUS
 10
22.80251853
 20
8.9329443666
 11
22.2125228127
 21
8.5922899139
  0
LINE
  5
24D
100
AcDbEntity
  8
0
100
AcDbLine
 62
250
  6
CONTINUOUS
 10
23.1559507667
 20
8.3207817763
 11
22.5659550494
 21
7.9801273236
  0
LINE
  5
24E
100
AcDbEntity
  8
RACCORDO
100
AcDbLine
 62
250
  6
CONTINUOUS
 10
23.2959631535
 20
9.1414207696
 11
22.8378997557
 21
8.9102347746
  0
LINE
  5
24F
100
AcDbEntity
  8
RACCORDO
100
AcDbLine
 62
250
  6
CONTINUOUS
 10
23.6135440723
 20
8.590079891
 11
23.154441377
 21
8.3583693595
  0
LWPOLYLINE
  5
250
100
AcDbEntity
  8
0
100
AcDbPolyline
 62
250
  6
CONTINUOUS
 90
16
 70
0
 10
22.5659550494
 20
7.9801273236
 10
22.526730803
 20
7.9607561669
 10
22.4842568259
 20
7.9438230236
 10
22.4389857411
 20
7.9295083419
 10
22.3913943182
 20
7.917963488
 10
22.3419949542
 20
7.9093133425
 10
22.2913320717
 20
7.9036515575
 10
22.2399584817
 20
7.9010355374
 10
22.1884094738
 20
7.9014882307
 10
22.1372149601
 20
7.9050034013
 10
22.0868497678
 20
7.9115549627
 10
22.0379228754
 20
7.9210703346
 10
21.9911317175
 20
7.9333953243
 10
21.947001289
 20
7.9483466122
 10
21.9059016962
 20
7.9657515041
 10
21.868224371
 20
7.9854010623
  0
LWPOLYLINE
  5
251
100
AcDbEntity
  8
DRAFT
100
AcDbPolyline
 62
7
  6
CONTINUOUS
 90
12
 70
0
 10
9.1541025611
 20
-7.1908535948
 10
9.177094176
 20
-7.2015139572
 10
9.1997912727
 20
-7.2102946238
 10
9.2222882511
 20
-7.217217035
 10
9.2444907112
 20
-7.2222597504
 10
9.2661154529
 20
-7.2253584483
 10
9.2871550757
 20
-7.2264882263
 10
9.3076169802
 20
-7.2256739868
 10
9.3272401675
 20
-7.2229261159
 10
9.3460138938
 20
-7.2182198439
 10
9.3639489031
 20
-7.2115799403
 10
9.3777076638
 20
-7.2048416224
  0
LWPOLYLINE
  5
252
100
AcDbEntity
  8
DRAFT
100
AcDbPolyline
 62
7
  6
CONTINUOUS
 90
4
 70
0
 10
4.5346223502
 20
-4.5245286799
 10
4.5441204872
 20
-4.5292073005
 10
4.5531527027
 20
-4.5323448404
 10
4.5617002017
 20
-4.5339377968
  0
LWPOLYLINE
  5
253
100
AcDbEntity
  8
DRAFT
100
AcDbPolyline
 62
7
  6
CONTINUOUS
 90
7
 70
0
 10
3.6153835346
 20
-3.5038895425
 10
3.6058853976
 20
-3.4992109219
 10
3.5968531821
 20
-3.496073382
 10
3.588286888
 20
-3.4944769228
 10
3.5800606938
 20
-3.4944483086
 10
3.572300421
 20
-3.4959607752
 10
3.5647534109
 20
-3.4993070722
  0
LWPOLYLINE
  5
254
100
AcDbEntity
  8
0
100
AcDbPolyline
 62
7
  6
CONTINUOUS
 90
7
 70
0
 10
4.5346223502
 20
-4.5245286799
 10
4.5441004124
 20
-4.5292053187
 10
4.5531205831
 20
-4.5323416695
 10
4.5616828622
 20
-4.5339377323
 10
4.5699165315
 20
-4.5339683642
 10
4.5776923093
 20
-4.532458708
 10
4.5839891281
 20
-4.5298405917
  0
LWPOLYLINE
  5
255
100
AcDbEntity
  8
0
100
AcDbPolyline
 62
7
  6
CONTINUOUS
 90
4
 70
0
 10
3.6153835346
 20
-3.5038895425
 10
3.6059054724
 20
-3.4992129037
 10
3.5968853017
 20
-3.4960765529
 10
3.5883230226
 20
-3.4944804901
  0
LWPOLYLINE
  5
256
100
AcDbEntity
  8
0
100
AcDbPolyline
 62
7
  6
CONTINUOUS
 90
10
 70
0
 10
9.1308164279
 20
-7.1783135365
 10
9.1620061893
 20
-7.1946731063
 10
9.1925056378
 20
-7.2076471728
 10
9.2223147731
 20
-7.2172357361
 10
9.2516505059
 20
-7.2234602941
 10
9.2802959256
 20
-7.2262993489
 10
9.3076003008
 20
-7.2256884062
 10
9.3335305971
 20
-7.221548704
 10
9.3581198488
 20
-7.2139590043
 10
9.377693225
 20
-7.2048495496
  0
LINE
  5
257
100
AcDbEntity
  8
DRAFT
100
AcDbLine
 62
7
  6
CONTINUOUS
 10
9.1308164279
 20
-7.1783135365
 11
9.1541025611
 21
-7.1908535948
  0
LINE
  5
258
100
AcDbEntity
  8
0
100
AcDbLine
 62
7
  6
CONTINUOUS
 10
3.6153835346
 20
-3.9937717086
 11
4.5346223502
 21
-4.5245286799
  0
LINE
  5
259
100
AcDbEntity
  8
DRAFT
100
AcDbLine
 62
7
  6
CONTINUOUS
 10
3.6153835346
 20
-3.9937717086
 11
4.5346223502
 21
-4.5245286799
  0
LINE
  5
25A
100
AcDbEntity
  8
0
100
AcDbLine
 62
7
  6
CONTINUOUS
 10
7.1127073226
 20
-6.013082632
 11
9.1308164279
 21
-7.1783135365
  0
LINE
  5
25B
100
AcDbEntity
  8
DRAFT
100
AcDbLine
 62
7
  6
CONTINUOUS
 10
7.1127073226
 20
-6.013082632
 11
9.1308164279
 21
-7.1783135365
  0
LINE
  5
25C
100
AcDbEntity
  8
0
100
AcDbLine
 62
7
  6
CONTINUOUS
 10
9.0601057498
 20
-6.6476039111
 11
7.1834180007
 21
-5.5640279252
  0
LINE
  5
25D
100
AcDbEntity
  8
DRAFT
100
AcDbLine
 62
7
  6
CONTINUOUS
 10
9.0601057498
 20
-6.6476039111
 11
7.1834180007
 21
-5.5640279252
  0
LINE
  5
25E
100
AcDbEntity
  8
0
100
AcDbLine
 62
7
  6
CONTINUOUS
 10
4.5346223502
 20
-4.0346465138
 11
3.6153835346
 21
-3.5038895425
  0
LINE
  5
25F
100
AcDbEntity
  8
DRAFT
100
AcDbLine
 62
7
  6
CONTINUOUS
 10
4.5346223502
 20
-4.0346465138
 11
3.6153835346
 21
-3.5038895425
  0
LWPOLYLINE
  5
260
100
AcDbEntity
  8
DRAFT
100
AcDbPolyline
 62
7
  6
CONTINUOUS
 90
3
 70
0
 10
7.0664295744
 20
-5.982842669
 10
7.0894211893
 20
-5.9987324473
 10
7.1127073226
 20
-6.013082632
  0
LWPOLYLINE
  5
261
100
AcDbEntity
  8
DRAFT
100
AcDbPolyline
 62
7
  6
CONTINUOUS
 90
4
 70
0
 10
3.5883056831
 20
-3.9719120013
 10
3.5968531821
 20
-3.9801894825
 10
3.6058853976
 20
-3.9874821187
 10
3.6153835346
 20
-3.9937717086
  0
LWPOLYLINE
  5
262
100
AcDbEntity
  8
0
100
AcDbPolyline
 62
7
  6
CONTINUOUS
 90
4
 70
0
 10
4.5616828622
 20
-4.0564862624
 10
4.5531205831
 20
-4.0481948199
 10
4.5441004124
 20
-4.0409149037
 10
4.5346223502
 20
-4.0346465138
  0
LWPOLYLINE
  5
263
100
AcDbEntity
  8
DRAFT
100
AcDbPolyline
 62
7
  6
CONTINUOUS
 90
4
 70
0
 10
3.517595005
 20
-2.7337774581
 10
3.526142504
 20
-2.7420549393
 10
3.5351747195
 20
-2.7493475755
 10
3.5446728565
 20
-2.7556371654
  0
LWPOLYLINE
  5
264
100
AcDbEntity
  8
0
100
AcDbPolyline
 62
7
  6
CONTINUOUS
 90
4
 70
0
 10
4.5846223502
 20
-4.0874297479
 10
4.5776923093
 20
-4.0764525949
 10
4.5699165315
 20
-4.0659636655
 10
4.5617002017
 20
-4.0565062211
  0
LWPOLYLINE
  5
265
100
AcDbEntity
  8
0
100
AcDbPolyline
 62
7
  6
CONTINUOUS
 90
4
 70
0
 10
4.5999415908
 20
-4.12274225
 10
4.5958595018
 20
-4.1108982081
 10
4.5906637945
 20
-4.0989198662
 10
4.5846223502
 20
-4.0874297479
  0
LWPOLYLINE
  5
266
100
AcDbEntity
  8
DRAFT
100
AcDbPolyline
 62
7
  6
CONTINUOUS
 90
22
 70
0
 10
6.759937765
 20
-5.4280504166
 10
6.7622022414
 20
-5.4559054718
 10
6.7659473612
 20
-5.4842753624
 10
6.7712017604
 20
-5.5132856229
 10
6.7779368031
 20
-5.5428107188
 10
6.7860665813
 20
-5.5724740473
 10
6.7956089615
 20
-5.6022773792
 10
6.8065460773
 20
-5.6322189436
 10
6.8187384219
 20
-5.6619168256
 10
6.8322020748
 20
-5.6913679036
 10
6.8469209564
 20
-5.720575299
 10
6.8627073226
 20
-5.7491664615
 10
6.8795748474
 20
-5.7771334971
 10
6.8975098566
 20
-5.8044842997
 10
6.916283583
 20
-5.8308700003
 10
6.9359067703
 20
-5.8562782361
 10
6.9563686747
 20
-5.8807213699
 10
6.9774082975
 20
-5.903887621
 10
6.9990330392
 20
-5.9257606328
 10
7.0212354993
 20
-5.9463567618
 10
7.0437324777
 20
-5.9654132973
 10
7.0664295744
 20
-5.982842669
  0
LWPOLYLINE
  5
267
100
AcDbEntity
  8
0
100
AcDbPolyline
 62
7
  6
CONTINUOUS
 90
16
 70
0
 10
7.1834180007
 20
-4.6116619244
 10
7.1821504946
 20
-4.5848738886
 10
7.1786893356
 20
-4.5576439598
 10
7.1730345238
 20
-4.529972138
 10
7.1650775444
 20
-4.5015494397
 10
7.1549269122
 20
-4.4726848483
 10
7.1429081712
 20
-4.4443053143
 10
7.1289585431
 20
-4.4164231331
 10
7.1131408063
 20
-4.3890260092
 10
7.0959688392
 20
-4.3630040065
 10
7.0774006013
 20
-4.338405339
 10
7.0574781332
 20
-4.3151817927
 10
7.0368414356
 20
-4.2940787898
 10
7.015703842
 20
-4.2753448043
 10
6.9938520189
 20
-4.2587313622
 10
6.9712859663
 20
-4.2442384634
  0
LWPOLYLINE
  5
268
100
AcDbEntity
  8
0
100
AcDbPolyline
 62
7
  6
CONTINUOUS
 90
19
 70
0
 10
6.759153932
 20
-5.4007101969
 10
6.7605820604
 20
-5.4375484545
 10
6.7645970253
 20
-5.4750832398
 10
6.7711988266
 20
-5.5133145529
 10
6.7804773115
 20
-5.552544729
 10
6.7923426329
 20
-5.5924714328
 10
6.8065252488
 20
-5.6321876585
 10
6.8230768528
 20
-5.6716851096
 10
6.8419457514
 20
-5.7109720827
 10
6.8627073226
 20
-5.7491664615
 10
6.8854039017
 20
-5.7862438069
 10
6.9099931534
 20
-5.8222285581
 10
6.9359234496
 20
-5.8563119164
 10
6.9632278248
 20
-5.8884532672
 10
6.9918732445
 20
-5.9186932251
 10
7.0212089773
 20
-5.9463448359
 10
7.0510181127
 20
-5.971179115
 10
7.0815175611
 20
-5.993425047
 10
7.1127073226
 20
-6.013082632
  0
LWPOLYLINE
  5
269
100
AcDbEntity
  8
DRAFT
100
AcDbPolyline
 62
7
  6
CONTINUOUS
 90
4
 70
0
 10
6.7591881709
 20
-3.067952861
 10
6.7596153574
 20
-3.0794152754
 10
6.7611986362
 20
-3.0910167896
 10
6.7639317509
 20
-3.1027305891
  0
LWPOLYLINE
  5
26A
100
AcDbEntity
  8
0
100
AcDbPolyline
 62
7
  6
CONTINUOUS
 90
13
 70
0
 10
6.7591881709
 20
-3.067952861
 10
6.7596070347
 20
-3.0793856688
 10
6.7611853199
 20
-3.0909694191
 10
6.7639230266
 20
-3.1027041117
 10
6.7679090633
 20
-3.1148013084
 10
6.7730545215
 20
-3.1270494475
 10
6.7790926754
 20
-3.138813844
 10
6.7860705481
 20
-3.1500690166
 10
6.7939411165
 20
-3.1608404467
 10
6.8022965864
 20
-3.1705698929
 10
6.8110010262
 20
-3.1790712746
 10
6.8201903674
 20
-3.1865306725
 10
6.8298646101
 20
-3.1929480865
  0
LINE
  5
26B
100
AcDbEntity
  8
DRAFT
100
AcDbLine
 62
7
  6
CONTINUOUS
 10
6.759153932
 20
-5.4007101969
 11
6.759937765
 21
-5.4280504166
  0
LWPOLYLINE
  5
26C
100
AcDbEntity
  8
DRAFT
100
AcDbPolyline
 62
7
  6
CONTINUOUS
 90
25
 70
0
 10
7.1834180007
 20
-4.6116619244
 10
7.1829477009
 20
-4.5952577926
 10
7.181589015
 20
-4.5785447595
 10
7.1793419431
 20
-4.5615228251
 10
7.1761893036
 20
-4.5441166689
 10
7.172148278
 20
-4.5264016113
 10
7.167270411
 20
-4.5086036142
 10
7.1615449829
 20
-4.4907216151
 10
7.1549827135
 20
-4.4727566764
 10
7.1476673067
 20
-4.4549379472
 10
7.139589115
 20
-4.4372673004
 10
7.130757786
 20
-4.4197428632
 10
7.1212859663
 20
-4.4025881657
 10
7.1111654514
 20
-4.3858079443
 10
7.1004044459
 20
-4.3693974627
 10
7.0891402101
 20
-4.3535660424
 10
7.0773662977
 20
-4.3383211009
 10
7.065089155
 20
-4.3236552206
 10
7.0524653813
 20
-4.30975547
 10
7.0394905363
 20
-4.2966316629
 10
7.0261690602
 20
-4.2842739855
 10
7.0126708732
 20
-4.2728400642
 10
6.9990526152
 20
-4.2623824412
 10
6.9852576463
 20
-4.2528485742
 10
6.9712859663
 20
-4.2442384634
  0
LINE
  5
26D
100
AcDbEntity
  8
0
100
AcDbLine
 62
7
  6
CONTINUOUS
 10
6.759153932
 20
-4.6116382515
 11
6.759153932
 21
-5.4007101969
  0
LINE
  5
26E
100
AcDbEntity
  8
DRAFT
100
AcDbLine
 62
7
  6
CONTINUOUS
 10
6.759153932
 20
-4.6116382515
 11
6.759153932
 21
-5.4007101969
  0
LINE
  5
26F
100
AcDbEntity
  8
0
100
AcDbLine
 62
7
  6
CONTINUOUS
 10
7.1834180007
 20
-5.5640279252
 11
7.1834180007
 21
-4.6116619244
  0
LINE
  5
270
100
AcDbEntity
  8
DRAFT
100
AcDbLine
 62
7
  6
CONTINUOUS
 10
7.1834180007
 20
-5.5640279252
 11
7.1834180007
 21
-4.6116619244
  0
LWPOLYLINE
  5
271
100
AcDbEntity
  8
DRAFT
100
AcDbPolyline
 62
7
  6
CONTINUOUS
 90
3
 70
0
 10
6.7615860019
 20
-3.0164580951
 10
6.759646818
 20
-3.0416189383
 10
6.7591881709
 20
-3.067952861
  0
LWPOLYLINE
  5
272
100
AcDbEntity
  8
0
100
AcDbPolyline
 62
7
  6
CONTINUOUS
 90
4
 70
0
 10
4.5839891281
 20
-4.5298405917
 10
4.5906637945
 20
-4.5249705826
 10
4.5958595018
 20
-4.5189921134
 10
4.5999415908
 20
-4.5118619656
  0
LWPOLYLINE
  5
273
100
AcDbEntity
  8
DRAFT
100
AcDbPolyline
 62
7
  6
CONTINUOUS
 90
6
 70
0
 10
4.5839891799
 20
-4.5298405633
 10
4.5906561246
 20
-4.5249813431
 10
4.5958465127
 20
-4.5190177057
 10
4.599935226
 20
-4.5118799926
 10
4.6028361682
 20
-4.5036637746
 10
4.6046354357
 20
-4.4942734809
  0
LWPOLYLINE
  5
274
100
AcDbEntity
  8
0
100
AcDbPolyline
 62
7
  6
CONTINUOUS
 90
10
 70
0
 10
6.8576051515
 20
-2.8398046289
 10
6.8385604525
 20
-2.8533470865
 10
6.8201019394
 20
-2.8709408498
 10
6.8039673963
 20
-2.8913959997
 10
6.7902096339
 20
-2.9147811636
 10
6.7787758416
 20
-2.9410277141
 10
6.7699303647
 20
-2.9695288402
 10
6.7637613181
 20
-3.0000822715
 10
6.7601805869
 20
-3.0328902785
 10
6.7591881709
 20
-3.067952861
  0
LWPOLYLINE
  5
275
100
AcDbEntity
  8
DRAFT
100
AcDbPolyline
 62
7
  6
CONTINUOUS
 90
11
 70
0
 10
6.8576115933
 20
-2.8398007229
 10
6.8434342224
 20
-2.8494629226
 10
6.8290206279
 20
-2.8617502705
 10
6.8158665058
 20
-2.8757181566
 10
6.8039882791
 20
-2.8913884939
 10
6.7933695248
 20
-2.9087393693
 10
6.7841481057
 20
-2.9275455174
 10
6.7763422422
 20
-2.9478259138
 10
6.769933714
 20
-2.9695615829
 10
6.7650057226
 20
-2.9924703314
 10
6.7615860019
 20
-3.0164580951
  0
LINE
  5
276
100
AcDbEntity
  8
0
100
AcDbLine
 62
7
  6
CONTINUOUS
 10
6.8812243433
 20
-2.8280207829
 11
6.8576051515
 21
-2.8398046289
  0
LWPOLYLINE
  5
277
100
AcDbEntity
  8
DRAFT
100
AcDbPolyline
 62
7
  6
CONTINUOUS
 90
4
 70
0
 10
4.5617189968
 20
-4.5339412996
 10
4.569945191
 20
-4.5339699138
 10
4.5777054638
 20
-4.5324574472
 10
4.5839891799
 20
-4.5298405633
  0
LWPOLYLINE
  5
278
100
AcDbEntity
  8
0
100
AcDbPolyline
 62
7
  6
CONTINUOUS
 90
4
 70
0
 10
3.5883056831
 20
-3.4944804256
 10
3.5800893533
 20
-3.4944498582
 10
3.5723135755
 20
-3.4959595144
 10
3.56475336
 20
-3.4993071031
  0
LWPOLYLINE
  5
279
100
AcDbEntity
  8
DRAFT
100
AcDbPolyline
 62
7
  6
CONTINUOUS
 90
7
 70
0
 10
3.5446728565
 20
-2.2657549993
 10
3.5351747195
 20
-2.2610763787
 10
3.526142504
 20
-2.2579388388
 10
3.5175762099
 20
-2.2563423797
 10
3.5093500157
 20
-2.2563137655
 10
3.5015897429
 20
-2.2578262321
 10
3.4940427328
 20
-2.2611725291
  0
LWPOLYLINE
  5
27A
100
AcDbEntity
  8
0
100
AcDbPolyline
 62
7
  6
CONTINUOUS
 90
4
 70
0
 10
3.5446728565
 20
-2.2657549993
 10
3.5351947943
 20
-2.2610783605
 10
3.5261746236
 20
-2.2579420097
 10
3.5176123445
 20
-2.2563459469
  0
LWPOLYLINE
  5
27B
100
AcDbEntity
  8
0
100
AcDbPolyline
 62
7
  6
CONTINUOUS
 90
9
 70
0
 10
7.1056362547
 20
-2.8622930118
 10
7.0747909345
 20
-2.8461300691
 10
7.0446402357
 20
-2.8333458439
 10
7.0151841583
 20
-2.8239403362
 10
6.9862047241
 20
-2.81789298
 10
6.9579199113
 20
-2.8152243412
 10
6.9309836548
 20
-2.8159961179
 10
6.9054297209
 20
-2.8202882427
 10
6.8812243433
 20
-2.8280207829
  0
LWPOLYLINE
  5
27C
100
AcDbEntity
  8
DRAFT
100
AcDbPolyline
 62
7
  6
CONTINUOUS
 90
13
 70
0
 10
7.1056362547
 20
-2.8622930118
 10
7.0826090523
 20
-2.8499008497
 10
7.0598782455
 20
-2.8393847017
 10
7.0374438342
 20
-2.8307445676
 10
7.0152108849
 20
-2.8239592016
 10
6.9932743311
 20
-2.8190498496
 10
6.9719189741
 20
-2.8160802494
 10
6.9511523923
 20
-2.8150756943
 10
6.9309670072
 20
-2.816010891
 10
6.9116248847
 20
-2.818873698
 10
6.8931370204
 20
-2.82368925
 10
6.8754924186
 20
-2.8304324123
 10
6.8576115933
 20
-2.8398007229
  0
LINE
  5
27D
100
AcDbEntity
  8
0
100
AcDbLine
 62
7
  6
CONTINUOUS
 10
3.5446728565
 20
-2.7556371654
 11
6.759153932
 21
-4.6116382515
  0
LINE
  5
27E
100
AcDbEntity
  8
DRAFT
100
AcDbLine
 62
7
  6
CONTINUOUS
 10
3.5446728565
 20
-2.7556371654
 11
6.759153932
 21
-4.6116382515
  0
LINE
  5
27F
100
AcDbEntity
  8
0
100
AcDbLine
 62
7
  6
CONTINUOUS
 10
6.9712859663
 20
-4.2442384634
 11
3.5446728565
 21
-2.2657549993
  0
LINE
  5
280
100
AcDbEntity
  8
DRAFT
100
AcDbLine
 62
7
  6
CONTINUOUS
 10
6.9712859663
 20
-4.2442384634
 11
3.5446728565
 21
-2.2657549993
  0
LINE
  5
281
100
AcDbEntity
  8
0
100
AcDbLine
 62
7
  6
CONTINUOUS
 10
6.8298646101
 20
-3.1929480865
 11
9.0601057498
 21
-4.480661369
  0
LINE
  5
282
100
AcDbEntity
  8
DRAFT
100
AcDbLine
 62
7
  6
CONTINUOUS
 10
6.8298646101
 20
-3.1929480865
 11
9.0601057498
 21
-4.480661369
  0
LINE
  5
283
100
AcDbEntity
  8
0
100
AcDbLine
 62
7
  6
CONTINUOUS
 10
9.1308164279
 20
-4.0316066623
 11
7.1056362547
 21
-2.8622930118
  0
LINE
  5
284
100
AcDbEntity
  8
DRAFT
100
AcDbLine
 62
7
  6
CONTINUOUS
 10
9.1308164279
 20
-4.0316066623
 11
7.1056362547
 21
-2.8622930118
  0
LWPOLYLINE
  5
285
100
AcDbEntity
  8
DRAFT
100
AcDbPolyline
 62
7
  6
CONTINUOUS
 90
4
 70
0
 10
6.8022782986
 20
-3.1705485978
 10
6.8109670905
 20
-3.1790350775
 10
6.8201691576
 20
-3.1865080493
 10
6.8298646101
 20
-3.1929480865
  0
LWPOLYLINE
  5
286
100
AcDbEntity
  8
DRAFT
100
AcDbPolyline
 62
7
  6
CONTINUOUS
 90
7
 70
0
 10
6.7639380074
 20
-3.1027574036
 10
6.767922129
 20
-3.1148442658
 10
6.7730623431
 20
-3.1270702279
 10
6.7790926754
 20
-3.138813844
 10
6.7860567125
 20
-3.1500514952
 10
6.793910868
 20
-3.1608068005
 10
6.8022584088
 20
-3.1705291711
  0
LWPOLYLINE
  5
287
100
AcDbEntity
  8
0
100
AcDbPolyline
 62
7
  6
CONTINUOUS
 90
19
 70
0
 10
9.4843698185
 20
-4.6439790973
 10
9.48294169
 20
-4.6071408398
 10
9.4789267251
 20
-4.5696060544
 10
9.4723249239
 20
-4.5313747414
 10
9.4630464389
 20
-4.4921445653
 10
9.4511811176
 20
-4.4522178615
 10
9.4369985016
 20
-4.4125016357
 10
9.4204468976
 20
-4.3730041846
 10
9.401577999
 20
-4.3337172116
 10
9.3808164279
 20
-4.2955228328
 10
9.3581198488
 20
-4.2584454874
 10
9.3335305971
 20
-4.2224607362
 10
9.3076003008
 20
-4.1883773778
 10
9.2802959256
 20
-4.1562360271
 10
9.2516505059
 20
-4.1259960692
 10
9.2223147731
 20
-4.0983444583
 10
9.1925056378
 20
-4.0735101793
 10
9.1620061893
 20
-4.0512642472
 10
9.1308164279
 20
-4.0316066623
  0
LWPOLYLINE
  5
288
100
AcDbEntity
  8
DRAFT
100
AcDbPolyline
 62
7
  6
CONTINUOUS
 90
25
 70
0
 10
9.4843698185
 20
-4.6439790973
 10
9.4835859855
 20
-4.6166388777
 10
9.4813215091
 20
-4.5887838225
 10
9.4775763892
 20
-4.5604139318
 10
9.47232199
 20
-4.5314036714
 10
9.4655869474
 20
-4.5018785755
 10
9.4574571691
 20
-4.4722152469
 10
9.4479147889
 20
-4.4424119151
 10
9.4369776732
 20
-4.4124703506
 10
9.4247853285
 20
-4.3827724686
 10
9.4113216757
 20
-4.3533213907
 10
9.396602794
 20
-4.3241139952
 10
9.3808164279
 20
-4.2955228328
 10
9.3639489031
 20
-4.2675557971
 10
9.3460138938
 20
-4.2402049945
 10
9.3272401675
 20
-4.2138192939
 10
9.3076169802
 20
-4.1884110581
 10
9.2871550757
 20
-4.1639679243
 10
9.2661154529
 20
-4.1408016732
 10
9.2444907112
 20
-4.1189286615
 10
9.2222882511
 20
-4.0983325325
 10
9.1997912727
 20
-4.0792759969
 10
9.177094176
 20
-4.0618466252
 10
9.1541025611
 20
-4.045956847
 10
9.1308164279
 20
-4.0316066623
  0
LINE
  5
289
100
AcDbEntity
  8
0
100
AcDbLine
 62
7
  6
CONTINUOUS
 10
9.0601057498
 20
-4.480661369
 11
9.0601057498
 21
-6.6476039111
  0
LINE
  5
28A
100
AcDbEntity
  8
DRAFT
100
AcDbLine
 62
7
  6
CONTINUOUS
 10
9.0601057498
 20
-4.480661369
 11
9.0601057498
 21
-6.6476039111
  0
LINE
  5
28B
100
AcDbEntity
  8
0
100
AcDbLine
 62
7
  6
CONTINUOUS
 10
9.4843698185
 20
-6.9742156948
 11
9.4843698185
 21
-4.6439790973
  0
LINE
  5
28C
100
AcDbEntity
  8
DRAFT
100
AcDbLine
 62
7
  6
CONTINUOUS
 10
9.4843698185
 20
-6.9742156948
 11
9.4843698185
 21
-4.6439790973
  0
LINE
  5
28D
100
AcDbEntity
  8
RACCORDO
100
AcDbLine
 62
7
  6
CONTINUOUS
 10
24.6261347827
 20
1.316985394
 11
23.6135440723
 21
0.9596388094
  0
LINE
  5
28E
100
AcDbEntity
  8
RACCORDO
100
AcDbLine
 62
250
  6
CONTINUOUS
 10
24.6836455475
 20
1.3017095851
 11
23.6135440723
 21
0.924124131
  0
LWPOLYLINE
  5
28F
100
AcDbEntity
  8
0
100
AcDbPolyline
 62
7
  6
CONTINUOUS
 90
4
 70
0
 10
3.517595005
 20
-2.2563458824
 10
3.5093786751
 20
-2.256315315
 10
3.5016028973
 20
-2.2578249712
 10
3.4940426818
 20
-2.26117256
  0
LINE
  5
290
100
AcDbEntity
  8
0
100
AcDbLine
 62
7
  6
CONTINUOUS
 10
24.2836183681
 20
-9.873897478
 11
24.9907251493
 21
-10.2821720713
  0
LWPOLYLINE
  5
291
100
AcDbEntity
  8
0
100
AcDbPolyline
 62
7
  6
CONTINUOUS
 90
10
 70
0
 10
9.3808164279
 20
-7.2030910996
 10
9.401577999
 20
-7.1888716627
 10
9.4204468976
 20
-7.1713740208
 10
9.4369985016
 20
-7.1509899471
 10
9.4511811176
 20
-7.1276514508
 10
9.4630464389
 20
-7.1014265226
 10
9.4723249239
 20
-7.0729109084
 10
9.4789267251
 20
-7.04230319
 10
9.48294169
 20
-7.0094047854
 10
9.4843698185
 20
-6.9742156948
  0
LINE
  5
292
100
AcDbEntity
  8
DRAFT
100
AcDbLine
 62
7
  6
CONTINUOUS
 10
23.1559507667
 20
0.115876619
 11
23.6135440723
 21
0.3942944324
  0
LWPOLYLINE
  5
293
100
AcDbEntity
  8
DRAFT
100
AcDbPolyline
 62
7
  6
CONTINUOUS
 90
14
 70
0
 10
9.3777076638
 20
-7.2048416224
 10
9.3808164279
 20
-7.2030910996
 10
9.396602794
 20
-7.192729637
 10
9.4113216757
 20
-7.1805192372
 10
9.4247853285
 20
-7.166615648
 10
9.4369776732
 20
-7.1509971801
 10
9.4479147889
 20
-7.1336855227
 10
9.4574571691
 20
-7.1149014923
 10
9.4655869474
 20
-7.0946262279
 10
9.47232199
 20
-7.0728785904
 10
9.4775763892
 20
-7.0499359785
 10
9.4813215091
 20
-7.0258908584
 10
9.4835859855
 20
-7.0006507638
 10
9.4843698185
 20
-6.9742156948
  0
LINE
  5
294
100
AcDbEntity
  8
0
100
AcDbLine
 62
7
  6
CONTINUOUS
 10
9.377693225
 20
-7.2048495496
 11
9.3808164279
 21
-7.2030910996
  0
LINE
  5
295
100
AcDbEntity
  8
DRAFT
100
AcDbLine
 62
7
  6
CONTINUOUS
 10
25.386264506
 20
0.8710652953
 11
25.0680664545
 21
0.7065969556
  0
LINE
  5
296
100
AcDbEntity
  8
RACCORDO
100
AcDbLine
 62
7
  6
CONTINUOUS
 10
24.5103889187
 20
0.8052277632
 11
23.6135440723
 21
0.4058117456
  0
LINE
  5
297
100
AcDbEntity
  8
DRAFT
100
AcDbLine
 62
7
  6
CONTINUOUS
 10
25.0680664545
 20
-1.6974090675
 11
24.5103889187
 21
-1.6234827281
  0
LINE
  5
298
100
AcDbEntity
  8
RACCORDO
100
AcDbLine
 62
7
  6
CONTINUOUS
 10
24.5103889187
 20
-1.6234827281
 11
23.3790180688
 21
-2.2553235485
  0
LINE
  5
299
100
AcDbEntity
  8
DRAFT
100
AcDbLine
 62
7
  6
CONTINUOUS
 10
25.0680664545
 20
0.7065969556
 11
24.5103889187
 21
0.8052277632
  0
LINE
  5
29A
100
AcDbEntity
  8
RACCORDO
100
AcDbLine
 62
7
  6
CONTINUOUS
 10
23.6135440723
 20
-3.6880569515
 11
23.520439425
 21
-3.6342994951
  0
LINE
  5
29B
100
AcDbEntity
  8
DRAFT
100
AcDbLine
 62
7
  6
CONTINUOUS
 10
25.386264506
 20
-1.4944302731
 11
25.0680664545
 21
-1.6974090675
  0
LINE
  5
29C
100
AcDbEntity
  8
DRAFT
100
AcDbLine
 62
7
  6
CONTINUOUS
 10
23.1559507667
 20
-3.9664747649
 11
23.6135440723
 21
-3.6880569515
  0
LINE
  5
29D
100
AcDbEntity
  8
RACCORDO
100
AcDbLine
 62
250
  6
CONTINUOUS
 10
23.3790180688
 20
-3.389350521
 11
23.1559507667
 21
-3.5181467856
  0
LINE
  5
29E
100
AcDbEntity
  8
RACCORDO
100
AcDbLine
 62
250
  6
CONTINUOUS
 10
23.520439425
 20
-3.6342994951
 11
23.1559507667
 21
-3.8447506783
  0
LWPOLYLINE
  5
29F
100
AcDbEntity
  8
0
100
AcDbPolyline
 62
250
  6
CONTINUOUS
 90
9
 70
0
 10
21.868224371
 20
-34.1663712199
 10
21.8700972079
 20
-34.2072533929
 10
21.8756958773
 20
-34.2455397399
 10
21.8849610648
 20
-34.2808246415
 10
21.8977946116
 20
-34.3127342765
 10
21.9140605544
 20
-34.3409305826
 10
21.9335865658
 20
-34.3651148376
 10
21.9561657801
 20
-34.3850308249
 10
21.9717656815
 20
-34.3952396505
  0
LINE
  5
2A0
100
AcDbEntity
  8
0
100
AcDbLine
 62
7
  6
CONTINUOUS
 10
23.6135440723
 20
-10.1243639907
 11
24.2836183681
 21
-9.873897478
  0
LWPOLYLINE
  5
2A1
100
AcDbEntity
  8
RACCORDO
100
AcDbPolyline
 62
250
  6
CONTINUOUS
 90
22
 70
0
 10
24.8741980783
 20
1.3093436005
 10
24.8666186295
 20
1.3125288127
 10
24.858835026
 20
1.3153701787
 10
24.8508559827
 20
1.3178636025
 10
24.8426883107
 20
1.3200065608
 10
24.8343393186
 20
1.3217967657
 10
24.8258187246
 20
1.3232309597
 10
24.8171334382
 20
1.3243077301
 10
24.8082917238
 20
1.3250258068
 10
24.7993056534
 20
1.3253828897
 10
24.7901832618
 20
1.3253788141
 10
24.780932769
 20
1.3250137319
 10
24.7715668572
 20
1.3242867654
 10
24.7620943652
 20
1.3231991087
 10
24.75252355
 20
1.3217522
 10
24.742866444
 20
1.3199463262
 10
24.7331318276
 20
1.3177837723
 10
24.7233285683
 20
1.3152671781
 10
24.7134689612
 20
1.3123980129
 10
24.7035631195
 20
1.3091791888
 10
24.6936189575
 20
1.3056150024
 10
24.6836455475
 20
1.3017095851
  0
LINE
  5
2A2
100
AcDbEntity
  8
RACCORDO
100
AcDbLine
 62
250
  6
CONTINUOUS
 10
24.8892550043
 20
1.3016464307
 11
24.8815667217
 21
1.3058178162
  0
LWPOLYLINE
  5
2A3
100
AcDbEntity
  8
RACCORDO
100
AcDbPolyline
 62
7
  6
CONTINUOUS
 90
10
 70
0
 10
24.8893036647
 20
1.3016182579
 10
24.8848085682
 20
1.3041569797
 10
24.8567620333
 20
1.3175788229
 10
24.8271829325
 20
1.3277681089
 10
24.7964061621
 20
1.3346488018
 10
24.7644988055
 20
1.3382139422
 10
24.7317218812
 20
1.3384071236
 10
24.698325506
 20
1.3351993413
 10
24.6642555344
 20
1.3285107195
 10
24.6261515402
 20
1.3169913993
  0
LINE
  5
2A4
100
AcDbEntity
  8
RACCORDO
100
AcDbLine
 62
250
  6
CONTINUOUS
 10
25.386264506
 20
0.8960262043
 11
24.6836455475
 21
1.3017095851
  0
LINE
  5
2A5
100
AcDbEntity
  8
RACCORDO
100
AcDbLine
 62
7
  6
CONTINUOUS
 10
25.386264506
 20
1.0146793733
 11
24.8892548626
 21
1.3016465125
  0
LWPOLYLINE
  5
2A6
100
AcDbEntity
  8
RACCORDO
100
AcDbPolyline
 62
7
  6
CONTINUOUS
 90
16
 70
0
 10
23.3790180688
 20
-25.025812856
 10
23.3798624236
 20
-25.0436694152
 10
23.3821696416
 20
-25.0618217867
 10
23.3859397226
 20
-25.0802699704
 10
23.3912454926
 20
-25.0992210497
 10
23.3980141257
 20
-25.1184679412
 10
23.4060271445
 20
-25.1373893954
 10
23.415325152
 20
-25.1559747934
 10
23.4258675452
 20
-25.174234754
 10
23.4373140375
 20
-25.1915798836
 10
23.4496941287
 20
-25.2079803322
 10
23.4629783191
 20
-25.2234659497
 10
23.4767378226
 20
-25.2375368926
 10
23.4908297104
 20
-25.2500265464
 10
23.5053969112
 20
-25.2611015255
 10
23.520439425
 20
-25.2707618301
  0
LINE
  5
2A7
100
AcDbEntity
  8
0
100
AcDbLine
 62
250
  6
CONTINUOUS
 10
21.868224371
 20
7.9854010623
 11
21.868224371
 21
-34.1663712199
  0
LINE
  5
2A8
100
AcDbEntity
  8
0
100
AcDbLine
 62
250
  6
CONTINUOUS
 10
22.5659550494
 20
7.9801273236
 11
22.5659550494
 21
-34.1716449586
  0
LINE
  5
2A9
100
AcDbEntity
  8
DRAFT
100
AcDbLine
 62
7
  6
CONTINUOUS
 10
23.6135440723
 20
-10.8321718735
 11
24.9907251493
 21
-10.2821720713
  0
LWPOLYLINE
  5
2AA
100
AcDbEntity
  8
RACCORDO
100
AcDbPolyline
 62
250
  6
CONTINUOUS
 90
7
 70
0
 10
24.6836455475
 20
1.3017095851
 10
24.6723517597
 20
1.309683169
 10
24.661024288
 20
1.3153571687
 10
24.6498547109
 20
1.3186356213
 10
24.6390319369
 20
1.3194630792
 10
24.6287390086
 20
1.3178255477
 10
24.6261515402
 20
1.3169913993
  0
LWPOLYLINE
  5
2AB
100
AcDbEntity
  8
0
100
AcDbPolyline
 62
250
  6
CONTINUOUS
 90
19
 70
0
 10
22.5659550494
 20
7.9801273236
 10
22.5638100736
 20
8.016124904
 10
22.559048868
 20
8.0534541823
 10
22.5517066772
 20
8.0918301721
 10
22.5418361559
 20
8.1309680649
 10
22.5295130485
 20
8.1705603841
 10
22.5148407704
 20
8.2102786359
 10
22.4979444523
 20
8.2497981421
 10
22.4789491675
 20
8.2888385467
 10
22.457982118
 20
8.3271386644
 10
22.4351789947
 20
8.3644386864
 10
22.4107305403
 20
8.4004155997
 10
22.3848704753
 20
8.4347306162
 10
22.357801243
 20
8.4671294748
 10
22.3297345115
 20
8.4973725236
 10
22.3009432825
 20
8.5251881029
 10
22.2716708698
 20
8.55037487
 10
22.2421232109
 20
8.5727885562
 10
22.2125228112
 20
8.5922899131
  0
LWPOLYLINE
  5
2AC
100
AcDbEntity
  8
RACCORDO
100
AcDbPolyline
 62
7
  6
CONTINUOUS
 90
16
 70
0
 10
23.3790180688
 20
-3.389350521
 10
23.3798624236
 20
-3.4072070802
 10
23.3821696416
 20
-3.4253594517
 10
23.3859397226
 20
-3.4438076354
 10
23.3912454926
 20
-3.4627587147
 10
23.3980141257
 20
-3.4820056062
 10
23.4060271445
 20
-3.5009270603
 10
23.415325152
 20
-3.5195124584
 10
23.4258675452
 20
-3.537772419
 10
23.4373140375
 20
-3.5551175486
 10
23.4496941287
 20
-3.5715179971
 10
23.4629783191
 20
-3.5870036147
 10
23.4767378226
 20
-3.6010745576
 10
23.4908297104
 20
-3.6135642113
 10
23.5053969112
 20
-3.6246391905
 10
23.520439425
 20
-3.6342994951
  0
LINE
  5
2AD
100
AcDbEntity
  8
0
100
AcDbLine
 62
7
  6
CONTINUOUS
 10
23.1559507667
 20
-33.8657582124
 11
23.1559507667
 21
8.3207817763
  0
LINE
  5
2AE
100
AcDbEntity
  8
RACCORDO
100
AcDbLine
 62
7
  6
CONTINUOUS
 10
23.3790180688
 20
-25.025812856
 11
23.3790180688
 21
-21.3848627722
  0
LINE
  5
2AF
100
AcDbEntity
  8
RACCORDO
100
AcDbLine
 62
7
  6
CONTINUOUS
 10
23.3790180688
 20
-3.389350521
 11
23.3790180688
 21
0.2515995628
  0
LINE
  5
2B0
100
AcDbEntity
  8
RACCORDO
100
AcDbLine
 62
7
  6
CONTINUOUS
 10
23.6135440723
 20
-33.5203047451
 11
23.6135440723
 21
-25.3245192865
  0
LINE
  5
2B1
100
AcDbEntity
  8
DRAFT
100
AcDbLine
 62
7
  6
CONTINUOUS
 10
23.6135440723
 20
-21.2421679026
 11
23.6135440723
 21
-14.0980529806
  0
LINE
  5
2B2
100
AcDbEntity
  8
DRAFT
100
AcDbLine
 62
7
  6
CONTINUOUS
 10
23.6135440723
 20
-10.8321718735
 11
23.6135440723
 21
-3.6880569515
  0
LINE
  5
2B3
100
AcDbEntity
  8
RACCORDO
100
AcDbLine
 62
7
  6
CONTINUOUS
 10
23.6135440723
 20
0.3942944324
 11
23.6135440723
 21
8.590079891
  0
LINE
  5
2B4
100
AcDbEntity
  8
DRAFT
100
AcDbLine
 62
7
  6
CONTINUOUS
 10
24.5103889187
 20
0.8052277632
 11
24.5103889187
 21
-1.6234827281
  0
LINE
  5
2B5
100
AcDbEntity
  8
DRAFT
100
AcDbLine
 62
7
  6
CONTINUOUS
 10
24.5103889187
 20
-23.2599450631
 11
24.5103889187
 21
-20.8312345718
  0
LINE
  5
2B6
100
AcDbEntity
  8
DRAFT
100
AcDbLine
 62
7
  6
CONTINUOUS
 10
24.9907251493
 20
-10.2821720713
 11
24.9907251493
 21
-12.9721902235
  0
LINE
  5
2B7
100
AcDbEntity
  8
DRAFT
100
AcDbLine
 62
7
  6
CONTINUOUS
 10
25.0680664545
 20
0.7065969556
 11
25.0680664545
 21
-1.6974090675
  0
LINE
  5
2B8
100
AcDbEntity
  8
DRAFT
100
AcDbLine
 62
7
  6
CONTINUOUS
 10
25.0680664545
 20
-23.3338714025
 11
25.0680664545
 21
-20.9298653794
  0
LINE
  5
2B9
100
AcDbEntity
  8
DRAFT
100
AcDbLine
 62
7
  6
CONTINUOUS
 10
25.386264506
 20
0.8710652953
 11
25.386264506
 21
-1.4944302731
  0
LINE
  5
2BA
100
AcDbEntity
  8
RACCORDO
100
AcDbLine
 62
7
  6
CONTINUOUS
 10
25.386264506
 20
1.0146322126
 11
25.386264506
 21
0.8710652953
  0
LINE
  5
2BB
100
AcDbEntity
  8
RACCORDO
100
AcDbLine
 62
7
  6
CONTINUOUS
 10
25.386264506
 20
-20.6218301224
 11
25.386264506
 21
-20.7653970397
  0
LINE
  5
2BC
100
AcDbEntity
  8
DRAFT
100
AcDbLine
 62
7
  6
CONTINUOUS
 10
25.386264506
 20
-23.1308926082
 11
25.386264506
 21
-20.7653970397
  0
LWPOLYLINE
  5
2BD
100
AcDbEntity
  8
0
100
AcDbPolyline
 62
250
  6
CONTINUOUS
 90
11
 70
0
 10
22.5659550494
 20
-34.1716449586
 10
22.5638143861
 20
-34.2069069261
 10
22.5590648374
 20
-34.2403029852
 10
22.5517425593
 20
-34.2715783535
 10
22.5419032974
 20
-34.3004945038
 10
22.5296220554
 20
-34.3268306952
 10
22.5149926037
 20
-34.3503857453
 10
22.4981253035
 20
-34.370981297
 10
22.4791497678
 20
-34.3884585126
 10
22.4582154993
 20
-34.4026813459
 10
22.4520280886
 20
-34.4060635685
  0
LINE
  5
2BE
100
AcDbEntity
  8
0
100
AcDbLine
 62
250
  6
CONTINUOUS
 10
21.868224371
 20
7.9854010623
 11
-8.9098923741
 21
25.7562999305
  0
LINE
  5
2BF
100
AcDbEntity
  8
DRAFT
100
AcDbLine
 62
7
  6
CONTINUOUS
 10
23.6135440723
 20
-14.0980529806
 11
24.9907251493
 21
-12.9721902235
  0
LINE
  5
2C0
100
AcDbEntity
  8
0
100
AcDbLine
 62
250
  6
CONTINUOUS
 10
22.2125228127
 20
8.5922899139
 11
-8.5655939323
 21
26.3631887821
  0
LINE
  5
2C1
100
AcDbEntity
  8
0
100
AcDbLine
 62
7
  6
CONTINUOUS
 10
22.80251853
 20
8.9329443666
 11
-8.0057089021
 21
26.7212287682
  0
LINE
  5
2C2
100
AcDbEntity
  8
RACCORDO
100
AcDbLine
 62
7
  6
CONTINUOUS
 10
23.2959631535
 20
9.1414207696
 11
-7.5092040319
 21
26.927938223
  0
LINE
  5
2C3
100
AcDbEntity
  8
RACCORDO
100
AcDbLine
 62
7
  6
CONTINUOUS
 10
24.6261347827
 20
-20.319476941
 11
23.6135440723
 21
-20.6768235256
  0
LINE
  5
2C4
100
AcDbEntity
  8
RACCORDO
100
AcDbLine
 62
250
  6
CONTINUOUS
 10
24.6836455475
 20
-20.33475275
 11
23.6135440723
 21
-20.712338204
  0
LINE
  5
2C5
100
AcDbEntity
  8
DRAFT
100
AcDbLine
 62
7
  6
CONTINUOUS
 10
23.1559507667
 20
-21.520585716
 11
23.6135440723
 21
-21.2421679026
  0
LINE
  5
2C6
100
AcDbEntity
  8
DRAFT
100
AcDbLine
 62
7
  6
CONTINUOUS
 10
25.386264506
 20
-20.7653970397
 11
25.0680664545
 21
-20.9298653794
  0
LINE
  5
2C7
100
AcDbEntity
  8
RACCORDO
100
AcDbLine
 62
7
  6
CONTINUOUS
 10
24.5103889187
 20
-20.8312345718
 11
23.6135440723
 21
-21.2306505894
  0
LINE
  5
2C8
100
AcDbEntity
  8
DRAFT
100
AcDbLine
 62
7
  6
CONTINUOUS
 10
25.386264506
 20
-23.1308926082
 11
25.0680664545
 21
-23.3338714025
  0
LINE
  5
2C9
100
AcDbEntity
  8
RACCORDO
100
AcDbLine
 62
250
  6
CONTINUOUS
 10
23.3790180688
 20
-25.025812856
 11
23.1559507667
 21
-25.1546091206
  0
LINE
  5
2CA
100
AcDbEntity
  8
RACCORDO
100
AcDbLine
 62
7
  6
CONTINUOUS
 10
24.5103889187
 20
-23.2599450631
 11
23.3790180688
 21
-23.8917858835
  0
LINE
  5
2CB
100
AcDbEntity
  8
DRAFT
100
AcDbLine
 62
7
  6
CONTINUOUS
 10
23.1559507667
 20
-25.6029370999
 11
23.6135440723
 21
-25.3245192865
  0
LINE
  5
2CC
100
AcDbEntity
  8
RACCORDO
100
AcDbLine
 62
250
  6
CONTINUOUS
 10
23.520439425
 20
-25.2707618301
 11
23.1559507667
 21
-25.4812130133
  0
LINE
  5
2CD
100
AcDbEntity
  8
RACCORDO
100
AcDbLine
 62
250
  6
CONTINUOUS
 10
23.6135440723
 20
-33.5203047451
 11
23.1559507667
 21
-33.8461916339
  0
LINE
  5
2CE
100
AcDbEntity
  8
RACCORDO
100
AcDbLine
 62
7
  6
CONTINUOUS
 10
23.532225619
 20
-33.7193544613
 11
23.1282632237
 21
-34.0070467124
  0
LINE
  5
2CF
100
AcDbEntity
  8
0
100
AcDbLine
 62
250
  6
CONTINUOUS
 10
22.4520280886
 20
-34.4060635685
 11
22.451914429
 21
-34.4061225515
  0
LINE
  5
2D0
100
AcDbEntity
  8
0
100
AcDbLine
 62
250
  6
CONTINUOUS
 10
22.5659550494
 20
-34.1716449586
 11
23.1559507667
 21
-33.8657582124
  0
LINE
  5
2D1
100
AcDbEntity
  8
0
100
AcDbLine
 62
7
  6
CONTINUOUS
 10
22.451914429
 20
-34.4061225515
 11
23.0458348793
 21
-34.0982010044
  0
LWPOLYLINE
  5
2D2
100
AcDbEntity
  8
0
100
AcDbPolyline
 62
250
  6
CONTINUOUS
 90
16
 70
0
 10
22.5659550494
 20
-34.1716449586
 10
22.5267280804
 20
-34.1910173251
 10
22.484251116
 20
-34.207951292
 10
22.4389768966
 20
-34.2222664032
 10
22.3913825065
 20
-34.2338112535
 10
22.3419802674
 20
-34.2424610401
 10
22.2913140714
 20
-34.2481221845
 10
22.2399357981
 20
-34.2507372211
 10
22.1883818435
 20
-34.250282984
 10
22.1371846215
 20
-34.2467658745
 10
22.0868195838
 20
-34.2402124347
 10
22.0378949692
 20
-34.2306955759
 10
21.9911084221
 20
-34.2183699643
 10
21.9469846481
 20
-34.2034193496
 10
21.9058930403
 20
-34.1860167049
 10
21.868224371
 20
-34.1663712199
  0
ARC
  5
2D3
100
AcDbEntity
  8
0
100
AcDbCircle
 62
7
  6
CONTINUOUS
 10
22.2217777615
 20
-33.9622339232
 40
0.5
100
AcDbArc
 50
239.9984015652
 51
297.4194204712
  0
ARC
  5
2D4
100
AcDbEntity
  8
0
100
AcDbCircle
 62
7
  6
CONTINUOUS
 10
-8.5563389835
 20
-16.191335055
 40
0.5
100
AcDbArc
 50
179.9840060023
 51
239.9984015651
  0
ARC
  5
2D5
100
AcDbEntity
  8
0
100
AcDbCircle
 62
7
  6
CONTINUOUS
 10
-8.5563389835
 20
25.9604372272
 40
0.5
100
AcDbArc
 50
122.5992953906
 51
180.0013072924
  0
ELLIPSE
  5
2D6
100
AcDbEntity
  8
RACCORDO
100
AcDbEllipse
 62
7
  6
CONTINUOUS
 10
-7.5084778233
 20
26.558703842
 30
0.0
 11
-0.2245667503
 21
0.3916366537
 31
0.0
 40
0.576009292
 41
-0.7808516838
 42
-0.0566951759
  0
ELLIPSE
  5
2D7
100
AcDbEntity
  8
RACCORDO
100
AcDbEllipse
 62
7
  6
CONTINUOUS
 10
23.2952369449
 20
-33.335676758
 30
0.0
 11
-0.2245667503
 21
0.3916366537
 31
0.0
 40
0.576009292
 41
-3.0848974781
 42
-2.3539294839
  0
ELLIPSE
  5
2D8
100
AcDbEntity
  8
RACCORDO
100
AcDbEllipse
 62
7
  6
CONTINUOUS
 10
23.2952369449
 20
8.7730249961
 30
0.0
 11
-0.224044438
 21
0.3907502414
 31
0.0
 40
0.5786435377
 41
-2.35161679
 42
-0.7831019366
  0
ELLIPSE
  5
2D9
100
AcDbEntity
  8
RACCORDO
100
AcDbEllipse
 62
7
  6
CONTINUOUS
 10
22.8022761807
 20
-33.6612711071
 30
0.0
 11
-0.2501834304
 21
0.4333025529
 31
0.0
 40
0.5769361983
 41
3.1154319183
 42
3.9265999453
  0
ELLIPSE
  5
2DA
100
AcDbEntity
  8
RACCORDO
100
AcDbEllipse
 62
7
  6
CONTINUOUS
 10
22.8022761807
 20
8.5247092178
 30
0.0
 11
-0.2500121049
 21
0.4330057129
 31
0.0
 40
0.5777274115
 41
-2.3559002616
 42
-0.7857891675
  0
ELLIPSE
  5
2DB
100
AcDbEntity
  8
RACCORDO
100
AcDbEllipse
 62
7
  6
CONTINUOUS
 10
-8.0054665527
 20
26.3127137603
 30
0.0
 11
-0.2501834304
 21
0.4333025529
 31
0.0
 40
0.5769361983
 41
5.4980815048
 42
6.3093460435
  0
ENDSEC
  0
SECTION
  2
OBJECTS
  0
DICTIONARY
  5
C
100
AcDbDictionary
280
0
281
1
  3
ACAD_GROUP
350
D
  3
ACAD_MLINESTYLE
350
17
  3
ACAD_LAYOUT
350
1A
  3
ACAD_PLOTSETTINGS
350
19
  3
ACAD_PLOTSTYLENAME
350
E
  0
DICTIONARY
  5
D
102
{ACAD_REACTORS
330
C
102
}
100
AcDbDictionary
280
0
281
1
  0
ACDBDICTIONARYWDFLT
  5
E
102
{ACAD_REACTORS
330
C
102
}
100
AcDbDictionary
281
1
  3
Normal
350
F
100
AcDbDictionaryWithDefault
340
F
  0
DICTIONARY
  5
17
102
{ACAD_REACTORS
330
C
102
}
100
AcDbDictionary
280
0
281
1
  3
Standard
350
18
  0
DICTIONARY
  5
19
102
{ACAD_REACTORS
330
C
102
}
100
AcDbDictionary
281
1
  0
DICTIONARY
  5
1A
102
{ACAD_REACTORS
330
C
102
}
100
AcDbDictionary
281
1
  3
Model
350
2DC
  3
Layout1
350
2DD
  0
ACDBPLACEHOLDER
  5
F
102
{ACAD_REACTORS
330
E
102
}
  0
MLINESTYLE
  5
18
102
{ACAD_REACTORS
330
17
102
}
100
AcDbMlineStyle
  2
STANDARD
 70
0
  3

 62
256
 51
90.0
 52
90.0
 71
2
 49
0.5
 62
256
  6
BYLAYER
 49
-0.5
 62
256
  6
BYLAYER
  0
LAYOUT
  5
2DC
102
{ACAD_REACTORS
330
1A
102
}
100
AcDbPlotSettings
  1

  2
none_device
  4
ISO_A3_(420.00_x_297.00_MM)
  6

 40
0.0
 41
0.0
 42
0.0
 43
0.0
 44
420.0
 45
297.0
 46
0.0
 47
0.0
 48
0.0
 49
0.0
140
0.0
141
0.0
142
1.0
143
1.0
 70
1024
 72
1
 73
0
 74
0
  7

 75
0
147
1.0
148
0.0
149
0.0
100
AcDbLayout
  1
Model
 70
0
 71
0
 10
0.0
 20
0.0
 11
420.0
 21
297.0
 12
0.0
 22
0.0
 32
0.0
 14
0.0
 24
0.0
 34
0.0
 15
0.0
 25
0.0
 35
0.0
146
0.0
 13
0.0
 23
0.0
 33
0.0
 16
1.0
 26
0.0
 36
0.0
 17
0.0
 27
1.0
 37
0.0
 76
0
330
218
345
0
346
0
  0
LAYOUT
  5
2DD
102
{ACAD_REACTORS
330
1A
102
}
100
AcDbPlotSettings
  1

  2
none_device
  4
ISO_A3_(420.00_x_297.00_MM)
  6

 40
0.0
 41
0.0
 42
0.0
 43
0.0
 44
420.0
 45
297.0
 46
0.0
 47
0.0
 48
0.0
 49
0.0
140
0.0
141
0.0
142
1.0
143
1.0
 70
0
 72
1
 73
0
 74
0
  7

 75
0
147
1.0
148
0.0
149
0.0
100
AcDbLayout
  1
Layout1
 70
0
 71
1
 10
0.0
 20
0.0
 11
420.0
 21
297.0
 12
0.0
 22
0.0
 32
0.0
 14
0.0
 24
0.0
 34
0.0
 15
0.0
 25
0.0
 35
0.0
146
0.0
 13
0.0
 23
0.0
 33
0.0
 16
1.0
 26
0.0
 36
0.0
 17
0.0
 27
1.0
 37
0.0
 76
0
330
219
345
0
346
0
  0
ENDSEC
  0
EOF
