  0
SECTION
  2
HEADER
  9
$ACADVER
  1
AC1024
  9
$DWGCODEPAGE
  3
ANSI_1252
  9
$EXTMAX
 10
297.0
 20
210.0
 30
0.0
  9
$EXTMIN
 10
0.0
 20
0.0
 30
0.0
  9
$LIMMIN
 10
0.0
 20
0.0
  9
$LIMMAX
 10
297.0
 20
210.0
  9
$VIEWCTR
 10
148.5
 20
105.0
  9
$VIEWSIZE
 40
210.0
  9
$CLAYER
  8
0
  9
$LTSCALE
 40
16.335
  9
$CELTYPE
  6
BYLAYER
  9
$DIMSCALE
 40
1.0
  9
$DIMASZ
 40
3.0
  9
$DIMEXO
 40
0.5
  9
$DIMDLI
 40
11.286
  9
$DIMEXE
 40
1.5
  9
$DIMCEN
 40
2.673
  9
$DIMLFAC
 40
1.0
  9
$DIMBLK
  1
_FILLED
  9
$DIMALT
 70
0
  9
$DIMALTF
 40
0.0393700787
  9
$DIMTXT
 40
3.0
  9
$DIMTOL
 70
1
  9
$DIMLIM
 70
0
  9
$DIMTFAC
 40
1.0
  9
$DIMTP
 40
0.01
  9
$DIMTM
 40
0.01
  9
$DIMGAP
 40
0.625
  9
$DIMDSEP
 70
44
  9
$AUNITS
 70
0
  9
$PDMODE
 70
3
  9
$PDSIZE
 40
3.0
  9
$HANDSEED
  5
3BA
  9
$TILEMODE
 70
1
  9
$MEASUREMENT
 70
1
  9
$INSUNITS
 70
4
  0
ENDSEC
  0
SECTION
  2
CLASSES
  0
CLASS
  1
ACDBDICTIONARYWDFLT
  2
AcDbDictionaryWithDefault
  3
AutoCAD 2000
 90
0
 91
1
280
0
281
0
  0
CLASS
  1
ACDBPLACEHOLDER
  2
AcDbPlaceHolder
  3
AutoCAD 2000
 90
0
 91
1
280
0
281
0
  0
CLASS
  1
LAYOUT
  2
AcDbLayout
  3
AutoCAD 2000
 90
0
 91
0
280
0
281
0
  0
ENDSEC
  0
SECTION
  2
TABLES
  0
TABLE
  2
VPORT
  5
8
100
AcDbSymbolTable
 70
2
  0
VPORT
  5
1F4
100
AcDbSymbolTableRecord
100
AcDbViewportTableRecord
  2
*ACTIVE
 70
0
 10
0.0
 20
0.0
 11
1.0
 21
1.0
 12
148.5
 22
105.0
 13
0.0
 23
0.0
 14
1.0
 24
1.0
 15
0.0
 25
0.0
 16
0.0
 26
0.0
 36
1.0
 17
0.0
 27
0.0
 37
0.0
 40
210.0
 41
1.4142857143
 42
50.0
 43
0.0
 44
0.0
 50
0.0
 51
0.0
 71
0
 72
100
 73
1
 74
1
 75
0
 76
0
 77
0
 78
0
  0
ENDTAB
  0
TABLE
  2
LTYPE
  5
5
100
AcDbSymbolTable
 70
6
  0
LTYPE
  5
14
100
AcDbSymbolTableRecord
100
AcDbLinetypeTableRecord
  2
BYBLOCK
 70
0
  3

 72
65
 73
0
 40
0.0
  0
LTYPE
  5
15
100
AcDbSymbolTableRecord
100
AcDbLinetypeTableRecord
  2
BYLAYER
 70
0
  3

 72
65
 73
0
 40
0.0
  0
LTYPE
  5
16
100
AcDbSymbolTableRecord
100
AcDbLinetypeTableRecord
  2
CONTINUOUS
 70
64
  3
Solid line
 72
65
 73
0
 40
0.0
  0
LTYPE
  5
1F5
100
AcDbSymbolTableRecord
100
AcDbLinetypeTableRecord
  2
CENTER
 70
64
  3
____ _ ____ _ ____ _ ____ _ ____ _ ____ _ ____
 72
65
 73
4
 40
0.6
 49
0.375
 74
0
 49
-0.075
 74
0
 49
0.075
 74
0
 49
-0.075
 74
0
  0
LTYPE
  5
1F6
100
AcDbSymbolTableRecord
100
AcDbLinetypeTableRecord
  2
HIDDEN
 70
64
  3
- - - - - - - - - - - - - - - - - - - -
 72
65
 73
2
 40
0.2
 49
0.1
 74
0
 49
-0.1
 74
0
  0
LTYPE
  5
1F7
100
AcDbSymbolTableRecord
100
AcDbLinetypeTableRecord
  2
PHANTOM
 70
64
  3
_____ _ _ _____ _ _ _____ _ _ _____
 72
65
 73
6
 40
0.8
 49
0.45
 74
0
 49
-0.05
 74
0
 49
0.1
 74
0
 49
-0.05
 74
0
 49
0.1
 74
0
 49
-0.05
 74
0
  0
LTYPE
  5
1F8
100
AcDbSymbolTableRecord
100
AcDbLinetypeTableRecord
  2
DOT
 70
64
  3
. . . . . . . . . . . . . . . . . . . .
 72
65
 73
2
 40
0.2
 49
0.1
 74
0
 49
-0.1
 74
0
  0
LTYPE
  5
1F9
100
AcDbSymbolTableRecord
100
AcDbLinetypeTableRecord
  2
DASHED
 70
64
  3
- - - - - - - - - - - - - - - - - - - -
 72
65
 73
2
 40
0.2
 49
0.1
 74
0
 49
-0.1
 74
0
  0
ENDTAB
  0
TABLE
  2
LAYER
  5
2
100
AcDbSymbolTable
 70
36
  0
LAYER
  5
10
100
AcDbSymbolTableRecord
100
AcDbLayerTableRecord
  2
0
 70
0
 62
7
  6
CONTINUOUS
370
-3
390
F
  0
LAYER
  5
1FA
100
AcDbSymbolTableRecord
100
AcDbLayerTableRecord
  2
DEFAULT_1
 70
0
 62
7
  6
CENTER
370
-3
390
F
  0
LAYER
  5
1FB
100
AcDbSymbolTableRecord
100
AcDbLayerTableRecord
  2
DEFAULT_2
 70
0
 62
7
  6
HIDDEN
370
-3
390
F
  0
LAYER
  5
1FC
100
AcDbSymbolTableRecord
100
AcDbLayerTableRecord
  2
DEFAULT_3
 70
0
 62
7
  6
PHANTOM
370
-3
390
F
  0
LAYER
  5
1FD
100
AcDbSymbolTableRecord
100
AcDbLayerTableRecord
  2
ASSI
 70
0
 62
7
  6
CONTINUOUS
370
-3
390
F
  0
LAYER
  5
1FE
100
AcDbSymbolTableRecord
100
AcDbLayerTableRecord
  2
COORDINATE
 70
0
 62
7
  6
CONTINUOUS
370
-3
390
F
  0
LAYER
  5
1FF
100
AcDbSymbolTableRecord
100
AcDbLayerTableRecord
  2
COPY_PUBLISH
 70
0
 62
7
  6
CONTINUOUS
370
-3
390
F
  0
LAYER
  5
200
100
AcDbSymbolTableRecord
100
AcDbLayerTableRecord
  2
COSMETICI
 70
0
 62
7
  6
CONTINUOUS
370
-3
390
F
  0
LAYER
  5
201
100
AcDbSymbolTableRecord
100
AcDbLayerTableRecord
  2
CURVE
 70
0
 62
7
  6
CONTINUOUS
370
-3
390
F
  0
LAYER
  5
202
100
AcDbSymbolTableRecord
100
AcDbLayerTableRecord
  2
DRAFT
 70
0
 62
7
  6
CONTINUOUS
370
-3
390
F
  0
LAYER
  5
203
100
AcDbSymbolTableRecord
100
AcDbLayerTableRecord
  2
IMPORT_IGES
 70
0
 62
7
  6
CONTINUOUS
370
-3
390
F
  0
LAYER
  5
204
100
AcDbSymbolTableRecord
100
AcDbLayerTableRecord
  2
INTF_1
 70
0
 62
7
  6
CONTINUOUS
370
-3
390
F
  0
LAYER
  5
205
100
AcDbSymbolTableRecord
100
AcDbLayerTableRecord
  2
INTF_2
 70
0
 62
7
  6
CONTINUOUS
370
-3
390
F
  0
LAYER
  5
206
100
AcDbSymbolTableRecord
100
AcDbLayerTableRecord
  2
INTF_3
 70
0
 62
7
  6
CONTINUOUS
370
-3
390
F
  0
LAYER
  5
207
100
AcDbSymbolTableRecord
100
AcDbLayerTableRecord
  2
INTF_4
 70
0
 62
7
  6
CONTINUOUS
370
-3
390
F
  0
LAYER
  5
208
100
AcDbSymbolTableRecord
100
AcDbLayerTableRecord
  2
INTF_5
 70
0
 62
7
  6
CONTINUOUS
370
-3
390
F
  0
LAYER
  5
209
100
AcDbSymbolTableRecord
100
AcDbLayerTableRecord
  2
INTF_6
 70
0
 62
7
  6
CONTINUOUS
370
-3
390
F
  0
LAYER
  5
20A
100
AcDbSymbolTableRecord
100
AcDbLayerTableRecord
  2
INTF_7
 70
0
 62
7
  6
CONTINUOUS
370
-3
390
F
  0
LAYER
  5
20B
100
AcDbSymbolTableRecord
100
AcDbLayerTableRecord
  2
INTF_9
 70
0
 62
7
  6
CONTINUOUS
370
-3
390
F
  0
LAYER
  5
20C
100
AcDbSymbolTableRecord
100
AcDbLayerTableRecord
  2
INTF_BLANK
 70
0
 62
7
  6
CONTINUOUS
370
-3
390
F
  0
LAYER
  5
20D
100
AcDbSymbolTableRecord
100
AcDbLayerTableRecord
  2
INTF_RED
 70
0
 62
7
  6
CONTINUOUS
370
-3
390
F
  0
LAYER
  5
20E
100
AcDbSymbolTableRecord
100
AcDbLayerTableRecord
  2
NOTE
 70
0
 62
7
  6
CONTINUOUS
370
-3
390
F
  0
LAYER
  5
20F
100
AcDbSymbolTableRecord
100
AcDbLayerTableRecord
  2
PIANI
 70
0
 62
7
  6
CONTINUOUS
370
-3
390
F
  0
LAYER
  5
210
100
AcDbSymbolTableRecord
100
AcDbLayerTableRecord
  2
PUNTI
 70
0
 62
7
  6
CONTINUOUS
370
-3
390
F
  0
LAYER
  5
211
100
AcDbSymbolTableRecord
100
AcDbLayerTableRecord
  2
RACCORDO
 70
0
 62
7
  6
CONTINUOUS
370
-3
390
F
  0
LAYER
  5
212
100
AcDbSymbolTableRecord
100
AcDbLayerTableRecord
  2
RGB____0____0____0__
 70
0
 62
7
  6
CONTINUOUS
370
-3
390
F
  0
LAYER
  5
213
100
AcDbSymbolTableRecord
100
AcDbLayerTableRecord
  2
SIMBOLI
 70
0
 62
7
  6
CONTINUOUS
370
-3
390
F
  0
LAYER
  5
214
100
AcDbSymbolTableRecord
100
AcDbLayerTableRecord
  2
SMUSSO
 70
0
 62
7
  6
CONTINUOUS
370
-3
390
F
  0
LAYER
  5
215
100
AcDbSymbolTableRecord
100
AcDbLayerTableRecord
  2
SNAPLINE
 70
0
 62
7
  6
CONTINUOUS
370
-3
390
F
  0
LAYER
  5
216
100
AcDbSymbolTableRecord
100
AcDbLayerTableRecord
  2
SUPERFICI
 70
0
 62
7
  6
CONTINUOUS
370
-3
390
F
  0
LAYER
  5
217
100
AcDbSymbolTableRecord
100
AcDbLayerTableRecord
  2
TRASH
 70
0
 62
7
  6
CONTINUOUS
370
-3
390
F
  0
ENDTAB
  0
TABLE
  2
STYLE
  5
3
100
AcDbSymbolTable
 70
1
  0
STYLE
  5
11
100
AcDbSymbolTableRecord
100
AcDbTextStyleTableRecord
  2
STANDARD
 70
0
 40
0.0
 41
0.8
 50
0.0
 71
0
 42
0.2
  3
txt
  4

  0
STYLE
  5
218
100
AcDbSymbolTableRecord
100
AcDbTextStyleTableRecord
  2
TEXTSTYLE_1
 70
0
 40
0.0
 41
0.8
 50
0.0
 71
0
 42
0.2
  3
gdt
  4

  0
ENDTAB
  0
TABLE
  2
VIEW
  5
6
100
AcDbSymbolTable
 70
0
  0
ENDTAB
  0
TABLE
  2
UCS
  5
7
100
AcDbSymbolTable
 70
0
  0
ENDTAB
  0
TABLE
  2
APPID
  5
9
100
AcDbSymbolTable
 70
1
  0
APPID
  5
219
100
AcDbSymbolTableRecord
100
AcDbRegAppTableRecord
  2
ACAD
 70
0
  0
ENDTAB
  0
TABLE
  2
BLOCK_RECORD
  5
1
100
AcDbSymbolTable
 70
0
  0
BLOCK_RECORD
  5
21A
100
AcDbSymbolTableRecord
100
AcDbBlockTableRecord
  2
*Model_Space
  0
BLOCK_RECORD
  5
21B
100
AcDbSymbolTableRecord
100
AcDbBlockTableRecord
  2
*Paper_Space
  0
BLOCK_RECORD
  5
21C
100
AcDbSymbolTableRecord
100
AcDbBlockTableRecord
  2
_FILLED
  0
ENDTAB
  0
TABLE
  2
DIMSTYLE
  5
A
100
AcDbSymbolTable
 70
1
100
AcDbDimStyleTable
 71
0
  0
DIMSTYLE
105
21D
100
AcDbSymbolTableRecord
100
AcDbDimStyleTableRecord
  2
STANDARD
 70
0
  3

  4

 40
1.0
 41
3.0
 42
0.5
 43
0.38
 44
1.5
 45
0.0
 46
0.0
 47
0.01
 48
0.01
140
3.0
141
0.09
142
0.0
143
25.4
144
1.0
145
0.0
146
1.0
147
0.625
 71
1
 72
0
 73
0
 74
0
 75
0
 76
0
 77
1
 78
8
 79
2
170
0
171
1
172
0
173
0
174
0
175
0
176
0
177
0
178
0
270
2
179
2
271
2
272
2
273
2
274
2
275
0
280
0
281
0
282
0
283
1
284
8
285
0
286
0
287
3
288
0
340
11
278
44
341
21C
342
21C
343
21C
344
21C
  0
ENDTAB
  0
ENDSEC
  0
SECTION
  2
BLOCKS
  0
BLOCK
  5
20
100
AcDbEntity
  8
0
100
AcDbBlockBegin
  2
*Model_Space
 70
0
 10
0.0
 20
0.0
 30
0.0
  3
*Model_Space
  1

  0
ENDBLK
  5
21
100
AcDbEntity
  8
0
100
AcDbBlockEnd
  0
BLOCK
  5
1C
100
AcDbEntity
  8
0
100
AcDbBlockBegin
  2
*Paper_Space
 70
0
 10
0.0
 20
0.0
 30
0.0
  3
*Paper_Space
  1

  0
ENDBLK
  5
1D
100
AcDbEntity
  8
0
100
AcDbBlockEnd
  0
BLOCK
  5
21E
100
AcDbEntity
  8
0
100
AcDbBlockBegin
  2
_FILLED
 70
64
 10
0.0
 20
0.0
  3
_FILLED
  1

  0
SOLID
  5
21F
100
AcDbEntity
  8
0
  6
BYBLOCK
 62
0
100
AcDbTrace
 10
0.0
 20
0.0
 11
-1.0
 21
0.3166666667
 12
-1.0
 22
-0.3166666667
 13
-1.0
 23
-0.3166666667
  0
ENDBLK
  5
220
100
AcDbEntity
  8
0
  6
BYBLOCK
 62
0
100
AcDbBlockEnd
  0
ENDSEC
  0
SECTION
  2
ENTITIES
  0
LINE
  5
221
100
AcDbEntity
  8
COPY_PUBLISH
100
AcDbLine
 62
7
  6
CONTINUOUS
 10
-9.3515170199
 20
25.0878506424
 11
-8.7879075893
 21
25.4482723393
  0
LINE
  5
222
100
AcDbEntity
  8
ASSI
100
AcDbLine
 62
7
  6
CONTINUOUS
 10
-9.3515170199
 20
25.0878506424
 11
-8.7879075893
 21
25.4482723393
  0
LWPOLYLINE
  5
223
100
AcDbEntity
  8
COPY_PUBLISH
100
AcDbPolyline
 62
250
  6
CONTINUOUS
 90
9
 70
0
 10
-9.3515170199
 20
25.0878506424
 10
-9.3310150726
 20
25.0990236254
 10
-9.3020176473
 20
25.109302083
 10
-9.2705583671
 20
25.1147215879
 10
-9.2370231316
 20
25.1152043262
 10
-9.2019213288
 20
25.1107717861
 10
-9.1657023214
 20
25.1015446201
 10
-9.1287261726
 20
25.0876759083
 10
-9.0913980187
 20
25.0693686813
  0
LWPOLYLINE
  5
224
100
AcDbEntity
  8
ASSI
100
AcDbPolyline
 62
250
  6
CONTINUOUS
 90
9
 70
0
 10
-9.3515170199
 20
25.0878506424
 10
-9.3310150726
 20
25.0990236254
 10
-9.3020176473
 20
25.109302083
 10
-9.2705583671
 20
25.1147215879
 10
-9.2370231316
 20
25.1152043262
 10
-9.2019213288
 20
25.1107717861
 10
-9.1657023214
 20
25.1015446201
 10
-9.1287261726
 20
25.0876759083
 10
-9.0913980187
 20
25.0693686813
  0
LINE
  5
225
100
AcDbEntity
  8
RACCORDO
100
AcDbLine
 62
7
  6
CONTINUOUS
 10
-8.2335890689
 20
25.6422352556
 11
-8.6250358839
 21
25.4662884874
  0
LINE
  5
226
100
AcDbEntity
  8
ASSI
100
AcDbLine
 62
7
  6
CONTINUOUS
 10
-8.2335890689
 20
25.6422352556
 11
-8.6250358839
 21
25.4662884874
  0
LINE
  5
227
100
AcDbEntity
  8
RACCORDO
100
AcDbLine
 62
250
  6
CONTINUOUS
 10
-8.0228920848
 20
25.6131325367
 11
-8.4897450234
 21
25.4032923678
  0
LINE
  5
228
100
AcDbEntity
  8
ASSI
100
AcDbLine
 62
250
  6
CONTINUOUS
 10
-8.0228920848
 20
25.6131325367
 11
-8.4897450234
 21
25.4032923678
  0
LINE
  5
229
100
AcDbEntity
  8
0
100
AcDbLine
 62
250
  6
CONTINUOUS
 10
-9.0913980187
 20
25.0693686813
 11
-8.5315129884
 21
25.4274086673
  0
LINE
  5
22A
100
AcDbEntity
  8
ASSI
100
AcDbLine
 62
250
  6
CONTINUOUS
 10
-9.0913980187
 20
25.0693686813
 11
-8.5315129884
 21
25.4274086673
  0
LINE
  5
22B
100
AcDbEntity
  8
COPY_PUBLISH
100
AcDbLine
 62
7
  6
CONTINUOUS
 10
-9.3321551499
 20
-17.9181608831
 11
5.5360590184
 21
-26.5028814014
  0
LINE
  5
22C
100
AcDbEntity
  8
ASSI
100
AcDbLine
 62
7
  6
CONTINUOUS
 10
-9.3321551499
 20
-17.9181608831
 11
5.5360590184
 21
-26.5028814014
  0
LINE
  5
22D
100
AcDbEntity
  8
COPY_PUBLISH
100
AcDbLine
 62
250
  6
CONTINUOUS
 10
-9.4356964604
 20
-17.6892924525
 11
5.4325177079
 21
-26.2740129708
  0
LINE
  5
22E
100
AcDbEntity
  8
ASSI
100
AcDbLine
 62
250
  6
CONTINUOUS
 10
-9.4356964604
 20
-17.6892924525
 11
5.4325177079
 21
-26.2740129708
  0
LWPOLYLINE
  5
22F
100
AcDbEntity
  8
COPY_PUBLISH
100
AcDbPolyline
 62
250
  6
CONTINUOUS
 90
9
 70
0
 10
-9.3321551499
 20
-17.9181608831
 10
-9.3477550522
 20
-17.9079520568
 10
-9.3703342664
 20
-17.8880360694
 10
-9.3898602777
 20
-17.8638518141
 10
-9.4061262204
 20
-17.8356555079
 10
-9.418959767
 20
-17.8037458728
 10
-9.4282249543
 20
-17.7684609714
 10
-9.4338236235
 20
-17.7301746248
 10
-9.4356964604
 20
-17.6892924525
  0
LWPOLYLINE
  5
230
100
AcDbEntity
  8
ASSI
100
AcDbPolyline
 62
250
  6
CONTINUOUS
 90
9
 70
0
 10
-9.3321551499
 20
-17.9181608831
 10
-9.3477550522
 20
-17.9079520568
 10
-9.3703342664
 20
-17.8880360694
 10
-9.3898602777
 20
-17.8638518141
 10
-9.4061262204
 20
-17.8356555079
 10
-9.418959767
 20
-17.8037458728
 10
-9.4282249543
 20
-17.7684609714
 10
-9.4338236235
 20
-17.7301746248
 10
-9.4356964604
 20
-17.6892924525
  0
LWPOLYLINE
  5
231
100
AcDbEntity
  8
CURVE
100
AcDbPolyline
 62
250
  6
CONTINUOUS
 90
55
 70
0
 10
0.1745344277
 20
-17.3088365359
 10
0.1754614466
 20
-17.3093497565
 10
0.1763918337
 20
-17.3098214716
 10
0.1773248006
 20
-17.3102521365
 10
0.1782595589
 20
-17.3106422063
 10
0.1791953201
 20
-17.3109921361
 10
0.1801312958
 20
-17.3113023811
 10
0.1810666977
 20
-17.3115733965
 10
0.1820007372
 20
-17.3118056373
 10
0.1829326259
 20
-17.3119995586
 10
0.1838615754
 20
-17.3121556158
 10
0.1847867972
 20
-17.3122742638
 10
0.185707503
 20
-17.3123559579
 10
0.1866229043
 20
-17.3124011531
 10
0.1875322126
 20
-17.3124103047
 10
0.1884346396
 20
-17.3123838677
 10
0.1893293968
 20
-17.3123222973
 10
0.1902156958
 20
-17.3122260486
 10
0.1910927481
 20
-17.3120955769
 10
0.1919597654
 20
-17.3119313371
 10
0.1928159591
 20
-17.3117337846
 10
0.1936605409
 20
-17.3115033743
 10
0.1944927223
 20
-17.3112405615
 10
0.1953117149
 20
-17.3109458013
 10
0.1961167302
 20
-17.3106195488
 10
0.1969069799
 20
-17.3102622592
 10
0.1976816755
 20
-17.3098743876
 10
0.1984400285
 20
-17.3094563892
 10
0.1991812506
 20
-17.309008719
 10
0.1999045533
 20
-17.3085318324
 10
0.2006091482
 20
-17.3080261843
 10
0.2012942468
 20
-17.3074922299
 10
0.2019590607
 20
-17.3069304244
 10
0.2026028016
 20
-17.306341223
 10
0.2032246808
 20
-17.3057250806
 10
0.2038239101
 20
-17.3050824526
 10
0.204399701
 20
-17.3044137941
 10
0.2049512651
 20
-17.3037195601
 10
0.2054778138
 20
-17.3030002058
 10
0.2059785589
 20
-17.3022561864
 10
0.2064527119
 20
-17.301487957
 10
0.2068994843
 20
-17.3006959727
 10
0.2073180876
 20
-17.2998806888
 10
0.2077077336
 20
-17.2990425603
 10
0.2080676337
 20
-17.2981820423
 10
0.2083969996
 20
-17.2972995901
 10
0.2086950427
 20
-17.2963956588
 10
0.2089609747
 20
-17.2954707034
 10
0.2091940071
 20
-17.2945251792
 10
0.2093933515
 20
-17.2935595413
 10
0.2095582194
 20
-17.2925742448
 10
0.2096878225
 20
-17.2915697448
 10
0.2097813723
 20
-17.2905464966
 10
0.2098380803
 20
-17.2895049553
 10
0.2098571582
 20
-17.2884455759
  0
LINE
  5
232
100
AcDbEntity
  8
CURVE
100
AcDbLine
 62
250
  6
CONTINUOUS
 10
-4.3511599672
 20
-14.6957573126
 11
0.1745344277
 21
-17.3088365359
  0
LWPOLYLINE
  5
233
100
AcDbEntity
  8
CURVE
100
AcDbPolyline
 62
250
  6
CONTINUOUS
 90
36
 70
0
 10
-4.3986629496
 20
13.5094971972
 10
-4.3998518525
 20
13.5088907902
 10
-4.4010150667
 20
13.5082283694
 10
-4.4021520687
 20
13.5075110714
 10
-4.4032623344
 20
13.5067400328
 10
-4.4043453404
 20
13.5059163902
 10
-4.4054005626
 20
13.5050412801
 10
-4.4064274775
 20
13.5041158392
 10
-4.4074255613
 20
13.5031412042
 10
-4.4083942901
 20
13.5021185114
 10
-4.4093331402
 20
13.5010488977
 10
-4.4102415879
 20
13.4999334995
 10
-4.4111191094
 20
13.4987734535
 10
-4.411965181
 20
13.4975698963
 10
-4.4127792788
 20
13.4963239645
 10
-4.4135608792
 20
13.4950367946
 10
-4.4143094583
 20
13.4937095233
 10
-4.4150244924
 20
13.4923432871
 10
-4.4157054577
 20
13.4909392227
 10
-4.4163518305
 20
13.4894984667
 10
-4.416963087
 20
13.4880221556
 10
-4.4175387035
 20
13.4865114261
 10
-4.4180781562
 20
13.4849674148
 10
-4.4185809213
 20
13.4833912582
 10
-4.419046475
 20
13.481784093
 10
-4.4194742937
 20
13.4801470557
 10
-4.4198638536
 20
13.478481283
 10
-4.4202146308
 20
13.4767879114
 10
-4.4205261016
 20
13.4750680776
 10
-4.4207977423
 20
13.4733229182
 10
-4.4210290292
 20
13.4715535697
 10
-4.4212194383
 20
13.4697611687
 10
-4.4213684461
 20
13.4679468519
 10
-4.4214755286
 20
13.4661117558
 10
-4.4215401623
 20
13.4642570171
 10
-4.4215618232
 20
13.4623837723
  0
LINE
  5
234
100
AcDbEntity
  8
CURVE
100
AcDbLine
 62
250
  6
CONTINUOUS
 10
-2.0637086609
 20
14.6281652972
 11
-4.3986629496
 21
13.5094971972
  0
LINE
  5
235
100
AcDbEntity
  8
CURVE
100
AcDbLine
 62
250
  6
CONTINUOUS
 10
-4.0683345182
 20
13.1146997503
 11
-2.0162056785
 21
14.0976651597
  0
LWPOLYLINE
  5
236
100
AcDbEntity
  8
RACCORDO
100
AcDbPolyline
 62
250
  6
CONTINUOUS
 90
8
 70
0
 10
8.2867969932
 20
-12.4352368056
 10
8.3178098566
 20
-12.4275667971
 10
8.3477779954
 20
-12.423487644
 10
8.3763744717
 20
-12.4229901901
 10
8.4034508701
 20
-12.4259815721
 10
8.4289911093
 20
-12.4324151482
 10
8.4528021311
 20
-12.4423035366
 10
8.4604843547
 20
-12.446462516
  0
LINE
  5
237
100
AcDbEntity
  8
DRAFT
100
AcDbLine
 62
7
  6
CONTINUOUS
 10
8.6323597915
 20
-15.4415131534
 11
8.0746822556
 21
-15.367586814
  0
LWPOLYLINE
  5
238
100
AcDbEntity
  8
CURVE
100
AcDbPolyline
 62
250
  6
CONTINUOUS
 90
55
 70
0
 10
-1.4997629981
 20
-14.1171790972
 10
-1.500690017
 20
-14.1166658767
 10
-1.5016204041
 20
-14.1161941615
 10
-1.502553371
 20
-14.1157634966
 10
-1.5034881293
 20
-14.1153734268
 10
-1.5044238905
 20
-14.115023497
 10
-1.5053598662
 20
-14.114713252
 10
-1.5062952681
 20
-14.1144422367
 10
-1.5072293075
 20
-14.1142099959
 10
-1.5081611962
 20
-14.1140160745
 10
-1.5090901457
 20
-14.1138600173
 10
-1.5100153676
 20
-14.1137413693
 10
-1.5109360734
 20
-14.1136596752
 10
-1.5118514747
 20
-14.11361448
 10
-1.512760783
 20
-14.1136053284
 10
-1.51366321
 20
-14.1136317654
 10
-1.5145579672
 20
-14.1136933358
 10
-1.5154442662
 20
-14.1137895845
 10
-1.5163213185
 20
-14.1139200562
 10
-1.5171883358
 20
-14.114084296
 10
-1.5180445295
 20
-14.1142818486
 10
-1.5188891113
 20
-14.1145122588
 10
-1.5197212927
 20
-14.1147750716
 10
-1.5205402852
 20
-14.1150698319
 10
-1.5213453006
 20
-14.1153960843
 10
-1.5221355503
 20
-14.115753374
 10
-1.5229102459
 20
-14.1161412455
 10
-1.5236685989
 20
-14.116559244
 10
-1.524409821
 20
-14.1170069141
 10
-1.5251331237
 20
-14.1174838008
 10
-1.5258377186
 20
-14.1179894488
 10
-1.5265228172
 20
-14.1185234032
 10
-1.5271876311
 20
-14.1190852087
 10
-1.5278313719
 20
-14.1196744102
 10
-1.5284532512
 20
-14.1202905525
 10
-1.5290524805
 20
-14.1209331805
 10
-1.5296282714
 20
-14.1216018391
 10
-1.5301798354
 20
-14.1222960731
 10
-1.5307063842
 20
-14.1230154273
 10
-1.5312071293
 20
-14.1237594467
 10
-1.5316812823
 20
-14.1245276761
 10
-1.5321280546
 20
-14.1253196604
 10
-1.532546658
 20
-14.1261349443
 10
-1.532936304
 20
-14.1269730728
 10
-1.5332962041
 20
-14.1278335908
 10
-1.53362557
 20
-14.128716043
 10
-1.5339236131
 20
-14.1296199744
 10
-1.5341895451
 20
-14.1305449297
 10
-1.5344225774
 20
-14.1314904539
 10
-1.5346219218
 20
-14.1324560919
 10
-1.5347867898
 20
-14.1334413884
 10
-1.5349163929
 20
-14.1344458883
 10
-1.5350099427
 20
-14.1354691365
 10
-1.5350666507
 20
-14.1365106779
 10
-1.5350857286
 20
-14.1375700572
  0
LWPOLYLINE
  5
239
100
AcDbEntity
  8
CURVE
100
AcDbPolyline
 62
250
  6
CONTINUOUS
 90
37
 70
0
 10
-0.215477238
 20
-16.185797162
 10
-0.2146684892
 20
-16.1862516138
 10
-0.2138567298
 20
-16.1866829876
 10
-0.2130425892
 20
-16.1870912241
 10
-0.2122266963
 20
-16.1874762644
 10
-0.2114096805
 20
-16.1878380495
 10
-0.2105921708
 20
-16.1881765204
 10
-0.2097747964
 20
-16.1884916179
 10
-0.2089581864
 20
-16.1887832831
 10
-0.2081429701
 20
-16.1890514569
 10
-0.2073297764
 20
-16.1892960803
 10
-0.2065192347
 20
-16.1895170943
 10
-0.2057119741
 20
-16.1897144398
 10
-0.2049086237
 20
-16.1898880578
 10
-0.2041098126
 20
-16.1900378893
 10
-0.2033161701
 20
-16.1901638752
 10
-0.2025283253
 20
-16.1902659565
 10
-0.2017469073
 20
-16.1903440742
 10
-0.2009725452
 20
-16.1903981693
 10
-0.2002058683
 20
-16.1904281826
 10
-0.1994475057
 20
-16.1904340552
 10
-0.1986980866
 20
-16.1904157281
 10
-0.1979582401
 20
-16.1903731422
 10
-0.1972285953
 20
-16.1903062385
 10
-0.1965097814
 20
-16.1902149579
 10
-0.1958024276
 20
-16.1900992414
 10
-0.195107163
 20
-16.18995903
 10
-0.1944246168
 20
-16.1897942647
 10
-0.1937554181
 20
-16.1896048864
 10
-0.193100196
 20
-16.189390836
 10
-0.1924595799
 20
-16.1891520547
 10
-0.1918341987
 20
-16.1888884832
 10
-0.1912246816
 20
-16.1886000626
 10
-0.1906316578
 20
-16.1882867339
 10
-0.1900557565
 20
-16.1879484381
 10
-0.1894976068
 20
-16.187585116
 10
-0.1889578379
 20
-16.1871967086
  0
LINE
  5
23A
100
AcDbEntity
  8
CURVE
100
AcDbLine
 62
250
  6
CONTINUOUS
 10
0.1745344277
 20
-16.9006966348
 11
-4.0678473081
 21
-14.4511985901
  0
LINE
  5
23B
100
AcDbEntity
  8
CURVE
100
AcDbLine
 62
250
  6
CONTINUOUS
 10
-0.5842952655
 20
-15.9728462553
 11
-0.215477238
 21
-16.185797162
  0
LINE
  5
23C
100
AcDbEntity
  8
CURVE
100
AcDbLine
 62
250
  6
CONTINUOUS
 10
-1.4997629981
 20
-14.5253189983
 11
0.0074213717
 21
-15.395548364
  0
LINE
  5
23D
100
AcDbEntity
  8
CURVE
100
AcDbLine
 62
250
  6
CONTINUOUS
 10
0.0074213717
 20
-14.9874084628
 11
-1.4997629981
 21
-14.1171790972
  0
LINE
  5
23E
100
AcDbEntity
  8
CURVE
100
AcDbLine
 62
7
  6
CONTINUOUS
 10
-4.4215618232
 20
13.3797466818
 11
-4.1935354873
 21
13.6077730177
  0
LINE
  5
23F
100
AcDbEntity
  8
CURVE
100
AcDbLine
 62
7
  6
CONTINUOUS
 10
-4.4215618232
 20
12.9597252537
 11
-3.3872031916
 21
13.9940838853
  0
LINE
  5
240
100
AcDbEntity
  8
CURVE
100
AcDbLine
 62
7
  6
CONTINUOUS
 10
-4.4215618232
 20
12.5397038257
 11
-4.0683345182
 21
12.8929311307
  0
LINE
  5
241
100
AcDbEntity
  8
CURVE
100
AcDbLine
 62
7
  6
CONTINUOUS
 10
-3.6426766936
 20
13.3185889553
 11
-2.580870896
 21
14.380394753
  0
LINE
  5
242
100
AcDbEntity
  8
CURVE
100
AcDbLine
 62
7
  6
CONTINUOUS
 10
-4.4215618232
 20
12.1196823977
 11
-4.0683345182
 21
12.4729097027
  0
LINE
  5
243
100
AcDbEntity
  8
CURVE
100
AcDbLine
 62
7
  6
CONTINUOUS
 10
-2.8364967763
 20
13.7047474446
 11
-1.9682154861
 21
14.5730287348
  0
LINE
  5
244
100
AcDbEntity
  8
CURVE
100
AcDbLine
 62
7
  6
CONTINUOUS
 10
-4.4215618232
 20
11.6996609697
 11
-4.0683345182
 21
12.0528882747
  0
LINE
  5
245
100
AcDbEntity
  8
CURVE
100
AcDbLine
 62
7
  6
CONTINUOUS
 10
-2.030316859
 20
14.0909059338
 11
-1.8088365763
 21
14.3123862165
  0
LINE
  5
246
100
AcDbEntity
  8
CURVE
100
AcDbLine
 62
7
  6
CONTINUOUS
 10
-4.4215618232
 20
11.2796395416
 11
-4.0683345182
 21
11.6328668467
  0
LINE
  5
247
100
AcDbEntity
  8
CURVE
100
AcDbLine
 62
7
  6
CONTINUOUS
 10
-1.8596216798
 20
13.841579685
 11
-1.6494576666
 21
14.0517436982
  0
LINE
  5
248
100
AcDbEntity
  8
0
100
AcDbLine
 62
250
  6
CONTINUOUS
 10
6.366811867
 20
16.8253026157
 11
5.7768161497
 21
16.484648163
  0
LINE
  5
249
100
AcDbEntity
  8
ASSI
100
AcDbLine
 62
250
  6
CONTINUOUS
 10
6.366811867
 20
16.8253026157
 11
5.7768161497
 21
16.484648163
  0
LINE
  5
24A
100
AcDbEntity
  8
RACCORDO
100
AcDbLine
 62
250
  6
CONTINUOUS
 10
6.848140457
 20
17.0267847249
 11
6.4029611898
 21
16.80210139
  0
LINE
  5
24B
100
AcDbEntity
  8
ASSI
100
AcDbLine
 62
250
  6
CONTINUOUS
 10
6.848140457
 20
17.0267847249
 11
6.4029611898
 21
16.80210139
  0
LINE
  5
24C
100
AcDbEntity
  8
RACCORDO
100
AcDbLine
 62
250
  6
CONTINUOUS
 10
7.1657213758
 20
16.4754438463
 11
6.7185134404
 21
16.2497366364
  0
LINE
  5
24D
100
AcDbEntity
  8
ASSI
100
AcDbLine
 62
250
  6
CONTINUOUS
 10
7.1657213758
 20
16.4754438463
 11
6.7185134404
 21
16.2497366364
  0
LWPOLYLINE
  5
24E
100
AcDbEntity
  8
COPY_PUBLISH
100
AcDbPolyline
 62
250
  6
CONTINUOUS
 90
16
 70
0
 10
6.1302483864
 20
15.8724855727
 10
6.09102414
 20
15.853114416
 10
6.048550163
 20
15.8361812727
 10
6.0032790783
 20
15.821866591
 10
5.9556876555
 20
15.8103217371
 10
5.9062882916
 20
15.8016715916
 10
5.8556254091
 20
15.7960098066
 10
5.8042518192
 20
15.7933937865
 10
5.7527028114
 20
15.7938464797
 10
5.7015082977
 20
15.7973616503
 10
5.6511431056
 20
15.8039132116
 10
5.6022162132
 20
15.8134285835
 10
5.5554250552
 20
15.8257535732
 10
5.5112946266
 20
15.840704861
 10
5.4701950335
 20
15.8581097531
 10
5.4325177079
 20
15.8777593114
  0
LWPOLYLINE
  5
24F
100
AcDbEntity
  8
ASSI
100
AcDbPolyline
 62
250
  6
CONTINUOUS
 90
16
 70
0
 10
6.1302483864
 20
15.8724855727
 10
6.09102414
 20
15.853114416
 10
6.048550163
 20
15.8361812727
 10
6.0032790783
 20
15.821866591
 10
5.9556876555
 20
15.8103217371
 10
5.9062882916
 20
15.8016715916
 10
5.8556254091
 20
15.7960098066
 10
5.8042518192
 20
15.7933937865
 10
5.7527028114
 20
15.7938464797
 10
5.7015082977
 20
15.7973616503
 10
5.6511431056
 20
15.8039132116
 10
5.6022162132
 20
15.8134285835
 10
5.5554250552
 20
15.8257535732
 10
5.5112946266
 20
15.840704861
 10
5.4701950335
 20
15.8581097531
 10
5.4325177079
 20
15.8777593114
  0
LINE
  5
250
100
AcDbEntity
  8
DRAFT
100
AcDbLine
 62
7
  6
CONTINUOUS
 10
8.6323597915
 20
-13.0375071303
 11
8.0746822556
 21
-12.9388763227
  0
LWPOLYLINE
  5
251
100
AcDbEntity
  8
CURVE
100
AcDbPolyline
 62
250
  6
CONTINUOUS
 90
67
 70
0
 10
0.2259350907
 20
-13.6123745446
 10
0.2271481943
 20
-13.6130449376
 10
0.2283660306
 20
-13.6136587396
 10
0.2295868319
 20
-13.614216058
 10
0.2308088306
 20
-13.6147170004
 10
0.2320302588
 20
-13.6151616741
 10
0.233249349
 20
-13.6155501866
 10
0.2344643333
 20
-13.6158826454
 10
0.2356734441
 20
-13.6161591578
 10
0.2368749136
 20
-13.6163798314
 10
0.2380669742
 20
-13.6165447736
 10
0.2392478582
 20
-13.6166540918
 10
0.2404157978
 20
-13.6167078934
 10
0.2415690253
 20
-13.616706286
 10
0.2427057731
 20
-13.6166493769
 10
0.2438242734
 20
-13.6165372736
 10
0.2449227585
 20
-13.6163700836
 10
0.2459994607
 20
-13.6161479142
 10
0.2470526122
 20
-13.615870873
 10
0.2480804455
 20
-13.6155390674
 10
0.2490811927
 20
-13.6151526048
 10
0.2500530862
 20
-13.6147115926
 10
0.2509943583
 20
-13.6142161384
 10
0.2519032412
 20
-13.6136663495
 10
0.2527779672
 20
-13.6130623335
 10
0.2536167687
 20
-13.6124041977
 10
0.2544178778
 20
-13.6116920496
 10
0.255179527
 20
-13.6109259966
 10
0.2558999485
 20
-13.6101061462
 10
0.2565773746
 20
-13.6092326058
 10
0.2572100376
 20
-13.6083054829
 10
0.2577961698
 20
-13.607324885
 10
0.2583340034
 20
-13.6062909193
 10
0.2588217708
 20
-13.6052036935
 10
0.2592563903
 20
-13.6040685981
 10
0.2596402402
 20
-13.6028833599
 10
0.2599739531
 20
-13.601650546
 10
0.2602581613
 20
-13.6003727234
 10
0.2604934973
 20
-13.599052459
 10
0.2606805935
 20
-13.5976923198
 10
0.2608200822
 20
-13.5962948729
 10
0.260912596
 20
-13.5948626851
 10
0.2609587672
 20
-13.5933983235
 10
0.2609592282
 20
-13.5919043551
 10
0.2609146115
 20
-13.5903833469
 10
0.2608255495
 20
-13.5888378658
 10
0.2606926745
 20
-13.5872704789
 10
0.2605166191
 20
-13.5856837531
 10
0.2602980156
 20
-13.5840802554
 10
0.2600374964
 20
-13.5824625528
 10
0.2597356939
 20
-13.5808332123
 10
0.2593932407
 20
-13.5791948009
 10
0.259010769
 20
-13.5775498855
 10
0.2585889113
 20
-13.5759010332
 10
0.2581283
 20
-13.5742508109
 10
0.2576295676
 20
-13.5726017857
 10
0.2570933464
 20
-13.5709565244
 10
0.2565202688
 20
-13.5693175942
 10
0.2559109674
 20
-13.5676875619
 10
0.2552660744
 20
-13.5660689947
 10
0.2545862224
 20
-13.5644644594
 10
0.2538720436
 20
-13.562876523
 10
0.2531241707
 20
-13.5613077526
 10
0.2523432358
 20
-13.5597607151
 10
0.2515298716
 20
-13.5582379775
 10
0.2506847103
 20
-13.5567421068
 10
0.2498083844
 20
-13.55527567
  0
LWPOLYLINE
  5
252
100
AcDbEntity
  8
CURVE
100
AcDbPolyline
 62
250
  6
CONTINUOUS
 90
65
 70
0
 10
-0.5842952655
 20
-13.7273735945
 10
-0.5854826369
 20
-13.7267161682
 10
-0.5866743117
 20
-13.7261118969
 10
-0.5878686331
 20
-13.7255607553
 10
-0.589063944
 20
-13.7250627182
 10
-0.5902585877
 20
-13.7246177602
 10
-0.5914509073
 20
-13.7242258561
 10
-0.5926392458
 20
-13.7238869807
 10
-0.5938219465
 20
-13.7236011087
 10
-0.5949973525
 20
-13.7233682148
 10
-0.5961638068
 20
-13.7231882738
 10
-0.5973196526
 20
-13.7230612605
 10
-0.5984632331
 20
-13.7229871495
 10
-0.5995928913
 20
-13.7229659156
 10
-0.6007069704
 20
-13.7229975335
 10
-0.6018038134
 20
-13.7230819781
 10
-0.6028817636
 20
-13.723219224
 10
-0.6039391641
 20
-13.7234092459
 10
-0.6049743579
 20
-13.7236520186
 10
-0.6059856882
 20
-13.723947517
 10
-0.6069714982
 20
-13.7242957155
 10
-0.6079301308
 20
-13.7246965892
 10
-0.6088599294
 20
-13.7251501126
 10
-0.609759237
 20
-13.7256562605
 10
-0.6106263966
 20
-13.7262150077
 10
-0.6114597516
 20
-13.7268263288
 10
-0.6122576449
 20
-13.7274901988
 10
-0.6130184197
 20
-13.7282065921
 10
-0.6137404191
 20
-13.7289754838
 10
-0.6144219863
 20
-13.7297968483
 10
-0.6150614643
 20
-13.7306706606
 10
-0.6156571963
 20
-13.7315968953
 10
-0.6162075255
 20
-13.7325755272
 10
-0.6167101388
 20
-13.7336039422
 10
-0.6171663081
 20
-13.7346821927
 10
-0.6175764528
 20
-13.7358079607
 10
-0.6179409924
 20
-13.7369789282
 10
-0.6182603464
 20
-13.7381927773
 10
-0.6185349341
 20
-13.73944719
 10
-0.6187651751
 20
-13.7407398482
 10
-0.6189514889
 20
-13.7420684341
 10
-0.6190942948
 20
-13.7434306296
 10
-0.6191940123
 20
-13.7448241168
 10
-0.619251061
 20
-13.7462465775
 10
-0.6192658601
 20
-13.747695694
 10
-0.6192388293
 20
-13.7491691481
 10
-0.619170388
 20
-13.7506646219
 10
-0.6190609556
 20
-13.7521797975
 10
-0.6189109516
 20
-13.7537123567
 10
-0.6187207954
 20
-13.7552599817
 10
-0.6184909065
 20
-13.7568203545
 10
-0.6182217043
 20
-13.758391157
 10
-0.6179136084
 20
-13.7599700713
 10
-0.6175670382
 20
-13.7615547794
 10
-0.6171824131
 20
-13.7631429633
 10
-0.6167601525
 20
-13.764732305
 10
-0.616300676
 20
-13.7663204866
 10
-0.615804403
 20
-13.7679051901
 10
-0.615271753
 20
-13.7694840974
 10
-0.6147031454
 20
-13.7710548906
 10
-0.6140989997
 20
-13.7726152517
 10
-0.6134597353
 20
-13.7741628627
 10
-0.6127857717
 20
-13.7756954056
 10
-0.6120775283
 20
-13.7772105625
 10
-0.6113354247
 20
-13.7787060154
  0
LINE
  5
253
100
AcDbEntity
  8
CURVE
100
AcDbLine
 62
250
  6
CONTINUOUS
 10
-0.214990028
 20
-13.9406058101
 11
-0.5842952655
 21
-13.7273735945
  0
LINE
  5
254
100
AcDbEntity
  8
CURVE
100
AcDbLine
 62
250
  6
CONTINUOUS
 10
-0.1928219695
 20
-13.3705894663
 11
0.2259350907
 21
-13.6123745446
  0
LINE
  5
255
100
AcDbEntity
  8
RACCORDO
100
AcDbLine
 62
7
  6
CONTINUOUS
 10
7.1657213758
 20
-17.4251653916
 11
7.084732762
 21
-17.378403581
  0
LINE
  5
256
100
AcDbEntity
  8
ASSI
100
AcDbLine
 62
7
  6
CONTINUOUS
 10
7.1657213758
 20
-17.4251653916
 11
7.084732762
 21
-17.378403581
  0
LWPOLYLINE
  5
257
100
AcDbEntity
  8
COPY_PUBLISH
100
AcDbPolyline
 62
250
  6
CONTINUOUS
 90
9
 70
0
 10
-9.5821430698
 20
-17.4851551559
 10
-9.5810283847
 20
-17.5044215866
 10
-9.574940323
 20
-17.5339806572
 10
-9.5635934169
 20
-17.5630608879
 10
-9.5471133712
 20
-17.5913106624
 10
-9.5257672382
 20
-17.6183272906
 10
-9.4998725164
 20
-17.643807647
 10
-9.4697283012
 20
-17.6675380369
 10
-9.4356964604
 20
-17.6892924525
  0
LWPOLYLINE
  5
258
100
AcDbEntity
  8
ASSI
100
AcDbPolyline
 62
250
  6
CONTINUOUS
 90
9
 70
0
 10
-9.5821430698
 20
-17.4851551559
 10
-9.5810283847
 20
-17.5044215866
 10
-9.574940323
 20
-17.5339806572
 10
-9.5635934169
 20
-17.5630608879
 10
-9.5471133712
 20
-17.5913106624
 10
-9.5257672382
 20
-17.6183272906
 10
-9.4998725164
 20
-17.643807647
 10
-9.4697283012
 20
-17.6675380369
 10
-9.4356964604
 20
-17.6892924525
  0
LINE
  5
259
100
AcDbEntity
  8
COPY_PUBLISH
100
AcDbLine
 62
7
  6
CONTINUOUS
 10
-9.5821430698
 20
-17.4851551559
 11
-9.5821430698
 21
24.6666171264
  0
LINE
  5
25A
100
AcDbEntity
  8
ASSI
100
AcDbLine
 62
7
  6
CONTINUOUS
 10
-9.5821430698
 20
-17.4851551559
 11
-9.5821430698
 21
24.6666171264
  0
LINE
  5
25B
100
AcDbEntity
  8
COPY_PUBLISH
100
AcDbLine
 62
250
  6
CONTINUOUS
 10
-9.4356964604
 20
-17.6892924525
 11
-9.4356964604
 21
24.4624798297
  0
LINE
  5
25C
100
AcDbEntity
  8
ASSI
100
AcDbLine
 62
250
  6
CONTINUOUS
 10
-9.4356964604
 20
-17.6892924525
 11
-9.4356964604
 21
24.4624798297
  0
LWPOLYLINE
  5
25D
100
AcDbEntity
  8
COPY_PUBLISH
100
AcDbPolyline
 62
250
  6
CONTINUOUS
 90
16
 70
0
 10
-9.4356964604
 20
24.4624798297
 10
-9.4338236235
 20
24.5055247071
 10
-9.4282249543
 20
24.5502762566
 10
-9.418959767
 20
24.596260364
 10
-9.4061262204
 20
24.642989857
 10
-9.3898602777
 20
24.6899696662
 10
-9.3703342664
 20
24.7367020699
 10
-9.3477550522
 20
24.7826919679
 10
-9.3223618476
 20
24.8274521265
 10
-9.2944236774
 20
24.8705083404
 10
-9.2642365285
 20
24.9114044564
 10
-9.2321202148
 20
24.9497072061
 10
-9.1984149884
 20
24.9850107958
 10
-9.1634779348
 20
25.0169412064
 10
-9.1276791899
 20
25.0451601556
 10
-9.0913980187
 20
25.0693686813
  0
LWPOLYLINE
  5
25E
100
AcDbEntity
  8
ASSI
100
AcDbPolyline
 62
250
  6
CONTINUOUS
 90
16
 70
0
 10
-9.4356964604
 20
24.4624798297
 10
-9.4338236235
 20
24.5055247071
 10
-9.4282249543
 20
24.5502762566
 10
-9.418959767
 20
24.596260364
 10
-9.4061262204
 20
24.642989857
 10
-9.3898602777
 20
24.6899696662
 10
-9.3703342664
 20
24.7367020699
 10
-9.3477550522
 20
24.7826919679
 10
-9.3223618476
 20
24.8274521265
 10
-9.2944236774
 20
24.8705083404
 10
-9.2642365285
 20
24.9114044564
 10
-9.2321202148
 20
24.9497072061
 10
-9.1984149884
 20
24.9850107958
 10
-9.1634779348
 20
25.0169412064
 10
-9.1276791899
 20
25.0451601556
 10
-9.0913980187
 20
25.0693686813
  0
LINE
  5
25F
100
AcDbEntity
  8
CURVE
100
AcDbLine
 62
7
  6
CONTINUOUS
 10
-4.4215618232
 20
10.8596181136
 11
-4.0683345182
 21
11.2128454186
  0
LINE
  5
260
100
AcDbEntity
  8
CURVE
100
AcDbLine
 62
7
  6
CONTINUOUS
 10
-1.7002480431
 20
13.5809318937
 11
-1.4900787569
 21
13.7911011799
  0
LINE
  5
261
100
AcDbEntity
  8
CURVE
100
AcDbLine
 62
7
  6
CONTINUOUS
 10
-4.4215618232
 20
10.4395966856
 11
-4.0683345182
 21
10.7928239906
  0
LINE
  5
262
100
AcDbEntity
  8
CURVE
100
AcDbLine
 62
7
  6
CONTINUOUS
 10
-1.5408744064
 20
13.3202841024
 11
-1.3306998472
 21
13.5304586616
  0
LINE
  5
263
100
AcDbEntity
  8
CURVE
100
AcDbLine
 62
7
  6
CONTINUOUS
 10
-4.4215618232
 20
10.0195752576
 11
-4.0683345182
 21
10.3728025626
  0
LINE
  5
264
100
AcDbEntity
  8
CURVE
100
AcDbLine
 62
7
  6
CONTINUOUS
 10
-1.3815007696
 20
13.0596363111
 11
-1.1713209375
 21
13.2698161433
  0
LINE
  5
265
100
AcDbEntity
  8
CURVE
100
AcDbLine
 62
7
  6
CONTINUOUS
 10
-4.2655389812
 20
9.7555766715
 11
-4.006794754
 21
10.0143208987
  0
LINE
  5
266
100
AcDbEntity
  8
CURVE
100
AcDbLine
 62
7
  6
CONTINUOUS
 10
-1.2221271329
 20
12.7989885198
 11
-1.0119420278
 21
13.009173625
  0
LINE
  5
267
100
AcDbEntity
  8
CURVE
100
AcDbLine
 62
7
  6
CONTINUOUS
 10
-3.9992623455
 20
9.6018318793
 11
-3.7405181183
 21
9.8605761065
  0
LINE
  5
268
100
AcDbEntity
  8
CURVE
100
AcDbLine
 62
7
  6
CONTINUOUS
 10
-1.0627534962
 20
12.5383407285
 11
-0.8525631181
 21
12.7485311067
  0
LINE
  5
269
100
AcDbEntity
  8
CURVE
100
AcDbLine
 62
7
  6
CONTINUOUS
 10
-3.7329857097
 20
9.448087087
 11
-3.4742414825
 21
9.7068313142
  0
LINE
  5
26A
100
AcDbEntity
  8
CURVE
100
AcDbLine
 62
7
  6
CONTINUOUS
 10
-0.9033798595
 20
12.2776929372
 11
-0.6931842084
 21
12.4878885884
  0
LWPOLYLINE
  5
26B
100
AcDbEntity
  8
COPY_PUBLISH
100
AcDbPolyline
 62
250
  6
CONTINUOUS
 90
16
 70
0
 10
5.7768161497
 20
16.484648163
 10
5.7405349785
 20
16.4604396372
 10
5.7047362336
 20
16.4322206881
 10
5.66979918
 20
16.4002902775
 10
5.6360939535
 20
16.3649866878
 10
5.6039776398
 20
16.3266839381
 10
5.573790491
 20
16.2857878221
 10
5.5458523207
 20
16.2427316081
 10
5.5204591161
 20
16.1979714496
 10
5.4978799019
 20
16.1519815516
 10
5.4783538906
 20
16.1052491479
 10
5.4620879479
 20
16.0582693387
 10
5.4492544013
 20
16.0115398457
 10
5.4399892141
 20
15.9655557383
 10
5.4343905448
 20
15.9208041887
 10
5.4325177079
 20
15.8777593114
  0
LWPOLYLINE
  5
26C
100
AcDbEntity
  8
ASSI
100
AcDbPolyline
 62
250
  6
CONTINUOUS
 90
16
 70
0
 10
5.7768161497
 20
16.484648163
 10
5.7405349785
 20
16.4604396372
 10
5.7047362336
 20
16.4322206881
 10
5.66979918
 20
16.4002902775
 10
5.6360939535
 20
16.3649866878
 10
5.6039776398
 20
16.3266839381
 10
5.573790491
 20
16.2857878221
 10
5.5458523207
 20
16.2427316081
 10
5.5204591161
 20
16.1979714496
 10
5.4978799019
 20
16.1519815516
 10
5.4783538906
 20
16.1052491479
 10
5.4620879479
 20
16.0582693387
 10
5.4492544013
 20
16.0115398457
 10
5.4399892141
 20
15.9655557383
 10
5.4343905448
 20
15.9208041887
 10
5.4325177079
 20
15.8777593114
  0
LINE
  5
26D
100
AcDbEntity
  8
0
100
AcDbLine
 62
250
  6
CONTINUOUS
 10
6.7202441037
 20
16.2131400254
 11
6.1302483864
 21
15.8724855727
  0
LINE
  5
26E
100
AcDbEntity
  8
ASSI
100
AcDbLine
 62
250
  6
CONTINUOUS
 10
6.7202441037
 20
16.2131400254
 11
6.1302483864
 21
15.8724855727
  0
LWPOLYLINE
  5
26F
100
AcDbEntity
  8
COPY_PUBLISH
100
AcDbPolyline
 62
250
  6
CONTINUOUS
 90
9
 70
0
 10
-9.5821430695
 20
24.6666057195
 10
-9.5810265336
 20
24.6473347226
 10
-9.5749351097
 20
24.6177740865
 10
-9.5635849463
 20
24.588693945
 10
-9.547102322
 20
24.560445487
 10
-9.5257551105
 20
24.5334315242
 10
-9.4998615558
 20
24.5079550148
 10
-9.4697212376
 20
24.4842292411
 10
-9.4356964604
 20
24.4624798297
  0
LWPOLYLINE
  5
270
100
AcDbEntity
  8
ASSI
100
AcDbPolyline
 62
250
  6
CONTINUOUS
 90
9
 70
0
 10
-9.5821430695
 20
24.6666057195
 10
-9.5810265336
 20
24.6473347226
 10
-9.5749351097
 20
24.6177740865
 10
-9.5635849463
 20
24.588693945
 10
-9.547102322
 20
24.560445487
 10
-9.5257551105
 20
24.5334315242
 10
-9.4998615558
 20
24.5079550148
 10
-9.4697212376
 20
24.4842292411
 10
-9.4356964604
 20
24.4624798297
  0
LINE
  5
271
100
AcDbEntity
  8
CURVE
100
AcDbLine
 62
7
  6
CONTINUOUS
 10
-3.4667090739
 20
9.2943422947
 11
-3.2079648467
 21
9.5530865219
  0
LINE
  5
272
100
AcDbEntity
  8
CURVE
100
AcDbLine
 62
7
  6
CONTINUOUS
 10
-0.7440062227
 20
12.017045146
 11
-0.5338052986
 21
12.22724607
  0
LINE
  5
273
100
AcDbEntity
  8
CURVE
100
AcDbLine
 62
7
  6
CONTINUOUS
 10
-3.2004324382
 20
9.1405975025
 11
-2.941688211
 21
9.3993417297
  0
LINE
  5
274
100
AcDbEntity
  8
CURVE
100
AcDbLine
 62
7
  6
CONTINUOUS
 10
-0.584632586
 20
11.7563973547
 11
-0.3744263889
 21
11.9666035517
  0
LINE
  5
275
100
AcDbEntity
  8
CURVE
100
AcDbLine
 62
7
  6
CONTINUOUS
 10
-2.9341558024
 20
8.9868527102
 11
-2.6754115752
 21
9.2455969374
  0
LINE
  5
276
100
AcDbEntity
  8
CURVE
100
AcDbLine
 62
7
  6
CONTINUOUS
 10
-0.4252589493
 20
11.4957495634
 11
-0.2150474792
 21
11.7059610334
  0
LINE
  5
277
100
AcDbEntity
  8
CURVE
100
AcDbLine
 62
7
  6
CONTINUOUS
 10
-2.6678791666
 20
8.833107918
 11
-2.4091349395
 21
9.0918521452
  0
LINE
  5
278
100
AcDbEntity
  8
CURVE
100
AcDbLine
 62
7
  6
CONTINUOUS
 10
-1.4661913256
 20
10.034795759
 11
-0.6749601569
 21
10.8260269277
  0
LINE
  5
279
100
AcDbEntity
  8
CURVE
100
AcDbLine
 62
7
  6
CONTINUOUS
 10
-0.2658853125
 20
11.2351017721
 11
-0.0556685695
 21
11.4453185151
  0
LINE
  5
27A
100
AcDbEntity
  8
CURVE
100
AcDbLine
 62
7
  6
CONTINUOUS
 10
-2.4016025309
 20
8.6793631257
 11
-2.1428583037
 21
8.9381073529
  0
LINE
  5
27B
100
AcDbEntity
  8
CURVE
100
AcDbLine
 62
7
  6
CONTINUOUS
 10
-1.3239115146
 20
9.757054142
 11
-0.4086835212
 21
10.6722821354
  0
LINE
  5
27C
100
AcDbEntity
  8
CURVE
100
AcDbLine
 62
7
  6
CONTINUOUS
 10
-0.039380079
 20
11.0415855775
 11
0.1037103402
 21
11.1846759968
  0
LINE
  5
27D
100
AcDbEntity
  8
CURVE
100
AcDbLine
 62
7
  6
CONTINUOUS
 10
-2.1353258951
 20
8.5256183334
 11
-1.8765816679
 21
8.7843625606
  0
LINE
  5
27E
100
AcDbEntity
  8
CURVE
100
AcDbLine
 62
7
  6
CONTINUOUS
 10
-1.1816317036
 20
9.479312525
 11
-0.7255175835
 21
9.9354266451
  0
LINE
  5
27F
100
AcDbEntity
  8
CURVE
100
AcDbLine
 62
7
  6
CONTINUOUS
 10
0.2269312661
 20
10.8878754947
 11
0.2597550015
 21
10.92069923
  0
LWPOLYLINE
  5
280
100
AcDbEntity
  8
CURVE
100
AcDbPolyline
 62
250
  6
CONTINUOUS
 90
65
 70
0
 10
-0.3270483454
 20
10.5580612972
 10
-0.3263087895
 20
10.5587093913
 10
-0.3256026889
 20
10.559415687
 10
-0.324930487
 20
10.5601783774
 10
-0.3242926274
 20
10.5609956556
 10
-0.3236895536
 20
10.5618657148
 10
-0.3231217092
 20
10.5627867482
 10
-0.3225895376
 20
10.5637569488
 10
-0.3220934824
 20
10.5647745099
 10
-0.3216339872
 20
10.5658376244
 10
-0.3212114954
 20
10.5669444857
 10
-0.3208264506
 20
10.5680932867
 10
-0.3204792963
 20
10.5692822207
 10
-0.320170476
 20
10.5705094808
 10
-0.3199004332
 20
10.57177326
 10
-0.3196696116
 20
10.5730717516
 10
-0.3194784545
 20
10.5744031487
 10
-0.3193274056
 20
10.5757656445
 10
-0.3192169083
 20
10.5771574319
 10
-0.3191474062
 20
10.5785767043
 10
-0.3191193428
 20
10.5800216547
 10
-0.3191331616
 20
10.5814904762
 10
-0.3191893062
 20
10.582981362
 10
-0.3192882201
 20
10.5844925053
 10
-0.3194303468
 20
10.5860220991
 10
-0.3196161298
 20
10.5875683367
 10
-0.3198460127
 20
10.5891294111
 10
-0.320120439
 20
10.5907035154
 10
-0.3204398522
 20
10.5922888428
 10
-0.3208046959
 20
10.5938835865
 10
-0.3212154135
 20
10.5954859396
 10
-0.3216724486
 20
10.5970940952
 10
-0.3221762447
 20
10.5987062464
 10
-0.3227262643
 20
10.6003187894
 10
-0.3233217262
 20
10.6019315677
 10
-0.3239609714
 20
10.603542633
 10
-0.3246423412
 20
10.6051500367
 10
-0.3253641767
 20
10.6067518302
 10
-0.3261248191
 20
10.608346065
 10
-0.3269226097
 20
10.6099307925
 10
-0.3277558896
 20
10.6115040643
 10
-0.328623
 20
10.6130639317
 10
-0.3295222821
 20
10.6146084463
 10
-0.3304520771
 20
10.6161356596
 10
-0.3314107262
 20
10.6176436228
 10
-0.3323965706
 20
10.6191303877
 10
-0.3334079515
 20
10.6205940055
 10
-0.3344432101
 20
10.6220325278
 10
-0.3355006875
 20
10.623444006
 10
-0.3365787249
 20
10.6248264916
 10
-0.3376756636
 20
10.6261780361
 10
-0.3387898448
 20
10.6274966908
 10
-0.3399196096
 20
10.6287805074
 10
-0.3410632992
 20
10.6300275372
 10
-0.3422192548
 20
10.6312358317
 10
-0.3433858177
 20
10.6324034423
 10
-0.344561329
 20
10.6335284206
 10
-0.3457441298
 20
10.634608818
 10
-0.3469325614
 20
10.6356426859
 10
-0.3481249651
 20
10.6366280759
 10
-0.3493196819
 20
10.6375630393
 10
-0.350515053
 20
10.6384456277
 10
-0.3517094197
 20
10.6392738925
 10
-0.3529011232
 20
10.6400458851
 10
-0.3540885046
 20
10.6407596571
  0
LWPOLYLINE
  5
281
100
AcDbEntity
  8
CURVE
100
AcDbPolyline
 62
250
  6
CONTINUOUS
 90
50
 70
0
 10
-1.537521779
 20
10.22663823
 10
-1.5381047971
 20
10.2261351743
 10
-1.5386635227
 20
10.2255888699
 10
-1.539197956
 20
10.2250005604
 10
-1.5397080968
 20
10.2243714892
 10
-1.5401939453
 20
10.2237029
 10
-1.5406555013
 20
10.2229960361
 10
-1.5410927648
 20
10.2222521411
 10
-1.541505736
 20
10.2214724585
 10
-1.5418944147
 20
10.2206582318
 10
-1.542258801
 20
10.2198107046
 10
-1.5425988949
 20
10.2189311203
 10
-1.5429146964
 20
10.2180207224
 10
-1.5432062054
 20
10.2170807546
 10
-1.5434734221
 20
10.2161124602
 10
-1.5437163463
 20
10.2151170828
 10
-1.5439349781
 20
10.2140958659
 10
-1.5441293174
 20
10.213050053
 10
-1.5442993644
 20
10.2119808876
 10
-1.5444451189
 20
10.2108896133
 10
-1.544566581
 20
10.2097774735
 10
-1.5446637507
 20
10.2086457118
 10
-1.5447366279
 20
10.2074955716
 10
-1.5447852128
 20
10.2063282965
 10
-1.5448095052
 20
10.2051451301
 10
-1.5448095052
 20
10.2039473157
 10
-1.5447852128
 20
10.2027360969
 10
-1.5447366279
 20
10.2015127173
 10
-1.5446637507
 20
10.2002784203
 10
-1.544566581
 20
10.1990344495
 10
-1.5444451189
 20
10.1977820483
 10
-1.5442993644
 20
10.1965224603
 10
-1.5441293174
 20
10.195256929
 10
-1.5439349781
 20
10.1939866979
 10
-1.5437163463
 20
10.1927130104
 10
-1.5434734221
 20
10.1914371103
 10
-1.5432062054
 20
10.1901602408
 10
-1.5429146964
 20
10.1888836456
 10
-1.5425988949
 20
10.1876085681
 10
-1.542258801
 20
10.1863362519
 10
-1.5418944147
 20
10.1850679405
 10
-1.541505736
 20
10.1838048774
 10
-1.5410927648
 20
10.1825483061
 10
-1.5406555013
 20
10.18129947
 10
-1.5401939453
 20
10.1800596129
 10
-1.5397080968
 20
10.178829978
 10
-1.539197956
 20
10.177611809
 10
-1.5386635227
 20
10.1764063494
 10
-1.5381047971
 20
10.1752148426
 10
-1.537521779
 20
10.1740385322
  0
LINE
  5
282
100
AcDbEntity
  8
CURVE
100
AcDbLine
 62
250
  6
CONTINUOUS
 10
-0.9462923519
 20
10.0628992294
 11
-0.3270483454
 21
10.5580612972
  0
LINE
  5
283
100
AcDbEntity
  8
CURVE
100
AcDbLine
 62
250
  6
CONTINUOUS
 10
-0.7506775064
 20
10.8551185224
 11
-1.537521779
 21
10.22663823
  0
LWPOLYLINE
  5
284
100
AcDbEntity
  8
RACCORDO
100
AcDbPolyline
 62
7
  6
CONTINUOUS
 90
9
 70
0
 10
8.4604648411
 20
-12.4464671801
 10
8.4328353201
 20
-12.4325975621
 10
8.3978396146
 20
-12.4202249609
 10
8.3611818259
 20
-12.4125287802
 10
8.3233696008
 20
-12.4095185515
 10
8.2848197514
 20
-12.4111582475
 10
8.2457098645
 20
-12.4173982622
 10
8.2063402244
 20
-12.4282069282
 10
8.19951186
 20
-12.4305468269
  0
LWPOLYLINE
  5
285
100
AcDbEntity
  8
CURVE
100
AcDbPolyline
 62
250
  6
CONTINUOUS
 90
34
 70
0
 10
-0.2166952632
 20
-13.3461166171
 10
-0.2161083137
 20
-13.3470440551
 10
-0.2155076515
 20
-13.3479658642
 10
-0.2148937784
 20
-13.3488814653
 10
-0.2142671957
 20
-13.3497902789
 10
-0.213628405
 20
-13.3506917258
 10
-0.2129779078
 20
-13.3515852267
 10
-0.2123162057
 20
-13.3524702024
 10
-0.2116438001
 20
-13.3533460735
 10
-0.2109611925
 20
-13.3542122608
 10
-0.2102688845
 20
-13.3550681849
 10
-0.2095673776
 20
-13.3559132667
 10
-0.2088571733
 20
-13.3567469267
 10
-0.2081387731
 20
-13.3575685858
 10
-0.2074126786
 20
-13.3583776646
 10
-0.2066793912
 20
-13.3591735839
 10
-0.2059394125
 20
-13.3599557644
 10
-0.205193244
 20
-13.3607236268
 10
-0.2044413871
 20
-13.3614765918
 10
-0.2036843435
 20
-13.3622140801
 10
-0.2029226146
 20
-13.3629355124
 10
-0.202156702
 20
-13.3636403095
 10
-0.2013871071
 20
-13.3643278921
 10
-0.2006143315
 20
-13.3649976808
 10
-0.1998388767
 20
-13.3656490965
 10
-0.1990612442
 20
-13.3662815598
 10
-0.1982819356
 20
-13.3668944914
 10
-0.1975014523
 20
-13.367487312
 10
-0.1967202958
 20
-13.3680594425
 10
-0.1959389677
 20
-13.3686103034
 10
-0.1951579696
 20
-13.3691393155
 10
-0.1943778028
 20
-13.3696458996
 10
-0.1935989689
 20
-13.3701294763
 10
-0.1928219695
 20
-13.3705894663
  0
LINE
  5
286
100
AcDbEntity
  8
CURVE
100
AcDbLine
 62
7
  6
CONTINUOUS
 10
-1.8690492594
 20
8.3718735412
 11
-1.6103050322
 21
8.6306177684
  0
LINE
  5
287
100
AcDbEntity
  8
CURVE
100
AcDbLine
 62
7
  6
CONTINUOUS
 10
-1.0393518926
 20
9.201570908
 11
-0.8241574754
 21
9.4167653251
  0
LINE
  5
288
100
AcDbEntity
  8
CURVE
100
AcDbLine
 62
7
  6
CONTINUOUS
 10
-0.7178068536
 20
9.5231159469
 11
-0.4592409477
 21
9.7816818528
  0
LINE
  5
289
100
AcDbEntity
  8
CURVE
100
AcDbLine
 62
7
  6
CONTINUOUS
 10
-1.6027726236
 20
8.2181287489
 11
-1.3440283964
 21
8.4768729761
  0
LINE
  5
28A
100
AcDbEntity
  8
CURVE
100
AcDbLine
 62
7
  6
CONTINUOUS
 10
-0.8970720815
 20
8.923829291
 11
-0.6819539683
 21
9.1389474042
  0
LINE
  5
28B
100
AcDbEntity
  8
CURVE
100
AcDbLine
 62
7
  6
CONTINUOUS
 10
-0.4515302178
 20
9.3693711547
 11
-0.192964312
 21
9.6279370606
  0
LINE
  5
28C
100
AcDbEntity
  8
CURVE
100
AcDbLine
 62
7
  6
CONTINUOUS
 10
-1.3364959878
 20
8.0643839567
 11
-1.0777517606
 21
8.3231281839
  0
LINE
  5
28D
100
AcDbEntity
  8
CURVE
100
AcDbLine
 62
7
  6
CONTINUOUS
 10
-0.7547922705
 20
8.646087674
 11
-0.5397504612
 21
8.8611294833
  0
LINE
  5
28E
100
AcDbEntity
  8
CURVE
100
AcDbLine
 62
7
  6
CONTINUOUS
 10
-0.1852535821
 20
9.2156263624
 11
0.0733123238
 21
9.4741922683
  0
LINE
  5
28F
100
AcDbEntity
  8
CURVE
100
AcDbLine
 62
7
  6
CONTINUOUS
 10
-1.0702193521
 20
7.9106391644
 11
-0.8114751249
 21
8.1693833916
  0
LINE
  5
290
100
AcDbEntity
  8
CURVE
100
AcDbLine
 62
7
  6
CONTINUOUS
 10
-0.5013743591
 20
8.4794841573
 11
-0.3975469541
 21
8.5833115624
  0
LINE
  5
291
100
AcDbEntity
  8
CURVE
100
AcDbLine
 62
7
  6
CONTINUOUS
 10
0.0810230537
 20
9.0618815702
 11
0.3395889596
 21
9.320447476
  0
LINE
  5
292
100
AcDbEntity
  8
CURVE
100
AcDbLine
 62
7
  6
CONTINUOUS
 10
-0.8039427163
 20
7.7568943721
 11
-0.5451984891
 21
8.0156385993
  0
LINE
  5
293
100
AcDbEntity
  8
CURVE
100
AcDbLine
 62
7
  6
CONTINUOUS
 10
0.3472996895
 20
8.9081367779
 11
0.5915036004
 21
9.1523406888
  0
LINE
  5
294
100
AcDbEntity
  8
CURVE
100
AcDbLine
 62
7
  6
CONTINUOUS
 10
-0.5376660805
 20
7.6031495799
 11
-0.2789218533
 21
7.8618938071
  0
LINE
  5
295
100
AcDbEntity
  8
CURVE
100
AcDbLine
 62
7
  6
CONTINUOUS
 10
-0.2713894448
 20
7.4494047876
 11
-0.0126452176
 21
7.7081490148
  0
LINE
  5
296
100
AcDbEntity
  8
RACCORDO
100
AcDbLine
 62
7
  6
CONTINUOUS
 10
7.1657213758
 20
8.8411441739
 11
8.1995493845
 21
9.2059287712
  0
LINE
  5
297
100
AcDbEntity
  8
RACCORDO
100
AcDbLine
 62
250
  6
CONTINUOUS
 10
8.2867969932
 20
9.2012255294
 11
7.1657213758
 21
8.8056294955
  0
LWPOLYLINE
  5
298
100
AcDbEntity
  8
RACCORDO
100
AcDbPolyline
 62
250
  6
CONTINUOUS
 90
7
 70
0
 10
8.1995493845
 20
9.2059287712
 10
8.2017257452
 20
9.2066222212
 10
8.2114552756
 20
9.2080790621
 10
8.2218277392
 20
9.2071069685
 10
8.2326676892
 20
9.2037223231
 10
8.2437917988
 20
9.1979823102
 10
8.2550119096
 20
9.1899839581
  0
LINE
  5
299
100
AcDbEntity
  8
RACCORDO
100
AcDbLine
 62
250
  6
CONTINUOUS
 10
8.950557843
 20
-12.8480778817
 11
8.2550119096
 21
-12.4464783769
  0
LINE
  5
29A
100
AcDbEntity
  8
RACCORDO
100
AcDbLine
 62
7
  6
CONTINUOUS
 10
8.950557843
 20
-12.7294247126
 11
8.4606268691
 21
-12.4465447086
  0
LWPOLYLINE
  5
29B
100
AcDbEntity
  8
CURVE
100
AcDbPolyline
 62
250
  6
CONTINUOUS
 90
52
 70
0
 10
-1.9682154861
 20
-9.9278823744
 10
-1.9696227438
 20
-9.9256354807
 10
-1.9710855772
 20
-9.9234135314
 10
-1.972601723
 20
-9.9212178408
 10
-1.9741689178
 20
-9.9190497231
 10
-1.975784898
 20
-9.9169104927
 10
-1.9774474002
 20
-9.9148014637
 10
-1.979154161
 20
-9.9127239504
 10
-1.980902917
 20
-9.9106792672
 10
-1.9826914047
 20
-9.9086687282
 10
-1.9845173606
 20
-9.9066936478
 10
-1.9863785215
 20
-9.9047553402
 10
-1.9882726237
 20
-9.9028551197
 10
-1.9901974039
 20
-9.9009943005
 10
-1.9921505986
 20
-9.8991741969
 10
-1.9941299444
 20
-9.8973961232
 10
-1.9961331779
 20
-9.8956613937
 10
-1.9981580355
 20
-9.8939713225
 10
-2.000202254
 20
-9.8923272241
 10
-2.0022635698
 20
-9.8907304126
 10
-2.0043397195
 20
-9.8891822023
 10
-2.0064284397
 20
-9.8876839075
 10
-2.0085274669
 20
-9.8862368425
 10
-2.0106345377
 20
-9.8848423214
 10
-2.0127473886
 20
-9.8835016587
 10
-2.0148637563
 20
-9.8822161685
 10
-2.0169813772
 20
-9.8809871651
 10
-2.019097988
 20
-9.8798159629
 10
-2.0212113252
 20
-9.8787038759
 10
-2.0233191253
 20
-9.8776522186
 10
-2.025419125
 20
-9.8766623052
 10
-2.0275090607
 20
-9.87573545
 10
-2.0295866692
 20
-9.8748729672
 10
-2.0316496868
 20
-9.8740761711
 10
-2.0336958502
 20
-9.8733463759
 10
-2.0357228959
 20
-9.872684896
 10
-2.0377285606
 20
-9.8720930455
 10
-2.0397105807
 20
-9.8715721388
 10
-2.0416666928
 20
-9.8711234902
 10
-2.0435946336
 20
-9.8707484138
 10
-2.0454921394
 20
-9.8704482241
 10
-2.047356947
 20
-9.8702242351
 10
-2.0491867929
 20
-9.8700777612
 10
-2.0509794136
 20
-9.8700101168
 10
-2.0527325457
 20
-9.8700226159
 10
-2.0544439258
 20
-9.870116573
 10
-2.0561112904
 20
-9.8702933022
 10
-2.0577323761
 20
-9.8705541179
 10
-2.0593049194
 20
-9.8709003342
 10
-2.060826657
 20
-9.8713332656
 10
-2.0622953253
 20
-9.8718542261
 10
-2.0637086609
 20
-9.8724645302
  0
LINE
  5
29C
100
AcDbEntity
  8
CURVE
100
AcDbLine
 62
250
  6
CONTINUOUS
 10
-2.0162056785
 20
-10.4031053086
 11
-0.2166952632
 21
-13.3461166171
  0
LINE
  5
29D
100
AcDbEntity
  8
CURVE
100
AcDbLine
 62
250
  6
CONTINUOUS
 10
0.2498083844
 20
-13.55527567
 11
-1.9682154861
 21
-9.9278823744
  0
LWPOLYLINE
  5
29E
100
AcDbEntity
  8
CURVE
100
AcDbPolyline
 62
250
  6
CONTINUOUS
 90
37
 70
0
 10
-0.1884706278
 20
-13.969830202
 10
-0.1890103967
 20
-13.968818483
 10
-0.1895685465
 20
-13.9678106237
 10
-0.1901444478
 20
-13.9668072914
 10
-0.1907374715
 20
-13.9658091537
 10
-0.1913469886
 20
-13.9648168781
 10
-0.1919723698
 20
-13.9638311321
 10
-0.192612986
 20
-13.9628525832
 10
-0.193268208
 20
-13.9618818989
 10
-0.1939374067
 20
-13.9609197467
 10
-0.1946199529
 20
-13.9599667941
 10
-0.1953152175
 20
-13.9590237086
 10
-0.1960225713
 20
-13.9580911577
 10
-0.1967413852
 20
-13.9571698089
 10
-0.19747103
 20
-13.9562603296
 10
-0.1982108765
 20
-13.9553633875
 10
-0.1989602957
 20
-13.9544796499
 10
-0.1997186583
 20
-13.9536097844
 10
-0.2004853352
 20
-13.9527544585
 10
-0.2012596972
 20
-13.9519143397
 10
-0.2020411152
 20
-13.9510900954
 10
-0.20282896
 20
-13.9502823933
 10
-0.2036226026
 20
-13.9494919007
 10
-0.2044214136
 20
-13.9487192852
 10
-0.205224764
 20
-13.9479652143
 10
-0.2060320247
 20
-13.9472303555
 10
-0.2068425664
 20
-13.9465153762
 10
-0.20765576
 20
-13.945820944
 10
-0.2084709763
 20
-13.9451477264
 10
-0.2092875863
 20
-13.9444963909
 10
-0.2101049607
 20
-13.9438676049
 10
-0.2109224704
 20
-13.943262036
 10
-0.2117394863
 20
-13.9426803517
 10
-0.2125553791
 20
-13.9421232195
 10
-0.2133695198
 20
-13.9415913068
 10
-0.2141812791
 20
-13.9410852812
 10
-0.214990028
 20
-13.9406058101
  0
LINE
  5
29F
100
AcDbEntity
  8
CURVE
100
AcDbLine
 62
250
  6
CONTINUOUS
 10
-0.6113354247
 20
-13.7787060154
 11
0.0074213717
 21
-14.9874084628
  0
LINE
  5
2A0
100
AcDbEntity
  8
CURVE
100
AcDbLine
 62
250
  6
CONTINUOUS
 10
0.5984071937
 20
-15.5066876532
 11
-0.1879498688
 21
-13.9708451131
  0
LWPOLYLINE
  5
2A1
100
AcDbEntity
  8
CURVE
100
AcDbPolyline
 62
250
  6
CONTINUOUS
 90
55
 70
0
 10
-4.4218054282
 20
-14.5733957849
 10
-4.4217672725
 20
-14.575558605
 10
-4.4216538564
 20
-14.5777726578
 10
-4.4214667568
 20
-14.5800352121
 10
-4.4212075506
 20
-14.5823435367
 10
-4.4208778147
 20
-14.5846949005
 10
-4.420479126
 20
-14.5870865721
 10
-4.4200130612
 20
-14.5895158205
 10
-4.4194811972
 20
-14.5919799144
 10
-4.418885111
 20
-14.5944761225
 10
-4.4182263793
 20
-14.5970017138
 10
-4.4175065791
 20
-14.599553957
 10
-4.4167272871
 20
-14.6021301208
 10
-4.4158900803
 20
-14.6047274741
 10
-4.4149965356
 20
-14.6073432857
 10
-4.4140482297
 20
-14.6099748244
 10
-4.4130467395
 20
-14.6126193589
 10
-4.4119936419
 20
-14.6152741581
 10
-4.4108905138
 20
-14.6179364908
 10
-4.4097389321
 20
-14.6206036257
 10
-4.4085404735
 20
-14.6232728317
 10
-4.4072967149
 20
-14.6259413775
 10
-4.4060092333
 20
-14.628606532
 10
-4.4046796054
 20
-14.6312655639
 10
-4.4033094082
 20
-14.633915742
 10
-4.4019002184
 20
-14.6365543352
 10
-4.4004536131
 20
-14.6391786122
 10
-4.3989711689
 20
-14.6417858418
 10
-4.3974544628
 20
-14.6443732928
 10
-4.3959050716
 20
-14.6469382341
 10
-4.3943245723
 20
-14.6494779343
 10
-4.3927145416
 20
-14.6519896624
 10
-4.3910765564
 20
-14.6544706871
 10
-4.3894121936
 20
-14.6569182771
 10
-4.38772303
 20
-14.6593297014
 10
-4.3860106426
 20
-14.6617022286
 10
-4.3842766081
 20
-14.6640331277
 10
-4.3825225035
 20
-14.6663196673
 10
-4.3807499055
 20
-14.6685591163
 10
-4.3789603911
 20
-14.6707487434
 10
-4.3771555371
 20
-14.6728858175
 10
-4.3753369204
 20
-14.6749676074
 10
-4.3735061178
 20
-14.6769913819
 10
-4.3716647063
 20
-14.6789544097
 10
-4.3698142625
 20
-14.6808539596
 10
-4.3679563636
 20
-14.6826873005
 10
-4.3660925861
 20
-14.6844517012
 10
-4.3642245072
 20
-14.6861444304
 10
-4.3623537035
 20
-14.6877627569
 10
-4.360481752
 20
-14.6893039495
 10
-4.3586102296
 20
-14.6907652771
 10
-4.356740713
 20
-14.6921440084
 10
-4.3548747792
 20
-14.6934374122
 10
-4.353014005
 20
-14.6946427573
 10
-4.3511599672
 20
-14.6957573126
  0
LWPOLYLINE
  5
2A2
100
AcDbEntity
  8
CURVE
100
AcDbPolyline
 62
250
  6
CONTINUOUS
 90
55
 70
0
 10
-4.4215618232
 20
9.9273746698
 10
-4.4215236964
 20
9.9252099488
 10
-4.4214103651
 20
9.9229938813
 10
-4.4212234029
 20
9.9207292035
 10
-4.4209643834
 20
9.9184186517
 10
-4.42063488
 20
9.9160649621
 10
-4.4202364665
 20
9.913670871
 10
-4.4197707163
 20
9.9112391146
 10
-4.4192392031
 20
9.9087724291
 10
-4.4186435005
 20
9.9062735508
 10
-4.417985182
 20
9.9037452159
 10
-4.4172658211
 20
9.9011901606
 10
-4.4164869916
 20
9.8986111212
 10
-4.4156502669
 20
9.8960108339
 10
-4.4147572206
 20
9.893392035
 10
-4.4138094263
 20
9.8907574606
 10
-4.4128084576
 20
9.888109847
 10
-4.4117558881
 20
9.8854519305
 10
-4.4106532914
 20
9.8827864473
 10
-4.4095022409
 20
9.8801161336
 10
-4.4083043104
 20
9.8774437256
 10
-4.4070610733
 20
9.8747719597
 10
-4.4057741033
 20
9.8721035719
 10
-4.4044449739
 20
9.8694412987
 10
-4.4030752588
 20
9.8667878761
 10
-4.4016665314
 20
9.8641460404
 10
-4.4002203654
 20
9.861518528
 10
-4.3987383344
 20
9.8589080749
 10
-4.3972220119
 20
9.8563174175
 10
-4.3956729715
 20
9.8537492919
 10
-4.3940927868
 20
9.8512064345
 10
-4.3924830313
 20
9.8486915814
 10
-4.3908452787
 20
9.8462074689
 10
-4.3891811025
 20
9.8437568332
 10
-4.3874920763
 20
9.8413424105
 10
-4.3857797737
 20
9.8389669372
 10
-4.3840457682
 20
9.8366331493
 10
-4.3822916334
 20
9.8343437833
 10
-4.380518943
 20
9.8321015752
 10
-4.3787292705
 20
9.8299092613
 10
-4.3769241894
 20
9.8277695779
 10
-4.3751052734
 20
9.8256852612
 10
-4.373274096
 20
9.8236590475
 10
-4.3714322307
 20
9.8216936729
 10
-4.3695812513
 20
9.8197918738
 10
-4.3677227313
 20
9.8179563862
 10
-4.3658582441
 20
9.8161899466
 10
-4.3639893635
 20
9.814495291
 10
-4.362117663
 20
9.8128751559
 10
-4.3602447161
 20
9.8113322773
 10
-4.3583720965
 20
9.8098693915
 10
-4.3565013778
 20
9.8084892348
 10
-4.3546341334
 20
9.8071945433
 10
-4.352771937
 20
9.8059880534
 10
-4.3509163622
 20
9.8048725013
  0
LINE
  5
2A3
100
AcDbEntity
  8
CURVE
100
AcDbLine
 62
250
  6
CONTINUOUS
 10
-4.4218054282
 20
-11.0382460415
 11
-4.4218054282
 21
-14.5733957849
  0
LINE
  5
2A4
100
AcDbEntity
  8
CURVE
100
AcDbLine
 62
250
  6
CONTINUOUS
 10
-4.4215618232
 20
13.4623837723
 11
-4.4215618232
 21
9.9273746698
  0
LINE
  5
2A5
100
AcDbEntity
  8
CURVE
100
AcDbLine
 62
250
  6
CONTINUOUS
 10
-4.0683345182
 20
10.0498531873
 11
-4.0683345182
 21
13.1146997503
  0
LINE
  5
2A6
100
AcDbEntity
  8
CURVE
100
AcDbLine
 62
250
  6
CONTINUOUS
 10
-4.0678473081
 20
-14.4511985901
 11
-4.0678473081
 21
-11.3863520271
  0
LINE
  5
2A7
100
AcDbEntity
  8
CURVE
100
AcDbLine
 62
7
  6
CONTINUOUS
 10
-0.005112809
 20
7.2956599954
 11
0.2098571582
 21
7.5106299626
  0
LINE
  5
2A8
100
AcDbEntity
  8
DRAFT
100
AcDbLine
 62
7
  6
CONTINUOUS
 10
8.950557843
 20
8.7634235444
 11
8.6323597915
 21
8.5989552047
  0
LINE
  5
2A9
100
AcDbEntity
  8
RACCORDO
100
AcDbLine
 62
7
  6
CONTINUOUS
 10
8.0746822556
 20
8.6975860123
 11
7.166046301
 21
8.2929187435
  0
LWPOLYLINE
  5
2AA
100
AcDbEntity
  8
DRAFT
100
AcDbPolyline
 62
7
  6
CONTINUOUS
 90
4
 70
0
 10
-2.7086961574
 20
-1.2323152264
 10
-2.7079985648
 20
-1.2436851582
 10
-2.7061992974
 20
-1.2551532008
 10
-2.7033048449
 20
-1.2666934793
  0
LWPOLYLINE
  5
2AB
100
AcDbEntity
  8
ASSI
100
AcDbPolyline
 62
7
  6
CONTINUOUS
 90
4
 70
0
 10
-2.7086961574
 20
-1.2323152264
 10
-2.7079985648
 20
-1.2436851582
 10
-2.7061992974
 20
-1.2551532008
 10
-2.7033048449
 20
-1.2666934793
  0
LWPOLYLINE
  5
2AC
100
AcDbEntity
  8
0
100
AcDbPolyline
 62
7
  6
CONTINUOUS
 90
13
 70
0
 10
-2.7086961574
 20
-1.2323152264
 10
-2.7080070495
 20
-1.2436566261
 10
-2.7062128729
 20
-1.2551075494
 10
-2.7033136276
 20
-1.2666679964
 10
-2.699222885
 20
-1.278537225
 10
-2.6940270736
 20
-1.2905159772
 10
-2.6879854793
 20
-1.3020064793
 10
-2.6810551811
 20
-1.312983954
 10
-2.6732791
 20
-1.3234731787
 10
-2.6650452843
 20
-1.3329507112
 10
-2.6564830838
 20
-1.3412420708
 10
-2.6474631488
 20
-1.3485217382
 10
-2.6379854793
 20
-1.3547897134
  0
LWPOLYLINE
  5
2AD
100
AcDbEntity
  8
CURVE
100
AcDbPolyline
 62
250
  6
CONTINUOUS
 90
55
 70
0
 10
-1.5350857286
 20
-14.4641382345
 10
-1.5350666507
 20
-14.4652196445
 10
-1.5350099427
 20
-14.4663266709
 10
-1.5349163929
 20
-14.4674579481
 10
-1.5347867898
 20
-14.4686121104
 10
-1.5346219218
 20
-14.4697877923
 10
-1.5344225774
 20
-14.4709836281
 10
-1.5341895451
 20
-14.4721982523
 10
-1.5339236131
 20
-14.4734302992
 10
-1.53362557
 20
-14.4746784033
 10
-1.5332962041
 20
-14.475941199
 10
-1.532936304
 20
-14.4772173205
 10
-1.532546658
 20
-14.4785054025
 10
-1.5321280546
 20
-14.4798040791
 10
-1.5316812823
 20
-14.4811119849
 10
-1.5312071293
 20
-14.4824277543
 10
-1.5307063842
 20
-14.4837500215
 10
-1.5301798354
 20
-14.4850774211
 10
-1.5296282714
 20
-14.4864085875
 10
-1.5290524805
 20
-14.4877421549
 10
-1.5284532512
 20
-14.4890767579
 10
-1.5278313719
 20
-14.4904110308
 10
-1.5271876311
 20
-14.491743608
 10
-1.5265228172
 20
-14.493073124
 10
-1.5258377186
 20
-14.4943982131
 10
-1.5251331237
 20
-14.4957175096
 10
-1.524409821
 20
-14.4970296481
 10
-1.5236685989
 20
-14.498333263
 10
-1.5229102459
 20
-14.4996269885
 10
-1.5221355503
 20
-14.5009094591
 10
-1.5213453006
 20
-14.5021793092
 10
-1.5205402852
 20
-14.5034351733
 10
-1.5197212927
 20
-14.5046756856
 10
-1.5188891113
 20
-14.5058994806
 10
-1.5180445295
 20
-14.5071051928
 10
-1.5171883358
 20
-14.5082914564
 10
-1.5163213185
 20
-14.5094569059
 10
-1.5154442662
 20
-14.5106001757
 10
-1.5145579672
 20
-14.5117199002
 10
-1.51366321
 20
-14.5128147138
 10
-1.512760783
 20
-14.5138832508
 10
-1.5118514747
 20
-14.5149241458
 10
-1.5109360734
 20
-14.515936033
 10
-1.5100153676
 20
-14.5169175469
 10
-1.5090901457
 20
-14.5178673219
 10
-1.5081611962
 20
-14.5187839923
 10
-1.5072293075
 20
-14.5196661927
 10
-1.5062952681
 20
-14.5205125572
 10
-1.5053598662
 20
-14.5213217205
 10
-1.5044238905
 20
-14.5220923168
 10
-1.5034881293
 20
-14.5228229806
 10
-1.502553371
 20
-14.5235123463
 10
-1.5016204041
 20
-14.5241590482
 10
-1.500690017
 20
-14.5247617207
 10
-1.4997629981
 20
-14.5253189983
  0
LINE
  5
2AE
100
AcDbEntity
  8
0
100
AcDbLine
 62
7
  6
CONTINUOUS
 10
-2.7086961574
 20
0.2373312719
 11
-2.7086961574
 21
-1.2323152264
  0
LINE
  5
2AF
100
AcDbEntity
  8
DRAFT
100
AcDbLine
 62
7
  6
CONTINUOUS
 10
-2.7086961574
 20
0.2373312719
 11
-2.7086961574
 21
-1.2323152264
  0
LINE
  5
2B0
100
AcDbEntity
  8
ASSI
100
AcDbLine
 62
7
  6
CONTINUOUS
 10
-2.7086961574
 20
0.2373312719
 11
-2.7086961574
 21
-1.2323152264
  0
LWPOLYLINE
  5
2B1
100
AcDbEntity
  8
DRAFT
100
AcDbPolyline
 62
7
  6
CONTINUOUS
 90
4
 70
0
 10
-2.7033048449
 20
0.2654837722
 10
-2.7061992974
 20
0.2572859349
 10
-2.7079985648
 20
0.2478956412
 10
-2.7086961574
 20
0.2373312719
  0
LWPOLYLINE
  5
2B2
100
AcDbEntity
  8
ASSI
100
AcDbPolyline
 62
7
  6
CONTINUOUS
 90
4
 70
0
 10
-2.7033048449
 20
0.2654837722
 10
-2.7061992974
 20
0.2572859349
 10
-2.7079985648
 20
0.2478956412
 10
-2.7086961574
 20
0.2373312719
  0
LWPOLYLINE
  5
2B3
100
AcDbEntity
  8
0
100
AcDbPolyline
 62
7
  6
CONTINUOUS
 90
7
 70
0
 10
-2.688615655
 20
0.282733279
 10
-2.6940270736
 20
0.2785925324
 10
-2.699222885
 20
0.2726137729
 10
-2.7033136276
 20
0.2654684314
 10
-2.7062128729
 20
0.2572559602
 10
-2.7080070495
 20
0.247876907
 10
-2.7086961574
 20
0.2373312719
  0
LWPOLYLINE
  5
2B4
100
AcDbEntity
  8
DRAFT
100
AcDbPolyline
 62
7
  6
CONTINUOUS
 90
4
 70
0
 10
-2.6886156031
 20
0.2827333105
 10
-2.6940192538
 20
0.2786035035
 10
-2.6992096419
 20
0.272639866
 10
-2.7032983551
 20
0.2655021529
  0
LWPOLYLINE
  5
2B5
100
AcDbEntity
  8
ASSI
100
AcDbPolyline
 62
7
  6
CONTINUOUS
 90
4
 70
0
 10
-2.6886156031
 20
0.2827333105
 10
-2.6940192538
 20
0.2786035035
 10
-2.6992096419
 20
0.272639866
 10
-2.7032983551
 20
0.2655021529
  0
LINE
  5
2B6
100
AcDbEntity
  8
DRAFT
100
AcDbLine
 62
7
  6
CONTINUOUS
 10
6.7202441037
 20
8.0226023865
 11
7.1657213758
 21
8.2936483274
  0
LINE
  5
2B7
100
AcDbEntity
  8
ASSI
100
AcDbLine
 62
7
  6
CONTINUOUS
 10
6.7202441037
 20
8.0226023865
 11
7.1657213758
 21
8.2936483274
  0
LWPOLYLINE
  5
2B8
100
AcDbEntity
  8
DRAFT
100
AcDbPolyline
 62
7
  6
CONTINUOUS
 90
4
 70
0
 10
-1.3380966266
 20
-2.099096601
 10
-1.3298704324
 20
-2.0991252152
 10
-1.3221101596
 20
-2.0976127486
 10
-1.3158264435
 20
-2.0949958647
  0
LWPOLYLINE
  5
2B9
100
AcDbEntity
  8
ASSI
100
AcDbPolyline
 62
7
  6
CONTINUOUS
 90
4
 70
0
 10
-1.3380966266
 20
-2.099096601
 10
-1.3298704324
 20
-2.0991252152
 10
-1.3221101596
 20
-2.0976127486
 10
-1.3158264435
 20
-2.0949958647
  0
LWPOLYLINE
  5
2BA
100
AcDbEntity
  8
DRAFT
100
AcDbPolyline
 62
7
  6
CONTINUOUS
 90
4
 70
0
 10
-1.3651932732
 20
-2.0896839814
 10
-1.3556951362
 20
-2.094362602
 10
-1.3466629207
 20
-2.0975001419
 10
-1.3381157904
 20
-2.0990930296
  0
LWPOLYLINE
  5
2BB
100
AcDbEntity
  8
ASSI
100
AcDbPolyline
 62
7
  6
CONTINUOUS
 90
4
 70
0
 10
-1.3651932732
 20
-2.0896839814
 10
-1.3556951362
 20
-2.094362602
 10
-1.3466629207
 20
-2.0975001419
 10
-1.3381157904
 20
-2.0990930296
  0
LWPOLYLINE
  5
2BC
100
AcDbEntity
  8
0
100
AcDbPolyline
 62
7
  6
CONTINUOUS
 90
7
 70
0
 10
-1.3651932732
 20
-2.0896839814
 10
-1.3557156037
 20
-2.0943605813
 10
-1.3466956687
 20
-2.0974969087
 10
-1.3381334682
 20
-2.0990929637
 10
-1.3298996526
 20
-2.0991236351
 10
-1.3221235714
 20
-2.0976140341
 10
-1.3158264963
 20
-2.0949958937
  0
LINE
  5
2BD
100
AcDbEntity
  8
0
100
AcDbLine
 62
7
  6
CONTINUOUS
 10
-2.6379854793
 20
-1.3547897134
 11
-1.3651932732
 21
-2.0896839814
  0
LINE
  5
2BE
100
AcDbEntity
  8
DRAFT
100
AcDbLine
 62
7
  6
CONTINUOUS
 10
-2.6379854793
 20
-1.3547897134
 11
-1.3651932732
 21
-2.0896839814
  0
LINE
  5
2BF
100
AcDbEntity
  8
ASSI
100
AcDbLine
 62
7
  6
CONTINUOUS
 10
-2.6379854793
 20
-1.3547897134
 11
-1.3651932732
 21
-2.0896839814
  0
LWPOLYLINE
  5
2C0
100
AcDbEntity
  8
DRAFT
100
AcDbPolyline
 62
7
  6
CONTINUOUS
 90
4
 70
0
 10
-2.6650629621
 20
-1.3329303632
 10
-2.6565158319
 20
-1.3412074873
 10
-2.6474836163
 20
-1.3485001235
 10
-2.6379854793
 20
-1.3547897134
  0
LWPOLYLINE
  5
2C1
100
AcDbEntity
  8
ASSI
100
AcDbPolyline
 62
7
  6
CONTINUOUS
 90
4
 70
0
 10
-2.6650629621
 20
-1.3329303632
 10
-2.6565158319
 20
-1.3412074873
 10
-2.6474836163
 20
-1.3485001235
 10
-2.6379854793
 20
-1.3547897134
  0
LWPOLYLINE
  5
2C2
100
AcDbEntity
  8
DRAFT
100
AcDbPolyline
 62
7
  6
CONTINUOUS
 90
7
 70
0
 10
-2.7032983551
 20
-1.2667193542
 10
-2.6992096419
 20
-1.2785786109
 10
-2.6940192538
 20
-1.2905359784
 10
-2.6879854793
 20
-1.3020064793
 10
-2.6810685929
 20
-1.312967181
 10
-2.6733083202
 20
-1.323441016
 10
-2.6650821259
 20
-1.3329118048
  0
LWPOLYLINE
  5
2C3
100
AcDbEntity
  8
ASSI
100
AcDbPolyline
 62
7
  6
CONTINUOUS
 90
7
 70
0
 10
-2.7032983551
 20
-1.2667193542
 10
-2.6992096419
 20
-1.2785786109
 10
-2.6940192538
 20
-1.2905359784
 10
-2.6879854793
 20
-1.3020064793
 10
-2.6810685929
 20
-1.312967181
 10
-2.6733083202
 20
-1.323441016
 10
-2.6650821259
 20
-1.3329118048
  0
LWPOLYLINE
  5
2C4
100
AcDbEntity
  8
DRAFT
100
AcDbPolyline
 62
7
  6
CONTINUOUS
 90
13
 70
0
 10
-1.2944825951
 20
-0.5792179148
 10
-1.2951801877
 20
-0.567847983
 10
-1.2969794551
 20
-0.5563799404
 10
-1.2998803974
 20
-0.5448137869
 10
-1.3039691106
 20
-0.5329545302
 10
-1.3091594987
 20
-0.5209971627
 10
-1.3151932732
 20
-0.5095266619
 10
-1.3221101596
 20
-0.4985659602
 10
-1.3298704324
 20
-0.4880921251
 10
-1.3380966266
 20
-0.4786213364
 10
-1.3466629207
 20
-0.4703256539
 10
-1.3556951362
 20
-0.4630330177
 10
-1.3651932732
 20
-0.4567434278
  0
LWPOLYLINE
  5
2C5
100
AcDbEntity
  8
ASSI
100
AcDbPolyline
 62
7
  6
CONTINUOUS
 90
13
 70
0
 10
-1.2944825951
 20
-0.5792179148
 10
-1.2951801877
 20
-0.567847983
 10
-1.2969794551
 20
-0.5563799404
 10
-1.2998803974
 20
-0.5448137869
 10
-1.3039691106
 20
-0.5329545302
 10
-1.3091594987
 20
-0.5209971627
 10
-1.3151932732
 20
-0.5095266619
 10
-1.3221101596
 20
-0.4985659602
 10
-1.3298704324
 20
-0.4880921251
 10
-1.3380966266
 20
-0.4786213364
 10
-1.3466629207
 20
-0.4703256539
 10
-1.3556951362
 20
-0.4630330177
 10
-1.3651932732
 20
-0.4567434278
  0
LWPOLYLINE
  5
2C6
100
AcDbEntity
  8
0
100
AcDbPolyline
 62
7
  6
CONTINUOUS
 90
4
 70
0
 10
-1.2944825951
 20
-0.5792179148
 10
-1.295171703
 20
-0.5678765151
 10
-1.2969658796
 20
-0.5564255917
 10
-1.2998651249
 20
-0.5448651447
  0
LWPOLYLINE
  5
2C7
100
AcDbEntity
  8
CURVE
100
AcDbPolyline
 62
250
  6
CONTINUOUS
 90
55
 70
0
 10
0.2098571582
 20
-16.9618773986
 10
0.2098380803
 20
-16.9607959886
 10
0.2097813723
 20
-16.9596889622
 10
0.2096878225
 20
-16.958557685
 10
0.2095582194
 20
-16.9574035227
 10
0.2093933515
 20
-16.9562278408
 10
0.2091940071
 20
-16.955032005
 10
0.2089609747
 20
-16.9538173808
 10
0.2086950427
 20
-16.9525853339
 10
0.2083969996
 20
-16.9513372298
 10
0.2080676337
 20
-16.9500744342
 10
0.2077077336
 20
-16.9487983126
 10
0.2073180876
 20
-16.9475102307
 10
0.2068994843
 20
-16.946211554
 10
0.2064527119
 20
-16.9449036482
 10
0.2059785589
 20
-16.9435878789
 10
0.2054778138
 20
-16.9422656116
 10
0.2049512651
 20
-16.940938212
 10
0.204399701
 20
-16.9396070457
 10
0.2038239101
 20
-16.9382734782
 10
0.2032246808
 20
-16.9369388752
 10
0.2026028016
 20
-16.9356046023
 10
0.2019590607
 20
-16.9342720251
 10
0.2012942468
 20
-16.9329425091
 10
0.2006091482
 20
-16.9316174201
 10
0.1999045533
 20
-16.9302981235
 10
0.1991812506
 20
-16.928985985
 10
0.1984400285
 20
-16.9276823702
 10
0.1976816755
 20
-16.9263886446
 10
0.1969069799
 20
-16.925106174
 10
0.1961167302
 20
-16.9238363239
 10
0.1953117149
 20
-16.9225804599
 10
0.1944927223
 20
-16.9213399475
 10
0.1936605409
 20
-16.9201161525
 10
0.1928159591
 20
-16.9189104404
 10
0.1919597654
 20
-16.9177241767
 10
0.1910927481
 20
-16.9165587272
 10
0.1902156958
 20
-16.9154154574
 10
0.1893293968
 20
-16.9142957329
 10
0.1884346396
 20
-16.9132009194
 10
0.1875322126
 20
-16.9121323823
 10
0.1866229043
 20
-16.9110914873
 10
0.185707503
 20
-16.9100796001
 10
0.1847867972
 20
-16.9090980862
 10
0.1838615754
 20
-16.9081483112
 10
0.1829326259
 20
-16.9072316408
 10
0.1820007372
 20
-16.9063494405
 10
0.1810666977
 20
-16.9055030759
 10
0.1801312958
 20
-16.9046939126
 10
0.1791953201
 20
-16.9039233163
 10
0.1782595589
 20
-16.9031926525
 10
0.1773248006
 20
-16.9025032869
 10
0.1763918337
 20
-16.901856585
 10
0.1754614466
 20
-16.9012539124
 10
0.1745344277
 20
-16.9006966348
  0
LINE
  5
2C8
100
AcDbEntity
  8
CURVE
100
AcDbLine
 62
250
  6
CONTINUOUS
 10
-1.5350857286
 20
-14.1375700572
 11
-1.5350857286
 21
-14.4641382345
  0
LINE
  5
2C9
100
AcDbEntity
  8
0
100
AcDbLine
 62
7
  6
CONTINUOUS
 10
-1.2944825951
 20
-2.048864413
 11
-1.2944825951
 21
-0.5792179148
  0
LINE
  5
2CA
100
AcDbEntity
  8
DRAFT
100
AcDbLine
 62
7
  6
CONTINUOUS
 10
-1.2944825951
 20
-2.048864413
 11
-1.2944825951
 21
-0.5792179148
  0
LINE
  5
2CB
100
AcDbEntity
  8
ASSI
100
AcDbLine
 62
7
  6
CONTINUOUS
 10
-1.2944825951
 20
-2.048864413
 11
-1.2944825951
 21
-0.5792179148
  0
LINE
  5
2CC
100
AcDbEntity
  8
CURVE
100
AcDbLine
 62
250
  6
CONTINUOUS
 10
0.2098571582
 20
-17.2884455759
 11
0.2098571582
 21
-16.9618773986
  0
LINE
  5
2CD
100
AcDbEntity
  8
CURVE
100
AcDbLine
 62
250
  6
CONTINUOUS
 10
0.2098571582
 20
7.2123248924
 11
0.2098571582
 21
7.5388930697
  0
LINE
  5
2CE
100
AcDbEntity
  8
DRAFT
100
AcDbLine
 62
7
  6
CONTINUOUS
 10
-1.2951801877
 20
-2.0594287824
 11
-1.2944825951
 21
-2.048864413
  0
LINE
  5
2CF
100
AcDbEntity
  8
ASSI
100
AcDbLine
 62
7
  6
CONTINUOUS
 10
-1.2951801877
 20
-2.0594287824
 11
-1.2944825951
 21
-2.048864413
  0
LWPOLYLINE
  5
2D0
100
AcDbEntity
  8
0
100
AcDbPolyline
 62
7
  6
CONTINUOUS
 90
4
 70
0
 10
-1.2998651249
 20
-2.0770015725
 10
-1.2969658796
 20
-2.0687891013
 10
-1.295171703
 20
-2.0594100482
 10
-1.2944825951
 20
-2.048864413
  0
LINE
  5
2D1
100
AcDbEntity
  8
DRAFT
100
AcDbLine
 62
7
  6
CONTINUOUS
 10
8.950557843
 20
6.3979279759
 11
8.6323597915
 21
6.1949491816
  0
LINE
  5
2D2
100
AcDbEntity
  8
DRAFT
100
AcDbLine
 62
7
  6
CONTINUOUS
 10
6.7202441037
 20
3.9402510026
 11
7.1657213758
 21
4.2112969434
  0
LINE
  5
2D3
100
AcDbEntity
  8
ASSI
100
AcDbLine
 62
7
  6
CONTINUOUS
 10
6.7202441037
 20
3.9402510026
 11
7.1657213758
 21
4.2112969434
  0
LINE
  5
2D4
100
AcDbEntity
  8
RACCORDO
100
AcDbLine
 62
250
  6
CONTINUOUS
 10
6.9433114057
 20
4.503007728
 11
6.7202441037
 21
4.3742114635
  0
LINE
  5
2D5
100
AcDbEntity
  8
ASSI
100
AcDbLine
 62
250
  6
CONTINUOUS
 10
6.9433114057
 20
4.503007728
 11
6.7202441037
 21
4.3742114635
  0
LINE
  5
2D6
100
AcDbEntity
  8
RACCORDO
100
AcDbLine
 62
250
  6
CONTINUOUS
 10
7.084732762
 20
4.258058754
 11
6.7202441037
 21
4.0476075708
  0
LINE
  5
2D7
100
AcDbEntity
  8
ASSI
100
AcDbLine
 62
250
  6
CONTINUOUS
 10
7.084732762
 20
4.258058754
 11
6.7202441037
 21
4.0476075708
  0
LINE
  5
2D8
100
AcDbEntity
  8
RACCORDO
100
AcDbLine
 62
7
  6
CONTINUOUS
 10
8.0746822556
 20
6.268875521
 11
6.9433114057
 21
5.6370347005
  0
LWPOLYLINE
  5
2D9
100
AcDbEntity
  8
DRAFT
100
AcDbPolyline
 62
7
  6
CONTINUOUS
 90
7
 70
0
 10
-2.6379854793
 20
0.2781508402
 10
-2.6474836163
 20
0.2828294609
 10
-2.6565158319
 20
0.2859670008
 10
-2.6650821259
 20
0.2875634599
 10
-2.6733083202
 20
0.2875920741
 10
-2.6810685929
 20
0.2860796075
 10
-2.6886156031
 20
0.2827333105
  0
LWPOLYLINE
  5
2DA
100
AcDbEntity
  8
ASSI
100
AcDbPolyline
 62
7
  6
CONTINUOUS
 90
7
 70
0
 10
-2.6379854793
 20
0.2781508402
 10
-2.6474836163
 20
0.2828294609
 10
-2.6565158319
 20
0.2859670008
 10
-2.6650821259
 20
0.2875634599
 10
-2.6733083202
 20
0.2875920741
 10
-2.6810685929
 20
0.2860796075
 10
-2.6886156031
 20
0.2827333105
  0
LWPOLYLINE
  5
2DB
100
AcDbEntity
  8
0
100
AcDbPolyline
 62
7
  6
CONTINUOUS
 90
4
 70
0
 10
-2.6379854793
 20
0.2781508402
 10
-2.6474631488
 20
0.2828274401
 10
-2.6564830838
 20
0.2859637676
 10
-2.6650452843
 20
0.2875598226
  0
LINE
  5
2DC
100
AcDbEntity
  8
0
100
AcDbLine
 62
7
  6
CONTINUOUS
 10
-1.3651932732
 20
-0.4567434278
 11
-2.6379854793
 21
0.2781508402
  0
LINE
  5
2DD
100
AcDbEntity
  8
DRAFT
100
AcDbLine
 62
7
  6
CONTINUOUS
 10
-1.3651932732
 20
-0.4567434278
 11
-2.6379854793
 21
0.2781508402
  0
LINE
  5
2DE
100
AcDbEntity
  8
ASSI
100
AcDbLine
 62
7
  6
CONTINUOUS
 10
-1.3651932732
 20
-0.4567434278
 11
-2.6379854793
 21
0.2781508402
  0
LWPOLYLINE
  5
2DF
100
AcDbEntity
  8
0
100
AcDbPolyline
 62
7
  6
CONTINUOUS
 90
4
 70
0
 10
-1.3381334682
 20
-0.47858243
 10
-1.3466956687
 20
-0.4702910704
 10
-1.3557156037
 20
-0.463011403
 10
-1.3651932732
 20
-0.4567434278
  0
LWPOLYLINE
  5
2E0
100
AcDbEntity
  8
0
100
AcDbPolyline
 62
7
  6
CONTINUOUS
 90
4
 70
0
 10
-1.3151932732
 20
-0.5095266619
 10
-1.3221235714
 20
-0.4985491871
 10
-1.3298996526
 20
-0.4880599624
 10
-1.3381157904
 20
-0.4786027779
  0
LWPOLYLINE
  5
2E1
100
AcDbEntity
  8
0
100
AcDbPolyline
 62
7
  6
CONTINUOUS
 90
4
 70
0
 10
-1.2998739076
 20
-0.5448396618
 10
-1.3039558676
 20
-0.5329959161
 10
-1.3091516789
 20
-0.521017164
 10
-1.3151932732
 20
-0.5095266619
  0
LWPOLYLINE
  5
2E2
100
AcDbEntity
  8
CURVE
100
AcDbPolyline
 62
250
  6
CONTINUOUS
 90
55
 70
0
 10
0.2098571582
 20
7.5388930697
 10
0.2098380803
 20
7.5399744797
 10
0.2097813723
 20
7.5410815061
 10
0.2096878225
 20
7.5422127833
 10
0.2095582194
 20
7.5433669456
 10
0.2093933515
 20
7.5445426275
 10
0.2091940071
 20
7.5457384633
 10
0.2089609747
 20
7.5469530875
 10
0.2086950427
 20
7.5481851344
 10
0.2083969996
 20
7.5494332385
 10
0.2080676337
 20
7.5506960342
 10
0.2077077336
 20
7.5519721557
 10
0.2073180876
 20
7.5532602377
 10
0.2068994843
 20
7.5545589143
 10
0.2064527119
 20
7.5558668201
 10
0.2059785589
 20
7.5571825895
 10
0.2054778138
 20
7.5585048567
 10
0.2049512651
 20
7.5598322563
 10
0.204399701
 20
7.5611634227
 10
0.2038239101
 20
7.5624969901
 10
0.2032246808
 20
7.5638315931
 10
0.2026028016
 20
7.565165866
 10
0.2019590607
 20
7.5664984432
 10
0.2012942468
 20
7.5678279592
 10
0.2006091482
 20
7.5691530483
 10
0.1999045533
 20
7.5704723448
 10
0.1991812506
 20
7.5717844833
 10
0.1984400285
 20
7.5730880982
 10
0.1976816755
 20
7.5743818237
 10
0.1969069799
 20
7.5756642943
 10
0.1961167302
 20
7.5769341444
 10
0.1953117149
 20
7.5781900085
 10
0.1944927223
 20
7.5794305208
 10
0.1936605409
 20
7.5806543158
 10
0.1928159591
 20
7.581860028
 10
0.1919597654
 20
7.5830462916
 10
0.1910927481
 20
7.5842117411
 10
0.1902156958
 20
7.5853550109
 10
0.1893293968
 20
7.5864747354
 10
0.1884346396
 20
7.587569549
 10
0.1875322126
 20
7.588638086
 10
0.1866229043
 20
7.589678981
 10
0.185707503
 20
7.5906908682
 10
0.1847867972
 20
7.5916723821
 10
0.1838615754
 20
7.5926221571
 10
0.1829326259
 20
7.5935388275
 10
0.1820007372
 20
7.5944210279
 10
0.1810666977
 20
7.5952673924
 10
0.1801312958
 20
7.5960765557
 10
0.1791953201
 20
7.596847152
 10
0.1782595589
 20
7.5975778158
 10
0.1773248006
 20
7.5982671815
 10
0.1763918337
 20
7.5989138834
 10
0.1754614466
 20
7.5995165559
 10
0.1745344277
 20
7.6000738335
  0
LWPOLYLINE
  5
2E3
100
AcDbEntity
  8
CURVE
100
AcDbPolyline
 62
250
  6
CONTINUOUS
 90
55
 70
0
 10
0.5964583534
 20
9.1313484454
 10
0.5964392755
 20
9.1324298555
 10
0.5963825675
 20
9.1335368818
 10
0.5962890177
 20
9.134668159
 10
0.5961594146
 20
9.1358223213
 10
0.5959945467
 20
9.1369980032
 10
0.5957952023
 20
9.138193839
 10
0.5955621699
 20
9.1394084632
 10
0.5952962379
 20
9.1406405102
 10
0.5949981948
 20
9.1418886142
 10
0.594668829
 20
9.1431514099
 10
0.5943089288
 20
9.1444275314
 10
0.5939192829
 20
9.1457156134
 10
0.5935006795
 20
9.14701429
 10
0.5930539071
 20
9.1483221958
 10
0.5925797541
 20
9.1496379652
 10
0.5920790091
 20
9.1509602324
 10
0.5915524603
 20
9.152287632
 10
0.5910008962
 20
9.1536187984
 10
0.5904251053
 20
9.1549523658
 10
0.589825876
 20
9.1562869688
 10
0.5892039968
 20
9.1576212417
 10
0.588560256
 20
9.158953819
 10
0.587895442
 20
9.1602833349
 10
0.5872103434
 20
9.161608424
 10
0.5865057485
 20
9.1629277206
 10
0.5857824458
 20
9.1642398591
 10
0.5850412237
 20
9.1655434739
 10
0.5842828707
 20
9.1668371994
 10
0.5835081751
 20
9.16811967
 10
0.5827179254
 20
9.1693895201
 10
0.5819129101
 20
9.1706453842
 10
0.5810939175
 20
9.1718858965
 10
0.5802617361
 20
9.1731096915
 10
0.5794171543
 20
9.1743154037
 10
0.5785609606
 20
9.1755016673
 10
0.5776939434
 20
9.1766671168
 10
0.576816891
 20
9.1778103866
 10
0.5759305921
 20
9.1789301111
 10
0.5750358349
 20
9.1800249247
 10
0.5741334079
 20
9.1810934617
 10
0.5732240995
 20
9.1821343567
 10
0.5723086982
 20
9.1831462439
 10
0.5713879924
 20
9.1841277578
 10
0.5704627706
 20
9.1850775328
 10
0.5695338211
 20
9.1859942032
 10
0.5686019324
 20
9.1868764036
 10
0.5676678929
 20
9.1877227682
 10
0.5667324911
 20
9.1885319314
 10
0.5657965153
 20
9.1893025277
 10
0.5648607541
 20
9.1900331915
 10
0.5639259958
 20
9.1907225572
 10
0.5629930289
 20
9.1913692591
 10
0.5620626418
 20
9.1919719316
 10
0.5611356229
 20
9.1925292093
  0
LINE
  5
2E4
100
AcDbEntity
  8
CURVE
100
AcDbLine
 62
250
  6
CONTINUOUS
 10
0.5964583534
 20
8.80506155
 11
0.5964583534
 21
9.1313484454
  0
LWPOLYLINE
  5
2E5
100
AcDbEntity
  8
0
100
AcDbPolyline
 62
7
  6
CONTINUOUS
 90
4
 70
0
 10
-1.3158264963
 20
-2.0949958937
 10
-1.3091516789
 20
-2.0901256735
 10
-1.3039558676
 20
-2.084146914
 10
-1.2998739076
 20
-2.0770169133
  0
LWPOLYLINE
  5
2E6
100
AcDbEntity
  8
DRAFT
100
AcDbPolyline
 62
7
  6
CONTINUOUS
 90
6
 70
0
 10
-1.3158264435
 20
-2.0949958647
 10
-1.3091594987
 20
-2.0901366446
 10
-1.3039691106
 20
-2.0841730071
 10
-1.2998803974
 20
-2.077035294
 10
-1.2969794551
 20
-2.068819076
 10
-1.2951801877
 20
-2.0594287824
  0
LWPOLYLINE
  5
2E7
100
AcDbEntity
  8
ASSI
100
AcDbPolyline
 62
7
  6
CONTINUOUS
 90
6
 70
0
 10
-1.3158264435
 20
-2.0949958647
 10
-1.3091594987
 20
-2.0901366446
 10
-1.3039691106
 20
-2.0841730071
 10
-1.2998803974
 20
-2.077035294
 10
-1.2969794551
 20
-2.068819076
 10
-1.2951801877
 20
-2.0594287824
  0
LWPOLYLINE
  5
2E8
100
AcDbEntity
  8
0
100
AcDbPolyline
 62
7
  6
CONTINUOUS
 90
4
 70
0
 10
-2.6650629621
 20
0.2875598884
 10
-2.6732791
 20
0.287590494
 10
-2.6810551811
 20
0.286080893
 10
-2.688615655
 20
0.282733279
  0
LWPOLYLINE
  5
2E9
100
AcDbEntity
  8
RACCORDO
100
AcDbPolyline
 62
250
  6
CONTINUOUS
 90
9
 70
0
 10
8.1269326551
 20
-2.3166747955
 10
8.1085265484
 20
-2.3090233722
 10
8.0889309241
 20
-2.3033469995
 10
8.0685104203
 20
-2.2997468878
 10
8.0473395203
 20
-2.2982014134
 10
8.0245439873
 20
-2.2987614408
 10
7.9998139178
 20
-2.3017345764
 10
7.9735213564
 20
-2.307376873
 10
7.9457537542
 20
-2.3159272808
  0
LWPOLYLINE
  5
2EA
100
AcDbEntity
  8
ASSI
100
AcDbPolyline
 62
250
  6
CONTINUOUS
 90
9
 70
0
 10
8.1269326551
 20
-2.3166747955
 10
8.1085265484
 20
-2.3090233722
 10
8.0889309241
 20
-2.3033469995
 10
8.0685104203
 20
-2.2997468878
 10
8.0473395203
 20
-2.2982014134
 10
8.0245439873
 20
-2.2987614408
 10
7.9998139178
 20
-2.3017345764
 10
7.9735213564
 20
-2.307376873
 10
7.9457537542
 20
-2.3159272808
  0
LWPOLYLINE
  5
2EB
100
AcDbEntity
  8
RACCORDO
100
AcDbPolyline
 62
7
  6
CONTINUOUS
 90
10
 70
0
 10
8.1387597612
 20
-2.322937255
 10
8.1136781495
 20
-2.3096565272
 10
8.0797382939
 20
-2.2953069658
 10
8.0442024478
 20
-2.2842417708
 10
8.0074175544
 20
-2.2766427269
 10
7.9697380922
 20
-2.2726271513
 10
7.9314742517
 20
-2.2722592079
 10
7.892972979
 20
-2.275563098
 10
7.8545727527
 20
-2.2824959513
 10
7.8158984289
 20
-2.2932012392
  0
LWPOLYLINE
  5
2EC
100
AcDbEntity
  8
ASSI
100
AcDbPolyline
 62
7
  6
CONTINUOUS
 90
10
 70
0
 10
8.1387597612
 20
-2.322937255
 10
8.1136781495
 20
-2.3096565272
 10
8.0797382939
 20
-2.2953069658
 10
8.0442024478
 20
-2.2842417708
 10
8.0074175544
 20
-2.2766427269
 10
7.9697380922
 20
-2.2726271513
 10
7.9314742517
 20
-2.2722592079
 10
7.892972979
 20
-2.275563098
 10
7.8545727527
 20
-2.2824959513
 10
7.8158984289
 20
-2.2932012392
  0
LWPOLYLINE
  5
2ED
100
AcDbEntity
  8
RACCORDO
100
AcDbPolyline
 62
250
  6
CONTINUOUS
 90
6
 70
0
 10
7.9457537542
 20
-2.3159272808
 10
7.9193467376
 20
-2.3017506462
 10
7.8927633285
 20
-2.292253291
 10
7.8664531356
 20
-2.2875958454
 10
7.840861147
 20
-2.2878570814
 10
7.8158984289
 20
-2.2932012392
  0
LWPOLYLINE
  5
2EE
100
AcDbEntity
  8
ASSI
100
AcDbPolyline
 62
250
  6
CONTINUOUS
 90
6
 70
0
 10
7.9457537542
 20
-2.3159272808
 10
7.9193467376
 20
-2.3017506462
 10
7.8927633285
 20
-2.292253291
 10
7.8664531356
 20
-2.2875958454
 10
7.840861147
 20
-2.2878570814
 10
7.8158984289
 20
-2.2932012392
  0
LINE
  5
2EF
100
AcDbEntity
  8
RACCORDO
100
AcDbLine
 62
250
  6
CONTINUOUS
 10
7.1675424549
 20
-2.8505008631
 11
7.2510740828
 21
-2.8987309781
  0
LINE
  5
2F0
100
AcDbEntity
  8
ASSI
100
AcDbLine
 62
250
  6
CONTINUOUS
 10
7.1675424549
 20
-2.8505008631
 11
7.2510740828
 21
-2.8987309781
  0
LINE
  5
2F1
100
AcDbEntity
  8
RACCORDO
100
AcDbLine
 62
250
  6
CONTINUOUS
 10
7.9457537542
 20
-2.3159272808
 11
8.2583934296
 21
-2.4964415111
  0
LINE
  5
2F2
100
AcDbEntity
  8
ASSI
100
AcDbLine
 62
250
  6
CONTINUOUS
 10
7.9457537542
 20
-2.3159272808
 11
8.2583934296
 21
-2.4964415111
  0
LINE
  5
2F3
100
AcDbEntity
  8
RACCORDO
100
AcDbLine
 62
7
  6
CONTINUOUS
 10
8.1383263888
 20
-2.3226860061
 11
8.4420724669
 21
-2.4980651848
  0
LINE
  5
2F4
100
AcDbEntity
  8
ASSI
100
AcDbLine
 62
7
  6
CONTINUOUS
 10
8.1383263888
 20
-2.3226860061
 11
8.4420724669
 21
-2.4980651848
  0
LWPOLYLINE
  5
2F5
100
AcDbEntity
  8
CURVE
100
AcDbPolyline
 62
250
  6
CONTINUOUS
 90
37
 70
0
 10
-0.7501567474
 20
8.6370404129
 10
-0.7496169784
 20
8.6360286939
 10
-0.7490588287
 20
8.6350208346
 10
-0.7484829274
 20
8.6340175023
 10
-0.7478899036
 20
8.6330193646
 10
-0.7472803866
 20
8.632027089
 10
-0.7466550054
 20
8.631041343
 10
-0.7460143892
 20
8.6300627942
 10
-0.7453591672
 20
8.6290921099
 10
-0.7446899685
 20
8.6281299577
 10
-0.7440074223
 20
8.6271770051
 10
-0.7433121577
 20
8.6262339195
 10
-0.7426048038
 20
8.6253013686
 10
-0.74188599
 20
8.6243800198
 10
-0.7411563452
 20
8.6234705405
 10
-0.7404164986
 20
8.6225735984
 10
-0.7396670795
 20
8.6216898608
 10
-0.7389087169
 20
8.6208199953
 10
-0.73814204
 20
8.6199646694
 10
-0.737367678
 20
8.6191245506
 10
-0.73658626
 20
8.6183003064
 10
-0.7357984151
 20
8.6174926042
 10
-0.7350047726
 20
8.6167021116
 10
-0.7342059616
 20
8.6159294961
 10
-0.7334026111
 20
8.6151754252
 10
-0.7325953505
 20
8.6144405664
 10
-0.7317848088
 20
8.6137255871
 10
-0.7309716152
 20
8.6130311549
 10
-0.7301563988
 20
8.6123579373
 10
-0.7293397889
 20
8.6117066018
 10
-0.7285224144
 20
8.6110778158
 10
-0.7277049047
 20
8.6104722469
 10
-0.7268878889
 20
8.6098905626
 10
-0.7260719961
 20
8.6093334304
 10
-0.7252578554
 20
8.6088015177
 10
-0.7244460961
 20
8.6082954921
 10
-0.7236373472
 20
8.607816021
  0
LINE
  5
2F6
100
AcDbEntity
  8
CURVE
100
AcDbLine
 62
250
  6
CONTINUOUS
 10
-1.537521779
 20
10.1740385322
 11
-0.7506775064
 21
8.638055324
  0
LINE
  5
2F7
100
AcDbEntity
  8
CURVE
100
AcDbLine
 62
250
  6
CONTINUOUS
 10
-0.3272919505
 20
8.4460568672
 11
-0.9460487468
 21
9.6548999556
  0
LWPOLYLINE
  5
2F8
100
AcDbEntity
  8
RACCORDO
100
AcDbPolyline
 62
7
  6
CONTINUOUS
 90
13
 70
0
 10
6.9433114057
 20
-17.133454607
 10
6.9446896216
 20
-17.1561374064
 10
6.9482779748
 20
-17.1790392532
 10
6.9540764655
 20
-17.2021601472
 10
6.9622579507
 20
-17.2258986043
 10
6.9726495734
 20
-17.2498561086
 10
6.984732762
 20
-17.2728371128
 10
6.9985933584
 20
-17.2947920623
 10
7.0141455207
 20
-17.3157705117
 10
7.030613152
 20
-17.3347255766
 10
7.0477375531
 20
-17.3513082958
 10
7.0657774231
 20
-17.3658676306
 10
7.084732762
 20
-17.378403581
  0
LWPOLYLINE
  5
2F9
100
AcDbEntity
  8
ASSI
100
AcDbPolyline
 62
7
  6
CONTINUOUS
 90
13
 70
0
 10
6.9433114057
 20
-17.133454607
 10
6.9446896216
 20
-17.1561374064
 10
6.9482779748
 20
-17.1790392532
 10
6.9540764655
 20
-17.2021601472
 10
6.9622579507
 20
-17.2258986043
 10
6.9726495734
 20
-17.2498561086
 10
6.984732762
 20
-17.2728371128
 10
6.9985933584
 20
-17.2947920623
 10
7.0141455207
 20
-17.3157705117
 10
7.030613152
 20
-17.3347255766
 10
7.0477375531
 20
-17.3513082958
 10
7.0657774231
 20
-17.3658676306
 10
7.084732762
 20
-17.378403581
  0
LWPOLYLINE
  5
2FA
100
AcDbEntity
  8
COPY_PUBLISH
100
AcDbPolyline
 62
250
  6
CONTINUOUS
 90
9
 70
0
 10
5.4325177079
 20
-26.2740129708
 10
5.4343905448
 20
-26.3148951431
 10
5.4399892141
 20
-26.3531814897
 10
5.4492544013
 20
-26.3884663911
 10
5.4620879479
 20
-26.4203760262
 10
5.4783538906
 20
-26.4485723324
 10
5.4978799019
 20
-26.4727565877
 10
5.5204591161
 20
-26.4926725752
 10
5.5360590184
 20
-26.5028814014
  0
LWPOLYLINE
  5
2FB
100
AcDbEntity
  8
ASSI
100
AcDbPolyline
 62
250
  6
CONTINUOUS
 90
9
 70
0
 10
5.4325177079
 20
-26.2740129708
 10
5.4343905448
 20
-26.3148951431
 10
5.4399892141
 20
-26.3531814897
 10
5.4492544013
 20
-26.3884663911
 10
5.4620879479
 20
-26.4203760262
 10
5.4783538906
 20
-26.4485723324
 10
5.4978799019
 20
-26.4727565877
 10
5.5204591161
 20
-26.4926725752
 10
5.5360590184
 20
-26.5028814014
  0
LINE
  5
2FC
100
AcDbEntity
  8
COPY_PUBLISH
100
AcDbLine
 62
250
  6
CONTINUOUS
 10
5.4325177079
 20
15.8777593114
 11
5.4325177079
 21
-26.2740129708
  0
LINE
  5
2FD
100
AcDbEntity
  8
ASSI
100
AcDbLine
 62
250
  6
CONTINUOUS
 10
5.4325177079
 20
15.8777593114
 11
5.4325177079
 21
-26.2740129708
  0
LINE
  5
2FE
100
AcDbEntity
  8
CURVE
100
AcDbLine
 62
7
  6
CONTINUOUS
 10
-4.4218054282
 20
-11.4017611767
 11
-3.6548213984
 21
-10.6347771469
  0
LINE
  5
2FF
100
AcDbEntity
  8
CURVE
100
AcDbLine
 62
7
  6
CONTINUOUS
 10
-4.4218054282
 20
-11.8217826048
 11
-4.0678473081
 21
-11.4678244846
  0
LINE
  5
300
100
AcDbEntity
  8
CURVE
100
AcDbLine
 62
7
  6
CONTINUOUS
 10
-3.9113955281
 20
-11.3113727046
 11
-2.8484732484
 21
-10.2484504249
  0
LINE
  5
301
100
AcDbEntity
  8
CURVE
100
AcDbLine
 62
7
  6
CONTINUOUS
 10
-4.4218054282
 20
-12.2418040328
 11
-4.0678473081
 21
-11.8878459126
  0
LINE
  5
302
100
AcDbEntity
  8
CURVE
100
AcDbLine
 62
7
  6
CONTINUOUS
 10
-3.104827247
 20
-10.9248258515
 11
-2.0500857938
 21
-9.8700843983
  0
LINE
  5
303
100
AcDbEntity
  8
CURVE
100
AcDbLine
 62
7
  6
CONTINUOUS
 10
-4.4218054282
 20
-12.6618254608
 11
-4.0678473081
 21
-12.3078673407
  0
LINE
  5
304
100
AcDbEntity
  8
CURVE
100
AcDbLine
 62
7
  6
CONTINUOUS
 10
-2.2982589658
 20
-10.5382789984
 11
-1.861836429
 21
-10.1018564616
  0
LINE
  5
305
100
AcDbEntity
  8
RACCORDO
100
AcDbLine
 62
7
  6
CONTINUOUS
 10
7.2510740828
 20
-2.8987309781
 11
8.2583934296
 21
-2.4964415111
  0
LINE
  5
306
100
AcDbEntity
  8
ASSI
100
AcDbLine
 62
7
  6
CONTINUOUS
 10
7.2510740828
 20
-2.8987309781
 11
8.2583934296
 21
-2.4964415111
  0
LINE
  5
307
100
AcDbEntity
  8
RACCORDO
100
AcDbLine
 62
7
  6
CONTINUOUS
 10
7.8158247424
 20
-2.2932252663
 11
7.1657213758
 21
-2.5054336285
  0
LINE
  5
308
100
AcDbEntity
  8
ASSI
100
AcDbLine
 62
7
  6
CONTINUOUS
 10
7.8158247424
 20
-2.2932252663
 11
7.1657213758
 21
-2.5054336285
  0
LINE
  5
309
100
AcDbEntity
  8
RACCORDO
100
AcDbLine
 62
250
  6
CONTINUOUS
 10
7.9457537542
 20
-2.3159272808
 11
7.1657213758
 21
-2.570547395
  0
LINE
  5
30A
100
AcDbEntity
  8
ASSI
100
AcDbLine
 62
250
  6
CONTINUOUS
 10
7.9457537542
 20
-2.3159272808
 11
7.1657213758
 21
-2.570547395
  0
LWPOLYLINE
  5
30B
100
AcDbEntity
  8
CURVE
100
AcDbPolyline
 62
250
  6
CONTINUOUS
 90
34
 70
0
 10
-0.2166952632
 20
11.1546538513
 10
-0.2161133107
 20
11.1537228739
 10
-0.2155170308
 20
11.152797961
 10
-0.2149069542
 20
11.1518796709
 10
-0.2142836118
 20
11.1509685623
 10
-0.2136475344
 20
11.1500651936
 10
-0.2129992527
 20
11.1491701235
 10
-0.2123392975
 20
11.1482839105
 10
-0.2116681997
 20
11.1474071131
 10
-0.2109864901
 20
11.1465402898
 10
-0.2102946994
 20
11.1456839993
 10
-0.2095933584
 20
11.1448388
 10
-0.2088829979
 20
11.1440052506
 10
-0.2081641488
 20
11.1431839095
 10
-0.2074373418
 20
11.1423753353
 10
-0.2067031077
 20
11.1415800865
 10
-0.2059619773
 20
11.1407987217
 10
-0.2052144814
 20
11.1400317995
 10
-0.2044611509
 20
11.1392798783
 10
-0.2037025164
 20
11.1385435168
 10
-0.2029391088
 20
11.1378232735
 10
-0.2021714589
 20
11.1371197068
 10
-0.2014000975
 20
11.1364333755
 10
-0.2006255554
 20
11.1357648379
 10
-0.1998483633
 20
11.1351146527
 10
-0.1990690521
 20
11.1344833784
 10
-0.1982881526
 20
11.1338715736
 10
-0.1975061956
 20
11.1332797967
 10
-0.1967237118
 20
11.1327086064
 10
-0.195941232
 20
11.1321585612
 10
-0.1951592871
 20
11.1316302196
 10
-0.1943784079
 20
11.1311241401
 10
-0.1935991251
 20
11.1306408814
 10
-0.1928219695
 20
11.130181002
  0
LINE
  5
30C
100
AcDbEntity
  8
CURVE
100
AcDbLine
 62
250
  6
CONTINUOUS
 10
-2.0162056785
 20
14.0976651597
 11
-0.2166952632
 21
11.1546538513
  0
LWPOLYLINE
  5
30D
100
AcDbEntity
  8
COPY_PUBLISH
100
AcDbPolyline
 62
250
  6
CONTINUOUS
 90
16
 70
0
 10
6.1302483864
 20
15.8724855727
 10
6.1273584387
 20
15.9158624947
 10
6.1207097378
 20
15.9610678903
 10
6.110375545
 20
16.0076038759
 10
6.0964678936
 20
16.0549634487
 10
6.0791410103
 20
16.102619559
 10
6.0585934948
 20
16.1500308146
 10
6.0350603679
 20
16.1966655647
 10
6.0087991882
 20
16.2420226919
 10
5.9800917156
 20
16.2856190029
 10
5.9492088091
 20
16.3270321491
 10
5.9165296775
 20
16.3657433662
 10
5.8825498609
 20
16.4011942835
 10
5.84770168
 20
16.4329970801
 10
5.8123287117
 20
16.4608992561
 10
5.7768161449
 20
16.4846481602
  0
LWPOLYLINE
  5
30E
100
AcDbEntity
  8
ASSI
100
AcDbPolyline
 62
250
  6
CONTINUOUS
 90
16
 70
0
 10
6.1302483864
 20
15.8724855727
 10
6.1273584387
 20
15.9158624947
 10
6.1207097378
 20
15.9610678903
 10
6.110375545
 20
16.0076038759
 10
6.0964678936
 20
16.0549634487
 10
6.0791410103
 20
16.102619559
 10
6.0585934948
 20
16.1500308146
 10
6.0350603679
 20
16.1966655647
 10
6.0087991882
 20
16.2420226919
 10
5.9800917156
 20
16.2856190029
 10
5.9492088091
 20
16.3270321491
 10
5.9165296775
 20
16.3657433662
 10
5.8825498609
 20
16.4011942835
 10
5.84770168
 20
16.4329970801
 10
5.8123287117
 20
16.4608992561
 10
5.7768161449
 20
16.4846481602
  0
LWPOLYLINE
  5
30F
100
AcDbEntity
  8
RACCORDO
100
AcDbPolyline
 62
7
  6
CONTINUOUS
 90
13
 70
0
 10
6.9433114057
 20
4.503007728
 10
6.9446896216
 20
4.4803249286
 10
6.9482779748
 20
4.4574230819
 10
6.9540764655
 20
4.4343021879
 10
6.9622579507
 20
4.4105637308
 10
6.9726495734
 20
4.3866062264
 10
6.984732762
 20
4.3636252222
 10
6.9985933584
 20
4.3416702727
 10
7.0141455207
 20
4.3206918233
 10
7.030613152
 20
4.3017367584
 10
7.0477375531
 20
4.2851540392
 10
7.0657774231
 20
4.2705947044
 10
7.084732762
 20
4.258058754
  0
LWPOLYLINE
  5
310
100
AcDbEntity
  8
ASSI
100
AcDbPolyline
 62
7
  6
CONTINUOUS
 90
13
 70
0
 10
6.9433114057
 20
4.503007728
 10
6.9446896216
 20
4.4803249286
 10
6.9482779748
 20
4.4574230819
 10
6.9540764655
 20
4.4343021879
 10
6.9622579507
 20
4.4105637308
 10
6.9726495734
 20
4.3866062264
 10
6.984732762
 20
4.3636252222
 10
6.9985933584
 20
4.3416702727
 10
7.0141455207
 20
4.3206918233
 10
7.030613152
 20
4.3017367584
 10
7.0477375531
 20
4.2851540392
 10
7.0657774231
 20
4.2705947044
 10
7.084732762
 20
4.258058754
  0
LINE
  5
311
100
AcDbEntity
  8
COPY_PUBLISH
100
AcDbLine
 62
250
  6
CONTINUOUS
 10
6.1302483864
 20
15.8724855727
 11
6.1302483864
 21
-26.2792867095
  0
LINE
  5
312
100
AcDbEntity
  8
ASSI
100
AcDbLine
 62
250
  6
CONTINUOUS
 10
6.1302483864
 20
15.8724855727
 11
6.1302483864
 21
-26.2792867095
  0
LINE
  5
313
100
AcDbEntity
  8
0
100
AcDbLine
 62
7
  6
CONTINUOUS
 10
6.7202441037
 20
-25.9733999633
 11
6.7202441037
 21
16.2131400254
  0
LINE
  5
314
100
AcDbEntity
  8
ASSI
100
AcDbLine
 62
7
  6
CONTINUOUS
 10
6.7202441037
 20
-25.9733999633
 11
6.7202441037
 21
16.2131400254
  0
LINE
  5
315
100
AcDbEntity
  8
RACCORDO
100
AcDbLine
 62
7
  6
CONTINUOUS
 10
6.9433114057
 20
-17.133454607
 11
6.9433114057
 21
-13.4781370047
  0
LINE
  5
316
100
AcDbEntity
  8
ASSI
100
AcDbLine
 62
7
  6
CONTINUOUS
 10
6.9433114057
 20
-17.133454607
 11
6.9433114057
 21
-13.4781370047
  0
LINE
  5
317
100
AcDbEntity
  8
RACCORDO
100
AcDbLine
 62
7
  6
CONTINUOUS
 10
6.9433114057
 20
4.503007728
 11
6.9433114057
 21
8.1583253303
  0
LINE
  5
318
100
AcDbEntity
  8
ASSI
100
AcDbLine
 62
7
  6
CONTINUOUS
 10
6.9433114057
 20
4.503007728
 11
6.9433114057
 21
8.1583253303
  0
LINE
  5
319
100
AcDbEntity
  8
RACCORDO
100
AcDbLine
 62
7
  6
CONTINUOUS
 10
7.1657213758
 20
-25.6069609106
 11
7.1657213758
 21
-17.4251653916
  0
LINE
  5
31A
100
AcDbEntity
  8
ASSI
100
AcDbLine
 62
7
  6
CONTINUOUS
 10
7.1657213758
 20
-25.6069609106
 11
7.1657213758
 21
-17.4251653916
  0
LINE
  5
31B
100
AcDbEntity
  8
RACCORDO
100
AcDbLine
 62
7
  6
CONTINUOUS
 10
7.1657213758
 20
-13.3428140076
 11
7.1657213758
 21
-6.3014640719
  0
LINE
  5
31C
100
AcDbEntity
  8
ASSI
100
AcDbLine
 62
7
  6
CONTINUOUS
 10
7.1657213758
 20
-13.3428140076
 11
7.1657213758
 21
-6.3014640719
  0
LINE
  5
31D
100
AcDbEntity
  8
RACCORDO
100
AcDbLine
 62
7
  6
CONTINUOUS
 10
7.1657213758
 20
-2.8300529923
 11
7.1657213758
 21
4.2112969434
  0
LINE
  5
31E
100
AcDbEntity
  8
ASSI
100
AcDbLine
 62
7
  6
CONTINUOUS
 10
7.1657213758
 20
-2.8300529923
 11
7.1657213758
 21
4.2112969434
  0
LINE
  5
31F
100
AcDbEntity
  8
RACCORDO
100
AcDbLine
 62
7
  6
CONTINUOUS
 10
7.1657213758
 20
8.2936483274
 11
7.1657213758
 21
16.4754438463
  0
LINE
  5
320
100
AcDbEntity
  8
ASSI
100
AcDbLine
 62
7
  6
CONTINUOUS
 10
7.1657213758
 20
8.2936483274
 11
7.1657213758
 21
16.4754438463
  0
LINE
  5
321
100
AcDbEntity
  8
CURVE
100
AcDbLine
 62
7
  6
CONTINUOUS
 10
-4.4218054282
 20
-13.0818468888
 11
-4.0678473081
 21
-12.7278887687
  0
LINE
  5
322
100
AcDbEntity
  8
CURVE
100
AcDbLine
 62
7
  6
CONTINUOUS
 10
-1.9125642832
 20
-10.5726057438
 11
-1.7024607118
 21
-10.3625021724
  0
LINE
  5
323
100
AcDbEntity
  8
CURVE
100
AcDbLine
 62
7
  6
CONTINUOUS
 10
-4.4218054282
 20
-13.5018683169
 11
-4.0678473081
 21
-13.1479101967
  0
LINE
  5
324
100
AcDbEntity
  8
CURVE
100
AcDbLine
 62
7
  6
CONTINUOUS
 10
-1.7531906465
 20
-10.8332535351
 11
-1.5430849945
 21
-10.6231478831
  0
LINE
  5
325
100
AcDbEntity
  8
CURVE
100
AcDbLine
 62
7
  6
CONTINUOUS
 10
-4.4218054282
 20
-13.9218897449
 11
-4.0678473081
 21
-13.5679316247
  0
LINE
  5
326
100
AcDbEntity
  8
CURVE
100
AcDbLine
 62
7
  6
CONTINUOUS
 10
-1.5938170097
 20
-11.0939013264
 11
-1.3837092773
 21
-10.8837935939
  0
LINE
  5
327
100
AcDbEntity
  8
CURVE
100
AcDbLine
 62
7
  6
CONTINUOUS
 10
-4.4218054282
 20
-14.3419111729
 11
-4.0678473081
 21
-13.9879530528
  0
LINE
  5
328
100
AcDbEntity
  8
CURVE
100
AcDbLine
 62
7
  6
CONTINUOUS
 10
-1.434443373
 20
-11.3545491177
 11
-1.22433356
 21
-11.1444393047
  0
LINE
  5
329
100
AcDbEntity
  8
CURVE
100
AcDbLine
 62
7
  6
CONTINUOUS
 10
-4.3538667486
 20
-14.6939939213
 11
-4.0678473081
 21
-14.4079744808
  0
LINE
  5
32A
100
AcDbEntity
  8
CURVE
100
AcDbLine
 62
7
  6
CONTINUOUS
 10
-1.2750697363
 20
-11.615196909
 11
-1.0649578428
 21
-11.4050850155
  0
LINE
  5
32B
100
AcDbEntity
  8
CURVE
100
AcDbLine
 62
7
  6
CONTINUOUS
 10
-4.0877172405
 20
-14.8478658412
 11
-3.8289730133
 21
-14.5891216141
  0
LINE
  5
32C
100
AcDbEntity
  8
CURVE
100
AcDbLine
 62
7
  6
CONTINUOUS
 10
-1.1156960996
 20
-11.8758447003
 11
-0.9055821255
 21
-11.6657307262
  0
LWPOLYLINE
  5
32D
100
AcDbEntity
  8
RACCORDO
100
AcDbPolyline
 62
250
  6
CONTINUOUS
 90
8
 70
0
 10
8.2867969932
 20
9.2012255294
 10
8.3178098566
 20
9.2088955379
 10
8.3477779954
 20
9.212974691
 10
8.3763744717
 20
9.2134721449
 10
8.4034508701
 20
9.2104807629
 10
8.4289911093
 20
9.2040471868
 10
8.4528021311
 20
9.1941587984
 10
8.4604843547
 20
9.189999819
  0
LINE
  5
32E
100
AcDbEntity
  8
DRAFT
100
AcDbLine
 62
7
  6
CONTINUOUS
 10
8.6323597915
 20
6.1949491816
 11
8.0746822556
 21
6.268875521
  0
LWPOLYLINE
  5
32F
100
AcDbEntity
  8
CURVE
100
AcDbPolyline
 62
250
  6
CONTINUOUS
 90
55
 70
0
 10
0.1745344277
 20
7.1919339324
 10
0.1754614466
 20
7.1914207119
 10
0.1763918337
 20
7.1909489967
 10
0.1773248006
 20
7.1905183318
 10
0.1782595589
 20
7.190128262
 10
0.1791953201
 20
7.1897783322
 10
0.1801312958
 20
7.1894680872
 10
0.1810666977
 20
7.1891970719
 10
0.1820007372
 20
7.1889648311
 10
0.1829326259
 20
7.1887709097
 10
0.1838615754
 20
7.1886148525
 10
0.1847867972
 20
7.1884962045
 10
0.185707503
 20
7.1884145104
 10
0.1866229043
 20
7.1883693152
 10
0.1875322126
 20
7.1883601636
 10
0.1884346396
 20
7.1883866006
 10
0.1893293968
 20
7.188448171
 10
0.1902156958
 20
7.1885444197
 10
0.1910927481
 20
7.1886748914
 10
0.1919597654
 20
7.1888391312
 10
0.1928159591
 20
7.1890366838
 10
0.1936605409
 20
7.189267094
 10
0.1944927223
 20
7.1895299068
 10
0.1953117149
 20
7.1898246671
 10
0.1961167302
 20
7.1901509195
 10
0.1969069799
 20
7.1905082092
 10
0.1976816755
 20
7.1908960807
 10
0.1984400285
 20
7.1913140792
 10
0.1991812506
 20
7.1917617493
 10
0.1999045533
 20
7.192238636
 10
0.2006091482
 20
7.192744284
 10
0.2012942468
 20
7.1932782384
 10
0.2019590607
 20
7.1938400439
 10
0.2026028016
 20
7.1944292454
 10
0.2032246808
 20
7.1950453877
 10
0.2038239101
 20
7.1956880157
 10
0.204399701
 20
7.1963566743
 10
0.2049512651
 20
7.1970509083
 10
0.2054778138
 20
7.1977702625
 10
0.2059785589
 20
7.1985142819
 10
0.2064527119
 20
7.1992825113
 10
0.2068994843
 20
7.2000744956
 10
0.2073180876
 20
7.2008897795
 10
0.2077077336
 20
7.201727908
 10
0.2080676337
 20
7.202588426
 10
0.2083969996
 20
7.2034708782
 10
0.2086950427
 20
7.2043748096
 10
0.2089609747
 20
7.2052997649
 10
0.2091940071
 20
7.2062452891
 10
0.2093933515
 20
7.2072109271
 10
0.2095582194
 20
7.2081962236
 10
0.2096878225
 20
7.2092007235
 10
0.2097813723
 20
7.2102239717
 10
0.2098380803
 20
7.2112655131
 10
0.2098571582
 20
7.2123248924
  0
LWPOLYLINE
  5
330
100
AcDbEntity
  8
CURVE
100
AcDbPolyline
 62
250
  6
CONTINUOUS
 90
65
 70
0
 10
-0.3543321097
 20
8.3945838054
 10
-0.3531447283
 20
8.3939264191
 10
-0.3519530248
 20
8.3933222624
 10
-0.3507586581
 20
8.3927713024
 10
-0.3495632869
 20
8.3922735062
 10
-0.3483685701
 20
8.3918288406
 10
-0.3471761665
 20
8.3914372727
 10
-0.3459877348
 20
8.3910987696
 10
-0.344804934
 20
8.3908132982
 10
-0.3436294227
 20
8.3905808256
 10
-0.3424628599
 20
8.3904013187
 10
-0.3413069043
 20
8.3902747446
 10
-0.3401632146
 20
8.3902010703
 10
-0.3390334498
 20
8.3901802628
 10
-0.3379192687
 20
8.3902122891
 10
-0.33682233
 20
8.3902971162
 10
-0.3357442925
 20
8.3904347111
 10
-0.3346868151
 20
8.3906250409
 10
-0.3336515565
 20
8.3908680726
 10
-0.3326401757
 20
8.3911637731
 10
-0.3316543313
 20
8.3915121096
 10
-0.3306956822
 20
8.3919130489
 10
-0.3297658871
 20
8.3923665581
 10
-0.328866605
 20
8.3928726043
 10
-0.3279994946
 20
8.3934311544
 10
-0.3271662147
 20
8.3940421754
 10
-0.3263684241
 20
8.3947056344
 10
-0.3256077817
 20
8.3954214984
 10
-0.3248859462
 20
8.3961897343
 10
-0.3242045764
 20
8.3970103092
 10
-0.3235653312
 20
8.3978831902
 10
-0.3229698694
 20
8.3988083442
 10
-0.3224198497
 20
8.3997857382
 10
-0.3219160536
 20
8.4008161183
 10
-0.3214590185
 20
8.4018965012
 10
-0.3210483009
 20
8.4030245679
 10
-0.3206834573
 20
8.4041979993
 10
-0.3203640441
 20
8.4054144764
 10
-0.3200896178
 20
8.4066716801
 10
-0.3198597349
 20
8.4079672915
 10
-0.3196739518
 20
8.4092989914
 10
-0.3195318251
 20
8.4106644609
 10
-0.3194329113
 20
8.4120613809
 10
-0.3193767667
 20
8.4134874324
 10
-0.3193629478
 20
8.4149402962
 10
-0.3193910112
 20
8.4164176535
 10
-0.3194605133
 20
8.4179171852
 10
-0.3195710106
 20
8.4194365721
 10
-0.3197220595
 20
8.4209734954
 10
-0.3199132166
 20
8.4225256359
 10
-0.3201440383
 20
8.4240906746
 10
-0.320414081
 20
8.4256662924
 10
-0.3207229013
 20
8.4272501704
 10
-0.3210700556
 20
8.4288399895
 10
-0.3214551004
 20
8.4304334306
 10
-0.3218775922
 20
8.4320281748
 10
-0.3223370875
 20
8.433621903
 10
-0.3228331427
 20
8.4352122961
 10
-0.3233653142
 20
8.4367970351
 10
-0.3239331586
 20
8.438373801
 10
-0.3245362324
 20
8.4399402747
 10
-0.325174092
 20
8.4414941372
 10
-0.3258462939
 20
8.4430330695
 10
-0.3265523946
 20
8.4445547525
 10
-0.3272919505
 20
8.4460568672
  0
LINE
  5
331
100
AcDbEntity
  8
CURVE
100
AcDbLine
 62
250
  6
CONTINUOUS
 10
-4.3509163622
 20
9.8048725013
 11
0.1745344277
 21
7.1919339324
  0
LINE
  5
332
100
AcDbEntity
  8
CURVE
100
AcDbLine
 62
250
  6
CONTINUOUS
 10
0.1745344277
 20
7.6000738335
 11
-4.0683345182
 21
10.0498531873
  0
LINE
  5
333
100
AcDbEntity
  8
CURVE
100
AcDbLine
 62
250
  6
CONTINUOUS
 10
-0.7236373472
 20
8.607816021
 11
-0.3543321097
 21
8.3945838054
  0
LINE
  5
334
100
AcDbEntity
  8
RACCORDO
100
AcDbLine
 62
7
  6
CONTINUOUS
 10
7.1657213758
 20
4.2112969434
 11
7.084732762
 21
4.258058754
  0
LINE
  5
335
100
AcDbEntity
  8
ASSI
100
AcDbLine
 62
7
  6
CONTINUOUS
 10
7.1657213758
 20
4.2112969434
 11
7.084732762
 21
4.258058754
  0
LWPOLYLINE
  5
336
100
AcDbEntity
  8
CURVE
100
AcDbPolyline
 62
250
  6
CONTINUOUS
 90
52
 70
0
 10
-1.9682154861
 20
14.5730287348
 10
-1.9696257759
 20
14.5752733803
 10
-1.9710915207
 20
14.5774928304
 10
-1.9726104572
 20
14.5796857781
 10
-1.9741803217
 20
14.5818509166
 10
-1.9757988509
 20
14.583986939
 10
-1.9774637812
 20
14.5860925383
 10
-1.9791728492
 20
14.5881664077
 10
-1.9809237914
 20
14.5902072404
 10
-1.9827143444
 20
14.5922137292
 10
-1.9845422447
 20
14.5941845675
 10
-1.9864052287
 20
14.5961184482
 10
-1.9883010331
 20
14.5980140645
 10
-1.9902273944
 20
14.5998701095
 10
-1.992182049
 20
14.6016852763
 10
-1.9941627336
 20
14.6034582579
 10
-1.9961671846
 20
14.6051877476
 10
-1.9981931386
 20
14.6068724383
 10
-2.0002383321
 20
14.6085110231
 10
-2.0023005017
 20
14.6101021953
 10
-2.0043773838
 20
14.6116446478
 10
-2.0064667149
 20
14.6131370738
 10
-2.0085662318
 20
14.6145781664
 10
-2.0106736707
 20
14.6159666187
 10
-2.0127867684
 20
14.6173011237
 10
-2.0149032612
 20
14.6185803746
 10
-2.0170208858
 20
14.6198030645
 10
-2.0191373786
 20
14.6209678865
 10
-2.0212504763
 20
14.6220735336
 10
-2.0233579152
 20
14.6231186991
 10
-2.025457432
 20
14.6241020759
 10
-2.0275467632
 20
14.6250223572
 10
-2.0296236453
 20
14.625878236
 10
-2.0316858149
 20
14.6266684056
 10
-2.0337310084
 20
14.6273915589
 10
-2.0357569624
 20
14.6280463891
 10
-2.0377614134
 20
14.6286315892
 10
-2.039742098
 20
14.6291458525
 10
-2.0416967526
 20
14.6295878719
 10
-2.0436231139
 20
14.6299563406
 10
-2.0455189183
 20
14.6302499517
 10
-2.0473819023
 20
14.6304673983
 10
-2.0492098026
 20
14.6306073734
 10
-2.0510003556
 20
14.6306685702
 10
-2.0527512978
 20
14.6306496818
 10
-2.0544603658
 20
14.6305494013
 10
-2.0561252961
 20
14.6303664218
 10
-2.0577438253
 20
14.6300994363
 10
-2.0593136898
 20
14.629747138
 10
-2.0608326263
 20
14.62930822
 10
-2.0622983711
 20
14.6287813754
 10
-2.0637086609
 20
14.6281652972
  0
LINE
  5
337
100
AcDbEntity
  8
CURVE
100
AcDbLine
 62
250
  6
CONTINUOUS
 10
0.2500519895
 20
10.9453541438
 11
-1.9682154861
 21
14.5730287348
  0
LINE
  5
338
100
AcDbEntity
  8
DRAFT
100
AcDbLine
 62
7
  6
CONTINUOUS
 10
8.0746822556
 20
8.6975860123
 11
8.0746822556
 21
6.268875521
  0
LINE
  5
339
100
AcDbEntity
  8
DRAFT
100
AcDbLine
 62
7
  6
CONTINUOUS
 10
8.0746822556
 20
-15.367586814
 11
8.0746822556
 21
-12.9388763227
  0
LINE
  5
33A
100
AcDbEntity
  8
RACCORDO
100
AcDbLine
 62
7
  6
CONTINUOUS
 10
8.5429024528
 20
-2.7253681305
 11
8.5429024528
 21
-4.7302863745
  0
LINE
  5
33B
100
AcDbEntity
  8
ASSI
100
AcDbLine
 62
7
  6
CONTINUOUS
 10
8.5429024528
 20
-2.7253681305
 11
8.5429024528
 21
-4.7302863745
  0
LINE
  5
33C
100
AcDbEntity
  8
DRAFT
100
AcDbLine
 62
7
  6
CONTINUOUS
 10
8.6323597915
 20
8.5989552047
 11
8.6323597915
 21
6.1949491816
  0
LINE
  5
33D
100
AcDbEntity
  8
DRAFT
100
AcDbLine
 62
7
  6
CONTINUOUS
 10
8.6323597915
 20
-15.4415131534
 11
8.6323597915
 21
-13.0375071303
  0
LINE
  5
33E
100
AcDbEntity
  8
RACCORDO
100
AcDbLine
 62
7
  6
CONTINUOUS
 10
8.950557843
 20
8.9069921422
 11
8.950557843
 21
8.7634235444
  0
LINE
  5
33F
100
AcDbEntity
  8
DRAFT
100
AcDbLine
 62
7
  6
CONTINUOUS
 10
8.950557843
 20
8.7634235444
 11
8.950557843
 21
6.3979279759
  0
LINE
  5
340
100
AcDbEntity
  8
RACCORDO
100
AcDbLine
 62
7
  6
CONTINUOUS
 10
8.950557843
 20
-12.7294701928
 11
8.950557843
 21
-12.8730387906
  0
LINE
  5
341
100
AcDbEntity
  8
DRAFT
100
AcDbLine
 62
7
  6
CONTINUOUS
 10
8.950557843
 20
-15.2385343591
 11
8.950557843
 21
-12.8730387906
  0
LWPOLYLINE
  5
342
100
AcDbEntity
  8
COPY_PUBLISH
100
AcDbPolyline
 62
250
  6
CONTINUOUS
 90
9
 70
0
 10
6.1302483864
 20
-26.2792867095
 10
6.1273587586
 20
-26.3214445105
 10
6.1207108486
 20
-26.3608320217
 10
6.1103778628
 20
-26.3970155046
 10
6.0964717011
 20
-26.4296002021
 10
6.0791465614
 20
-26.4582226352
 10
6.0586012701
 20
-26.4825595324
 10
6.035071407
 20
-26.5023435586
 10
6.0163214256
 20
-26.5137053194
  0
LWPOLYLINE
  5
343
100
AcDbEntity
  8
ASSI
100
AcDbPolyline
 62
250
  6
CONTINUOUS
 90
9
 70
0
 10
6.1302483864
 20
-26.2792867095
 10
6.1273587586
 20
-26.3214445105
 10
6.1207108486
 20
-26.3608320217
 10
6.1103778628
 20
-26.3970155046
 10
6.0964717011
 20
-26.4296002021
 10
6.0791465614
 20
-26.4582226352
 10
6.0586012701
 20
-26.4825595324
 10
6.035071407
 20
-26.5023435586
 10
6.0163214256
 20
-26.5137053194
  0
LINE
  5
344
100
AcDbEntity
  8
CURVE
100
AcDbLine
 62
7
  6
CONTINUOUS
 10
-3.8214406048
 20
-15.0016106335
 11
-3.5626963776
 21
-14.7428664063
  0
LINE
  5
345
100
AcDbEntity
  8
CURVE
100
AcDbLine
 62
7
  6
CONTINUOUS
 10
-0.9563224628
 20
-12.1364924916
 11
-0.7462064083
 21
-11.926376437
  0
LINE
  5
346
100
AcDbEntity
  8
CURVE
100
AcDbLine
 62
7
  6
CONTINUOUS
 10
-3.555163969
 20
-15.1553554258
 11
-3.2964197418
 21
-14.8966111986
  0
LINE
  5
347
100
AcDbEntity
  8
CURVE
100
AcDbLine
 62
7
  6
CONTINUOUS
 10
-0.7969488261
 20
-12.3971402829
 11
-0.586830691
 21
-12.1870221478
  0
LINE
  5
348
100
AcDbEntity
  8
CURVE
100
AcDbLine
 62
7
  6
CONTINUOUS
 10
-3.2888873332
 20
-15.309100218
 11
-3.0301431061
 21
-15.0503559908
  0
LINE
  5
349
100
AcDbEntity
  8
CURVE
100
AcDbLine
 62
7
  6
CONTINUOUS
 10
-0.6375751894
 20
-12.6577880741
 11
-0.4274549738
 21
-12.4476678585
  0
LINE
  5
34A
100
AcDbEntity
  8
CURVE
100
AcDbLine
 62
7
  6
CONTINUOUS
 10
-3.0226106975
 20
-15.4628450103
 11
-2.7638664703
 21
-15.2041007831
  0
LINE
  5
34B
100
AcDbEntity
  8
CURVE
100
AcDbLine
 62
7
  6
CONTINUOUS
 10
-0.4782015526
 20
-12.9184358654
 11
-0.2680792565
 21
-12.7083135693
  0
LINE
  5
34C
100
AcDbEntity
  8
CURVE
100
AcDbLine
 62
7
  6
CONTINUOUS
 10
-2.7563340617
 20
-15.6165898025
 11
-2.4975898345
 21
-15.3578455754
  0
LINE
  5
34D
100
AcDbEntity
  8
CURVE
100
AcDbLine
 62
7
  6
CONTINUOUS
 10
-1.5350857286
 20
-14.3953414694
 11
-1.3458124648
 21
-14.2060682056
  0
LINE
  5
34E
100
AcDbEntity
  8
CURVE
100
AcDbLine
 62
7
  6
CONTINUOUS
 10
-0.3188279159
 20
-13.1790836567
 11
-0.1087035393
 21
-12.9689592801
  0
LINE
  5
34F
100
AcDbEntity
  8
CURVE
100
AcDbLine
 62
7
  6
CONTINUOUS
 10
-2.490057426
 20
-15.7703345948
 11
-2.2313131988
 21
-15.5115903676
  0
LINE
  5
350
100
AcDbEntity
  8
CURVE
100
AcDbLine
 62
7
  6
CONTINUOUS
 10
-1.3382800562
 20
-14.6185572251
 11
-1.0795358291
 21
-14.3598129979
  0
LINE
  5
351
100
AcDbEntity
  8
CURVE
100
AcDbLine
 62
7
  6
CONTINUOUS
 10
-0.5731065488
 20
-13.8533837177
 11
-0.4973167375
 21
-13.7775939064
  0
LINE
  5
352
100
AcDbEntity
  8
CURVE
100
AcDbLine
 62
7
  6
CONTINUOUS
 10
-0.1278349741
 20
-13.408112143
 11
0.050672178
 21
-13.2296049909
  0
LINE
  5
353
100
AcDbEntity
  8
RACCORDO
100
AcDbLine
 62
7
  6
CONTINUOUS
 10
7.2510740828
 20
-6.1289221801
 11
8.2583934296
 21
-5.3054260139
  0
LINE
  5
354
100
AcDbEntity
  8
ASSI
100
AcDbLine
 62
7
  6
CONTINUOUS
 10
7.2510740828
 20
-6.1289221801
 11
8.2583934296
 21
-5.3054260139
  0
LWPOLYLINE
  5
355
100
AcDbEntity
  8
CURVE
100
AcDbPolyline
 62
250
  6
CONTINUOUS
 90
36
 70
0
 10
-4.3989065547
 20
-10.9912732576
 10
-4.4000932407
 20
-10.9918783624
 10
-4.401254495
 20
-10.9925391474
 10
-4.4023897825
 20
-10.9932544917
 10
-4.4034985678
 20
-10.9940232747
 10
-4.4045803157
 20
-10.9948443755
 10
-4.4056344909
 20
-10.9957166733
 10
-4.4066605582
 20
-10.9966390473
 10
-4.4076579822
 20
-10.9976103768
 10
-4.4086262278
 20
-10.9986295409
 10
-4.4095647596
 20
-10.9996954188
 10
-4.4104730424
 20
-11.0008068897
 10
-4.4113505409
 20
-11.0019628329
 10
-4.4121967198
 20
-11.0031621276
 10
-4.4130110439
 20
-11.0044036529
 10
-4.4137929779
 20
-11.0056862881
 10
-4.4145419866
 20
-11.0070089124
 10
-4.4152575347
 20
-11.0083704049
 10
-4.4159390868
 20
-11.0097696449
 10
-4.4165861078
 20
-11.0112055117
 10
-4.4171980624
 20
-11.0126768843
 10
-4.4177744152
 20
-11.014182642
 10
-4.4183146312
 20
-11.0157216641
 10
-4.4188181749
 20
-11.0172928296
 10
-4.4192845111
 20
-11.0188950179
 10
-4.4197131045
 20
-11.0205271081
 10
-4.4201034199
 20
-11.0221879794
 10
-4.420454922
 20
-11.0238765111
 10
-4.4207670756
 20
-11.0255915823
 10
-4.4210393453
 20
-11.0273320723
 10
-4.4212711959
 20
-11.0290968602
 10
-4.4214620922
 20
-11.0308848253
 10
-4.4216114988
 20
-11.0326948468
 10
-4.4217188805
 20
-11.0345258039
 10
-4.4217837021
 20
-11.0363765757
 10
-4.4218054282
 20
-11.0382460415
  0
LINE
  5
356
100
AcDbEntity
  8
CURVE
100
AcDbLine
 62
250
  6
CONTINUOUS
 10
-2.0637086609
 20
-9.8724645302
 11
-4.3989065547
 21
-10.9912732576
  0
LINE
  5
357
100
AcDbEntity
  8
CURVE
100
AcDbLine
 62
250
  6
CONTINUOUS
 10
-4.0678473081
 20
-11.3863520271
 11
-2.0162056785
 21
-10.4031053086
  0
LWPOLYLINE
  5
358
100
AcDbEntity
  8
CURVE
100
AcDbPolyline
 62
250
  6
CONTINUOUS
 90
67
 70
0
 10
0.2261786958
 20
10.8882552692
 10
0.2273898091
 20
10.8875858347
 10
0.2286058505
 20
10.8869725049
 10
0.2298250453
 20
10.8864151879
 10
0.2310456189
 20
10.8859137916
 10
0.2322657967
 20
10.8854682241
 10
0.2334838043
 20
10.8850783935
 10
0.234697867
 20
10.8847442078
 10
0.2359062103
 20
10.884465575
 10
0.2371070596
 20
10.8842424032
 10
0.2382986403
 20
10.8840746004
 10
0.2394791779
 20
10.8839620747
 10
0.2406468979
 20
10.8839047341
 10
0.2418000255
 20
10.8839024866
 10
0.2429367864
 20
10.8839552403
 10
0.2440554059
 20
10.8840629032
 10
0.2451541094
 20
10.8842253834
 10
0.2462311224
 20
10.8844425889
 10
0.2472846704
 20
10.8847144277
 10
0.2483129787
 20
10.8850408079
 10
0.2493142727
 20
10.8854216376
 10
0.2502867781
 20
10.8858568247
 10
0.25122872
 20
10.8863462773
 10
0.2521383241
 20
10.8868899035
 10
0.2530138157
 20
10.8874876113
 10
0.2538534203
 20
10.8881393087
 10
0.2546553633
 20
10.8888449037
 10
0.2554178701
 20
10.8896043045
 10
0.2561391662
 20
10.890417419
 10
0.256817477
 20
10.8912841553
 10
0.2574510279
 20
10.8922044215
 10
0.2580380444
 20
10.8931781255
 10
0.2585767519
 20
10.8942051755
 10
0.2590653759
 20
10.8952854794
 10
0.2595027627
 20
10.8964191368
 10
0.2598888994
 20
10.8976034315
 10
0.2602244481
 20
10.898835783
 10
0.2605100711
 20
10.9001136109
 10
0.2607464305
 20
10.901434335
 10
0.2609341885
 20
10.9027953749
 10
0.2610740074
 20
10.9041941501
 10
0.2611665493
 20
10.9056280803
 10
0.2612124763
 20
10.9070945852
 10
0.2612124508
 20
10.9085910843
 10
0.2611671349
 20
10.9101149974
 10
0.2610771907
 20
10.911663744
 10
0.2609432805
 20
10.9132347438
 10
0.2607660665
 20
10.9148254164
 10
0.2605462109
 20
10.9164331815
 10
0.2602843758
 20
10.9180554586
 10
0.2599812235
 20
10.9196896675
 10
0.2596374161
 20
10.9213332277
 10
0.2592536158
 20
10.9229835589
 10
0.2588304849
 20
10.9246380807
 10
0.2583686855
 20
10.9262942128
 10
0.2578688798
 20
10.9279493748
 10
0.25733173
 20
10.9296009862
 10
0.2567578983
 20
10.9312464668
 10
0.2561480469
 20
10.9328832363
 10
0.255502838
 20
10.9345087141
 10
0.2548229338
 20
10.93612032
 10
0.2541089964
 20
10.9377154735
 10
0.2533616881
 20
10.9392915944
 10
0.2525816711
 20
10.9408461023
 10
0.2517696075
 20
10.9423764167
 10
0.2509261596
 20
10.9438799573
 10
0.2500519895
 20
10.9453541438
  0
LWPOLYLINE
  5
359
100
AcDbEntity
  8
CURVE
100
AcDbPolyline
 62
250
  6
CONTINUOUS
 90
55
 70
0
 10
0.5611356229
 20
8.7846705899
 10
0.5620626418
 20
8.7841573694
 10
0.5629930289
 20
8.7836856542
 10
0.5639259958
 20
8.7832549893
 10
0.5648607541
 20
8.7828649195
 10
0.5657965153
 20
8.7825149897
 10
0.5667324911
 20
8.7822047447
 10
0.5676678929
 20
8.7819337294
 10
0.5686019324
 20
8.7817014886
 10
0.5695338211
 20
8.7815075672
 10
0.5704627706
 20
8.7813515101
 10
0.5713879924
 20
8.781232862
 10
0.5723086982
 20
8.781151168
 10
0.5732240995
 20
8.7811059727
 10
0.5741334079
 20
8.7810968212
 10
0.5750358349
 20
8.7811232582
 10
0.5759305921
 20
8.7811848286
 10
0.576816891
 20
8.7812810772
 10
0.5776939434
 20
8.781411549
 10
0.5785609606
 20
8.7815757887
 10
0.5794171543
 20
8.7817733413
 10
0.5802617361
 20
8.7820037516
 10
0.5810939175
 20
8.7822665644
 10
0.5819129101
 20
8.7825613246
 10
0.5827179254
 20
8.7828875771
 10
0.5835081751
 20
8.7832448667
 10
0.5842828707
 20
8.7836327383
 10
0.5850412237
 20
8.7840507367
 10
0.5857824458
 20
8.7844984068
 10
0.5865057485
 20
8.7849752935
 10
0.5872103434
 20
8.7854809416
 10
0.587895442
 20
8.7860148959
 10
0.588560256
 20
8.7865767014
 10
0.5892039968
 20
8.7871659029
 10
0.589825876
 20
8.7877820452
 10
0.5904251053
 20
8.7884246732
 10
0.5910008962
 20
8.7890933318
 10
0.5915524603
 20
8.7897875658
 10
0.5920790091
 20
8.7905069201
 10
0.5925797541
 20
8.7912509395
 10
0.5930539071
 20
8.7920191689
 10
0.5935006795
 20
8.7928111531
 10
0.5939192829
 20
8.793626437
 10
0.5943089288
 20
8.7944645656
 10
0.594668829
 20
8.7953250835
 10
0.5949981948
 20
8.7962075357
 10
0.5952962379
 20
8.7971114671
 10
0.5955621699
 20
8.7980364225
 10
0.5957952023
 20
8.7989819467
 10
0.5959945467
 20
8.7999475846
 10
0.5961594146
 20
8.8009328811
 10
0.5962890177
 20
8.801937381
 10
0.5963825675
 20
8.8029606292
 10
0.5964392755
 20
8.8040021706
 10
0.5964583534
 20
8.80506155
  0
LWPOLYLINE
  5
35A
100
AcDbEntity
  8
CURVE
100
AcDbPolyline
 62
250
  6
CONTINUOUS
 90
37
 70
0
 10
-0.7236373472
 20
10.8541325273
 10
-0.7244460961
 20
10.8545869792
 10
-0.7252578554
 20
10.8550183529
 10
-0.7260719961
 20
10.8554265894
 10
-0.7268878889
 20
10.8558116298
 10
-0.7277049047
 20
10.8561734149
 10
-0.7285224144
 20
10.8565118857
 10
-0.7293397889
 20
10.8568269832
 10
-0.7301563988
 20
10.8571186484
 10
-0.7309716152
 20
10.8573868222
 10
-0.7317848088
 20
10.8576314456
 10
-0.7325953505
 20
10.8578524596
 10
-0.7334026111
 20
10.8580498051
 10
-0.7342059616
 20
10.8582234231
 10
-0.7350047726
 20
10.8583732546
 10
-0.7357984151
 20
10.8584992405
 10
-0.73658626
 20
10.8586013219
 10
-0.737367678
 20
10.8586794396
 10
-0.73814204
 20
10.8587335346
 10
-0.7389087169
 20
10.8587635479
 10
-0.7396670795
 20
10.8587694206
 10
-0.7404164986
 20
10.8587510934
 10
-0.7411563452
 20
10.8587085075
 10
-0.74188599
 20
10.8586416038
 10
-0.7426048038
 20
10.8585503232
 10
-0.7433121577
 20
10.8584346067
 10
-0.7440074223
 20
10.8582943953
 10
-0.7446899685
 20
10.85812963
 10
-0.7453591672
 20
10.8579402517
 10
-0.7460143892
 20
10.8577262014
 10
-0.7466550054
 20
10.85748742
 10
-0.7472803866
 20
10.8572238485
 10
-0.7478899036
 20
10.856935428
 10
-0.7484829274
 20
10.8566220993
 10
-0.7490588287
 20
10.8562838034
 10
-0.7496169784
 20
10.8559204813
 10
-0.7501567474
 20
10.855532074
  0
LINE
  5
35B
100
AcDbEntity
  8
CURVE
100
AcDbLine
 62
250
  6
CONTINUOUS
 10
-0.9460487468
 20
9.6548999556
 11
0.5611356229
 21
8.7846705899
  0
LINE
  5
35C
100
AcDbEntity
  8
CURVE
100
AcDbLine
 62
250
  6
CONTINUOUS
 10
0.5611356229
 20
9.1925292093
 11
-0.9462923519
 21
10.0628992294
  0
LINE
  5
35D
100
AcDbEntity
  8
CURVE
100
AcDbLine
 62
250
  6
CONTINUOUS
 10
-0.3540885046
 20
10.6407596571
 11
-0.7236373472
 21
10.8541325273
  0
LINE
  5
35E
100
AcDbEntity
  8
CURVE
100
AcDbLine
 62
250
  6
CONTINUOUS
 10
-0.1928219695
 20
11.130181002
 11
0.2261786958
 21
10.8882552692
  0
LINE
  5
35F
100
AcDbEntity
  8
CURVE
100
AcDbLine
 62
7
  6
CONTINUOUS
 10
-2.2237807902
 20
-15.9240793871
 11
-1.965036563
 21
-15.6653351599
  0
LINE
  5
360
100
AcDbEntity
  8
CURVE
100
AcDbLine
 62
7
  6
CONTINUOUS
 10
-1.0720034205
 20
-14.7723020174
 11
-0.8132591933
 21
-14.5135577902
  0
LINE
  5
361
100
AcDbEntity
  8
CURVE
100
AcDbLine
 62
7
  6
CONTINUOUS
 10
-0.4308920978
 20
-14.1311906946
 11
-0.2310401018
 21
-13.9313386987
  0
LINE
  5
362
100
AcDbEntity
  8
CURVE
100
AcDbLine
 62
7
  6
CONTINUOUS
 10
0.1384416617
 20
-13.5618569352
 11
0.2100478952
 21
-13.4902507016
  0
LINE
  5
363
100
AcDbEntity
  8
CURVE
100
AcDbLine
 62
7
  6
CONTINUOUS
 10
-1.9575041544
 20
-16.0778241793
 11
-1.6987599272
 21
-15.8190799521
  0
LINE
  5
364
100
AcDbEntity
  8
CURVE
100
AcDbLine
 62
7
  6
CONTINUOUS
 10
-0.8057267847
 20
-14.9260468096
 11
-0.5469825575
 21
-14.6673025824
  0
LINE
  5
365
100
AcDbEntity
  8
CURVE
100
AcDbLine
 62
7
  6
CONTINUOUS
 10
-0.2886776467
 20
-14.4089976716
 11
-0.0736890796
 21
-14.1940091045
  0
LINE
  5
366
100
AcDbEntity
  8
CURVE
100
AcDbLine
 62
7
  6
CONTINUOUS
 10
-1.6912275187
 20
-16.2315689716
 11
-1.4324832915
 21
-15.9728247444
  0
LINE
  5
367
100
AcDbEntity
  8
CURVE
100
AcDbLine
 62
7
  6
CONTINUOUS
 10
-0.539450149
 20
-15.0797916019
 11
-0.2807059218
 21
-14.8210473747
  0
LINE
  5
368
100
AcDbEntity
  8
CURVE
100
AcDbLine
 62
7
  6
CONTINUOUS
 10
-0.1464631956
 20
-14.6868046485
 11
0.0685410784
 21
-14.4718003745
  0
LINE
  5
369
100
AcDbEntity
  8
CURVE
100
AcDbLine
 62
7
  6
CONTINUOUS
 10
-1.4249508829
 20
-16.3853137638
 11
-1.1662066557
 21
-16.1265695367
  0
LINE
  5
36A
100
AcDbEntity
  8
CURVE
100
AcDbLine
 62
7
  6
CONTINUOUS
 10
-0.2731735132
 20
-15.2335363941
 11
-0.014429286
 21
-14.9747921669
  0
LINE
  5
36B
100
AcDbEntity
  8
CURVE
100
AcDbLine
 62
7
  6
CONTINUOUS
 10
-0.0042487445
 20
-14.9646116255
 11
0.2107712364
 21
-14.7495916446
  0
LINE
  5
36C
100
AcDbEntity
  8
CURVE
100
AcDbLine
 62
7
  6
CONTINUOUS
 10
-1.1586742471
 20
-16.5390585561
 11
-0.8999300199
 21
-16.2803143289
  0
LINE
  5
36D
100
AcDbEntity
  8
CURVE
100
AcDbLine
 62
7
  6
CONTINUOUS
 10
-0.5891484546
 20
-15.9695327636
 11
-0.1052642168
 21
-15.4856485258
  0
LINE
  5
36E
100
AcDbEntity
  8
CURVE
100
AcDbLine
 62
7
  6
CONTINUOUS
 10
-0.0068968774
 20
-15.3872811864
 11
0.3530013944
 21
-15.0273829146
  0
LINE
  5
36F
100
AcDbEntity
  8
CURVE
100
AcDbLine
 62
7
  6
CONTINUOUS
 10
-0.8923976114
 20
-16.6928033484
 11
-0.6336533842
 21
-16.4340591212
  0
LINE
  5
370
100
AcDbEntity
  8
CURVE
100
AcDbLine
 62
7
  6
CONTINUOUS
 10
-0.3231959758
 20
-16.1236017128
 11
0.4952315523
 21
-15.3051741847
  0
LINE
  5
371
100
AcDbEntity
  8
CURVE
100
AcDbLine
 62
7
  6
CONTINUOUS
 10
-0.6261209756
 20
-16.8465481406
 11
-0.3673767484
 21
-16.5878039134
  0
LINE
  5
372
100
AcDbEntity
  8
DRAFT
100
AcDbLine
 62
7
  6
CONTINUOUS
 10
8.6323597915
 20
8.5989552047
 11
8.0746822556
 21
8.6975860123
  0
LINE
  5
373
100
AcDbEntity
  8
CURVE
100
AcDbLine
 62
7
  6
CONTINUOUS
 10
-0.3598443398
 20
-17.0002929329
 11
-0.1011001126
 21
-16.7415487057
  0
LINE
  5
374
100
AcDbEntity
  8
CURVE
100
AcDbLine
 62
7
  6
CONTINUOUS
 10
-0.0935677041
 20
-17.1540377252
 11
0.1651765231
 21
-16.895293498
  0
LINE
  5
375
100
AcDbEntity
  8
CURVE
100
AcDbLine
 62
7
  6
CONTINUOUS
 10
0.1727089317
 20
-17.3077825174
 11
0.2098571582
 21
-17.2706342909
  0
LWPOLYLINE
  5
376
100
AcDbEntity
  8
CURVE
100
AcDbPolyline
 62
250
  6
CONTINUOUS
 90
50
 70
0
 10
0.5984071937
 20
-15.5590060692
 10
0.5989870941
 20
-15.5585057036
 10
0.5995428319
 20
-15.5579623207
 10
0.6000744073
 20
-15.5573771572
 10
0.6005818201
 20
-15.55675145
 10
0.6010650704
 20
-15.5560864361
 10
0.6015241581
 20
-15.5553833522
 10
0.6019590834
 20
-15.5546434353
 10
0.6023698462
 20
-15.5538679221
 10
0.6027564464
 20
-15.5530580496
 10
0.6031188841
 20
-15.5522150546
 10
0.6034571593
 20
-15.5513401739
 10
0.603771272
 20
-15.5504346445
 10
0.6040612222
 20
-15.5494997032
 10
0.6043270098
 20
-15.5485365869
 10
0.604568635
 20
-15.5475465324
 10
0.6047860976
 20
-15.5465307765
 10
0.6049793977
 20
-15.5454905562
 10
0.6051485353
 20
-15.5444271083
 10
0.6052935104
 20
-15.5433416697
 10
0.605414323
 20
-15.5422354772
 10
0.6055109731
 20
-15.5411097676
 10
0.6055834606
 20
-15.539965778
 10
0.6056317856
 20
-15.538804745
 10
0.6056559482
 20
-15.5376279056
 10
0.6056559482
 20
-15.5364364967
 10
0.6056317856
 20
-15.535231755
 10
0.6055834606
 20
-15.5340149175
 10
0.6055109731
 20
-15.5327872211
 10
0.605414323
 20
-15.5315499025
 10
0.6052935104
 20
-15.5303041986
 10
0.6051485353
 20
-15.5290513464
 10
0.6049793977
 20
-15.5277925826
 10
0.6047860976
 20
-15.5265291442
 10
0.604568635
 20
-15.5252622679
 10
0.6043270098
 20
-15.5239931907
 10
0.6040612222
 20
-15.5227231495
 10
0.603771272
 20
-15.521453381
 10
0.6034571593
 20
-15.5201851221
 10
0.6031188841
 20
-15.5189196097
 10
0.6027564464
 20
-15.5176580807
 10
0.6023698462
 20
-15.5164017719
 10
0.6019590834
 20
-15.5151519203
 10
0.6015241581
 20
-15.5139097625
 10
0.6010650704
 20
-15.5126765356
 10
0.6005818201
 20
-15.5114534763
 10
0.6000744073
 20
-15.5102418216
 10
0.5995428319
 20
-15.5090428082
 10
0.5989870941
 20
-15.5078576731
 10
0.5984071937
 20
-15.5066876532
  0
LWPOLYLINE
  5
377
100
AcDbEntity
  8
CURVE
100
AcDbPolyline
 62
250
  6
CONTINUOUS
 90
65
 70
0
 10
-0.6113354247
 20
-15.8902885363
 10
-0.6120775283
 20
-15.8909270265
 10
-0.6127857717
 20
-15.8916243217
 10
-0.6134597353
 20
-15.8923785884
 10
-0.6140989997
 20
-15.8931879929
 10
-0.6147031454
 20
-15.8940507016
 10
-0.615271753
 20
-15.894964881
 10
-0.615804403
 20
-15.8959286974
 10
-0.616300676
 20
-15.8969403173
 10
-0.6167601525
 20
-15.8979979069
 10
-0.6171824131
 20
-15.8990996328
 10
-0.6175670382
 20
-15.9002436612
 10
-0.6179136084
 20
-15.9014281587
 10
-0.6182217043
 20
-15.9026512916
 10
-0.6184909065
 20
-15.9039112262
 10
-0.6187207954
 20
-15.905206129
 10
-0.6189109516
 20
-15.9065341664
 10
-0.6190609556
 20
-15.9078935048
 10
-0.619170388
 20
-15.9092823105
 10
-0.6192388293
 20
-15.91069875
 10
-0.6192658601
 20
-15.9121409896
 10
-0.619251061
 20
-15.9136071958
 10
-0.6191940123
 20
-15.9150955349
 10
-0.6190942948
 20
-15.9166041734
 10
-0.6189514889
 20
-15.9181312776
 10
-0.6187651751
 20
-15.9196750139
 10
-0.6185349341
 20
-15.9212335487
 10
-0.6182603464
 20
-15.9228050484
 10
-0.6179409924
 20
-15.9243876795
 10
-0.6175764528
 20
-15.9259796082
 10
-0.6171663081
 20
-15.9275790011
 10
-0.6167101388
 20
-15.9291840244
 10
-0.6162075255
 20
-15.9307928446
 10
-0.6156571963
 20
-15.9324069828
 10
-0.6150614643
 20
-15.9340211539
 10
-0.6144219863
 20
-15.9356334194
 10
-0.6137404191
 20
-15.9372418407
 10
-0.6130184197
 20
-15.9388444791
 10
-0.6122576449
 20
-15.9404393962
 10
-0.6114597516
 20
-15.9420246533
 10
-0.6106263966
 20
-15.9435983118
 10
-0.609759237
 20
-15.9451584333
 10
-0.6088599294
 20
-15.946703079
 10
-0.6079301308
 20
-15.9482303105
 10
-0.6069714982
 20
-15.9497381891
 10
-0.6059856882
 20
-15.9512247763
 10
-0.6049743579
 20
-15.9526881335
 10
-0.6039391641
 20
-15.9541263222
 10
-0.6028817636
 20
-15.9555374036
 10
-0.6018038134
 20
-15.9569194394
 10
-0.6007069704
 20
-15.9582704908
 10
-0.5995928913
 20
-15.9595886193
 10
-0.5984632331
 20
-15.9608718864
 10
-0.5973196526
 20
-15.9621183535
 10
-0.5961638068
 20
-15.9633260819
 10
-0.5949973525
 20
-15.9644931331
 10
-0.5938219465
 20
-15.9656175686
 10
-0.5926392458
 20
-15.9666974497
 10
-0.5914509073
 20
-15.9677308379
 10
-0.5902585877
 20
-15.9687157946
 10
-0.589063944
 20
-15.9696503812
 10
-0.5878686331
 20
-15.9705326591
 10
-0.5866743117
 20
-15.9713606898
 10
-0.5854826369
 20
-15.9721325348
 10
-0.5842952655
 20
-15.9728462553
  0
LINE
  5
378
100
AcDbEntity
  8
CURVE
100
AcDbLine
 62
250
  6
CONTINUOUS
 10
0.0074213717
 20
-15.395548364
 11
-0.6113354247
 21
-15.8902885363
  0
LINE
  5
379
100
AcDbEntity
  8
CURVE
100
AcDbLine
 62
250
  6
CONTINUOUS
 10
-0.1884370788
 20
-16.1867831571
 11
0.5984071937
 21
-15.5590060692
  0
LWPOLYLINE
  5
37A
100
AcDbEntity
  8
RACCORDO
100
AcDbPolyline
 62
7
  6
CONTINUOUS
 90
9
 70
0
 10
8.4604648411
 20
9.1899951549
 10
8.4328353201
 20
9.2038647729
 10
8.3978396146
 20
9.2162373741
 10
8.3611818259
 20
9.2239335548
 10
8.3233696008
 20
9.2269437835
 10
8.2848197514
 20
9.2253040875
 10
8.2457098645
 20
9.2190640728
 10
8.2063402244
 20
9.2082554068
 10
8.19951186
 20
9.2059155081
  0
LINE
  5
37B
100
AcDbEntity
  8
RACCORDO
100
AcDbLine
 62
250
  6
CONTINUOUS
 10
8.950557843
 20
8.7883844534
 11
8.2550119096
 21
9.1899839581
  0
LINE
  5
37C
100
AcDbEntity
  8
RACCORDO
100
AcDbLine
 62
7
  6
CONTINUOUS
 10
8.950557843
 20
8.9070376224
 11
8.4606268691
 21
9.1899176265
  0
LINE
  5
37D
100
AcDbEntity
  8
DRAFT
100
AcDbLine
 62
7
  6
CONTINUOUS
 10
6.7202441037
 20
-13.6138599485
 11
7.1657213758
 21
-13.3428140076
  0
LINE
  5
37E
100
AcDbEntity
  8
ASSI
100
AcDbLine
 62
7
  6
CONTINUOUS
 10
6.7202441037
 20
-13.6138599485
 11
7.1657213758
 21
-13.3428140076
  0
LINE
  5
37F
100
AcDbEntity
  8
RACCORDO
100
AcDbLine
 62
7
  6
CONTINUOUS
 10
8.0746822556
 20
-12.9388763227
 11
7.166046301
 21
-13.3435435915
  0
LINE
  5
380
100
AcDbEntity
  8
RACCORDO
100
AcDbLine
 62
7
  6
CONTINUOUS
 10
7.1657213758
 20
-12.7953181612
 11
8.1995493845
 21
-12.4305335639
  0
LINE
  5
381
100
AcDbEntity
  8
RACCORDO
100
AcDbLine
 62
250
  6
CONTINUOUS
 10
8.2867969932
 20
-12.4352368056
 11
7.1657213758
 21
-12.8308328395
  0
LWPOLYLINE
  5
382
100
AcDbEntity
  8
RACCORDO
100
AcDbPolyline
 62
250
  6
CONTINUOUS
 90
7
 70
0
 10
8.1995493845
 20
-12.4305335639
 10
8.2017257452
 20
-12.4298401138
 10
8.2114552756
 20
-12.428383273
 10
8.2218277392
 20
-12.4293553665
 10
8.2326676892
 20
-12.4327400119
 10
8.2437917988
 20
-12.4384800248
 10
8.2550119096
 20
-12.4464783769
  0
LINE
  5
383
100
AcDbEntity
  8
DRAFT
100
AcDbLine
 62
7
  6
CONTINUOUS
 10
8.950557843
 20
-12.8730387906
 11
8.6323597915
 21
-13.0375071303
  0
LINE
  5
384
100
AcDbEntity
  8
COPY_PUBLISH
100
AcDbLine
 62
250
  6
CONTINUOUS
 10
5.4325177079
 20
15.8777593114
 11
-9.4356964604
 21
24.4624798297
  0
LINE
  5
385
100
AcDbEntity
  8
ASSI
100
AcDbLine
 62
250
  6
CONTINUOUS
 10
5.4325177079
 20
15.8777593114
 11
-9.4356964604
 21
24.4624798297
  0
LINE
  5
386
100
AcDbEntity
  8
COPY_PUBLISH
100
AcDbLine
 62
250
  6
CONTINUOUS
 10
5.7768161497
 20
16.484648163
 11
-9.0913980187
 21
25.0693686813
  0
LINE
  5
387
100
AcDbEntity
  8
ASSI
100
AcDbLine
 62
250
  6
CONTINUOUS
 10
5.7768161497
 20
16.484648163
 11
-9.0913980187
 21
25.0693686813
  0
LINE
  5
388
100
AcDbEntity
  8
DRAFT
100
AcDbLine
 62
7
  6
CONTINUOUS
 10
8.950557843
 20
-15.2385343591
 11
8.6323597915
 21
-15.4415131534
  0
LINE
  5
389
100
AcDbEntity
  8
DRAFT
100
AcDbLine
 62
7
  6
CONTINUOUS
 10
6.7202441037
 20
-17.6962113324
 11
7.1657213758
 21
-17.4251653916
  0
LINE
  5
38A
100
AcDbEntity
  8
ASSI
100
AcDbLine
 62
7
  6
CONTINUOUS
 10
6.7202441037
 20
-17.6962113324
 11
7.1657213758
 21
-17.4251653916
  0
LINE
  5
38B
100
AcDbEntity
  8
RACCORDO
100
AcDbLine
 62
250
  6
CONTINUOUS
 10
6.9433114057
 20
-17.133454607
 11
6.7202441037
 21
-17.2622508715
  0
LINE
  5
38C
100
AcDbEntity
  8
ASSI
100
AcDbLine
 62
250
  6
CONTINUOUS
 10
6.9433114057
 20
-17.133454607
 11
6.7202441037
 21
-17.2622508715
  0
LINE
  5
38D
100
AcDbEntity
  8
RACCORDO
100
AcDbLine
 62
250
  6
CONTINUOUS
 10
7.084732762
 20
-17.378403581
 11
6.7202441037
 21
-17.5888547642
  0
LINE
  5
38E
100
AcDbEntity
  8
ASSI
100
AcDbLine
 62
250
  6
CONTINUOUS
 10
7.084732762
 20
-17.378403581
 11
6.7202441037
 21
-17.5888547642
  0
LINE
  5
38F
100
AcDbEntity
  8
RACCORDO
100
AcDbLine
 62
7
  6
CONTINUOUS
 10
8.0746822556
 20
-15.367586814
 11
6.9433114057
 21
-15.9994276345
  0
LINE
  5
390
100
AcDbEntity
  8
0
100
AcDbLine
 62
7
  6
CONTINUOUS
 10
6.366811867
 20
16.8253026157
 11
-8.5315129884
 21
25.4274086673
  0
LINE
  5
391
100
AcDbEntity
  8
ASSI
100
AcDbLine
 62
7
  6
CONTINUOUS
 10
6.366811867
 20
16.8253026157
 11
-8.5315129884
 21
25.4274086673
  0
LINE
  5
392
100
AcDbEntity
  8
RACCORDO
100
AcDbLine
 62
7
  6
CONTINUOUS
 10
6.848140457
 20
17.0267847249
 11
-8.0228920848
 21
25.6131325367
  0
LINE
  5
393
100
AcDbEntity
  8
ASSI
100
AcDbLine
 62
7
  6
CONTINUOUS
 10
6.848140457
 20
17.0267847249
 11
-8.0228920848
 21
25.6131325367
  0
LINE
  5
394
100
AcDbEntity
  8
RACCORDO
100
AcDbLine
 62
250
  6
CONTINUOUS
 10
7.1657213758
 20
-25.6069609106
 11
6.7202441037
 21
-25.9242190533
  0
LINE
  5
395
100
AcDbEntity
  8
ASSI
100
AcDbLine
 62
250
  6
CONTINUOUS
 10
7.1657213758
 20
-25.6069609106
 11
6.7202441037
 21
-25.9242190533
  0
LINE
  5
396
100
AcDbEntity
  8
RACCORDO
100
AcDbLine
 62
7
  6
CONTINUOUS
 10
7.0844029225
 20
-25.8060106268
 11
6.7068767627
 21
-26.0748756302
  0
LINE
  5
397
100
AcDbEntity
  8
ASSI
100
AcDbLine
 62
7
  6
CONTINUOUS
 10
7.0844029225
 20
-25.8060106268
 11
6.7068767627
 21
-26.0748756302
  0
LINE
  5
398
100
AcDbEntity
  8
0
100
AcDbLine
 62
250
  6
CONTINUOUS
 10
6.1302483864
 20
-26.2792867095
 11
6.7202441037
 21
-25.9733999633
  0
LINE
  5
399
100
AcDbEntity
  8
ASSI
100
AcDbLine
 62
250
  6
CONTINUOUS
 10
6.1302483864
 20
-26.2792867095
 11
6.7202441037
 21
-25.9733999633
  0
LINE
  5
39A
100
AcDbEntity
  8
COPY_PUBLISH
100
AcDbLine
 62
7
  6
CONTINUOUS
 10
6.0162077659
 20
-26.5137643024
 11
6.6101282163
 21
-26.2058427553
  0
LINE
  5
39B
100
AcDbEntity
  8
ASSI
100
AcDbLine
 62
7
  6
CONTINUOUS
 10
6.0162077659
 20
-26.5137643024
 11
6.6101282163
 21
-26.2058427553
  0
LWPOLYLINE
  5
39C
100
AcDbEntity
  8
COPY_PUBLISH
100
AcDbPolyline
 62
250
  6
CONTINUOUS
 90
16
 70
0
 10
6.1302483864
 20
-26.2792867095
 10
6.0910214135
 20
-26.2986590778
 10
6.048544445
 20
-26.3155930458
 10
6.0032702215
 20
-26.3299081575
 10
5.9556758278
 20
-26.3414530077
 10
5.9062735853
 20
-26.3501027937
 10
5.8556073856
 20
-26.3557639373
 10
5.8042291072
 20
-26.3583789726
 10
5.7526751471
 20
-26.3579247337
 10
5.7014779222
 20
-26.3544076218
 10
5.6511128844
 20
-26.3478541798
 10
5.6021882722
 20
-26.3383373191
 10
5.5554017304
 20
-26.3260117067
 10
5.5112779645
 20
-26.3110610927
 10
5.4701863666
 20
-26.2936584507
 10
5.4325177079
 20
-26.2740129708
  0
LWPOLYLINE
  5
39D
100
AcDbEntity
  8
ASSI
100
AcDbPolyline
 62
250
  6
CONTINUOUS
 90
16
 70
0
 10
6.1302483864
 20
-26.2792867095
 10
6.0910214135
 20
-26.2986590778
 10
6.048544445
 20
-26.3155930458
 10
6.0032702215
 20
-26.3299081575
 10
5.9556758278
 20
-26.3414530077
 10
5.9062735853
 20
-26.3501027937
 10
5.8556073856
 20
-26.3557639373
 10
5.8042291072
 20
-26.3583789726
 10
5.7526751471
 20
-26.3579247337
 10
5.7014779222
 20
-26.3544076218
 10
5.6511128844
 20
-26.3478541798
 10
5.6021882722
 20
-26.3383373191
 10
5.5554017304
 20
-26.3260117067
 10
5.5112779645
 20
-26.3110610927
 10
5.4701863666
 20
-26.2936584507
 10
5.4325177079
 20
-26.2740129708
  0
ARC
  5
39E
100
AcDbEntity
  8
COPY_PUBLISH
100
AcDbCircle
 62
7
  6
CONTINUOUS
 10
5.7860710985
 20
-26.0698756742
 40
0.5
100
AcDbArc
 50
239.9984015654
 51
297.4194204711
  0
ARC
  5
39F
100
AcDbEntity
  8
COPY_PUBLISH
100
AcDbCircle
 62
7
  6
CONTINUOUS
 10
-9.0821430698
 20
-17.4851551559
 40
0.5
100
AcDbArc
 50
179.9840060021
 51
239.998401565
  0
ARC
  5
3A0
100
AcDbEntity
  8
COPY_PUBLISH
100
AcDbCircle
 62
7
  6
CONTINUOUS
 10
-9.0821430698
 20
24.6666171264
 40
0.5
100
AcDbArc
 50
122.5992954234
 51
180.0013071251
  0
ARC
  5
3A1
100
AcDbEntity
  8
ASSI
100
AcDbCircle
 62
7
  6
CONTINUOUS
 10
5.7860710985
 20
-26.0698756742
 40
0.5
100
AcDbArc
 50
239.9984015654
 51
297.4194204711
  0
ARC
  5
3A2
100
AcDbEntity
  8
ASSI
100
AcDbCircle
 62
7
  6
CONTINUOUS
 10
-9.0821430698
 20
-17.4851551559
 40
0.5
100
AcDbArc
 50
179.9840060021
 51
239.998401565
  0
ARC
  5
3A3
100
AcDbEntity
  8
ASSI
100
AcDbCircle
 62
7
  6
CONTINUOUS
 10
-9.0821430698
 20
24.6666171264
 40
0.5
100
AcDbArc
 50
122.5992954233
 51
180.0013071257
  0
ELLIPSE
  5
3A4
100
AcDbEntity
  8
RACCORDO
100
AcDbEllipse
 62
7
  6
CONTINUOUS
 10
-8.0221658762
 20
25.2438981557
 30
0.0
 11
-0.2245667503
 21
0.3916366537
 31
0.0
 40
0.576009292
 41
-0.7808516838
 42
-0.0566951759
  0
ELLIPSE
  5
3A5
100
AcDbEntity
  8
RACCORDO
100
AcDbEllipse
 62
7
  6
CONTINUOUS
 10
6.8474142484
 20
-25.4223329235
 30
0.0
 11
-0.2245667503
 21
0.3916366537
 31
0.0
 40
0.576009292
 41
-3.0848974781
 42
-2.3539294839
  0
ELLIPSE
  5
3A6
100
AcDbEntity
  8
RACCORDO
100
AcDbEllipse
 62
7
  6
CONTINUOUS
 10
6.8474142484
 20
16.6583889514
 30
0.0
 11
-0.224044438
 21
0.3907502414
 31
0.0
 40
0.5786435377
 41
-2.35161679
 42
-0.7831019366
  0
ELLIPSE
  5
3A7
100
AcDbEntity
  8
RACCORDO
100
AcDbEllipse
 62
7
  6
CONTINUOUS
 10
6.3665695176
 20
16.4170674668
 30
0.0
 11
-0.2500121049
 21
0.4330057129
 31
0.0
 40
0.5777274115
 41
-2.3559002616
 42
-0.7857891675
  0
ELLIPSE
  5
3A8
100
AcDbEntity
  8
RACCORDO
100
AcDbEllipse
 62
7
  6
CONTINUOUS
 10
-8.5312706391
 20
25.0188936595
 30
0.0
 11
-0.2501834304
 21
0.4333025529
 31
0.0
 40
0.5769361983
 41
5.4980815048
 42
6.3093462599
  0
ELLIPSE
  5
3A9
100
AcDbEntity
  8
RACCORDO
100
AcDbEllipse
 62
7
  6
CONTINUOUS
 10
6.3665695176
 20
-25.768912858
 30
0.0
 11
-0.2501834304
 21
0.4333025529
 31
0.0
 40
0.5769361983
 41
3.1154316834
 42
3.9265999453
  0
ELLIPSE
  5
3AA
100
AcDbEntity
  8
RACCORDO
100
AcDbEllipse
 62
7
  6
CONTINUOUS
 10
7.2690099566
 20
-6.2386192259
 30
0.0
 11
0.0721267462
 21
0.1315494275
 31
0.0
 40
0.5620258809
 41
0.9475571809
 42
2.3438205825
  0
ELLIPSE
  5
3AB
100
AcDbEntity
  8
RACCORDO
100
AcDbEllipse
 62
7
  6
CONTINUOUS
 10
8.1986071835
 20
-4.9397691944
 30
0.0
 11
0.2404224873
 21
0.4384980918
 31
0.0
 40
0.5620258809
 41
-2.1940354727
 42
-0.7977720711
  0
ELLIPSE
  5
3AC
100
AcDbEntity
  8
RACCORDO
100
AcDbEllipse
 62
7
  6
CONTINUOUS
 10
7.2690099566
 20
-2.7672081463
 30
0.0
 11
0.0721267462
 21
0.1315494275
 31
0.0
 40
0.5620258809
 41
2.3438205825
 42
3.7400839841
  0
ELLIPSE
  5
3AD
100
AcDbEntity
  8
RACCORDO
100
AcDbEllipse
 62
7
  6
CONTINUOUS
 10
8.1986071835
 20
-2.9348509504
 30
0.0
 11
0.2404224873
 21
0.4384980918
 31
0.0
 40
0.5620258809
 41
5.4854132361
 42
6.8816766377
  0
ELLIPSE
  5
3AE
100
AcDbEntity
  8
ASSI
100
AcDbEllipse
 62
7
  6
CONTINUOUS
 10
6.8474142484
 20
-25.4223329235
 30
0.0
 11
-0.2245667503
 21
0.3916366537
 31
0.0
 40
0.576009292
 41
-3.0848974781
 42
-2.3539294839
  0
ELLIPSE
  5
3AF
100
AcDbEntity
  8
ASSI
100
AcDbEllipse
 62
7
  6
CONTINUOUS
 10
6.8474142484
 20
16.6583889514
 30
0.0
 11
-0.224044438
 21
0.3907502414
 31
0.0
 40
0.5786435377
 41
-2.35161679
 42
-0.7831019366
  0
ELLIPSE
  5
3B0
100
AcDbEntity
  8
ASSI
100
AcDbEllipse
 62
7
  6
CONTINUOUS
 10
6.3665695176
 20
16.4170674668
 30
0.0
 11
-0.2500121049
 21
0.4330057129
 31
0.0
 40
0.5777274115
 41
-2.3559002616
 42
-0.7857891675
  0
ELLIPSE
  5
3B1
100
AcDbEntity
  8
ASSI
100
AcDbEllipse
 62
7
  6
CONTINUOUS
 10
-8.5312706391
 20
25.0188936595
 30
0.0
 11
-0.2501834304
 21
0.4333025529
 31
0.0
 40
0.5769361983
 41
5.4980815048
 42
6.3093462599
  0
ELLIPSE
  5
3B2
100
AcDbEntity
  8
ASSI
100
AcDbEllipse
 62
7
  6
CONTINUOUS
 10
-8.0221658762
 20
25.2438981557
 30
0.0
 11
-0.2245667503
 21
0.3916366537
 31
0.0
 40
0.576009292
 41
-0.7808516838
 42
-0.0566951759
  0
ELLIPSE
  5
3B3
100
AcDbEntity
  8
ASSI
100
AcDbEllipse
 62
7
  6
CONTINUOUS
 10
8.1986071835
 20
-4.9397691944
 30
0.0
 11
0.2404224873
 21
0.4384980918
 31
0.0
 40
0.5620258809
 41
-2.1940354727
 42
-0.7977720711
  0
ELLIPSE
  5
3B4
100
AcDbEntity
  8
ASSI
100
AcDbEllipse
 62
7
  6
CONTINUOUS
 10
6.3665695176
 20
-25.768912858
 30
0.0
 11
-0.2501834304
 21
0.4333025529
 31
0.0
 40
0.5769361983
 41
3.1154316834
 42
3.9265999453
  0
ELLIPSE
  5
3B5
100
AcDbEntity
  8
ASSI
100
AcDbEllipse
 62
7
  6
CONTINUOUS
 10
7.2690099566
 20
-6.2386192259
 30
0.0
 11
0.0721267462
 21
0.1315494275
 31
0.0
 40
0.5620258809
 41
0.9475571809
 42
2.3438205825
  0
ELLIPSE
  5
3B6
100
AcDbEntity
  8
ASSI
100
AcDbEllipse
 62
7
  6
CONTINUOUS
 10
8.1986071835
 20
-2.9348509504
 30
0.0
 11
0.2404224873
 21
0.4384980918
 31
0.0
 40
0.5620258809
 41
5.4854132361
 42
6.8816766377
  0
ELLIPSE
  5
3B7
100
AcDbEntity
  8
ASSI
100
AcDbEllipse
 62
7
  6
CONTINUOUS
 10
7.2690099566
 20
-2.7672081463
 30
0.0
 11
0.0721267462
 21
0.1315494275
 31
0.0
 40
0.5620258809
 41
2.3438205825
 42
3.7400839841
  0
ENDSEC
  0
SECTION
  2
OBJECTS
  0
DICTIONARY
  5
C
100
AcDbDictionary
280
0
281
1
  3
ACAD_GROUP
350
D
  3
ACAD_MLINESTYLE
350
17
  3
ACAD_LAYOUT
350
1A
  3
ACAD_PLOTSETTINGS
350
19
  3
ACAD_PLOTSTYLENAME
350
E
  0
DICTIONARY
  5
D
102
{ACAD_REACTORS
330
C
102
}
100
AcDbDictionary
280
0
281
1
  0
ACDBDICTIONARYWDFLT
  5
E
102
{ACAD_REACTORS
330
C
102
}
100
AcDbDictionary
281
1
  3
Normal
350
F
100
AcDbDictionaryWithDefault
340
F
  0
DICTIONARY
  5
17
102
{ACAD_REACTORS
330
C
102
}
100
AcDbDictionary
280
0
281
1
  3
Standard
350
18
  0
DICTIONARY
  5
19
102
{ACAD_REACTORS
330
C
102
}
100
AcDbDictionary
281
1
  0
DICTIONARY
  5
1A
102
{ACAD_REACTORS
330
C
102
}
100
AcDbDictionary
281
1
  3
Model
350
3B8
  3
Layout1
350
3B9
  0
ACDBPLACEHOLDER
  5
F
102
{ACAD_REACTORS
330
E
102
}
  0
MLINESTYLE
  5
18
102
{ACAD_REACTORS
330
17
102
}
100
AcDbMlineStyle
  2
STANDARD
 70
0
  3

 62
256
 51
90.0
 52
90.0
 71
2
 49
0.5
 62
256
  6
BYLAYER
 49
-0.5
 62
256
  6
BYLAYER
  0
LAYOUT
  5
3B8
102
{ACAD_REACTORS
330
1A
102
}
100
AcDbPlotSettings
  1

  2
none_device
  4
ISO_A4_(297.00_x_210.00_MM)
  6

 40
0.0
 41
0.0
 42
0.0
 43
0.0
 44
297.0
 45
210.0
 46
0.0
 47
0.0
 48
0.0
 49
0.0
140
0.0
141
0.0
142
1.0
143
1.0
 70
1024
 72
1
 73
0
 74
0
  7

 75
0
147
1.0
148
0.0
149
0.0
100
AcDbLayout
  1
Model
 70
0
 71
0
 10
0.0
 20
0.0
 11
297.0
 21
210.0
 12
0.0
 22
0.0
 32
0.0
 14
0.0
 24
0.0
 34
0.0
 15
0.0
 25
0.0
 35
0.0
146
0.0
 13
0.0
 23
0.0
 33
0.0
 16
1.0
 26
0.0
 36
0.0
 17
0.0
 27
1.0
 37
0.0
 76
0
330
21A
345
0
346
0
  0
LAYOUT
  5
3B9
102
{ACAD_REACTORS
330
1A
102
}
100
AcDbPlotSettings
  1

  2
none_device
  4
ISO_A4_(297.00_x_210.00_MM)
  6

 40
0.0
 41
0.0
 42
0.0
 43
0.0
 44
297.0
 45
210.0
 46
0.0
 47
0.0
 48
0.0
 49
0.0
140
0.0
141
0.0
142
1.0
143
1.0
 70
0
 72
1
 73
0
 74
0
  7

 75
0
147
1.0
148
0.0
149
0.0
100
AcDbLayout
  1
Layout1
 70
0
 71
1
 10
0.0
 20
0.0
 11
297.0
 21
210.0
 12
0.0
 22
0.0
 32
0.0
 14
0.0
 24
0.0
 34
0.0
 15
0.0
 25
0.0
 35
0.0
146
0.0
 13
0.0
 23
0.0
 33
0.0
 16
1.0
 26
0.0
 36
0.0
 17
0.0
 27
1.0
 37
0.0
 76
0
330
21B
345
0
346
0
  0
ENDSEC
  0
EOF
