  0
SECTION
  2
HEADER
  9
$ACADVER
  1
AC1024
  9
$DWGCODEPAGE
  3
ANSI_1252
  9
$EXTMAX
 10
297.0
 20
210.0
 30
0.0
  9
$EXTMIN
 10
0.0
 20
0.0
 30
0.0
  9
$LIMMIN
 10
0.0
 20
0.0
  9
$LIMMAX
 10
297.0
 20
210.0
  9
$VIEWCTR
 10
148.5
 20
105.0
  9
$VIEWSIZE
 40
210.0
  9
$CLAYER
  8
0
  9
$LTSCALE
 40
16.335
  9
$CELTYPE
  6
BYLAYER
  9
$DIMSCALE
 40
1.0
  9
$DIMASZ
 40
3.0
  9
$DIMEXO
 40
0.5
  9
$DIMDLI
 40
11.286
  9
$DIMEXE
 40
1.5
  9
$DIMCEN
 40
2.673
  9
$DIMLFAC
 40
1.0
  9
$DIMBLK
  1
_FILLED
  9
$DIMALT
 70
0
  9
$DIMALTF
 40
0.0393700787
  9
$DIMTXT
 40
3.0
  9
$DIMTOL
 70
1
  9
$DIMLIM
 70
0
  9
$DIMTFAC
 40
1.0
  9
$DIMTP
 40
0.01
  9
$DIMTM
 40
0.01
  9
$DIMGAP
 40
0.625
  9
$DIMDSEP
 70
44
  9
$AUNITS
 70
0
  9
$PDMODE
 70
3
  9
$PDSIZE
 40
3.0
  9
$HANDSEED
  5
2B1
  9
$TILEMODE
 70
1
  9
$MEASUREMENT
 70
1
  9
$INSUNITS
 70
4
  0
ENDSEC
  0
SECTION
  2
CLASSES
  0
CLASS
  1
ACDBDICTIONARYWDFLT
  2
AcDbDictionaryWithDefault
  3
AutoCAD 2000
 90
0
 91
1
280
0
281
0
  0
CLASS
  1
ACDBPLACEHOLDER
  2
AcDbPlaceHolder
  3
AutoCAD 2000
 90
0
 91
1
280
0
281
0
  0
CLASS
  1
LAYOUT
  2
AcDbLayout
  3
AutoCAD 2000
 90
0
 91
0
280
0
281
0
  0
ENDSEC
  0
SECTION
  2
TABLES
  0
TABLE
  2
VPORT
  5
8
100
AcDbSymbolTable
 70
2
  0
VPORT
  5
1F4
100
AcDbSymbolTableRecord
100
AcDbViewportTableRecord
  2
*ACTIVE
 70
0
 10
0.0
 20
0.0
 11
1.0
 21
1.0
 12
148.5
 22
105.0
 13
0.0
 23
0.0
 14
1.0
 24
1.0
 15
0.0
 25
0.0
 16
0.0
 26
0.0
 36
1.0
 17
0.0
 27
0.0
 37
0.0
 40
210.0
 41
1.4142857143
 42
50.0
 43
0.0
 44
0.0
 50
0.0
 51
0.0
 71
0
 72
100
 73
1
 74
1
 75
0
 76
0
 77
0
 78
0
  0
ENDTAB
  0
TABLE
  2
LTYPE
  5
5
100
AcDbSymbolTable
 70
6
  0
LTYPE
  5
14
100
AcDbSymbolTableRecord
100
AcDbLinetypeTableRecord
  2
BYBLOCK
 70
0
  3

 72
65
 73
0
 40
0.0
  0
LTYPE
  5
15
100
AcDbSymbolTableRecord
100
AcDbLinetypeTableRecord
  2
BYLAYER
 70
0
  3

 72
65
 73
0
 40
0.0
  0
LTYPE
  5
16
100
AcDbSymbolTableRecord
100
AcDbLinetypeTableRecord
  2
CONTINUOUS
 70
64
  3
Solid line
 72
65
 73
0
 40
0.0
  0
LTYPE
  5
1F5
100
AcDbSymbolTableRecord
100
AcDbLinetypeTableRecord
  2
CENTER
 70
64
  3
____ _ ____ _ ____ _ ____ _ ____ _ ____ _ ____
 72
65
 73
4
 40
0.6
 49
0.375
 74
0
 49
-0.075
 74
0
 49
0.075
 74
0
 49
-0.075
 74
0
  0
LTYPE
  5
1F6
100
AcDbSymbolTableRecord
100
AcDbLinetypeTableRecord
  2
HIDDEN
 70
64
  3
- - - - - - - - - - - - - - - - - - - -
 72
65
 73
2
 40
0.2
 49
0.1
 74
0
 49
-0.1
 74
0
  0
LTYPE
  5
1F7
100
AcDbSymbolTableRecord
100
AcDbLinetypeTableRecord
  2
PHANTOM
 70
64
  3
_____ _ _ _____ _ _ _____ _ _ _____
 72
65
 73
6
 40
0.8
 49
0.45
 74
0
 49
-0.05
 74
0
 49
0.1
 74
0
 49
-0.05
 74
0
 49
0.1
 74
0
 49
-0.05
 74
0
  0
LTYPE
  5
1F8
100
AcDbSymbolTableRecord
100
AcDbLinetypeTableRecord
  2
DOT
 70
64
  3
. . . . . . . . . . . . . . . . . . . .
 72
65
 73
2
 40
0.2
 49
0.1
 74
0
 49
-0.1
 74
0
  0
LTYPE
  5
1F9
100
AcDbSymbolTableRecord
100
AcDbLinetypeTableRecord
  2
DASHED
 70
64
  3
- - - - - - - - - - - - - - - - - - - -
 72
65
 73
2
 40
0.2
 49
0.1
 74
0
 49
-0.1
 74
0
  0
ENDTAB
  0
TABLE
  2
LAYER
  5
2
100
AcDbSymbolTable
 70
36
  0
LAYER
  5
10
100
AcDbSymbolTableRecord
100
AcDbLayerTableRecord
  2
0
 70
0
 62
7
  6
CONTINUOUS
370
-3
390
F
  0
LAYER
  5
1FA
100
AcDbSymbolTableRecord
100
AcDbLayerTableRecord
  2
DEFAULT_1
 70
0
 62
7
  6
CENTER
370
-3
390
F
  0
LAYER
  5
1FB
100
AcDbSymbolTableRecord
100
AcDbLayerTableRecord
  2
DEFAULT_2
 70
0
 62
7
  6
HIDDEN
370
-3
390
F
  0
LAYER
  5
1FC
100
AcDbSymbolTableRecord
100
AcDbLayerTableRecord
  2
DEFAULT_3
 70
0
 62
7
  6
PHANTOM
370
-3
390
F
  0
LAYER
  5
1FD
100
AcDbSymbolTableRecord
100
AcDbLayerTableRecord
  2
ASSI
 70
0
 62
7
  6
CONTINUOUS
370
-3
390
F
  0
LAYER
  5
1FE
100
AcDbSymbolTableRecord
100
AcDbLayerTableRecord
  2
COORDINATE
 70
0
 62
7
  6
CONTINUOUS
370
-3
390
F
  0
LAYER
  5
1FF
100
AcDbSymbolTableRecord
100
AcDbLayerTableRecord
  2
COPY_PUBLISH
 70
0
 62
7
  6
CONTINUOUS
370
-3
390
F
  0
LAYER
  5
200
100
AcDbSymbolTableRecord
100
AcDbLayerTableRecord
  2
COSMETICI
 70
0
 62
7
  6
CONTINUOUS
370
-3
390
F
  0
LAYER
  5
201
100
AcDbSymbolTableRecord
100
AcDbLayerTableRecord
  2
CURVE
 70
0
 62
7
  6
CONTINUOUS
370
-3
390
F
  0
LAYER
  5
202
100
AcDbSymbolTableRecord
100
AcDbLayerTableRecord
  2
DRAFT
 70
0
 62
7
  6
CONTINUOUS
370
-3
390
F
  0
LAYER
  5
203
100
AcDbSymbolTableRecord
100
AcDbLayerTableRecord
  2
IMPORT_IGES
 70
0
 62
7
  6
CONTINUOUS
370
-3
390
F
  0
LAYER
  5
204
100
AcDbSymbolTableRecord
100
AcDbLayerTableRecord
  2
INTF_2
 70
0
 62
7
  6
CONTINUOUS
370
-3
390
F
  0
LAYER
  5
205
100
AcDbSymbolTableRecord
100
AcDbLayerTableRecord
  2
INTF_3
 70
0
 62
7
  6
CONTINUOUS
370
-3
390
F
  0
LAYER
  5
206
100
AcDbSymbolTableRecord
100
AcDbLayerTableRecord
  2
INTF_4
 70
0
 62
7
  6
CONTINUOUS
370
-3
390
F
  0
LAYER
  5
207
100
AcDbSymbolTableRecord
100
AcDbLayerTableRecord
  2
INTF_5
 70
0
 62
7
  6
CONTINUOUS
370
-3
390
F
  0
LAYER
  5
208
100
AcDbSymbolTableRecord
100
AcDbLayerTableRecord
  2
INTF_6
 70
0
 62
7
  6
CONTINUOUS
370
-3
390
F
  0
LAYER
  5
209
100
AcDbSymbolTableRecord
100
AcDbLayerTableRecord
  2
INTF_7
 70
0
 62
7
  6
CONTINUOUS
370
-3
390
F
  0
LAYER
  5
20A
100
AcDbSymbolTableRecord
100
AcDbLayerTableRecord
  2
INTF_9
 70
0
 62
7
  6
CONTINUOUS
370
-3
390
F
  0
LAYER
  5
20B
100
AcDbSymbolTableRecord
100
AcDbLayerTableRecord
  2
INTF_BLANK
 70
0
 62
7
  6
CONTINUOUS
370
-3
390
F
  0
LAYER
  5
20C
100
AcDbSymbolTableRecord
100
AcDbLayerTableRecord
  2
INTF_RED
 70
0
 62
7
  6
CONTINUOUS
370
-3
390
F
  0
LAYER
  5
20D
100
AcDbSymbolTableRecord
100
AcDbLayerTableRecord
  2
NOTE
 70
0
 62
7
  6
CONTINUOUS
370
-3
390
F
  0
LAYER
  5
20E
100
AcDbSymbolTableRecord
100
AcDbLayerTableRecord
  2
PIANI
 70
0
 62
7
  6
CONTINUOUS
370
-3
390
F
  0
LAYER
  5
20F
100
AcDbSymbolTableRecord
100
AcDbLayerTableRecord
  2
PUNTI
 70
0
 62
7
  6
CONTINUOUS
370
-3
390
F
  0
LAYER
  5
210
100
AcDbSymbolTableRecord
100
AcDbLayerTableRecord
  2
RACCORDO
 70
0
 62
7
  6
CONTINUOUS
370
-3
390
F
  0
LAYER
  5
211
100
AcDbSymbolTableRecord
100
AcDbLayerTableRecord
  2
RGB____0____0____0__
 70
0
 62
7
  6
CONTINUOUS
370
-3
390
F
  0
LAYER
  5
212
100
AcDbSymbolTableRecord
100
AcDbLayerTableRecord
  2
SIMBOLI
 70
0
 62
7
  6
CONTINUOUS
370
-3
390
F
  0
LAYER
  5
213
100
AcDbSymbolTableRecord
100
AcDbLayerTableRecord
  2
SMUSSO
 70
0
 62
7
  6
CONTINUOUS
370
-3
390
F
  0
LAYER
  5
214
100
AcDbSymbolTableRecord
100
AcDbLayerTableRecord
  2
SNAPLINE
 70
0
 62
7
  6
CONTINUOUS
370
-3
390
F
  0
LAYER
  5
215
100
AcDbSymbolTableRecord
100
AcDbLayerTableRecord
  2
SUPERFICI
 70
0
 62
7
  6
CONTINUOUS
370
-3
390
F
  0
LAYER
  5
216
100
AcDbSymbolTableRecord
100
AcDbLayerTableRecord
  2
TRASH
 70
0
 62
7
  6
CONTINUOUS
370
-3
390
F
  0
ENDTAB
  0
TABLE
  2
STYLE
  5
3
100
AcDbSymbolTable
 70
1
  0
STYLE
  5
11
100
AcDbSymbolTableRecord
100
AcDbTextStyleTableRecord
  2
STANDARD
 70
0
 40
0.0
 41
0.8
 50
0.0
 71
0
 42
0.2
  3
txt
  4

  0
STYLE
  5
217
100
AcDbSymbolTableRecord
100
AcDbTextStyleTableRecord
  2
TEXTSTYLE_1
 70
0
 40
0.0
 41
0.8
 50
0.0
 71
0
 42
0.2
  3
gdt
  4

  0
ENDTAB
  0
TABLE
  2
VIEW
  5
6
100
AcDbSymbolTable
 70
0
  0
ENDTAB
  0
TABLE
  2
UCS
  5
7
100
AcDbSymbolTable
 70
0
  0
ENDTAB
  0
TABLE
  2
APPID
  5
9
100
AcDbSymbolTable
 70
1
  0
APPID
  5
218
100
AcDbSymbolTableRecord
100
AcDbRegAppTableRecord
  2
ACAD
 70
0
  0
ENDTAB
  0
TABLE
  2
BLOCK_RECORD
  5
1
100
AcDbSymbolTable
 70
0
  0
BLOCK_RECORD
  5
219
100
AcDbSymbolTableRecord
100
AcDbBlockTableRecord
  2
*Model_Space
  0
BLOCK_RECORD
  5
21A
100
AcDbSymbolTableRecord
100
AcDbBlockTableRecord
  2
*Paper_Space
  0
BLOCK_RECORD
  5
21B
100
AcDbSymbolTableRecord
100
AcDbBlockTableRecord
  2
_FILLED
  0
ENDTAB
  0
TABLE
  2
DIMSTYLE
  5
A
100
AcDbSymbolTable
 70
1
100
AcDbDimStyleTable
 71
0
  0
DIMSTYLE
105
21C
100
AcDbSymbolTableRecord
100
AcDbDimStyleTableRecord
  2
STANDARD
 70
0
  3

  4

 40
1.0
 41
3.0
 42
0.5
 43
0.38
 44
1.5
 45
0.0
 46
0.0
 47
0.01
 48
0.01
140
3.0
141
0.09
142
0.0
143
25.4
144
1.0
145
0.0
146
1.0
147
0.625
 71
1
 72
0
 73
0
 74
0
 75
0
 76
0
 77
1
 78
8
 79
2
170
0
171
1
172
0
173
0
174
0
175
0
176
0
177
0
178
0
270
2
179
2
271
2
272
2
273
2
274
2
275
0
280
0
281
0
282
0
283
1
284
8
285
0
286
0
287
3
288
0
340
11
278
44
341
21B
342
21B
343
21B
344
21B
  0
ENDTAB
  0
ENDSEC
  0
SECTION
  2
BLOCKS
  0
BLOCK
  5
20
100
AcDbEntity
  8
0
100
AcDbBlockBegin
  2
*Model_Space
 70
0
 10
0.0
 20
0.0
 30
0.0
  3
*Model_Space
  1

  0
ENDBLK
  5
21
100
AcDbEntity
  8
0
100
AcDbBlockEnd
  0
BLOCK
  5
1C
100
AcDbEntity
  8
0
100
AcDbBlockBegin
  2
*Paper_Space
 70
0
 10
0.0
 20
0.0
 30
0.0
  3
*Paper_Space
  1

  0
ENDBLK
  5
1D
100
AcDbEntity
  8
0
100
AcDbBlockEnd
  0
BLOCK
  5
21D
100
AcDbEntity
  8
0
100
AcDbBlockBegin
  2
_FILLED
 70
64
 10
0.0
 20
0.0
  3
_FILLED
  1

  0
SOLID
  5
21E
100
AcDbEntity
  8
0
  6
BYBLOCK
 62
0
100
AcDbTrace
 10
0.0
 20
0.0
 11
-1.0
 21
0.3166666667
 12
-1.0
 22
-0.3166666667
 13
-1.0
 23
-0.3166666667
  0
ENDBLK
  5
21F
100
AcDbEntity
  8
0
  6
BYBLOCK
 62
0
100
AcDbBlockEnd
  0
ENDSEC
  0
SECTION
  2
ENTITIES
  0
LINE
  5
220
100
AcDbEntity
  8
0
100
AcDbLine
 62
7
  6
CONTINUOUS
 10
-17.3064683099
 20
29.6791051811
 11
-16.7428588792
 21
30.039526878
  0
LINE
  5
221
100
AcDbEntity
  8
0
100
AcDbLine
 62
250
  6
CONTINUOUS
 10
-17.0463493086
 20
29.66062322
 11
-16.4864642784
 21
30.0186632061
  0
LWPOLYLINE
  5
222
100
AcDbEntity
  8
0
100
AcDbPolyline
 62
250
  6
CONTINUOUS
 90
11
 70
0
 10
-17.3064683099
 20
29.6791051811
 10
-17.2997000621
 20
29.683210033
 10
-17.276868906
 20
29.6941300074
 10
-17.2522161896
 20
29.7017243671
 10
-17.2259246819
 20
29.7059380202
 10
-17.1981687286
 20
29.7067379449
 10
-17.1691833461
 20
29.7041125501
 10
-17.1392659182
 20
29.698101108
 10
-17.1086762401
 20
29.6887837052
 10
-17.0776253029
 20
29.6762517142
 10
-17.0463493086
 20
29.66062322
  0
LINE
  5
223
100
AcDbEntity
  8
RACCORDO
100
AcDbLine
 62
7
  6
CONTINUOUS
 10
-16.2321297138
 20
30.265663739
 11
-16.6280072432
 21
30.0658631416
  0
LINE
  5
224
100
AcDbEntity
  8
RACCORDO
100
AcDbLine
 62
250
  6
CONTINUOUS
 10
-16.0144297307
 20
30.2395015185
 11
-16.4703852497
 21
30.0093793764
  0
LINE
  5
225
100
AcDbEntity
  8
0
100
AcDbLine
 62
7
  6
CONTINUOUS
 10
-17.2871064399
 20
-13.3269063444
 11
13.4910103052
 21
-31.0978052126
  0
LINE
  5
226
100
AcDbEntity
  8
0
100
AcDbLine
 62
250
  6
CONTINUOUS
 10
-17.3906477504
 20
-13.0980379138
 11
13.3874689947
 21
-30.868936782
  0
LWPOLYLINE
  5
227
100
AcDbEntity
  8
0
100
AcDbPolyline
 62
250
  6
CONTINUOUS
 90
9
 70
0
 10
-17.2871064399
 20
-13.3269063444
 10
-17.3027063412
 20
-13.3166975188
 10
-17.3252855556
 20
-13.2967815315
 10
-17.344811567
 20
-13.2725972765
 10
-17.3610775097
 20
-13.2444009704
 10
-17.3739110565
 20
-13.2124913354
 10
-17.383176244
 20
-13.1772064338
 10
-17.3887749134
 20
-13.1389200868
 10
-17.3906477504
 20
-13.0980379138
  0
LWPOLYLINE
  5
228
100
AcDbEntity
  8
0
100
AcDbPolyline
 62
250
  6
CONTINUOUS
 90
9
 70
0
 10
-17.5370943598
 20
-12.8939006171
 10
-17.5359796746
 20
-12.9131670483
 10
-17.5298916128
 20
-12.9427261189
 10
-17.5185447067
 20
-12.9718063497
 10
-17.5020646608
 20
-13.0000561241
 10
-17.4807185277
 20
-13.0270727523
 10
-17.4548238059
 20
-13.0525531086
 10
-17.4246795909
 20
-13.0762834984
 10
-17.3906477504
 20
-13.0980379138
  0
LINE
  5
229
100
AcDbEntity
  8
0
100
AcDbLine
 62
7
  6
CONTINUOUS
 10
-17.5370943598
 20
-12.8939006171
 11
-17.5370943598
 21
29.2578716651
  0
LINE
  5
22A
100
AcDbEntity
  8
0
100
AcDbLine
 62
250
  6
CONTINUOUS
 10
-17.3906477504
 20
-13.0980379138
 11
-17.3906477504
 21
29.0537343684
  0
LWPOLYLINE
  5
22B
100
AcDbEntity
  8
0
100
AcDbPolyline
 62
250
  6
CONTINUOUS
 90
16
 70
0
 10
-17.3906477504
 20
29.0537343684
 10
-17.3887749134
 20
29.0967792466
 10
-17.383176244
 20
29.1415307967
 10
-17.3739110565
 20
29.1875149046
 10
-17.3610775097
 20
29.2342443977
 10
-17.344811567
 20
29.2812242068
 10
-17.3252855556
 20
29.3279566104
 10
-17.3027063412
 20
29.3739465084
 10
-17.2773131365
 20
29.418706667
 10
-17.2493749661
 20
29.4617628809
 10
-17.2191878173
 20
29.5026589966
 10
-17.1870715038
 20
29.5409617458
 10
-17.1533662777
 20
29.5762653352
 10
-17.1184292243
 20
29.6081957455
 10
-17.0826304796
 20
29.6364146944
 10
-17.0463493086
 20
29.66062322
  0
LINE
  5
22C
100
AcDbEntity
  8
DRAFT
100
AcDbLine
 62
7
  6
CONTINUOUS
 10
16.5873110782
 20
-20.0364369646
 11
16.0296335424
 21
-19.9625106252
  0
LWPOLYLINE
  5
22D
100
AcDbEntity
  8
0
100
AcDbPolyline
 62
250
  6
CONTINUOUS
 90
9
 70
0
 10
-17.5370943594
 20
29.2578602568
 10
-17.5359778258
 20
29.2385892806
 10
-17.5298864058
 20
29.2090286462
 10
-17.5185362465
 20
29.1799485047
 10
-17.5020536254
 20
29.1517000454
 10
-17.4807064153
 20
29.1246860794
 10
-17.4548128593
 20
29.0992095653
 10
-17.4246725363
 20
29.075483786
 10
-17.3906477504
 20
29.0537343684
  0
LINE
  5
22E
100
AcDbEntity
  8
DRAFT
100
AcDbLine
 62
7
  6
CONTINUOUS
 10
16.5873110782
 20
-17.6324309415
 11
16.0296335424
 21
-17.5338001339
  0
LINE
  5
22F
100
AcDbEntity
  8
RACCORDO
100
AcDbLine
 62
7
  6
CONTINUOUS
 10
15.1587114358
 20
-22.0420523137
 11
15.0396840487
 21
-21.9733273922
  0
LWPOLYLINE
  5
230
100
AcDbEntity
  8
DRAFT
100
AcDbPolyline
 62
7
  6
CONTINUOUS
 90
4
 70
0
 10
-5.5317318463
 20
5.1626289702
 10
-5.5346264237
 20
5.1544307791
 10
-5.5364256912
 20
5.1450404855
 10
-5.5371232838
 20
5.1344761161
  0
LWPOLYLINE
  5
231
100
AcDbEntity
  8
0
100
AcDbPolyline
 62
7
  6
CONTINUOUS
 90
7
 70
0
 10
-5.5170427803
 20
5.1798781238
 10
-5.52245405
 20
5.1757375872
 10
-5.5276497573
 20
5.169759118
 10
-5.5317404611
 20
5.1626139229
 10
-5.5346397389
 20
5.1544013798
 10
-5.5364340132
 20
5.1450221109
 10
-5.5371232838
 20
5.1344761161
  0
LWPOLYLINE
  5
232
100
AcDbEntity
  8
DRAFT
100
AcDbPolyline
 62
7
  6
CONTINUOUS
 90
4
 70
0
 10
-5.5170427294
 20
5.1798781548
 10
-5.5224463801
 20
5.1757483477
 10
-5.5276367682
 20
5.1697847103
 10
-5.5317254815
 20
5.1626469971
  0
LWPOLYLINE
  5
233
100
AcDbEntity
  8
DRAFT
100
AcDbPolyline
 62
7
  6
CONTINUOUS
 90
4
 70
0
 10
1.4903304966
 20
-6.9999107177
 10
1.4985566908
 20
-6.9999393319
 10
1.5063169636
 20
-6.9984268653
 10
1.5126006797
 20
-6.9958099815
  0
LWPOLYLINE
  5
234
100
AcDbEntity
  8
RACCORDO
100
AcDbPolyline
 62
250
  6
CONTINUOUS
 90
11
 70
0
 10
16.4084885904
 20
-17.037375094
 10
16.3967940761
 20
-17.0312343265
 10
16.3784112301
 20
-17.0237770626
 10
16.3597532979
 20
-17.0185211457
 10
16.3403238437
 20
-17.0151675323
 10
16.3202935064
 20
-17.0136960772
 10
16.2997111773
 20
-17.0140496022
 10
16.277715476
 20
-17.0163431859
 10
16.2540289941
 20
-17.0208687202
 10
16.2290500486
 20
-17.0277997013
 10
16.2028921285
 20
-17.0373194422
  0
LWPOLYLINE
  5
235
100
AcDbEntity
  8
DRAFT
100
AcDbPolyline
 62
7
  6
CONTINUOUS
 90
4
 70
0
 10
-5.5371232838
 20
-2.8669325964
 10
-5.5364256912
 20
-2.8783025282
 10
-5.5346264237
 20
-2.8897705709
 10
-5.5317318463
 20
-2.9013113473
  0
LWPOLYLINE
  5
236
100
AcDbEntity
  8
0
100
AcDbPolyline
 62
7
  6
CONTINUOUS
 90
13
 70
0
 10
-5.5371232838
 20
-2.8669325964
 10
-5.5364340132
 20
-2.8782745436
 10
-5.5346397389
 20
-2.8897257955
 10
-5.5317404611
 20
-2.901286352
 10
-5.5276497573
 20
-2.9131553892
 10
-5.52245405
 20
-2.925133731
 10
-5.5164126057
 20
-2.9366238494
 10
-5.5094825648
 20
-2.9476010023
 10
-5.501706787
 20
-2.9580899318
 10
-5.4934731177
 20
-2.9675673349
 10
-5.4849108386
 20
-2.9758587774
 10
-5.4758906679
 20
-2.9831386936
 10
-5.4664126057
 20
-2.9894070834
  0
LINE
  5
237
100
AcDbEntity
  8
0
100
AcDbLine
 62
7
  6
CONTINUOUS
 10
-5.5371232838
 20
5.1344761161
 11
-5.5371232838
 21
-2.8669325964
  0
LINE
  5
238
100
AcDbEntity
  8
DRAFT
100
AcDbLine
 62
7
  6
CONTINUOUS
 10
-5.5371232838
 20
5.1344761161
 11
-5.5371232838
 21
-2.8669325964
  0
LINE
  5
239
100
AcDbEntity
  8
RACCORDO
100
AcDbLine
 62
250
  6
CONTINUOUS
 10
14.8396780998
 20
12.4247263499
 11
14.3570011442
 21
12.207773632
  0
LINE
  5
23A
100
AcDbEntity
  8
RACCORDO
100
AcDbLine
 62
250
  6
CONTINUOUS
 10
15.1587114358
 20
11.8708639818
 11
14.673845194
 21
11.6529272277
  0
LWPOLYLINE
  5
23B
100
AcDbEntity
  8
DRAFT
100
AcDbPolyline
 62
7
  6
CONTINUOUS
 90
4
 70
0
 10
1.46323385
 20
-6.9904980981
 10
1.472731987
 20
-6.9951767187
 10
1.4817642025
 20
-6.9983142586
 10
1.4903117015
 20
-6.999907215
  0
LWPOLYLINE
  5
23C
100
AcDbEntity
  8
0
100
AcDbPolyline
 62
7
  6
CONTINUOUS
 90
7
 70
0
 10
1.46323385
 20
-6.9904980981
 10
1.4727119122
 20
-6.9951747369
 10
1.4817320829
 20
-6.9983110877
 10
1.490294362
 20
-6.9999071505
 10
1.4985280313
 20
-6.9999377824
 10
1.5063038091
 20
-6.9984281262
 10
1.5126006279
 20
-6.9958100099
  0
LWPOLYLINE
  5
23D
100
AcDbEntity
  8
RACCORDO
100
AcDbPolyline
 62
7
  6
CONTINUOUS
 90
10
 70
0
 10
16.4084608976
 20
-17.037362243
 10
16.4031569419
 20
-17.0343805612
 10
16.3749925444
 20
-17.021039545
 10
16.3453633318
 20
-17.0109707569
 10
16.3146230917
 20
-17.0042223711
 10
16.2828863613
 20
-17.0007841398
 10
16.250420403
 20
-17.0006729807
 10
16.2174376495
 20
-17.0038885563
 10
16.1838832307
 20
-17.0104776269
 10
16.1474166779
 20
-17.0213791926
  0
LINE
  5
23E
100
AcDbEntity
  8
RACCORDO
100
AcDbLine
 62
250
  6
CONTINUOUS
 10
16.9055091298
 20
-17.4430016928
 11
16.2028921285
 21
-17.0373194422
  0
LINE
  5
23F
100
AcDbEntity
  8
RACCORDO
100
AcDbLine
 62
7
  6
CONTINUOUS
 10
16.9055091298
 20
-17.3243485238
 11
16.408507037
 21
-17.0373857443
  0
LINE
  5
240
100
AcDbEntity
  8
0
100
AcDbLine
 62
7
  6
CONTINUOUS
 10
-5.4664126057
 20
-2.9894070834
 11
1.46323385
 21
-6.9904980981
  0
LINE
  5
241
100
AcDbEntity
  8
DRAFT
100
AcDbLine
 62
7
  6
CONTINUOUS
 10
-5.4664126057
 20
-2.9894070834
 11
1.46323385
 21
-6.9904980981
  0
LWPOLYLINE
  5
242
100
AcDbEntity
  8
RACCORDO
100
AcDbPolyline
 62
250
  6
CONTINUOUS
 90
6
 70
0
 10
16.2028921285
 20
-17.0373194422
 10
16.1916727715
 20
-17.0293215212
 10
16.1805492827
 20
-17.0235816015
 10
16.1697097951
 20
-17.0201967632
 10
16.1593376385
 20
-17.0192242544
 10
16.1498997158
 20
-17.0206368959
  0
LWPOLYLINE
  5
243
100
AcDbEntity
  8
DRAFT
100
AcDbPolyline
 62
7
  6
CONTINUOUS
 90
4
 70
0
 10
-5.4934904572
 20
-2.9675473762
 10
-5.4849429582
 20
-2.9758248574
 10
-5.4759107427
 20
-2.9831174936
 10
-5.4664126057
 20
-2.9894070834
  0
LWPOLYLINE
  5
244
100
AcDbEntity
  8
DRAFT
100
AcDbPolyline
 62
7
  6
CONTINUOUS
 90
7
 70
0
 10
-5.5317254815
 20
-2.9013367243
 10
-5.5276367682
 20
-2.913195981
 10
-5.5224463801
 20
-2.9251533485
 10
-5.5164126057
 20
-2.9366238494
 10
-5.5094957193
 20
-2.947584551
 10
-5.5017354465
 20
-2.9580583861
 10
-5.4935092523
 20
-2.9675291748
  0
LWPOLYLINE
  5
245
100
AcDbEntity
  8
0
100
AcDbPolyline
 62
250
  6
CONTINUOUS
 90
16
 70
0
 10
13.7317674364
 20
11.8897243518
 10
13.6954862655
 20
11.8655158262
 10
13.6596875208
 20
11.8372968773
 10
13.6247504674
 20
11.805366467
 10
13.5910452412
 20
11.7700628776
 10
13.5589289277
 20
11.7317601284
 10
13.528741779
 20
11.6908640127
 10
13.5008036086
 20
11.6478077988
 10
13.4754104038
 20
11.6030476402
 10
13.4528311895
 20
11.5570577422
 10
13.4333051781
 20
11.5103253386
 10
13.4170392353
 20
11.4633455295
 10
13.4042056885
 20
11.4166160364
 10
13.394940501
 20
11.3706319285
 10
13.3893418316
 20
11.3258803784
 10
13.3874689947
 20
11.2828355002
  0
LINE
  5
246
100
AcDbEntity
  8
0
100
AcDbLine
 62
250
  6
CONTINUOUS
 10
14.3217631537
 20
12.2303788045
 11
13.7317674364
 21
11.8897243518
  0
LINE
  5
247
100
AcDbEntity
  8
0
100
AcDbLine
 62
250
  6
CONTINUOUS
 10
14.6751953904
 20
11.6182162142
 11
14.0851996731
 21
11.2775617615
  0
LWPOLYLINE
  5
248
100
AcDbEntity
  8
0
100
AcDbPolyline
 62
250
  6
CONTINUOUS
 90
16
 70
0
 10
14.0851996731
 20
11.2775617615
 10
14.0459754267
 20
11.2581906048
 10
14.0035014496
 20
11.2412574615
 10
13.9582303648
 20
11.2269427798
 10
13.910638942
 20
11.2153979259
 10
13.8612395779
 20
11.2067477804
 10
13.8105766954
 20
11.2010859954
 10
13.7592031054
 20
11.1984699753
 10
13.7076540975
 20
11.1989226686
 10
13.6564595838
 20
11.2024378392
 10
13.6060943916
 20
11.2089894006
 10
13.5571674991
 20
11.2185047725
 10
13.5103763412
 20
11.2308297623
 10
13.4662459127
 20
11.2457810501
 10
13.4251463199
 20
11.263185942
 10
13.3874689947
 20
11.2828355002
  0
LWPOLYLINE
  5
249
100
AcDbEntity
  8
RACCORDO
100
AcDbPolyline
 62
250
  6
CONTINUOUS
 90
9
 70
0
 10
16.0819526743
 20
-6.911635186
 10
16.0636140189
 20
-6.9039950218
 10
16.0440316472
 20
-6.8983054694
 10
16.0236234447
 20
-6.8946907435
 10
16.0024604353
 20
-6.8931294255
 10
15.979655348
 20
-6.8936738024
 10
15.9548923986
 20
-6.8966371404
 10
15.9285466233
 20
-6.9022813633
 10
15.9007050409
 20
-6.910851092
  0
LWPOLYLINE
  5
24A
100
AcDbEntity
  8
DRAFT
100
AcDbPolyline
 62
7
  6
CONTINUOUS
 90
13
 70
0
 10
1.5339445281
 20
1.0517301829
 10
1.5332469355
 20
1.0631001147
 10
1.531447668
 20
1.0745681573
 10
1.5285467257
 20
1.0861343107
 10
1.5244580125
 20
1.0979935674
 10
1.5192676244
 20
1.1099509349
 10
1.51323385
 20
1.1214214358
 10
1.5063169636
 20
1.1323821375
 10
1.4985566908
 20
1.1428559725
 10
1.4903304966
 20
1.1523267613
 10
1.4817642025
 20
1.1606224438
 10
1.472731987
 20
1.16791508
 10
1.46323385
 20
1.1742046699
  0
LWPOLYLINE
  5
24B
100
AcDbEntity
  8
0
100
AcDbPolyline
 62
7
  6
CONTINUOUS
 90
4
 70
0
 10
1.5339445281
 20
1.0517301829
 10
1.5332552575
 20
1.0630721301
 10
1.5314609832
 20
1.0745233819
 10
1.5285617053
 20
1.0860839384
  0
LINE
  5
24C
100
AcDbEntity
  8
0
100
AcDbLine
 62
7
  6
CONTINUOUS
 10
1.5339445281
 20
-6.9496785297
 11
1.5339445281
 21
1.0517301829
  0
LINE
  5
24D
100
AcDbEntity
  8
DRAFT
100
AcDbLine
 62
7
  6
CONTINUOUS
 10
1.5339445281
 20
-6.9496785297
 11
1.5339445281
 21
1.0517301829
  0
LINE
  5
24E
100
AcDbEntity
  8
DRAFT
100
AcDbLine
 62
7
  6
CONTINUOUS
 10
1.5332469355
 20
-6.9602428991
 11
1.5339445281
 21
-6.9496785297
  0
LINE
  5
24F
100
AcDbEntity
  8
RACCORDO
100
AcDbLine
 62
7
  6
CONTINUOUS
 10
16.1474297119
 20
4.6150877442
 11
15.1587114358
 21
4.2662200456
  0
LINE
  5
250
100
AcDbEntity
  8
RACCORDO
100
AcDbLine
 62
250
  6
CONTINUOUS
 10
16.2028921285
 20
4.5991428928
 11
15.1587114358
 21
4.2307053672
  0
LINE
  5
251
100
AcDbEntity
  8
RACCORDO
100
AcDbLine
 62
250
  6
CONTINUOUS
 10
16.1496082387
 20
4.6157818116
 11
16.1474297119
 21
4.6150877442
  0
LWPOLYLINE
  5
252
100
AcDbEntity
  8
DRAFT
100
AcDbPolyline
 62
7
  6
CONTINUOUS
 90
7
 70
0
 10
-5.4664126057
 20
5.1752956845
 10
-5.4759107427
 20
5.1799743051
 10
-5.4849429582
 20
5.183111845
 10
-5.4935092523
 20
5.1847083042
 10
-5.5017354465
 20
5.1847369183
 10
-5.5094957193
 20
5.1832244518
 10
-5.5170427294
 20
5.1798781548
  0
LWPOLYLINE
  5
253
100
AcDbEntity
  8
0
100
AcDbPolyline
 62
7
  6
CONTINUOUS
 90
4
 70
0
 10
-5.4664126057
 20
5.1752956845
 10
-5.4758906679
 20
5.1799723233
 10
-5.4849108386
 20
5.1831086741
 10
-5.4934731177
 20
5.1847047369
  0
LWPOLYLINE
  5
254
100
AcDbEntity
  8
RACCORDO
100
AcDbPolyline
 62
7
  6
CONTINUOUS
 90
10
 70
0
 10
16.0937114298
 20
-6.917861302
 10
16.0686223476
 20
-6.9045769424
 10
16.0346796043
 20
-6.8902271203
 10
15.9991415207
 20
-6.8791624119
 10
15.9623551837
 20
-6.8715643883
 10
15.9246751987
 20
-6.8675501092
 10
15.8864118577
 20
-6.8671835551
 10
15.8479118994
 20
-6.8704886334
 10
15.8095135427
 20
-6.8774221979
 10
15.7708493244
 20
-6.8881251778
  0
LWPOLYLINE
  5
255
100
AcDbEntity
  8
RACCORDO
100
AcDbPolyline
 62
250
  6
CONTINUOUS
 90
6
 70
0
 10
15.9007050409
 20
-6.910851092
 10
15.8742980244
 20
-6.8966744573
 10
15.8477146152
 20
-6.8871771021
 10
15.8214044224
 20
-6.8825196565
 10
15.7958124337
 20
-6.8827808925
 10
15.7708493243
 20
-6.8881251778
  0
LINE
  5
256
100
AcDbEntity
  8
RACCORDO
100
AcDbLine
 62
250
  6
CONTINUOUS
 10
15.1606304527
 20
-7.4674443333
 11
15.248654422
 21
-7.5182682699
  0
LINE
  5
257
100
AcDbEntity
  8
0
100
AcDbLine
 62
7
  6
CONTINUOUS
 10
1.46323385
 20
1.1742046699
 11
-5.4664126057
 21
5.1752956845
  0
LINE
  5
258
100
AcDbEntity
  8
DRAFT
100
AcDbLine
 62
7
  6
CONTINUOUS
 10
1.46323385
 20
1.1742046699
 11
-5.4664126057
 21
5.1752956845
  0
LINE
  5
259
100
AcDbEntity
  8
RACCORDO
100
AcDbLine
 62
250
  6
CONTINUOUS
 10
15.9007050409
 20
-6.910851092
 11
16.3101475296
 21
-7.1472580534
  0
LINE
  5
25A
100
AcDbEntity
  8
RACCORDO
100
AcDbLine
 62
7
  6
CONTINUOUS
 10
16.093277682
 20
-6.917609821
 11
16.5037048485
 21
-7.154585323
  0
LWPOLYLINE
  5
25B
100
AcDbEntity
  8
0
100
AcDbPolyline
 62
7
  6
CONTINUOUS
 90
4
 70
0
 10
1.490294362
 20
1.1523649213
 10
1.4817320829
 20
1.1606563638
 10
1.4727119122
 20
1.16793628
 10
1.46323385
 20
1.1742046699
  0
LWPOLYLINE
  5
25C
100
AcDbEntity
  8
0
100
AcDbPolyline
 62
7
  6
CONTINUOUS
 90
4
 70
0
 10
1.51323385
 20
1.1214214358
 10
1.5063038091
 20
1.1323985888
 10
1.4985280313
 20
1.1428875182
 10
1.4903117015
 20
1.1523449626
  0
LWPOLYLINE
  5
25D
100
AcDbEntity
  8
0
100
AcDbPolyline
 62
7
  6
CONTINUOUS
 90
4
 70
0
 10
1.5285530906
 20
1.0861089337
 10
1.5244710016
 20
1.0979529756
 10
1.5192752943
 20
1.1099313175
 10
1.51323385
 20
1.1214214358
  0
LWPOLYLINE
  5
25E
100
AcDbEntity
  8
0
100
AcDbPolyline
 62
7
  6
CONTINUOUS
 90
4
 70
0
 10
1.5285617053
 20
-6.9778163365
 10
1.5314609832
 20
-6.9696037934
 10
1.5332552575
 20
-6.9602245245
 10
1.5339445281
 20
-6.9496785297
  0
LINE
  5
25F
100
AcDbEntity
  8
DRAFT
100
AcDbLine
 62
7
  6
CONTINUOUS
 10
14.6751953904
 20
3.411833174
 11
15.1587114358
 21
3.6767614053
  0
LINE
  5
260
100
AcDbEntity
  8
DRAFT
100
AcDbLine
 62
7
  6
CONTINUOUS
 10
16.9055091298
 20
4.1684997332
 11
16.5873110782
 21
4.0040313936
  0
LINE
  5
261
100
AcDbEntity
  8
DRAFT
100
AcDbLine
 62
7
  6
CONTINUOUS
 10
16.0296335424
 20
4.1026622011
 11
15.1587114358
 21
3.7147910539
  0
LINE
  5
262
100
AcDbEntity
  8
DRAFT
100
AcDbLine
 62
7
  6
CONTINUOUS
 10
16.5873110782
 20
1.6000253704
 11
16.0296335424
 21
1.6739517098
  0
LWPOLYLINE
  5
263
100
AcDbEntity
  8
0
100
AcDbPolyline
 62
7
  6
CONTINUOUS
 90
4
 70
0
 10
1.5126006279
 20
-6.9958100099
 10
1.5192752943
 20
-6.9909400008
 10
1.5244710016
 20
-6.9849615316
 10
1.5285530906
 20
-6.9778313837
  0
LWPOLYLINE
  5
264
100
AcDbEntity
  8
DRAFT
100
AcDbPolyline
 62
7
  6
CONTINUOUS
 90
6
 70
0
 10
1.5126006797
 20
-6.9958099815
 10
1.5192676244
 20
-6.9909507613
 10
1.5244580125
 20
-6.9849871239
 10
1.5285467257
 20
-6.9778494107
 10
1.531447668
 20
-6.9696331927
 10
1.5332469355
 20
-6.9602428991
  0
LINE
  5
265
100
AcDbEntity
  8
DRAFT
100
AcDbLine
 62
7
  6
CONTINUOUS
 10
16.0296335424
 20
1.6739517098
 11
14.8982626925
 21
1.0421108894
  0
LWPOLYLINE
  5
266
100
AcDbEntity
  8
0
100
AcDbPolyline
 62
7
  6
CONTINUOUS
 90
4
 70
0
 10
-5.4934904572
 20
5.1847048014
 10
-5.501706787
 20
5.1847353688
 10
-5.5094825648
 20
5.1832257126
 10
-5.5170427803
 20
5.1798781238
  0
LINE
  5
267
100
AcDbEntity
  8
DRAFT
100
AcDbLine
 62
7
  6
CONTINUOUS
 10
16.5873110782
 20
4.0040313936
 11
16.0296335424
 21
4.1026622011
  0
LINE
  5
268
100
AcDbEntity
  8
RACCORDO
100
AcDbLine
 62
7
  6
CONTINUOUS
 10
15.1587114358
 20
-0.4055899787
 11
15.0396840487
 21
-0.3368650572
  0
LINE
  5
269
100
AcDbEntity
  8
DRAFT
100
AcDbLine
 62
7
  6
CONTINUOUS
 10
16.9055091298
 20
1.8030041648
 11
16.5873110782
 21
1.6000253704
  0
LINE
  5
26A
100
AcDbEntity
  8
RACCORDO
100
AcDbLine
 62
250
  6
CONTINUOUS
 10
14.8982626925
 20
-0.0919160831
 11
14.6751953904
 21
-0.2207123477
  0
LINE
  5
26B
100
AcDbEntity
  8
RACCORDO
100
AcDbLine
 62
250
  6
CONTINUOUS
 10
15.0396840487
 20
-0.3368650572
 11
14.6751953904
 21
-0.5473162404
  0
LINE
  5
26C
100
AcDbEntity
  8
DRAFT
100
AcDbLine
 62
7
  6
CONTINUOUS
 10
14.6751953904
 20
-0.67051821
 11
15.1587114358
 21
-0.4055899787
  0
LWPOLYLINE
  5
26D
100
AcDbEntity
  8
0
100
AcDbPolyline
 62
250
  6
CONTINUOUS
 90
9
 70
0
 10
13.3874689947
 20
-30.868936782
 10
13.3893418316
 20
-30.909818955
 10
13.394940501
 20
-30.948105302
 10
13.4042056885
 20
-30.9833902036
 10
13.4170392353
 20
-31.0152998386
 10
13.4333051781
 20
-31.0434961447
 10
13.4528311895
 20
-31.0676803997
 10
13.4754104038
 20
-31.087596387
 10
13.4910103052
 20
-31.0978052126
  0
LINE
  5
26E
100
AcDbEntity
  8
RACCORDO
100
AcDbLine
 62
7
  6
CONTINUOUS
 10
15.248654422
 20
-7.5182682699
 11
16.3101475296
 21
-7.1472580534
  0
LINE
  5
26F
100
AcDbEntity
  8
RACCORDO
100
AcDbLine
 62
7
  6
CONTINUOUS
 10
15.7707760292
 20
-6.8881490774
 11
15.1587114358
 21
-7.0879407284
  0
LINE
  5
270
100
AcDbEntity
  8
RACCORDO
100
AcDbLine
 62
250
  6
CONTINUOUS
 10
15.9007050409
 20
-6.910851092
 11
15.1587114358
 21
-7.153054495
  0
LWPOLYLINE
  5
271
100
AcDbEntity
  8
RACCORDO
100
AcDbPolyline
 62
250
  6
CONTINUOUS
 90
11
 70
0
 10
16.4084885904
 20
4.5990872411
 10
16.3967940761
 20
4.6052280085
 10
16.3784112301
 20
4.6126852724
 10
16.3597532979
 20
4.6179411893
 10
16.3403238437
 20
4.6212948027
 10
16.3202935064
 20
4.6227662578
 10
16.2997111773
 20
4.6224127329
 10
16.277715476
 20
4.6201191491
 10
16.2540289941
 20
4.6155936148
 10
16.2290500486
 20
4.6086626337
 10
16.2028921285
 20
4.5991428928
  0
LWPOLYLINE
  5
272
100
AcDbEntity
  8
RACCORDO
100
AcDbPolyline
 62
7
  6
CONTINUOUS
 90
10
 70
0
 10
16.4084608976
 20
4.599100092
 10
16.4031569419
 20
4.6020817738
 10
16.3749925444
 20
4.6154227901
 10
16.3453633318
 20
4.6254915781
 10
16.3146230917
 20
4.6322399639
 10
16.2828863613
 20
4.6356781952
 10
16.250420403
 20
4.6357893543
 10
16.2174376495
 20
4.6325737787
 10
16.1838832307
 20
4.6259847081
 10
16.1474166779
 20
4.6150831424
  0
LINE
  5
273
100
AcDbEntity
  8
RACCORDO
100
AcDbLine
 62
250
  6
CONTINUOUS
 10
16.9055091298
 20
4.1934606422
 11
16.2028921285
 21
4.5991428928
  0
LINE
  5
274
100
AcDbEntity
  8
RACCORDO
100
AcDbLine
 62
7
  6
CONTINUOUS
 10
16.9055091298
 20
4.3121138112
 11
16.408507037
 21
4.5990765907
  0
LWPOLYLINE
  5
275
100
AcDbEntity
  8
RACCORDO
100
AcDbPolyline
 62
7
  6
CONTINUOUS
 90
16
 70
0
 10
14.8982626925
 20
-21.7283784181
 10
14.8991070473
 20
-21.7462349773
 10
14.9014142653
 20
-21.7643873488
 10
14.9051843463
 20
-21.7828355325
 10
14.9104901163
 20
-21.8017866118
 10
14.9172587494
 20
-21.8210335033
 10
14.9252717682
 20
-21.8399549575
 10
14.9345697757
 20
-21.8585403555
 10
14.9451121689
 20
-21.8768003161
 10
14.9565586612
 20
-21.8941454457
 10
14.9689387525
 20
-21.9105458943
 10
14.9822229429
 20
-21.9260315118
 10
14.9959824463
 20
-21.9401024547
 10
15.0100743341
 20
-21.9525921085
 10
15.0246415349
 20
-21.9636670876
 10
15.0396840487
 20
-21.9733273922
  0
LINE
  5
276
100
AcDbEntity
  8
0
100
AcDbLine
 62
250
  6
CONTINUOUS
 10
13.3874689947
 20
11.2828355002
 11
13.3874689947
 21
-30.868936782
  0
LINE
  5
277
100
AcDbEntity
  8
0
100
AcDbLine
 62
250
  6
CONTINUOUS
 10
14.0851996731
 20
11.2775617615
 11
14.0851996731
 21
-30.8742105207
  0
LWPOLYLINE
  5
278
100
AcDbEntity
  8
RACCORDO
100
AcDbPolyline
 62
250
  6
CONTINUOUS
 90
6
 70
0
 10
16.2028921285
 20
4.5991428928
 10
16.1916727715
 20
4.6071408138
 10
16.1805492827
 20
4.6128807335
 10
16.1697097951
 20
4.6162655719
 10
16.1593376385
 20
4.6172380806
 10
16.1498997158
 20
4.6158254391
  0
LWPOLYLINE
  5
279
100
AcDbEntity
  8
0
100
AcDbPolyline
 62
250
  6
CONTINUOUS
 90
19
 70
0
 10
14.0851996731
 20
11.2775617615
 10
14.0830546973
 20
11.3135593419
 10
14.0782934917
 20
11.3508886202
 10
14.0709513009
 20
11.38926461
 10
14.0610807796
 20
11.4284025028
 10
14.0487576722
 20
11.467994822
 10
14.0340853941
 20
11.5077130738
 10
14.017189076
 20
11.54723258
 10
13.9981937912
 20
11.5862729846
 10
13.9772267418
 20
11.6245731023
 10
13.9544236184
 20
11.6618731243
 10
13.929975164
 20
11.6978500376
 10
13.9041150991
 20
11.7321650541
 10
13.8770458667
 20
11.7645639127
 10
13.8489791352
 20
11.7948069615
 10
13.8201879062
 20
11.8226225408
 10
13.7909154935
 20
11.8478093079
 10
13.7613678346
 20
11.8702229941
 10
13.7317674349
 20
11.889724351
  0
LWPOLYLINE
  5
27A
100
AcDbEntity
  8
RACCORDO
100
AcDbPolyline
 62
7
  6
CONTINUOUS
 90
16
 70
0
 10
14.8982626925
 20
-0.0919160831
 10
14.8991070473
 20
-0.1097726423
 10
14.9014142653
 20
-0.1279250138
 10
14.9051843463
 20
-0.1463731975
 10
14.9104901163
 20
-0.1653242768
 10
14.9172587494
 20
-0.1845711683
 10
14.9252717682
 20
-0.2034926224
 10
14.9345697757
 20
-0.2220780205
 10
14.9451121689
 20
-0.2403379811
 10
14.9565586612
 20
-0.2576831107
 10
14.9689387525
 20
-0.2740835592
 10
14.9822229429
 20
-0.2895691768
 10
14.9959824463
 20
-0.3036401197
 10
15.0100743341
 20
-0.3161297734
 10
15.0246415349
 20
-0.3272047526
 10
15.0396840487
 20
-0.3368650572
  0
LINE
  5
27B
100
AcDbEntity
  8
0
100
AcDbLine
 62
7
  6
CONTINUOUS
 10
14.6751953904
 20
-30.5683237745
 11
14.6751953904
 21
11.6182162142
  0
LINE
  5
27C
100
AcDbEntity
  8
RACCORDO
100
AcDbLine
 62
7
  6
CONTINUOUS
 10
14.8982626925
 20
-21.7283784181
 11
14.8982626925
 21
-18.1024060696
  0
LINE
  5
27D
100
AcDbEntity
  8
RACCORDO
100
AcDbLine
 62
7
  6
CONTINUOUS
 10
14.8982626925
 20
-0.0919160831
 11
14.8982626925
 21
3.5340562654
  0
LINE
  5
27E
100
AcDbEntity
  8
RACCORDO
100
AcDbLine
 62
7
  6
CONTINUOUS
 10
15.1587114358
 20
-30.2361548902
 11
15.1587114358
 21
-22.0420523137
  0
LINE
  5
27F
100
AcDbEntity
  8
RACCORDO
100
AcDbLine
 62
7
  6
CONTINUOUS
 10
15.1587114358
 20
-17.9597009297
 11
15.1587114358
 21
-10.918350994
  0
LINE
  5
280
100
AcDbEntity
  8
RACCORDO
100
AcDbLine
 62
7
  6
CONTINUOUS
 10
15.1587114358
 20
-7.4469399144
 11
15.1587114358
 21
-0.4055899787
  0
LINE
  5
281
100
AcDbEntity
  8
RACCORDO
100
AcDbLine
 62
7
  6
CONTINUOUS
 10
15.1587114358
 20
3.6767614053
 11
15.1587114358
 21
11.8708639818
  0
LINE
  5
282
100
AcDbEntity
  8
DRAFT
100
AcDbLine
 62
7
  6
CONTINUOUS
 10
16.0296335424
 20
4.1026622011
 11
16.0296335424
 21
1.6739517098
  0
LINE
  5
283
100
AcDbEntity
  8
DRAFT
100
AcDbLine
 62
7
  6
CONTINUOUS
 10
16.0296335424
 20
-19.9625106252
 11
16.0296335424
 21
-17.5338001339
  0
LINE
  5
284
100
AcDbEntity
  8
DRAFT
100
AcDbLine
 62
7
  6
CONTINUOUS
 10
16.5873110782
 20
4.0040313936
 11
16.5873110782
 21
1.6000253704
  0
LINE
  5
285
100
AcDbEntity
  8
DRAFT
100
AcDbLine
 62
7
  6
CONTINUOUS
 10
16.5873110782
 20
-20.0364369646
 11
16.5873110782
 21
-17.6324309415
  0
LINE
  5
286
100
AcDbEntity
  8
RACCORDO
100
AcDbLine
 62
7
  6
CONTINUOUS
 10
16.6099574836
 20
-7.3850192385
 11
16.6099574836
 21
-9.3899374825
  0
LINE
  5
287
100
AcDbEntity
  8
RACCORDO
100
AcDbLine
 62
7
  6
CONTINUOUS
 10
16.9055091298
 20
4.3120666416
 11
16.9055091298
 21
4.1684997332
  0
LINE
  5
288
100
AcDbEntity
  8
DRAFT
100
AcDbLine
 62
7
  6
CONTINUOUS
 10
16.9055091298
 20
4.1684997332
 11
16.9055091298
 21
1.8030041648
  0
LINE
  5
289
100
AcDbEntity
  8
RACCORDO
100
AcDbLine
 62
7
  6
CONTINUOUS
 10
16.9055091298
 20
-17.3243956935
 11
16.9055091298
 21
-17.4679626018
  0
LINE
  5
28A
100
AcDbEntity
  8
DRAFT
100
AcDbLine
 62
7
  6
CONTINUOUS
 10
16.9055091298
 20
-19.8334581702
 11
16.9055091298
 21
-17.4679626018
  0
LWPOLYLINE
  5
28B
100
AcDbEntity
  8
0
100
AcDbPolyline
 62
250
  6
CONTINUOUS
 90
11
 70
0
 10
14.0851996731
 20
-30.8742105207
 10
14.0830590098
 20
-30.9094724882
 10
14.0783094611
 20
-30.9428685473
 10
14.070987183
 20
-30.9741439156
 10
14.0611479211
 20
-31.0030600659
 10
14.0488666791
 20
-31.0293962572
 10
14.0342372274
 20
-31.0529513074
 10
14.0173699272
 20
-31.0735468591
 10
13.9983943915
 20
-31.0910240747
 10
13.977460123
 20
-31.105246908
 10
13.9712727123
 20
-31.1086291306
  0
LINE
  5
28C
100
AcDbEntity
  8
0
100
AcDbLine
 62
250
  6
CONTINUOUS
 10
13.3874689947
 20
11.2828355002
 11
-17.3906477504
 21
29.0537343684
  0
LINE
  5
28D
100
AcDbEntity
  8
RACCORDO
100
AcDbLine
 62
7
  6
CONTINUOUS
 10
15.248654422
 20
-10.7484594719
 11
16.3101475296
 21
-9.9562425561
  0
LINE
  5
28E
100
AcDbEntity
  8
0
100
AcDbLine
 62
250
  6
CONTINUOUS
 10
13.7317674364
 20
11.8897243518
 11
-17.0463493086
 21
29.66062322
  0
LINE
  5
28F
100
AcDbEntity
  8
0
100
AcDbLine
 62
7
  6
CONTINUOUS
 10
14.3217631537
 20
12.2303788045
 11
-16.4864642784
 21
30.0186632061
  0
LINE
  5
290
100
AcDbEntity
  8
RACCORDO
100
AcDbLine
 62
7
  6
CONTINUOUS
 10
14.8396780998
 20
12.4247263499
 11
-16.0144297307
 21
30.2395015185
  0
LINE
  5
291
100
AcDbEntity
  8
RACCORDO
100
AcDbLine
 62
7
  6
CONTINUOUS
 10
16.1474297119
 20
-17.0213745908
 11
15.1587114358
 21
-17.3702422895
  0
LINE
  5
292
100
AcDbEntity
  8
RACCORDO
100
AcDbLine
 62
250
  6
CONTINUOUS
 10
16.2028921285
 20
-17.0373194422
 11
15.1587114358
 21
-17.4057569678
  0
LINE
  5
293
100
AcDbEntity
  8
RACCORDO
100
AcDbLine
 62
250
  6
CONTINUOUS
 10
16.1496082387
 20
-17.0206805234
 11
16.1474297119
 21
-17.0213745908
  0
LINE
  5
294
100
AcDbEntity
  8
DRAFT
100
AcDbLine
 62
7
  6
CONTINUOUS
 10
14.6751953904
 20
-18.224629161
 11
15.1587114358
 21
-17.9597009297
  0
LINE
  5
295
100
AcDbEntity
  8
DRAFT
100
AcDbLine
 62
7
  6
CONTINUOUS
 10
16.9055091298
 20
-17.4679626018
 11
16.5873110782
 21
-17.6324309415
  0
LINE
  5
296
100
AcDbEntity
  8
DRAFT
100
AcDbLine
 62
7
  6
CONTINUOUS
 10
16.0296335424
 20
-17.5338001339
 11
15.1587114358
 21
-17.9216712811
  0
LINE
  5
297
100
AcDbEntity
  8
DRAFT
100
AcDbLine
 62
7
  6
CONTINUOUS
 10
16.9055091298
 20
-19.8334581702
 11
16.5873110782
 21
-20.0364369646
  0
LINE
  5
298
100
AcDbEntity
  8
RACCORDO
100
AcDbLine
 62
250
  6
CONTINUOUS
 10
14.8982626925
 20
-21.7283784181
 11
14.6751953904
 21
-21.8571746827
  0
LINE
  5
299
100
AcDbEntity
  8
DRAFT
100
AcDbLine
 62
7
  6
CONTINUOUS
 10
16.0296335424
 20
-19.9625106252
 11
14.8982626925
 21
-20.5943514456
  0
LINE
  5
29A
100
AcDbEntity
  8
RACCORDO
100
AcDbLine
 62
250
  6
CONTINUOUS
 10
15.0396840487
 20
-21.9733273922
 11
14.6751953904
 21
-22.1837785754
  0
LINE
  5
29B
100
AcDbEntity
  8
DRAFT
100
AcDbLine
 62
7
  6
CONTINUOUS
 10
14.6751953904
 20
-22.306980545
 11
15.1587114358
 21
-22.0420523137
  0
LINE
  5
29C
100
AcDbEntity
  8
RACCORDO
100
AcDbLine
 62
250
  6
CONTINUOUS
 10
15.1587114358
 20
-30.2361548902
 11
14.6751953904
 21
-30.5486814824
  0
LINE
  5
29D
100
AcDbEntity
  8
RACCORDO
100
AcDbLine
 62
7
  6
CONTINUOUS
 10
15.0713068023
 20
-30.4397814704
 11
14.6448991761
 21
-30.7153953276
  0
LINE
  5
29E
100
AcDbEntity
  8
0
100
AcDbLine
 62
250
  6
CONTINUOUS
 10
13.9712727123
 20
-31.1086291306
 11
13.9711590527
 21
-31.1086881136
  0
LINE
  5
29F
100
AcDbEntity
  8
0
100
AcDbLine
 62
250
  6
CONTINUOUS
 10
14.0851996731
 20
-30.8742105207
 11
14.6751953904
 21
-30.5683237745
  0
LINE
  5
2A0
100
AcDbEntity
  8
0
100
AcDbLine
 62
7
  6
CONTINUOUS
 10
13.9711590527
 20
-31.1086881136
 11
14.5650795031
 21
-30.8007665665
  0
LWPOLYLINE
  5
2A1
100
AcDbEntity
  8
0
100
AcDbPolyline
 62
250
  6
CONTINUOUS
 90
16
 70
0
 10
14.0851996731
 20
-30.8742105207
 10
14.0459727041
 20
-30.8935828872
 10
14.0034957397
 20
-30.9105168541
 10
13.9582215203
 20
-30.9248319653
 10
13.9106271303
 20
-30.9363768156
 10
13.8612248911
 20
-30.9450266022
 10
13.8105586951
 20
-30.9506877466
 10
13.7591804219
 20
-30.9533027831
 10
13.7076264672
 20
-30.9528485461
 10
13.6564292452
 20
-30.9493314366
 10
13.6060642075
 20
-30.9427779968
 10
13.5571395929
 20
-30.933261138
 10
13.5103530458
 20
-30.9209355264
 10
13.4662292718
 20
-30.9059849117
 10
13.4251376641
 20
-30.888582267
 10
13.3874689947
 20
-30.868936782
  0
ARC
  5
2A2
100
AcDbEntity
  8
0
100
AcDbCircle
 62
7
  6
CONTINUOUS
 10
13.7410223853
 20
-30.6647994853
 40
0.5
100
AcDbArc
 50
239.9984015652
 51
297.4194204712
  0
ARC
  5
2A3
100
AcDbEntity
  8
0
100
AcDbCircle
 62
7
  6
CONTINUOUS
 10
-17.0370943598
 20
-12.8939006171
 40
0.5
100
AcDbArc
 50
179.9840060023
 51
239.9984015651
  0
ARC
  5
2A4
100
AcDbEntity
  8
0
100
AcDbCircle
 62
7
  6
CONTINUOUS
 10
-17.0370943598
 20
29.2578716651
 40
0.5
100
AcDbArc
 50
122.5992953906
 51
180.0013072924
  0
ELLIPSE
  5
2A5
100
AcDbEntity
  8
RACCORDO
100
AcDbEllipse
 62
7
  6
CONTINUOUS
 10
-16.0151559393
 20
29.8711057449
 30
0.0
 11
-0.224044438
 21
0.3907502414
 31
0.0
 40
0.5786435377
 41
-0.7831019366
 42
-0.0308065339
  0
ELLIPSE
  5
2A6
100
AcDbEntity
  8
RACCORDO
100
AcDbEllipse
 62
7
  6
CONTINUOUS
 10
14.8404043084
 20
-30.0532097852
 30
0.0
 11
-0.224044438
 21
0.3907502414
 31
0.0
 40
0.5786435377
 41
-3.1107861192
 42
-2.35161679
  0
ELLIPSE
  5
2A7
100
AcDbEntity
  8
RACCORDO
100
AcDbEllipse
 62
7
  6
CONTINUOUS
 10
14.8404043084
 20
12.0554919689
 30
0.0
 11
-0.2245667503
 21
0.3916366537
 31
0.0
 40
0.576009292
 41
-2.3539294839
 42
-0.7808516838
  0
ELLIPSE
  5
2A8
100
AcDbEntity
  8
RACCORDO
100
AcDbEllipse
 62
7
  6
CONTINUOUS
 10
14.3215208044
 20
11.8221436557
 30
0.0
 11
-0.2500121049
 21
0.4330057129
 31
0.0
 40
0.5777274115
 41
-2.3559002616
 42
-0.7857891675
  0
ELLIPSE
  5
2A9
100
AcDbEntity
  8
RACCORDO
100
AcDbEllipse
 62
7
  6
CONTINUOUS
 10
-16.486221929
 20
29.6101481982
 30
0.0
 11
-0.2501834304
 21
0.4333025529
 31
0.0
 40
0.5769361983
 41
5.4980815048
 42
6.3093460435
  0
ELLIPSE
  5
2AA
100
AcDbEntity
  8
RACCORDO
100
AcDbEllipse
 62
7
  6
CONTINUOUS
 10
14.3215208044
 20
-30.3638366692
 30
0.0
 11
-0.2501834304
 21
0.4333025529
 31
0.0
 40
0.5769361983
 41
3.1154319183
 42
3.9265999453
  0
ELLIPSE
  5
2AB
100
AcDbEntity
  8
RACCORDO
100
AcDbEllipse
 62
7
  6
CONTINUOUS
 10
15.2675548894
 20
-10.858713462
 30
0.0
 11
0.0780218633
 21
0.1281425474
 31
0.0
 40
0.5922410672
 41
0.9737729748
 42
2.3700363764
  0
ELLIPSE
  5
2AC
100
AcDbEntity
  8
RACCORDO
100
AcDbEllipse
 62
7
  6
CONTINUOUS
 10
16.2471459717
 20
-9.588729256
 30
0.0
 11
0.2600728777
 21
0.4271418247
 31
0.0
 40
0.5922410672
 41
-2.1678196788
 42
-0.7715562772
  0
ELLIPSE
  5
2AD
100
AcDbEntity
  8
RACCORDO
100
AcDbEllipse
 62
7
  6
CONTINUOUS
 10
15.2675548894
 20
-7.3873023824
 30
0.0
 11
0.0780218633
 21
0.1281425474
 31
0.0
 40
0.5922410672
 41
2.3700363764
 42
3.766299778
  0
ELLIPSE
  5
2AE
100
AcDbEntity
  8
RACCORDO
100
AcDbEllipse
 62
7
  6
CONTINUOUS
 10
16.2471459717
 20
-7.5838110119
 30
0.0
 11
0.2600728777
 21
0.4271418247
 31
0.0
 40
0.5922410672
 41
5.51162903
 42
6.9078924316
  0
ENDSEC
  0
SECTION
  2
OBJECTS
  0
DICTIONARY
  5
C
100
AcDbDictionary
280
0
281
1
  3
ACAD_GROUP
350
D
  3
ACAD_MLINESTYLE
350
17
  3
ACAD_LAYOUT
350
1A
  3
ACAD_PLOTSETTINGS
350
19
  3
ACAD_PLOTSTYLENAME
350
E
  0
DICTIONARY
  5
D
102
{ACAD_REACTORS
330
C
102
}
100
AcDbDictionary
280
0
281
1
  0
ACDBDICTIONARYWDFLT
  5
E
102
{ACAD_REACTORS
330
C
102
}
100
AcDbDictionary
281
1
  3
Normal
350
F
100
AcDbDictionaryWithDefault
340
F
  0
DICTIONARY
  5
17
102
{ACAD_REACTORS
330
C
102
}
100
AcDbDictionary
280
0
281
1
  3
Standard
350
18
  0
DICTIONARY
  5
19
102
{ACAD_REACTORS
330
C
102
}
100
AcDbDictionary
281
1
  0
DICTIONARY
  5
1A
102
{ACAD_REACTORS
330
C
102
}
100
AcDbDictionary
281
1
  3
Model
350
2AF
  3
Layout1
350
2B0
  0
ACDBPLACEHOLDER
  5
F
102
{ACAD_REACTORS
330
E
102
}
  0
MLINESTYLE
  5
18
102
{ACAD_REACTORS
330
17
102
}
100
AcDbMlineStyle
  2
STANDARD
 70
0
  3

 62
256
 51
90.0
 52
90.0
 71
2
 49
0.5
 62
256
  6
BYLAYER
 49
-0.5
 62
256
  6
BYLAYER
  0
LAYOUT
  5
2AF
102
{ACAD_REACTORS
330
1A
102
}
100
AcDbPlotSettings
  1

  2
none_device
  4
ISO_A4_(297.00_x_210.00_MM)
  6

 40
0.0
 41
0.0
 42
0.0
 43
0.0
 44
297.0
 45
210.0
 46
0.0
 47
0.0
 48
0.0
 49
0.0
140
0.0
141
0.0
142
1.0
143
1.0
 70
1024
 72
1
 73
0
 74
0
  7

 75
0
147
1.0
148
0.0
149
0.0
100
AcDbLayout
  1
Model
 70
0
 71
0
 10
0.0
 20
0.0
 11
297.0
 21
210.0
 12
0.0
 22
0.0
 32
0.0
 14
0.0
 24
0.0
 34
0.0
 15
0.0
 25
0.0
 35
0.0
146
0.0
 13
0.0
 23
0.0
 33
0.0
 16
1.0
 26
0.0
 36
0.0
 17
0.0
 27
1.0
 37
0.0
 76
0
330
219
345
0
346
0
  0
LAYOUT
  5
2B0
102
{ACAD_REACTORS
330
1A
102
}
100
AcDbPlotSettings
  1

  2
none_device
  4
ISO_A4_(297.00_x_210.00_MM)
  6

 40
0.0
 41
0.0
 42
0.0
 43
0.0
 44
297.0
 45
210.0
 46
0.0
 47
0.0
 48
0.0
 49
0.0
140
0.0
141
0.0
142
1.0
143
1.0
 70
0
 72
1
 73
0
 74
0
  7

 75
0
147
1.0
148
0.0
149
0.0
100
AcDbLayout
  1
Layout1
 70
0
 71
1
 10
0.0
 20
0.0
 11
297.0
 21
210.0
 12
0.0
 22
0.0
 32
0.0
 14
0.0
 24
0.0
 34
0.0
 15
0.0
 25
0.0
 35
0.0
146
0.0
 13
0.0
 23
0.0
 33
0.0
 16
1.0
 26
0.0
 36
0.0
 17
0.0
 27
1.0
 37
0.0
 76
0
330
21A
345
0
346
0
  0
ENDSEC
  0
EOF
