  0
SECTION
  2
HEADER
  9
$ACADVER
  1
AC1024
  9
$DWGCODEPAGE
  3
ANSI_1252
  9
$EXTMAX
 10
297.0
 20
210.0
 30
0.0
  9
$EXTMIN
 10
0.0
 20
0.0
 30
0.0
  9
$LIMMIN
 10
0.0
 20
0.0
  9
$LIMMAX
 10
297.0
 20
210.0
  9
$VIEWCTR
 10
148.5
 20
105.0
  9
$VIEWSIZE
 40
210.0
  9
$CLAYER
  8
0
  9
$LTSCALE
 40
16.335
  9
$CELTYPE
  6
BYLAYER
  9
$DIMSCALE
 40
1.0
  9
$DIMASZ
 40
3.0
  9
$DIMEXO
 40
0.5
  9
$DIMDLI
 40
11.286
  9
$DIMEXE
 40
1.5
  9
$DIMCEN
 40
2.673
  9
$DIMLFAC
 40
1.0
  9
$DIMBLK
  1
_FILLED
  9
$DIMALT
 70
0
  9
$DIMALTF
 40
0.0393700787
  9
$DIMTXT
 40
3.0
  9
$DIMTOL
 70
1
  9
$DIMLIM
 70
0
  9
$DIMTFAC
 40
1.0
  9
$DIMTP
 40
0.01
  9
$DIMTM
 40
0.01
  9
$DIMGAP
 40
0.625
  9
$DIMDSEP
 70
44
  9
$AUNITS
 70
0
  9
$PDMODE
 70
3
  9
$PDSIZE
 40
3.0
  9
$HANDSEED
  5
2BE
  9
$TILEMODE
 70
1
  9
$MEASUREMENT
 70
1
  9
$INSUNITS
 70
4
  0
ENDSEC
  0
SECTION
  2
CLASSES
  0
CLASS
  1
ACDBDICTIONARYWDFLT
  2
AcDbDictionaryWithDefault
  3
AutoCAD 2000
 90
0
 91
1
280
0
281
0
  0
CLASS
  1
ACDBPLACEHOLDER
  2
AcDbPlaceHolder
  3
AutoCAD 2000
 90
0
 91
1
280
0
281
0
  0
CLASS
  1
LAYOUT
  2
AcDbLayout
  3
AutoCAD 2000
 90
0
 91
0
280
0
281
0
  0
ENDSEC
  0
SECTION
  2
TABLES
  0
TABLE
  2
VPORT
  5
8
100
AcDbSymbolTable
 70
2
  0
VPORT
  5
1F4
100
AcDbSymbolTableRecord
100
AcDbViewportTableRecord
  2
*ACTIVE
 70
0
 10
0.0
 20
0.0
 11
1.0
 21
1.0
 12
148.5
 22
105.0
 13
0.0
 23
0.0
 14
1.0
 24
1.0
 15
0.0
 25
0.0
 16
0.0
 26
0.0
 36
1.0
 17
0.0
 27
0.0
 37
0.0
 40
210.0
 41
1.4142857143
 42
50.0
 43
0.0
 44
0.0
 50
0.0
 51
0.0
 71
0
 72
100
 73
1
 74
1
 75
0
 76
0
 77
0
 78
0
  0
ENDTAB
  0
TABLE
  2
LTYPE
  5
5
100
AcDbSymbolTable
 70
6
  0
LTYPE
  5
14
100
AcDbSymbolTableRecord
100
AcDbLinetypeTableRecord
  2
BYBLOCK
 70
0
  3

 72
65
 73
0
 40
0.0
  0
LTYPE
  5
15
100
AcDbSymbolTableRecord
100
AcDbLinetypeTableRecord
  2
BYLAYER
 70
0
  3

 72
65
 73
0
 40
0.0
  0
LTYPE
  5
16
100
AcDbSymbolTableRecord
100
AcDbLinetypeTableRecord
  2
CONTINUOUS
 70
64
  3
Solid line
 72
65
 73
0
 40
0.0
  0
LTYPE
  5
1F5
100
AcDbSymbolTableRecord
100
AcDbLinetypeTableRecord
  2
CENTER
 70
64
  3
____ _ ____ _ ____ _ ____ _ ____ _ ____ _ ____
 72
65
 73
4
 40
0.6
 49
0.375
 74
0
 49
-0.075
 74
0
 49
0.075
 74
0
 49
-0.075
 74
0
  0
LTYPE
  5
1F6
100
AcDbSymbolTableRecord
100
AcDbLinetypeTableRecord
  2
HIDDEN
 70
64
  3
- - - - - - - - - - - - - - - - - - - -
 72
65
 73
2
 40
0.2
 49
0.1
 74
0
 49
-0.1
 74
0
  0
LTYPE
  5
1F7
100
AcDbSymbolTableRecord
100
AcDbLinetypeTableRecord
  2
PHANTOM
 70
64
  3
_____ _ _ _____ _ _ _____ _ _ _____
 72
65
 73
6
 40
0.8
 49
0.45
 74
0
 49
-0.05
 74
0
 49
0.1
 74
0
 49
-0.05
 74
0
 49
0.1
 74
0
 49
-0.05
 74
0
  0
LTYPE
  5
1F8
100
AcDbSymbolTableRecord
100
AcDbLinetypeTableRecord
  2
DOT
 70
64
  3
. . . . . . . . . . . . . . . . . . . .
 72
65
 73
2
 40
0.2
 49
0.1
 74
0
 49
-0.1
 74
0
  0
LTYPE
  5
1F9
100
AcDbSymbolTableRecord
100
AcDbLinetypeTableRecord
  2
DASHED
 70
64
  3
- - - - - - - - - - - - - - - - - - - -
 72
65
 73
2
 40
0.2
 49
0.1
 74
0
 49
-0.1
 74
0
  0
ENDTAB
  0
TABLE
  2
LAYER
  5
2
100
AcDbSymbolTable
 70
36
  0
LAYER
  5
10
100
AcDbSymbolTableRecord
100
AcDbLayerTableRecord
  2
0
 70
0
 62
7
  6
CONTINUOUS
370
-3
390
F
  0
LAYER
  5
1FA
100
AcDbSymbolTableRecord
100
AcDbLayerTableRecord
  2
DEFAULT_1
 70
0
 62
7
  6
CENTER
370
-3
390
F
  0
LAYER
  5
1FB
100
AcDbSymbolTableRecord
100
AcDbLayerTableRecord
  2
DEFAULT_2
 70
0
 62
7
  6
HIDDEN
370
-3
390
F
  0
LAYER
  5
1FC
100
AcDbSymbolTableRecord
100
AcDbLayerTableRecord
  2
DEFAULT_3
 70
0
 62
7
  6
PHANTOM
370
-3
390
F
  0
LAYER
  5
1FD
100
AcDbSymbolTableRecord
100
AcDbLayerTableRecord
  2
ASSI
 70
0
 62
7
  6
CONTINUOUS
370
-3
390
F
  0
LAYER
  5
1FE
100
AcDbSymbolTableRecord
100
AcDbLayerTableRecord
  2
COORDINATE
 70
0
 62
7
  6
CONTINUOUS
370
-3
390
F
  0
LAYER
  5
1FF
100
AcDbSymbolTableRecord
100
AcDbLayerTableRecord
  2
COPY_PUBLISH
 70
0
 62
7
  6
CONTINUOUS
370
-3
390
F
  0
LAYER
  5
200
100
AcDbSymbolTableRecord
100
AcDbLayerTableRecord
  2
COSMETICI
 70
0
 62
7
  6
CONTINUOUS
370
-3
390
F
  0
LAYER
  5
201
100
AcDbSymbolTableRecord
100
AcDbLayerTableRecord
  2
CURVE
 70
0
 62
7
  6
CONTINUOUS
370
-3
390
F
  0
LAYER
  5
202
100
AcDbSymbolTableRecord
100
AcDbLayerTableRecord
  2
DRAFT
 70
0
 62
7
  6
CONTINUOUS
370
-3
390
F
  0
LAYER
  5
203
100
AcDbSymbolTableRecord
100
AcDbLayerTableRecord
  2
IMPORT_IGES
 70
0
 62
7
  6
CONTINUOUS
370
-3
390
F
  0
LAYER
  5
204
100
AcDbSymbolTableRecord
100
AcDbLayerTableRecord
  2
INTF_1
 70
0
 62
7
  6
CONTINUOUS
370
-3
390
F
  0
LAYER
  5
205
100
AcDbSymbolTableRecord
100
AcDbLayerTableRecord
  2
INTF_10
 70
0
 62
7
  6
CONTINUOUS
370
-3
390
F
  0
LAYER
  5
206
100
AcDbSymbolTableRecord
100
AcDbLayerTableRecord
  2
INTF_2
 70
0
 62
7
  6
CONTINUOUS
370
-3
390
F
  0
LAYER
  5
207
100
AcDbSymbolTableRecord
100
AcDbLayerTableRecord
  2
INTF_3
 70
0
 62
7
  6
CONTINUOUS
370
-3
390
F
  0
LAYER
  5
208
100
AcDbSymbolTableRecord
100
AcDbLayerTableRecord
  2
INTF_4
 70
0
 62
7
  6
CONTINUOUS
370
-3
390
F
  0
LAYER
  5
209
100
AcDbSymbolTableRecord
100
AcDbLayerTableRecord
  2
INTF_5
 70
0
 62
7
  6
CONTINUOUS
370
-3
390
F
  0
LAYER
  5
20A
100
AcDbSymbolTableRecord
100
AcDbLayerTableRecord
  2
INTF_6
 70
0
 62
7
  6
CONTINUOUS
370
-3
390
F
  0
LAYER
  5
20B
100
AcDbSymbolTableRecord
100
AcDbLayerTableRecord
  2
INTF_7
 70
0
 62
7
  6
CONTINUOUS
370
-3
390
F
  0
LAYER
  5
20C
100
AcDbSymbolTableRecord
100
AcDbLayerTableRecord
  2
INTF_9
 70
0
 62
7
  6
CONTINUOUS
370
-3
390
F
  0
LAYER
  5
20D
100
AcDbSymbolTableRecord
100
AcDbLayerTableRecord
  2
INTF_BLANK
 70
0
 62
7
  6
CONTINUOUS
370
-3
390
F
  0
LAYER
  5
20E
100
AcDbSymbolTableRecord
100
AcDbLayerTableRecord
  2
INTF_RED
 70
0
 62
7
  6
CONTINUOUS
370
-3
390
F
  0
LAYER
  5
20F
100
AcDbSymbolTableRecord
100
AcDbLayerTableRecord
  2
NOTE
 70
0
 62
7
  6
CONTINUOUS
370
-3
390
F
  0
LAYER
  5
210
100
AcDbSymbolTableRecord
100
AcDbLayerTableRecord
  2
PIANI
 70
0
 62
7
  6
CONTINUOUS
370
-3
390
F
  0
LAYER
  5
211
100
AcDbSymbolTableRecord
100
AcDbLayerTableRecord
  2
PUNTI
 70
0
 62
7
  6
CONTINUOUS
370
-3
390
F
  0
LAYER
  5
212
100
AcDbSymbolTableRecord
100
AcDbLayerTableRecord
  2
RACCORDO
 70
0
 62
7
  6
CONTINUOUS
370
-3
390
F
  0
LAYER
  5
213
100
AcDbSymbolTableRecord
100
AcDbLayerTableRecord
  2
RGB____0____0____0__
 70
0
 62
7
  6
CONTINUOUS
370
-3
390
F
  0
LAYER
  5
214
100
AcDbSymbolTableRecord
100
AcDbLayerTableRecord
  2
SIMBOLI
 70
0
 62
7
  6
CONTINUOUS
370
-3
390
F
  0
LAYER
  5
215
100
AcDbSymbolTableRecord
100
AcDbLayerTableRecord
  2
SMUSSO
 70
0
 62
7
  6
CONTINUOUS
370
-3
390
F
  0
LAYER
  5
216
100
AcDbSymbolTableRecord
100
AcDbLayerTableRecord
  2
SNAPLINE
 70
0
 62
7
  6
CONTINUOUS
370
-3
390
F
  0
LAYER
  5
217
100
AcDbSymbolTableRecord
100
AcDbLayerTableRecord
  2
SUPERFICI
 70
0
 62
7
  6
CONTINUOUS
370
-3
390
F
  0
LAYER
  5
218
100
AcDbSymbolTableRecord
100
AcDbLayerTableRecord
  2
TRASH
 70
0
 62
7
  6
CONTINUOUS
370
-3
390
F
  0
ENDTAB
  0
TABLE
  2
STYLE
  5
3
100
AcDbSymbolTable
 70
1
  0
STYLE
  5
11
100
AcDbSymbolTableRecord
100
AcDbTextStyleTableRecord
  2
STANDARD
 70
0
 40
0.0
 41
0.8
 50
0.0
 71
0
 42
0.2
  3
txt
  4

  0
STYLE
  5
219
100
AcDbSymbolTableRecord
100
AcDbTextStyleTableRecord
  2
TEXTSTYLE_1
 70
0
 40
0.0
 41
0.8
 50
0.0
 71
0
 42
0.2
  3
gdt
  4

  0
ENDTAB
  0
TABLE
  2
VIEW
  5
6
100
AcDbSymbolTable
 70
0
  0
ENDTAB
  0
TABLE
  2
UCS
  5
7
100
AcDbSymbolTable
 70
0
  0
ENDTAB
  0
TABLE
  2
APPID
  5
9
100
AcDbSymbolTable
 70
1
  0
APPID
  5
21A
100
AcDbSymbolTableRecord
100
AcDbRegAppTableRecord
  2
ACAD
 70
0
  0
ENDTAB
  0
TABLE
  2
BLOCK_RECORD
  5
1
100
AcDbSymbolTable
 70
0
  0
BLOCK_RECORD
  5
21B
100
AcDbSymbolTableRecord
100
AcDbBlockTableRecord
  2
*Model_Space
  0
BLOCK_RECORD
  5
21C
100
AcDbSymbolTableRecord
100
AcDbBlockTableRecord
  2
*Paper_Space
  0
BLOCK_RECORD
  5
21D
100
AcDbSymbolTableRecord
100
AcDbBlockTableRecord
  2
_FILLED
  0
ENDTAB
  0
TABLE
  2
DIMSTYLE
  5
A
100
AcDbSymbolTable
 70
1
100
AcDbDimStyleTable
 71
0
  0
DIMSTYLE
105
21E
100
AcDbSymbolTableRecord
100
AcDbDimStyleTableRecord
  2
STANDARD
 70
0
  3

  4

 40
1.0
 41
3.0
 42
0.5
 43
0.38
 44
1.5
 45
0.0
 46
0.0
 47
0.01
 48
0.01
140
3.0
141
0.09
142
0.0
143
25.4
144
1.0
145
0.0
146
1.0
147
0.625
 71
1
 72
0
 73
0
 74
0
 75
0
 76
0
 77
1
 78
8
 79
2
170
0
171
1
172
0
173
0
174
0
175
0
176
0
177
0
178
0
270
2
179
2
271
2
272
2
273
2
274
2
275
0
280
0
281
0
282
0
283
1
284
8
285
0
286
0
287
3
288
0
340
11
278
44
341
21D
342
21D
343
21D
344
21D
  0
ENDTAB
  0
ENDSEC
  0
SECTION
  2
BLOCKS
  0
BLOCK
  5
20
100
AcDbEntity
  8
0
100
AcDbBlockBegin
  2
*Model_Space
 70
0
 10
0.0
 20
0.0
 30
0.0
  3
*Model_Space
  1

  0
ENDBLK
  5
21
100
AcDbEntity
  8
0
100
AcDbBlockEnd
  0
BLOCK
  5
1C
100
AcDbEntity
  8
0
100
AcDbBlockBegin
  2
*Paper_Space
 70
0
 10
0.0
 20
0.0
 30
0.0
  3
*Paper_Space
  1

  0
ENDBLK
  5
1D
100
AcDbEntity
  8
0
100
AcDbBlockEnd
  0
BLOCK
  5
21F
100
AcDbEntity
  8
0
100
AcDbBlockBegin
  2
_FILLED
 70
64
 10
0.0
 20
0.0
  3
_FILLED
  1

  0
SOLID
  5
220
100
AcDbEntity
  8
0
  6
BYBLOCK
 62
0
100
AcDbTrace
 10
0.0
 20
0.0
 11
-1.0
 21
0.3166666667
 12
-1.0
 22
-0.3166666667
 13
-1.0
 23
-0.3166666667
  0
ENDBLK
  5
221
100
AcDbEntity
  8
0
  6
BYBLOCK
 62
0
100
AcDbBlockEnd
  0
ENDSEC
  0
SECTION
  2
ENTITIES
  0
LINE
  5
222
100
AcDbEntity
  8
RACCORDO
100
AcDbLine
 62
7
  6
CONTINUOUS
 10
-14.9659026188
 20
33.88062823
 11
-13.9202798112
 21
34.5492918934
  0
LINE
  5
223
100
AcDbEntity
  8
RACCORDO
100
AcDbLine
 62
250
  6
CONTINUOUS
 10
-14.7057836175
 20
33.8621462689
 11
-13.6638852104
 21
34.5284282214
  0
LWPOLYLINE
  5
224
100
AcDbEntity
  8
RACCORDO
100
AcDbPolyline
 62
250
  6
CONTINUOUS
 90
11
 70
0
 10
-14.9658992189
 20
33.8806304041
 10
-14.959134371
 20
33.8847330819
 10
-14.9363032149
 20
33.8956530562
 10
-14.9116504985
 20
33.903247416
 10
-14.8853589908
 20
33.9074610691
 10
-14.8576030375
 20
33.9082609938
 10
-14.828617655
 20
33.9056355989
 10
-14.7987002272
 20
33.8996241568
 10
-14.768110549
 20
33.8903067541
 10
-14.7370596118
 20
33.8777747631
 10
-14.7057836175
 20
33.8621462689
  0
LINE
  5
225
100
AcDbEntity
  8
RACCORDO
100
AcDbLine
 62
7
  6
CONTINUOUS
 10
13.8943457215
 20
-27.4605049709
 11
-16.7849036371
 21
-9.7466908926
  0
LINE
  5
226
100
AcDbEntity
  8
RACCORDO
100
AcDbLine
 62
250
  6
CONTINUOUS
 10
-16.7849036371
 20
-9.7466908926
 11
-16.7874606374
 21
-9.7451839966
  0
LWPOLYLINE
  5
227
100
AcDbEntity
  8
RACCORDO
100
AcDbPolyline
 62
250
  6
CONTINUOUS
 90
10
 70
0
 10
-16.7874606374
 20
-9.7451839966
 10
-16.8104011485
 20
-9.7286028335
 10
-16.8307110162
 20
-9.7080599196
 10
-16.8481963164
 20
-9.6837514042
 10
-16.8626900944
 20
-9.6559093918
 10
-16.8740539595
 20
-9.6247997259
 10
-16.8821794063
 20
-9.5907194504
 10
-16.8869888507
 20
-9.5539939734
 10
-16.8884363708
 20
-9.5149739602
 10
-16.8865081452
 20
-9.4740319848
  0
LINE
  5
228
100
AcDbEntity
  8
RACCORDO
100
AcDbLine
 62
250
  6
CONTINUOUS
 10
13.7927412134
 20
-27.1878460632
 11
-16.8865081452
 21
-9.4740319848
  0
LWPOLYLINE
  5
229
100
AcDbEntity
  8
RACCORDO
100
AcDbPolyline
 62
250
  6
CONTINUOUS
 90
9
 70
0
 10
-15.9534545733
 20
3.5653072306
 10
-15.952784598
 20
3.5369150009
 10
-15.9466956524
 20
3.5102886254
 10
-15.9353988019
 20
3.4838012163
 10
-15.9190137527
 20
3.4577334428
 10
-15.8977141264
 20
3.4323615264
 10
-15.871725621
 20
3.4079543158
 10
-15.8413236198
 20
3.3847704389
 10
-15.8068302725
 20
3.36305556
  0
LWPOLYLINE
  5
22A
100
AcDbEntity
  8
RACCORDO
100
AcDbPolyline
 62
250
  6
CONTINUOUS
 90
11
 70
0
 10
-15.1965286687
 20
33.459394714
 10
-15.1964710497
 20
33.4550120548
 10
-15.1939662244
 20
33.43020449
 10
-15.1877722976
 20
33.4056024729
 10
-15.1779511286
 20
33.3814315505
 10
-15.1645893441
 20
33.3578677251
 10
-15.1477999235
 20
33.3350829716
 10
-15.1277611682
 20
33.313281991
 10
-15.1046666236
 20
33.2926272513
 10
-15.0787019094
 20
33.2732433343
 10
-15.0500820593
 20
33.2552574173
  0
LINE
  5
22B
100
AcDbEntity
  8
RACCORDO
100
AcDbLine
 62
7
  6
CONTINUOUS
 10
-15.1965286687
 20
21.1500664409
 11
-15.1965286687
 21
33.459394714
  0
LINE
  5
22C
100
AcDbEntity
  8
RACCORDO
100
AcDbLine
 62
250
  6
CONTINUOUS
 10
-15.0518112583
 20
19.7586686171
 11
-15.0500820593
 21
33.2552574173
  0
LWPOLYLINE
  5
22D
100
AcDbEntity
  8
RACCORDO
100
AcDbPolyline
 62
7
  6
CONTINUOUS
 90
10
 70
0
 10
-15.1965286686
 20
21.1500725597
 10
-15.2010561626
 20
19.2687566385
 10
-15.2180546964
 20
17.324442805
 10
-15.2529978562
 20
15.3744568173
 10
-15.3109475437
 20
13.4160603789
 10
-15.3964007596
 20
11.4470394797
 10
-15.5089923785
 20
9.4675749546
 10
-15.6438540234
 20
7.4806743207
 10
-15.7957560086
 20
5.4892617035
 10
-15.9534545548
 20
3.565307451
  0
LINE
  5
22E
100
AcDbEntity
  8
RACCORDO
100
AcDbLine
 62
250
  6
CONTINUOUS
 10
-15.0568925841
 20
18.6679747862
 11
-15.0518112583
 21
19.7586686171
  0
LINE
  5
22F
100
AcDbEntity
  8
RACCORDO
100
AcDbLine
 62
250
  6
CONTINUOUS
 10
-15.065235188
 20
17.6690756224
 11
-15.0568925841
 21
18.6679747862
  0
LINE
  5
230
100
AcDbEntity
  8
RACCORDO
100
AcDbLine
 62
250
  6
CONTINUOUS
 10
-15.076760246
 20
16.7459651415
 11
-15.065235188
 21
17.6690756224
  0
LINE
  5
231
100
AcDbEntity
  8
RACCORDO
100
AcDbLine
 62
250
  6
CONTINUOUS
 10
-15.0913542952
 20
15.8841540205
 11
-15.076760246
 21
16.7459651415
  0
LINE
  5
232
100
AcDbEntity
  8
RACCORDO
100
AcDbLine
 62
250
  6
CONTINUOUS
 10
-15.1088224431
 20
15.0740551073
 11
-15.0913542952
 21
15.8841540205
  0
LWPOLYLINE
  5
233
100
AcDbEntity
  8
RACCORDO
100
AcDbPolyline
 62
250
  6
CONTINUOUS
 90
11
 70
0
 10
-17.0331324238
 20
-9.2717800496
 10
-17.033523884
 20
-9.2871387068
 10
-17.0309646871
 20
-9.3093094705
 10
-17.0247491623
 20
-9.3315090124
 10
-17.0149229372
 20
-9.3535773151
 10
-17.0015475215
 20
-9.3753672114
 10
-16.9847273501
 20
-9.3967019298
 10
-16.964629813
 20
-9.4173834401
 10
-16.941438409
 20
-9.4372508148
 10
-16.915328737
 20
-9.4561776867
 10
-16.8865081452
 20
-9.4740319848
  0
LINE
  5
234
100
AcDbEntity
  8
RACCORDO
100
AcDbLine
 62
250
  6
CONTINUOUS
 10
-15.1291771714
 20
14.301130969
 11
-15.1088224431
 21
15.0740551073
  0
LINE
  5
235
100
AcDbEntity
  8
RACCORDO
100
AcDbLine
 62
250
  6
CONTINUOUS
 10
-15.1526430858
 20
13.5506793126
 11
-15.1291771714
 21
14.301130969
  0
LWPOLYLINE
  5
236
100
AcDbEntity
  8
RACCORDO
100
AcDbPolyline
 62
250
  6
CONTINUOUS
 90
19
 70
0
 10
-15.0500820593
 20
33.2552574173
 10
-15.0487811268
 20
33.2909970643
 10
-15.0448879031
 20
33.3279759807
 10
-15.0384310392
 20
33.365922032
 10
-15.0294580524
 20
33.4045559661
 10
-15.0180349764
 20
33.4435934687
 10
-15.0042458759
 20
33.4827472556
 10
-14.9881922274
 20
33.5217291868
 10
-14.9699921726
 20
33.5602523871
 10
-14.9497796493
 20
33.598033357
 10
-14.927703405
 20
33.6347940593
 10
-14.903925903
 20
33.6702639653
 10
-14.8786221263
 20
33.7041820454
 10
-14.85197829
 20
33.7362986902
 10
-14.8241904711
 20
33.7663775473
 10
-14.7954631653
 20
33.7941972608
 10
-14.7660077822
 20
33.8195531002
 10
-14.7360410895
 20
33.8422584673
 10
-14.7057836175
 20
33.8621462689
  0
LINE
  5
237
100
AcDbEntity
  8
RACCORDO
100
AcDbLine
 62
250
  6
CONTINUOUS
 10
-15.1794982898
 20
12.8130055201
 11
-15.1526430858
 21
13.5506793126
  0
LINE
  5
238
100
AcDbEntity
  8
RACCORDO
100
AcDbLine
 62
250
  6
CONTINUOUS
 10
-15.210501237
 20
12.0714773361
 11
-15.1794982898
 21
12.8130055201
  0
LINE
  5
239
100
AcDbEntity
  8
RACCORDO
100
AcDbLine
 62
250
  6
CONTINUOUS
 10
-15.2459283606
 20
11.3227658992
 11
-15.210501237
 21
12.0714773361
  0
LINE
  5
23A
100
AcDbEntity
  8
RACCORDO
100
AcDbLine
 62
250
  6
CONTINUOUS
 10
-15.2856164834
 20
10.5671240312
 11
-15.2459283606
 21
11.3227658992
  0
LINE
  5
23B
100
AcDbEntity
  8
RACCORDO
100
AcDbLine
 62
250
  6
CONTINUOUS
 10
-15.3289263771
 20
9.8120742496
 11
-15.2856164834
 21
10.5671240312
  0
LINE
  5
23C
100
AcDbEntity
  8
RACCORDO
100
AcDbLine
 62
250
  6
CONTINUOUS
 10
-15.3756851274
 20
9.0557221824
 11
-15.3289263771
 21
9.8120742496
  0
LINE
  5
23D
100
AcDbEntity
  8
RACCORDO
100
AcDbLine
 62
250
  6
CONTINUOUS
 10
-15.4521420783
 20
7.912522236
 11
-15.3756851274
 21
9.0557221824
  0
LINE
  5
23E
100
AcDbEntity
  8
RACCORDO
100
AcDbLine
 62
250
  6
CONTINUOUS
 10
-15.5367048464
 20
6.7424987372
 11
-15.4521420783
 21
7.912522236
  0
LINE
  5
23F
100
AcDbEntity
  8
RACCORDO
100
AcDbLine
 62
250
  6
CONTINUOUS
 10
-15.6299919658
 20
5.5287488039
 11
-15.5367048464
 21
6.7424987372
  0
LINE
  5
240
100
AcDbEntity
  8
RACCORDO
100
AcDbLine
 62
250
  6
CONTINUOUS
 10
-15.7692452188
 20
3.812398777
 11
-15.6299919658
 21
5.5287488039
  0
LINE
  5
241
100
AcDbEntity
  8
RACCORDO
100
AcDbLine
 62
7
  6
CONTINUOUS
 10
-17.0331324238
 20
-9.2717800496
 11
-15.9534545733
 21
3.5653072306
  0
LINE
  5
242
100
AcDbEntity
  8
RACCORDO
100
AcDbLine
 62
250
  6
CONTINUOUS
 10
-16.8865081452
 20
-9.4740319848
 11
-15.7692452188
 21
3.812398777
  0
LINE
  5
243
100
AcDbEntity
  8
RACCORDO
100
AcDbLine
 62
7
  6
CONTINUOUS
 10
18.8101662173
 20
-15.7172946777
 11
18.3545012169
 21
-15.6634132381
  0
LWPOLYLINE
  5
244
100
AcDbEntity
  8
RACCORDO
100
AcDbPolyline
 62
250
  6
CONTINUOUS
 90
9
 70
0
 10
-15.1965286687
 20
21.1500664409
 10
-15.1954864779
 20
21.1314363679
 10
-15.1895266873
 20
21.1019213488
 10
-15.1783438953
 20
21.0729163964
 10
-15.1620565767
 20
21.0447287998
 10
-15.140837285
 20
21.0176571887
 10
-15.1149108254
 20
20.9919883696
 10
-15.0845518723
 20
20.9679942875
 10
-15.0500820593
 20
20.9459291443
  0
LINE
  5
245
100
AcDbEntity
  8
DRAFT
100
AcDbLine
 62
7
  6
CONTINUOUS
 10
18.9890475668
 20
-13.5104231838
 11
18.3692171229
 21
-13.3918776951
  0
LINE
  5
246
100
AcDbEntity
  8
RACCORDO
100
AcDbLine
 62
250
  6
CONTINUOUS
 10
-15.8068302725
 20
3.36305556
 11
14.9304842974
 21
-14.3842846436
  0
LINE
  5
247
100
AcDbEntity
  8
RACCORDO
100
AcDbLine
 62
7
  6
CONTINUOUS
 10
18.8324811778
 20
-12.8002882516
 11
19.1115355034
 21
-12.9614107218
  0
LINE
  5
248
100
AcDbEntity
  8
RACCORDO
100
AcDbLine
 62
250
  6
CONTINUOUS
 10
17.1702649615
 20
16.7251763548
 11
16.0723331275
 21
16.0912474007
  0
LINE
  5
249
100
AcDbEntity
  8
RACCORDO
100
AcDbLine
 62
250
  6
CONTINUOUS
 10
17.5236971982
 20
16.1130137645
 11
16.4257653642
 21
15.4790848104
  0
LWPOLYLINE
  5
24A
100
AcDbEntity
  8
RACCORDO
100
AcDbPolyline
 62
250
  6
CONTINUOUS
 90
19
 70
0
 10
16.4257653642
 20
15.4790848104
 10
16.3933645024
 20
15.4628005131
 10
16.3586621495
 20
15.4481819673
 10
16.3219143981
 20
15.4353371131
 10
16.2833923397
 20
15.424360775
 10
16.2433803811
 20
15.4153340547
 10
16.2021741831
 20
15.408323677
 10
16.1600751724
 20
15.4033811336
 10
16.1173967658
 20
15.4005434262
 10
16.074462703
 20
15.3998314282
 10
16.0315957668
 20
15.4012487615
 10
15.9891060427
 20
15.4047834405
 10
15.9472976671
 20
15.4104095418
 10
15.9064434315
 20
15.4180932966
 10
15.8668822286
 20
15.4277739799
 10
15.8289963153
 20
15.4393497067
 10
15.7930800584
 20
15.4527101995
 10
15.7593498896
 20
15.4677536238
 10
15.7280346857
 20
15.4843585491
  0
LWPOLYLINE
  5
24B
100
AcDbEntity
  8
RACCORDO
100
AcDbPolyline
 62
250
  6
CONTINUOUS
 90
19
 70
0
 10
16.0723331275
 20
16.0912474007
 10
16.0420756556
 20
16.0713595991
 10
16.0121089628
 20
16.048654232
 10
15.9826535798
 20
16.0232983926
 10
15.953926274
 20
15.9954786791
 10
15.926138455
 20
15.965399822
 10
15.8994946187
 20
15.9332831772
 10
15.874190842
 20
15.8993650971
 10
15.8504133401
 20
15.8638951912
 10
15.8283370958
 20
15.8271344888
 10
15.8081245724
 20
15.7893535189
 10
15.7899245176
 20
15.7508303186
 10
15.7738708691
 20
15.7118483874
 10
15.7600817686
 20
15.6726946005
 10
15.7486586927
 20
15.6336570979
 10
15.7396857058
 20
15.5950231638
 10
15.7332288419
 20
15.5570771125
 10
15.7293356182
 20
15.5200981961
 10
15.7280346857
 20
15.4843585491
  0
LWPOLYLINE
  5
24C
100
AcDbEntity
  8
RACCORDO
100
AcDbPolyline
 62
250
  6
CONTINUOUS
 90
8
 70
0
 10
18.6564703022
 20
-2.7752428769
 10
18.6478849802
 20
-2.7708370699
 10
18.6325308748
 20
-2.7652960716
 10
18.6161248895
 20
-2.7621071376
 10
18.5988462332
 20
-2.7612791013
 10
18.5808643753
 20
-2.7627876906
 10
18.5623318872
 20
-2.7665892648
 10
18.5434119653
 20
-2.7726224929
  0
LINE
  5
24D
100
AcDbEntity
  8
RACCORDO
100
AcDbLine
 62
250
  6
CONTINUOUS
 10
18.6565828721
 20
-2.7753077759
 11
18.6564703022
 21
-2.7752428769
  0
LINE
  5
24E
100
AcDbEntity
  8
RACCORDO
100
AcDbLine
 62
250
  6
CONTINUOUS
 10
18.2605692528
 20
-2.6093126555
 11
18.5434119653
 21
-2.7726224929
  0
LINE
  5
24F
100
AcDbEntity
  8
RACCORDO
100
AcDbLine
 62
7
  6
CONTINUOUS
 10
18.3737401596
 20
-2.6119979385
 11
18.6565828721
 21
-2.7753077759
  0
LWPOLYLINE
  5
250
100
AcDbEntity
  8
RACCORDO
100
AcDbPolyline
 62
250
  6
CONTINUOUS
 90
16
 70
0
 10
18.5434119653
 20
-2.7726224929
 10
18.5653840075
 20
-2.7868633283
 10
18.5867117328
 20
-2.8038240195
 10
18.6071614701
 20
-2.8233187415
 10
18.6265091678
 20
-2.8451339062
 10
18.6445428485
 20
-2.8690305021
 10
18.6610649314
 20
-2.8947467129
 10
18.6758943972
 20
-2.9220007865
 10
18.688868771
 20
-2.9504941217
 10
18.699845903
 20
-2.9799145394
 10
18.7087055254
 20
-3.0099397034
 10
18.7153505702
 20
-3.0402406517
 10
18.7197082331
 20
-3.0704854008
 10
18.7217307705
 20
-3.1003425829
 10
18.7213960231
 20
-3.1294850765
 10
18.7187076584
 20
-3.1575935902
  0
LINE
  5
251
100
AcDbEntity
  8
RACCORDO
100
AcDbLine
 62
250
  6
CONTINUOUS
 10
-15.0500820593
 20
20.9459291443
 11
15.7280346857
 21
3.1750302761
  0
LWPOLYLINE
  5
252
100
AcDbEntity
  8
RACCORDO
100
AcDbPolyline
 62
250
  6
CONTINUOUS
 90
16
 70
0
 10
16.4257653642
 20
3.1697565374
 10
16.3866606386
 20
3.150438553
 10
16.3443238631
 20
3.1335438056
 10
16.2992035702
 20
3.1192512842
 10
16.2517777816
 20
3.107712409
 10
16.2025489443
 20
3.0990494264
 10
16.1520386065
 20
3.0933541143
 10
16.1007818936
 20
3.09068681
 10
16.0493218379
 20
3.0910757716
 10
15.9982036252
 20
3.0945168777
 10
15.9479688205
 20
3.1009736714
 10
15.899149629
 20
3.1103777464
 10
15.8522632578
 20
3.122629473
 10
15.8078064373
 20
3.1375990517
 10
15.7662501594
 20
3.1551278885
 10
15.7280346857
 20
3.1750302761
  0
LINE
  5
253
100
AcDbEntity
  8
RACCORDO
100
AcDbLine
 62
250
  6
CONTINUOUS
 10
15.7280346857
 20
15.4843585491
 11
15.7271153597
 21
2.3232573974
  0
LINE
  5
254
100
AcDbEntity
  8
RACCORDO
100
AcDbLine
 62
250
  6
CONTINUOUS
 10
15.7271153597
 20
2.3232573974
 11
15.7243049169
 21
1.5008507909
  0
LWPOLYLINE
  5
255
100
AcDbEntity
  8
RACCORDO
100
AcDbPolyline
 62
250
  6
CONTINUOUS
 90
11
 70
0
 10
13.7927412134
 20
-27.1878460632
 10
13.7908129879
 20
-27.2287880386
 10
13.7922605079
 20
-27.2678080518
 10
13.7970699523
 20
-27.3045335287
 10
13.8051953991
 20
-27.3386138043
 10
13.8165592642
 20
-27.3697234702
 10
13.8310530422
 20
-27.3975654826
 10
13.8485383424
 20
-27.421873998
 10
13.8688482101
 20
-27.4424169119
 10
13.8917887212
 20
-27.4589980749
 10
13.8943457215
 20
-27.4605049709
  0
LINE
  5
256
100
AcDbEntity
  8
RACCORDO
100
AcDbLine
 62
250
  6
CONTINUOUS
 10
18.1186942458
 20
-2.5907909148
 11
18.1187275721
 21
-2.5907784628
  0
LINE
  5
257
100
AcDbEntity
  8
RACCORDO
100
AcDbLine
 62
7
  6
CONTINUOUS
 10
17.5236971982
 20
-2.8131943654
 11
18.1186942458
 21
-2.5907909148
  0
LINE
  5
258
100
AcDbEntity
  8
RACCORDO
100
AcDbLine
 62
250
  6
CONTINUOUS
 10
17.5236971982
 20
-2.8847474469
 11
18.2605692528
 21
-2.6093126555
  0
LINE
  5
259
100
AcDbEntity
  8
RACCORDO
100
AcDbLine
 62
250
  6
CONTINUOUS
 10
17.5236971982
 20
-3.153780826
 11
18.5434119653
 21
-2.7726224929
  0
LWPOLYLINE
  5
25A
100
AcDbEntity
  8
RACCORDO
100
AcDbPolyline
 62
250
  6
CONTINUOUS
 90
8
 70
0
 10
18.1187275721
 20
-2.5907784628
 10
18.129673859
 20
-2.5872166407
 10
18.1504729695
 20
-2.5831285815
 10
18.1720274066
 20
-2.5822134703
 10
18.1940609448
 20
-2.5844534384
 10
18.2163171255
 20
-2.5897838145
 10
18.2385656203
 20
-2.5981115453
 10
18.2605692528
 20
-2.6093126555
  0
LWPOLYLINE
  5
25B
100
AcDbEntity
  8
RACCORDO
100
AcDbPolyline
 62
250
  6
CONTINUOUS
 90
7
 70
0
 10
18.2605692528
 20
-2.6093126555
 10
18.2845730648
 20
-2.6020220442
 10
18.3077541181
 20
-2.5983797356
 10
18.3297989288
 20
-2.5984349855
 10
18.3504093785
 20
-2.602187047
 10
18.3693067463
 20
-2.6095851797
 10
18.3737401596
 20
-2.6119979385
  0
LWPOLYLINE
  5
25C
100
AcDbEntity
  8
RACCORDO
100
AcDbPolyline
 62
250
  6
CONTINUOUS
 90
19
 70
0
 10
16.4257653642
 20
15.4790848104
 10
16.4236203883
 20
15.5150823908
 10
16.4188591827
 20
15.5524116691
 10
16.4115169919
 20
15.5907876589
 10
16.4016464707
 20
15.6299255517
 10
16.3893233632
 20
15.6695178708
 10
16.3746510852
 20
15.7092361227
 10
16.3577547671
 20
15.7487556289
 10
16.3387594823
 20
15.7877960334
 10
16.3177924328
 20
15.8260961512
 10
16.2949893095
 20
15.8633961731
 10
16.2705408551
 20
15.8993730865
 10
16.2446807901
 20
15.933688103
 10
16.2176115578
 20
15.9660869615
 10
16.1895448263
 20
15.9963300104
 10
16.1607535973
 20
16.0241455897
 10
16.1314811846
 20
16.0493323568
 10
16.1019335257
 20
16.071746043
 10
16.072333126
 20
16.0912473999
  0
LINE
  5
25D
100
AcDbEntity
  8
RACCORDO
100
AcDbLine
 62
7
  6
CONTINUOUS
 10
17.5236971982
 20
16.1130137645
 11
17.5236971982
 21
-26.1034582614
  0
LINE
  5
25E
100
AcDbEntity
  8
RACCORDO
100
AcDbLine
 62
250
  6
CONTINUOUS
 10
16.4257653642
 20
15.4790848104
 11
16.4248604176
 21
2.3169800454
  0
LINE
  5
25F
100
AcDbEntity
  8
RACCORDO
100
AcDbLine
 62
250
  6
CONTINUOUS
 10
16.4248604176
 20
2.3169800454
 11
16.4198992442
 21
1.0926569255
  0
LINE
  5
260
100
AcDbEntity
  8
RACCORDO
100
AcDbLine
 62
250
  6
CONTINUOUS
 10
15.7243049169
 20
1.5008507909
 11
15.7194873059
 21
0.7059231097
  0
LINE
  5
261
100
AcDbEntity
  8
RACCORDO
100
AcDbLine
 62
250
  6
CONTINUOUS
 10
16.4198992442
 20
1.0926569255
 11
16.4139556658
 21
0.3069515966
  0
LINE
  5
262
100
AcDbEntity
  8
RACCORDO
100
AcDbLine
 62
250
  6
CONTINUOUS
 10
15.7194873059
 20
0.7059231097
 11
15.712430927
 21
-0.0677280916
  0
LINE
  5
263
100
AcDbEntity
  8
RACCORDO
100
AcDbLine
 62
250
  6
CONTINUOUS
 10
16.4139556658
 20
0.3069515966
 11
16.4056798344
 21
-0.4595698877
  0
LINE
  5
264
100
AcDbEntity
  8
RACCORDO
100
AcDbLine
 62
250
  6
CONTINUOUS
 10
15.712430927
 20
-0.0677280916
 11
15.7028879818
 21
-0.8257587308
  0
LINE
  5
265
100
AcDbEntity
  8
RACCORDO
100
AcDbLine
 62
250
  6
CONTINUOUS
 10
16.4056798344
 20
-0.4595698877
 11
16.3947958759
 21
-1.2125605687
  0
LINE
  5
266
100
AcDbEntity
  8
RACCORDO
100
AcDbLine
 62
250
  6
CONTINUOUS
 10
15.7028879818
 20
-0.8257587308
 11
15.6906175072
 21
-1.5719760302
  0
LINE
  5
267
100
AcDbEntity
  8
RACCORDO
100
AcDbLine
 62
250
  6
CONTINUOUS
 10
16.3947958759
 20
-1.2125605687
 11
16.3809960881
 21
-1.957700503
  0
LINE
  5
268
100
AcDbEntity
  8
RACCORDO
100
AcDbLine
 62
250
  6
CONTINUOUS
 10
15.6906175072
 20
-1.5719760302
 11
15.6753370663
 21
-2.3120739335
  0
LINE
  5
269
100
AcDbEntity
  8
RACCORDO
100
AcDbLine
 62
250
  6
CONTINUOUS
 10
16.3809960881
 20
-1.957700503
 11
16.3640483492
 21
-2.6987637921
  0
LINE
  5
26A
100
AcDbEntity
  8
RACCORDO
100
AcDbLine
 62
250
  6
CONTINUOUS
 10
15.6753370663
 20
-2.3120739335
 11
15.6566973522
 21
-3.0521247226
  0
LINE
  5
26B
100
AcDbEntity
  8
RACCORDO
100
AcDbLine
 62
250
  6
CONTINUOUS
 10
16.3640483492
 20
-2.6987637921
 11
16.3435521306
 21
-3.4423401477
  0
LINE
  5
26C
100
AcDbEntity
  8
RACCORDO
100
AcDbLine
 62
250
  6
CONTINUOUS
 10
15.6566973522
 20
-3.0521247226
 11
15.6343693202
 21
-3.7945155755
  0
LINE
  5
26D
100
AcDbEntity
  8
RACCORDO
100
AcDbLine
 62
250
  6
CONTINUOUS
 10
16.3435521306
 20
-3.4423401477
 11
16.3191152878
 21
-4.1895822571
  0
LINE
  5
26E
100
AcDbEntity
  8
RACCORDO
100
AcDbLine
 62
250
  6
CONTINUOUS
 10
15.6343693202
 20
-3.7945155755
 11
15.6079796298
 21
-4.5415203667
  0
LINE
  5
26F
100
AcDbEntity
  8
RACCORDO
100
AcDbLine
 62
250
  6
CONTINUOUS
 10
16.3191152878
 20
-4.1895822571
 11
16.2905866162
 21
-4.9393489671
  0
LINE
  5
270
100
AcDbEntity
  8
RACCORDO
100
AcDbLine
 62
250
  6
CONTINUOUS
 10
15.6079796298
 20
-4.5415203667
 11
15.5775191835
 21
-5.2859772077
  0
LINE
  5
271
100
AcDbEntity
  8
RACCORDO
100
AcDbLine
 62
250
  6
CONTINUOUS
 10
16.2905866162
 20
-4.9393489671
 11
16.2579227272
 21
-5.6841364423
  0
LINE
  5
272
100
AcDbEntity
  8
RACCORDO
100
AcDbLine
 62
250
  6
CONTINUOUS
 10
15.5775191835
 20
-5.2859772077
 11
15.54283666
 21
-6.0277597587
  0
LINE
  5
273
100
AcDbEntity
  8
RACCORDO
100
AcDbLine
 62
250
  6
CONTINUOUS
 10
16.2579227272
 20
-5.6841364423
 11
16.2210188588
 21
-6.4288878646
  0
LINE
  5
274
100
AcDbEntity
  8
RACCORDO
100
AcDbLine
 62
250
  6
CONTINUOUS
 10
15.54283666
 20
-6.0277597587
 11
15.5039356479
 21
-6.7698926373
  0
LINE
  5
275
100
AcDbEntity
  8
RACCORDO
100
AcDbLine
 62
250
  6
CONTINUOUS
 10
16.2210188588
 20
-6.4288878646
 11
16.1796071916
 21
-7.1797677241
  0
LINE
  5
276
100
AcDbEntity
  8
RACCORDO
100
AcDbLine
 62
250
  6
CONTINUOUS
 10
15.5039356479
 20
-6.7698926373
 11
15.4601108076
 21
-7.5289221217
  0
LINE
  5
277
100
AcDbEntity
  8
RACCORDO
100
AcDbLine
 62
250
  6
CONTINUOUS
 10
16.1796071916
 20
-7.1797677241
 11
16.1330696788
 21
-7.9521604312
  0
LINE
  5
278
100
AcDbEntity
  8
RACCORDO
100
AcDbLine
 62
250
  6
CONTINUOUS
 10
15.4601108076
 20
-7.5289221217
 11
15.4107725235
 21
-8.3146638488
  0
LINE
  5
279
100
AcDbEntity
  8
RACCORDO
100
AcDbLine
 62
250
  6
CONTINUOUS
 10
16.1330696788
 20
-7.9521604312
 11
16.0802684798
 21
-8.7612698293
  0
LINE
  5
27A
100
AcDbEntity
  8
RACCORDO
100
AcDbLine
 62
250
  6
CONTINUOUS
 10
15.4107725235
 20
-8.3146638488
 11
15.354809154
 21
-9.1422303979
  0
LINE
  5
27B
100
AcDbEntity
  8
RACCORDO
100
AcDbLine
 62
250
  6
CONTINUOUS
 10
16.0802684798
 20
-8.7612698293
 11
16.0203798122
 21
-9.6171810729
  0
LINE
  5
27C
100
AcDbEntity
  8
RACCORDO
100
AcDbLine
 62
250
  6
CONTINUOUS
 10
15.354809154
 20
-9.1422303979
 11
15.2908809698
 21
-10.0267950833
  0
LINE
  5
27D
100
AcDbEntity
  8
RACCORDO
100
AcDbLine
 62
250
  6
CONTINUOUS
 10
16.0203798122
 20
-9.6171810729
 11
15.9520012041
 21
-10.5350947931
  0
LINE
  5
27E
100
AcDbEntity
  8
RACCORDO
100
AcDbLine
 62
250
  6
CONTINUOUS
 10
15.2908809698
 20
-10.0267950833
 11
15.2178927702
 21
-10.978578473
  0
LINE
  5
27F
100
AcDbEntity
  8
RACCORDO
100
AcDbLine
 62
250
  6
CONTINUOUS
 10
15.9520012041
 20
-10.5350947931
 11
15.8735938196
 21
-11.5302145771
  0
LINE
  5
280
100
AcDbEntity
  8
RACCORDO
100
AcDbLine
 62
250
  6
CONTINUOUS
 10
15.2178927702
 20
-10.978578473
 11
15.1343727804
 21
-12.012839164
  0
LINE
  5
281
100
AcDbEntity
  8
RACCORDO
100
AcDbLine
 62
250
  6
CONTINUOUS
 10
15.8735938196
 20
-11.5302145771
 11
15.7841793474
 21
-12.6126429122
  0
LINE
  5
282
100
AcDbEntity
  8
RACCORDO
100
AcDbLine
 62
250
  6
CONTINUOUS
 10
15.1343727804
 20
-12.012839164
 11
15.0387497217
 21
-13.146380836
  0
LINE
  5
283
100
AcDbEntity
  8
RACCORDO
100
AcDbLine
 62
250
  6
CONTINUOUS
 10
15.7841793474
 20
-12.6126429122
 11
15.6820189571
 21
-13.8008434796
  0
LINE
  5
284
100
AcDbEntity
  8
RACCORDO
100
AcDbLine
 62
250
  6
CONTINUOUS
 10
15.0387497217
 20
-13.146380836
 11
14.9132870926
 21
-14.5778129282
  0
LINE
  5
285
100
AcDbEntity
  8
RACCORDO
100
AcDbLine
 62
250
  6
CONTINUOUS
 10
14.9132870926
 20
-14.5778129282
 11
13.7927412134
 21
-27.1878460632
  0
LINE
  5
286
100
AcDbEntity
  8
RACCORDO
100
AcDbLine
 62
250
  6
CONTINUOUS
 10
15.6820189571
 20
-13.8008434796
 11
14.4885350894
 21
-27.236910279
  0
LWPOLYLINE
  5
287
100
AcDbEntity
  8
RACCORDO
100
AcDbPolyline
 62
250
  6
CONTINUOUS
 90
9
 70
0
 10
18.7187076584
 20
-3.1575935902
 10
18.7393985235
 20
-3.1443481258
 10
18.7576881372
 20
-3.1298845869
 10
18.7733501529
 20
-3.1143445752
 10
18.7861891421
 20
-3.0978747983
 10
18.7960206391
 20
-3.0806538114
 10
18.8026916121
 20
-3.0628938206
 10
18.8061081182
 20
-3.0447776672
 10
18.8065756178
 20
-3.0351467283
  0
LINE
  5
288
100
AcDbEntity
  8
RACCORDO
100
AcDbLine
 62
250
  6
CONTINUOUS
 10
17.5236971982
 20
-3.6042755545
 11
18.7187076584
 21
-3.1575935902
  0
LWPOLYLINE
  5
289
100
AcDbEntity
  8
RACCORDO
100
AcDbPolyline
 62
250
  6
CONTINUOUS
 90
8
 70
0
 10
18.7187076584
 20
-5.4365517975
 10
18.7214040195
 20
-5.4589863009
 10
18.7217221778
 20
-5.4798046601
 10
18.7196627347
 20
-5.498779605
 10
18.7152554345
 20
-5.51569665
 10
18.7085524395
 20
-5.5303833569
 10
18.6996158713
 20
-5.5426992749
 10
18.6912815469
 20
-5.550466769
  0
LWPOLYLINE
  5
28A
100
AcDbEntity
  8
RACCORDO
100
AcDbPolyline
 62
250
  6
CONTINUOUS
 90
7
 70
0
 10
19.0673239745
 20
-15.5555199157
 10
19.0673918924
 20
-15.569914002
 10
19.0656816626
 20
-15.5830126939
 10
19.0622191265
 20
-15.5945941794
 10
19.0570582975
 20
-15.6044635246
 10
19.0502838348
 20
-15.6124492444
 10
19.0453223925
 20
-15.6163918915
  0
LINE
  5
28B
100
AcDbEntity
  8
RACCORDO
100
AcDbLine
 62
7
  6
CONTINUOUS
 10
19.1555297748
 20
-13.0194935393
 11
19.156303988
 21
-13.3976970505
  0
LINE
  5
28C
100
AcDbEntity
  8
RACCORDO
100
AcDbLine
 62
250
  6
CONTINUOUS
 10
18.7187076584
 20
-3.1575935902
 11
18.7187076584
 21
-5.4365517975
  0
LINE
  5
28D
100
AcDbEntity
  8
RACCORDO
100
AcDbLine
 62
7
  6
CONTINUOUS
 10
18.8065756241
 20
-3.0351112122
 11
18.8065756241
 21
-5.3140694195
  0
LINE
  5
28E
100
AcDbEntity
  8
RACCORDO
100
AcDbLine
 62
250
  6
CONTINUOUS
 10
18.8065756178
 20
-3.0351467283
 11
18.8065756241
 21
-3.0351112122
  0
LINE
  5
28F
100
AcDbEntity
  8
DRAFT
100
AcDbLine
 62
7
  6
CONTINUOUS
 10
18.3692171229
 20
-13.3918776951
 11
18.3545012169
 21
-15.6634132381
  0
LINE
  5
290
100
AcDbEntity
  8
RACCORDO
100
AcDbLine
 62
7
  6
CONTINUOUS
 10
18.9890475668
 20
-13.5104231838
 11
18.9753957375
 21
-15.6177086871
  0
LINE
  5
291
100
AcDbEntity
  8
RACCORDO
100
AcDbLine
 62
250
  6
CONTINUOUS
 10
19.0673239745
 20
-15.5555199157
 11
19.112538545
 21
-13.4513970665
  0
LINE
  5
292
100
AcDbEntity
  8
RACCORDO
100
AcDbLine
 62
7
  6
CONTINUOUS
 10
19.1112512659
 20
-15.494288054
 11
19.156303988
 21
-13.3976970505
  0
LINE
  5
293
100
AcDbEntity
  8
RACCORDO
100
AcDbLine
 62
250
  6
CONTINUOUS
 10
18.8065756241
 20
-5.3140694195
 11
18.8062109802
 21
-5.3226072083
  0
LWPOLYLINE
  5
294
100
AcDbEntity
  8
RACCORDO
100
AcDbPolyline
 62
250
  6
CONTINUOUS
 90
9
 70
0
 10
16.6234990476
 20
-26.5701712818
 10
16.6206236248
 20
-26.6122074768
 10
16.6140120861
 20
-26.6514911641
 10
16.6037368058
 20
-26.6875923186
 10
16.5899102639
 20
-26.7201157531
 10
16.5726838148
 20
-26.7487054447
 10
16.5522460308
 20
-26.7730484316
 10
16.5288206373
 20
-26.7928782394
 10
16.5094584272
 20
-26.8046488747
  0
LWPOLYLINE
  5
295
100
AcDbEntity
  8
RACCORDO
100
AcDbPolyline
 62
250
  6
CONTINUOUS
 90
8
 70
0
 10
18.8062109802
 20
-5.3226072083
 10
18.8029947523
 20
-5.3407525955
 10
18.7965125807
 20
-5.3585565943
 10
18.7868429445
 20
-5.3758531946
 10
18.774079287
 20
-5.3924789572
 10
18.7583481593
 20
-5.4082572099
 10
18.7398242085
 20
-5.423003168
 10
18.7187076584
 20
-5.4365517975
  0
LINE
  5
296
100
AcDbEntity
  8
RACCORDO
100
AcDbLine
 62
250
  6
CONTINUOUS
 10
17.5236971982
 20
-6.3698379587
 11
18.7187076584
 21
-5.4365517975
  0
LINE
  5
297
100
AcDbEntity
  8
RACCORDO
100
AcDbLine
 62
250
  6
CONTINUOUS
 10
15.7280346857
 20
15.4843585491
 11
-15.0500820593
 21
33.2552574173
  0
LINE
  5
298
100
AcDbEntity
  8
RACCORDO
100
AcDbLine
 62
250
  6
CONTINUOUS
 10
16.0723331275
 20
16.0912474007
 11
-14.7057836175
 21
33.8621462689
  0
LINE
  5
299
100
AcDbEntity
  8
RACCORDO
100
AcDbLine
 62
7
  6
CONTINUOUS
 10
-13.6638852104
 20
34.5284282214
 11
17.1702649615
 21
16.7251763548
  0
LWPOLYLINE
  5
29A
100
AcDbEntity
  8
RACCORDO
100
AcDbPolyline
 62
250
  6
CONTINUOUS
 90
12
 70
0
 10
14.4885350894
 20
-27.236910279
 10
14.4806823276
 20
-27.274435452
 10
14.470281054
 20
-27.3100887743
 10
14.4574102067
 20
-27.3436001658
 10
14.4421675265
 20
-27.3747156228
 10
14.4246685526
 20
-27.4031996966
 10
14.4050456168
 20
-27.428837116
 10
14.383445977
 20
-27.4514349293
 10
14.3600344736
 20
-27.4708201706
 10
14.3349929204
 20
-27.4868434756
 10
14.308514935
 20
-27.4993839482
 10
14.2919845377
 20
-27.5052087231
  0
LWPOLYLINE
  5
29B
100
AcDbEntity
  8
RACCORDO
100
AcDbPolyline
 62
250
  6
CONTINUOUS
 90
4
 70
0
 10
16.5576476513
 20
-26.5974916628
 10
16.5479315724
 20
-26.642248565
 10
16.5345763665
 20
-26.6842399799
 10
16.5177273452
 20
-26.7230090168
  0
LINE
  5
29C
100
AcDbEntity
  8
RACCORDO
100
AcDbLine
 62
7
  6
CONTINUOUS
 10
17.5236971982
 20
-6.4623335687
 11
18.6912300386
 21
-5.5505070375
  0
LWPOLYLINE
  5
29D
100
AcDbEntity
  8
RACCORDO
100
AcDbPolyline
 62
250
  6
CONTINUOUS
 90
16
 70
0
 10
15.6262781734
 20
-14.4333488595
 10
15.587374069
 20
-14.4481682983
 10
15.5452351886
 20
-14.4606117166
 10
15.5003080498
 20
-14.4705472598
 10
15.4530687155
 20
-14.4778696476
 10
15.4040177493
 20
-14.4825012895
 10
15.3536749116
 20
-14.484393107
 10
15.3025736517
 20
-14.483525054
 10
15.2512554556
 20
-14.4799063284
 10
15.2002641079
 20
-14.4735752757
 10
15.1501399298
 20
-14.4645989816
 10
15.1014140539
 20
-14.4530725621
 10
15.0546027956
 20
-14.4391181548
 10
15.0102021825
 20
-14.4228836253
 10
14.9686826984
 20
-14.4045410001
 10
14.9304842974
 20
-14.3842846436
  0
LINE
  5
29E
100
AcDbEntity
  8
RACCORDO
100
AcDbLine
 62
7
  6
CONTINUOUS
 10
17.5236971982
 20
-13.1093338485
 11
18.5764122121
 21
-12.7753765479
  0
LINE
  5
29F
100
AcDbEntity
  8
DRAFT
100
AcDbLine
 62
7
  6
CONTINUOUS
 10
18.3692171229
 20
-13.3918776951
 11
17.5236971982
 21
-13.7960186209
  0
LINE
  5
2A0
100
AcDbEntity
  8
RACCORDO
100
AcDbLine
 62
7
  6
CONTINUOUS
 10
19.112538545
 20
-13.4513970665
 11
18.9890475668
 21
-13.5104231838
  0
LWPOLYLINE
  5
2A1
100
AcDbEntity
  8
RACCORDO
100
AcDbPolyline
 62
250
  6
CONTINUOUS
 90
3
 70
0
 10
16.5177273452
 20
-26.7230090168
 10
16.4975678345
 20
-26.7581338459
 10
16.4743171808
 20
-26.7892322884
  0
LINE
  5
2A2
100
AcDbEntity
  8
DRAFT
100
AcDbLine
 62
7
  6
CONTINUOUS
 10
18.3545012169
 20
-15.6634132381
 11
17.5236971982
 21
-16.2254460035
  0
LINE
  5
2A3
100
AcDbEntity
  8
RACCORDO
100
AcDbLine
 62
250
  6
CONTINUOUS
 10
18.9753957375
 20
-15.6177086871
 11
19.0673239745
 21
-15.5555199157
  0
LINE
  5
2A4
100
AcDbEntity
  8
RACCORDO
100
AcDbLine
 62
7
  6
CONTINUOUS
 10
18.9533941555
 20
-15.6785806629
 11
19.0453223925
 21
-15.6163918915
  0
LWPOLYLINE
  5
2A5
100
AcDbEntity
  8
RACCORDO
100
AcDbPolyline
 62
250
  6
CONTINUOUS
 90
10
 70
0
 10
19.0673239745
 20
-15.5555199157
 10
19.0761808276
 20
-15.5500059154
 10
19.0841595218
 20
-15.5440497626
 10
19.0911990806
 20
-15.5376969762
 10
19.0972498417
 20
-15.5309909791
 10
19.1022598717
 20
-15.5239877046
 10
19.1061832446
 20
-15.516757228
 10
19.1089957021
 20
-15.5093617002
 10
19.1106867666
 20
-15.5018528745
 10
19.1112396384
 20
-15.4953663462
  0
LWPOLYLINE
  5
2A6
100
AcDbEntity
  8
RACCORDO
100
AcDbPolyline
 62
250
  6
CONTINUOUS
 90
5
 70
0
 10
16.4743171808
 20
-26.7892322884
 10
16.4482283639
 20
-26.8159659746
 10
16.4195852443
 20
-26.838044026
 10
16.3886994752
 20
-26.8552262198
 10
16.3610987199
 20
-26.8657896062
  0
LINE
  5
2A7
100
AcDbEntity
  8
RACCORDO
100
AcDbLine
 62
250
  6
CONTINUOUS
 10
16.6234990476
 20
-26.5701712818
 11
17.5236971982
 21
-26.1034582614
  0
LINE
  5
2A8
100
AcDbEntity
  8
RACCORDO
100
AcDbLine
 62
7
  6
CONTINUOUS
 10
16.5094584272
 20
-26.8046488747
 11
17.4135813109
 21
-26.3359010534
  0
LWPOLYLINE
  5
2A9
100
AcDbEntity
  8
RACCORDO
100
AcDbPolyline
 62
250
  6
CONTINUOUS
 90
19
 70
0
 10
14.4885350894
 20
-27.236910279
 10
14.4562766813
 20
-27.2494470201
 10
14.4217076087
 20
-27.2603440738
 10
14.3850826948
 20
-27.2695202153
 10
14.3466655777
 20
-27.2769079836
 10
14.306745943
 20
-27.2824503279
 10
14.2656396962
 20
-27.2861041537
 10
14.2236696665
 20
-27.2878442432
 10
14.1811298772
 20
-27.2876618078
 10
14.1383029716
 20
-27.2855580849
 10
14.0954735748
 20
-27.2815428422
 10
14.0529905887
 20
-27.2756445685
 10
14.0112303495
 20
-27.2679176661
 10
13.9704970231
 20
-27.2584248109
 10
13.9310890938
 20
-27.2472421077
 10
13.8933513728
 20
-27.2344792571
 10
13.8575649573
 20
-27.2202505349
 10
13.8239532415
 20
-27.2046648944
 10
13.7927412134
 20
-27.1878460632
  0
LWPOLYLINE
  5
2AA
100
AcDbEntity
  8
RACCORDO
100
AcDbPolyline
 62
7
  6
CONTINUOUS
 90
6
 70
0
 10
16.3643219747
 20
-26.8647864702
 10
16.3939003748
 20
-26.8549204461
 10
16.4235160404
 20
-26.8438369247
 10
16.4531300896
 20
-26.8315287847
 10
16.4827176935
 20
-26.8179847538
 10
16.5094449501
 20
-26.8046558613
  0
LWPOLYLINE
  5
2AB
100
AcDbEntity
  8
RACCORDO
100
AcDbPolyline
 62
250
  6
CONTINUOUS
 90
10
 70
0
 10
16.5576476513
 20
-26.5974916628
 10
16.5648828744
 20
-26.5951691954
 10
16.5721400099
 20
-26.5926678846
 10
16.5794190578
 20
-26.5899877305
 10
16.5867220349
 20
-26.5871279855
 10
16.5940469245
 20
-26.5840893972
 10
16.6013876756
 20
-26.5808742083
 10
16.6087422714
 20
-26.5774831666
 10
16.6161127287
 20
-26.5739155245
 10
16.6234990476
 20
-26.5701712818
  0
LINE
  5
2AC
100
AcDbEntity
  8
RACCORDO
100
AcDbLine
 62
250
  6
CONTINUOUS
 10
14.4885350894
 20
-27.236910279
 11
16.5576476513
 21
-26.5974916628
  0
LINE
  5
2AD
100
AcDbEntity
  8
RACCORDO
100
AcDbLine
 62
7
  6
CONTINUOUS
 10
14.2919845377
 20
-27.5052087231
 11
16.3643219747
 21
-26.8647864702
  0
ARC
  5
2AE
100
AcDbEntity
  8
RACCORDO
100
AcDbCircle
 62
7
  6
CONTINUOUS
 10
-16.5348915571
 20
-9.3136851653
 40
0.5
100
AcDbArc
 50
175.1839975092
 51
239.9984015652
  0
ARC
  5
2AF
100
AcDbEntity
  8
RACCORDO
100
AcDbCircle
 62
7
  6
CONTINUOUS
 10
-14.6965286687
 20
33.459394714
 40
0.5
100
AcDbArc
 50
122.5979811578
 51
179.9999235613
  0
ARC
  5
2B0
100
AcDbEntity
  8
RACCORDO
100
AcDbCircle
 62
7
  6
CONTINUOUS
 10
14.1443578015
 20
-27.0274992437
 40
0.5
100
AcDbArc
 50
239.9984015652
 51
287.1696386884
  0
ARC
  5
2B1
100
AcDbEntity
  8
RACCORDO
100
AcDbCircle
 62
7
  6
CONTINUOUS
 10
18.5065756241
 20
-5.3140694195
 40
0.3
100
AcDbArc
 50
308.001816754
 51
0.0195772708
  0
ARC
  5
2B2
100
AcDbEntity
  8
RACCORDO
100
AcDbCircle
 62
7
  6
CONTINUOUS
 10
18.5065756241
 20
-3.0351112122
 40
0.3
100
AcDbArc
 50
359.9932169341
 51
60.0232178896
  0
ARC
  5
2B3
100
AcDbEntity
  8
RACCORDO
100
AcDbCircle
 62
7
  6
CONTINUOUS
 10
18.2237329116
 20
-2.8718013749
 40
0.3
100
AcDbArc
 50
59.9984015652
 51
110.4884039268
  0
ARC
  5
2B4
100
AcDbEntity
  8
RACCORDO
100
AcDbCircle
 62
7
  6
CONTINUOUS
 10
18.9612741117
 20
-15.4921506483
 40
0.15
100
AcDbArc
 50
304.0583457557
 51
358.7715997817
  0
ELLIPSE
  5
2B5
100
AcDbEntity
  8
RACCORDO
100
AcDbEllipse
 62
7
  6
CONTINUOUS
 10
18.6911091304
 20
-12.867480698
 30
0.0
 11
0.1998379832
 21
-0.0141574985
 31
0.0
 40
0.5244321271
 41
0.8227623867
 42
2.2187702041
  0
ELLIPSE
  5
2B6
100
AcDbEntity
  8
RACCORDO
100
AcDbEllipse
 62
7
  6
CONTINUOUS
 10
19.0056686993
 20
-13.011898727
 30
0.0
 11
0.1497574478
 21
-0.0106133147
 31
0.0
 40
0.5252357468
 41
0.0382855126
 42
0.8235575042
  0
ELLIPSE
  5
2B7
100
AcDbEntity
  8
RACCORDO
100
AcDbEllipse
 62
7
  6
CONTINUOUS
 10
17.1700226122
 20
-25.8989711561
 30
0.0
 11
-0.2501834304
 21
0.4333025529
 31
0.0
 40
0.5769361983
 41
-3.16775339
 42
-2.3565853618
  0
ELLIPSE
  5
2B8
100
AcDbEntity
  8
RACCORDO
100
AcDbEllipse
 62
7
  6
CONTINUOUS
 10
17.1700226122
 20
16.316941206
 30
0.0
 11
-0.2500121049
 21
0.4330057129
 31
0.0
 40
0.5777274115
 41
-2.3559002616
 42
-0.7857891675
  0
ELLIPSE
  5
2B9
100
AcDbEntity
  8
RACCORDO
100
AcDbEllipse
 62
7
  6
CONTINUOUS
 10
-13.663642861
 20
34.1199132136
 30
0.0
 11
-0.2501834304
 21
0.4333025529
 31
0.0
 40
0.5769361983
 41
-0.7851038024
 42
0.0261607363
  0
ELLIPSE
  5
2BA
100
AcDbEntity
  8
RACCORDO
100
AcDbEllipse
 62
7
  6
CONTINUOUS
 10
19.0064430162
 20
-13.3901529321
 30
0.0
 11
0.1497583666
 21
-0.0105509618
 31
0.0
 40
0.5257296689
 41
-0.7471693753
 42
0.0381026163
  0
ELLIPSE
  5
2BB
100
AcDbEntity
  8
RACCORDO
100
AcDbEllipse
 62
7
  6
CONTINUOUS
 10
18.8080411401
 20
-15.5958116187
 30
0.0
 11
0.1646633975
 21
-0.0426449227
 31
0.0
 40
0.7011905286
 41
4.9047256615
 42
6.4581351176
  0
ENDSEC
  0
SECTION
  2
OBJECTS
  0
DICTIONARY
  5
C
100
AcDbDictionary
280
0
281
1
  3
ACAD_GROUP
350
D
  3
ACAD_MLINESTYLE
350
17
  3
ACAD_LAYOUT
350
1A
  3
ACAD_PLOTSETTINGS
350
19
  3
ACAD_PLOTSTYLENAME
350
E
  0
DICTIONARY
  5
D
102
{ACAD_REACTORS
330
C
102
}
100
AcDbDictionary
280
0
281
1
  0
ACDBDICTIONARYWDFLT
  5
E
102
{ACAD_REACTORS
330
C
102
}
100
AcDbDictionary
281
1
  3
Normal
350
F
100
AcDbDictionaryWithDefault
340
F
  0
DICTIONARY
  5
17
102
{ACAD_REACTORS
330
C
102
}
100
AcDbDictionary
280
0
281
1
  3
Standard
350
18
  0
DICTIONARY
  5
19
102
{ACAD_REACTORS
330
C
102
}
100
AcDbDictionary
281
1
  0
DICTIONARY
  5
1A
102
{ACAD_REACTORS
330
C
102
}
100
AcDbDictionary
281
1
  3
Model
350
2BC
  3
Layout1
350
2BD
  0
ACDBPLACEHOLDER
  5
F
102
{ACAD_REACTORS
330
E
102
}
  0
MLINESTYLE
  5
18
102
{ACAD_REACTORS
330
17
102
}
100
AcDbMlineStyle
  2
STANDARD
 70
0
  3

 62
256
 51
90.0
 52
90.0
 71
2
 49
0.5
 62
256
  6
BYLAYER
 49
-0.5
 62
256
  6
BYLAYER
  0
LAYOUT
  5
2BC
102
{ACAD_REACTORS
330
1A
102
}
100
AcDbPlotSettings
  1

  2
none_device
  4
ISO_A4_(297.00_x_210.00_MM)
  6

 40
0.0
 41
0.0
 42
0.0
 43
0.0
 44
297.0
 45
210.0
 46
0.0
 47
0.0
 48
0.0
 49
0.0
140
0.0
141
0.0
142
1.0
143
1.0
 70
1024
 72
1
 73
0
 74
0
  7

 75
0
147
1.0
148
0.0
149
0.0
100
AcDbLayout
  1
Model
 70
0
 71
0
 10
0.0
 20
0.0
 11
297.0
 21
210.0
 12
0.0
 22
0.0
 32
0.0
 14
0.0
 24
0.0
 34
0.0
 15
0.0
 25
0.0
 35
0.0
146
0.0
 13
0.0
 23
0.0
 33
0.0
 16
1.0
 26
0.0
 36
0.0
 17
0.0
 27
1.0
 37
0.0
 76
0
330
21B
345
0
346
0
  0
LAYOUT
  5
2BD
102
{ACAD_REACTORS
330
1A
102
}
100
AcDbPlotSettings
  1

  2
none_device
  4
ISO_A4_(297.00_x_210.00_MM)
  6

 40
0.0
 41
0.0
 42
0.0
 43
0.0
 44
297.0
 45
210.0
 46
0.0
 47
0.0
 48
0.0
 49
0.0
140
0.0
141
0.0
142
1.0
143
1.0
 70
0
 72
1
 73
0
 74
0
  7

 75
0
147
1.0
148
0.0
149
0.0
100
AcDbLayout
  1
Layout1
 70
0
 71
1
 10
0.0
 20
0.0
 11
297.0
 21
210.0
 12
0.0
 22
0.0
 32
0.0
 14
0.0
 24
0.0
 34
0.0
 15
0.0
 25
0.0
 35
0.0
146
0.0
 13
0.0
 23
0.0
 33
0.0
 16
1.0
 26
0.0
 36
0.0
 17
0.0
 27
1.0
 37
0.0
 76
0
330
21C
345
0
346
0
  0
ENDSEC
  0
EOF
