  0
SECTION
  2
HEADER
  9
$ACADVER
  1
AC1024
  9
$DWGCODEPAGE
  3
ANSI_1252
  9
$EXTMAX
 10
297.0
 20
210.0
 30
0.0
  9
$EXTMIN
 10
0.0
 20
0.0
 30
0.0
  9
$LIMMIN
 10
0.0
 20
0.0
  9
$LIMMAX
 10
297.0
 20
210.0
  9
$VIEWCTR
 10
148.5
 20
105.0
  9
$VIEWSIZE
 40
210.0
  9
$CLAYER
  8
0
  9
$LTSCALE
 40
16.335
  9
$CELTYPE
  6
BYLAYER
  9
$DIMSCALE
 40
1.0
  9
$DIMASZ
 40
3.0
  9
$DIMEXO
 40
0.5
  9
$DIMDLI
 40
11.286
  9
$DIMEXE
 40
1.5
  9
$DIMCEN
 40
2.673
  9
$DIMLFAC
 40
1.0
  9
$DIMBLK
  1
_FILLED
  9
$DIMALT
 70
0
  9
$DIMALTF
 40
0.0393700787
  9
$DIMTXT
 40
3.0
  9
$DIMTOL
 70
1
  9
$DIMLIM
 70
0
  9
$DIMTFAC
 40
1.0
  9
$DIMTP
 40
0.01
  9
$DIMTM
 40
0.01
  9
$DIMGAP
 40
0.625
  9
$DIMDSEP
 70
44
  9
$AUNITS
 70
0
  9
$PDMODE
 70
3
  9
$PDSIZE
 40
3.0
  9
$HANDSEED
  5
2A4
  9
$TILEMODE
 70
1
  9
$MEASUREMENT
 70
1
  9
$INSUNITS
 70
4
  0
ENDSEC
  0
SECTION
  2
CLASSES
  0
CLASS
  1
ACDBDICTIONARYWDFLT
  2
AcDbDictionaryWithDefault
  3
AutoCAD 2000
 90
0
 91
1
280
0
281
0
  0
CLASS
  1
ACDBPLACEHOLDER
  2
AcDbPlaceHolder
  3
AutoCAD 2000
 90
0
 91
1
280
0
281
0
  0
CLASS
  1
LAYOUT
  2
AcDbLayout
  3
AutoCAD 2000
 90
0
 91
0
280
0
281
0
  0
ENDSEC
  0
SECTION
  2
TABLES
  0
TABLE
  2
VPORT
  5
8
100
AcDbSymbolTable
 70
2
  0
VPORT
  5
1F4
100
AcDbSymbolTableRecord
100
AcDbViewportTableRecord
  2
*ACTIVE
 70
0
 10
0.0
 20
0.0
 11
1.0
 21
1.0
 12
148.5
 22
105.0
 13
0.0
 23
0.0
 14
1.0
 24
1.0
 15
0.0
 25
0.0
 16
0.0
 26
0.0
 36
1.0
 17
0.0
 27
0.0
 37
0.0
 40
210.0
 41
1.4142857143
 42
50.0
 43
0.0
 44
0.0
 50
0.0
 51
0.0
 71
0
 72
100
 73
1
 74
1
 75
0
 76
0
 77
0
 78
0
  0
ENDTAB
  0
TABLE
  2
LTYPE
  5
5
100
AcDbSymbolTable
 70
6
  0
LTYPE
  5
14
100
AcDbSymbolTableRecord
100
AcDbLinetypeTableRecord
  2
BYBLOCK
 70
0
  3

 72
65
 73
0
 40
0.0
  0
LTYPE
  5
15
100
AcDbSymbolTableRecord
100
AcDbLinetypeTableRecord
  2
BYLAYER
 70
0
  3

 72
65
 73
0
 40
0.0
  0
LTYPE
  5
16
100
AcDbSymbolTableRecord
100
AcDbLinetypeTableRecord
  2
CONTINUOUS
 70
64
  3
Solid line
 72
65
 73
0
 40
0.0
  0
LTYPE
  5
1F5
100
AcDbSymbolTableRecord
100
AcDbLinetypeTableRecord
  2
CENTER
 70
64
  3
____ _ ____ _ ____ _ ____ _ ____ _ ____ _ ____
 72
65
 73
4
 40
0.6
 49
0.375
 74
0
 49
-0.075
 74
0
 49
0.075
 74
0
 49
-0.075
 74
0
  0
LTYPE
  5
1F6
100
AcDbSymbolTableRecord
100
AcDbLinetypeTableRecord
  2
HIDDEN
 70
64
  3
- - - - - - - - - - - - - - - - - - - -
 72
65
 73
2
 40
0.2
 49
0.1
 74
0
 49
-0.1
 74
0
  0
LTYPE
  5
1F7
100
AcDbSymbolTableRecord
100
AcDbLinetypeTableRecord
  2
PHANTOM
 70
64
  3
_____ _ _ _____ _ _ _____ _ _ _____
 72
65
 73
6
 40
0.8
 49
0.45
 74
0
 49
-0.05
 74
0
 49
0.1
 74
0
 49
-0.05
 74
0
 49
0.1
 74
0
 49
-0.05
 74
0
  0
LTYPE
  5
1F8
100
AcDbSymbolTableRecord
100
AcDbLinetypeTableRecord
  2
DOT
 70
64
  3
. . . . . . . . . . . . . . . . . . . .
 72
65
 73
2
 40
0.2
 49
0.1
 74
0
 49
-0.1
 74
0
  0
LTYPE
  5
1F9
100
AcDbSymbolTableRecord
100
AcDbLinetypeTableRecord
  2
DASHED
 70
64
  3
- - - - - - - - - - - - - - - - - - - -
 72
65
 73
2
 40
0.2
 49
0.1
 74
0
 49
-0.1
 74
0
  0
ENDTAB
  0
TABLE
  2
LAYER
  5
2
100
AcDbSymbolTable
 70
36
  0
LAYER
  5
10
100
AcDbSymbolTableRecord
100
AcDbLayerTableRecord
  2
0
 70
0
 62
7
  6
CONTINUOUS
370
-3
390
F
  0
LAYER
  5
1FA
100
AcDbSymbolTableRecord
100
AcDbLayerTableRecord
  2
DEFAULT_1
 70
0
 62
7
  6
CENTER
370
-3
390
F
  0
LAYER
  5
1FB
100
AcDbSymbolTableRecord
100
AcDbLayerTableRecord
  2
DEFAULT_2
 70
0
 62
7
  6
HIDDEN
370
-3
390
F
  0
LAYER
  5
1FC
100
AcDbSymbolTableRecord
100
AcDbLayerTableRecord
  2
DEFAULT_3
 70
0
 62
7
  6
PHANTOM
370
-3
390
F
  0
LAYER
  5
1FD
100
AcDbSymbolTableRecord
100
AcDbLayerTableRecord
  2
ASSI
 70
0
 62
7
  6
CONTINUOUS
370
-3
390
F
  0
LAYER
  5
1FE
100
AcDbSymbolTableRecord
100
AcDbLayerTableRecord
  2
COORDINATE
 70
0
 62
7
  6
CONTINUOUS
370
-3
390
F
  0
LAYER
  5
1FF
100
AcDbSymbolTableRecord
100
AcDbLayerTableRecord
  2
COPY_PUBLISH
 70
0
 62
7
  6
CONTINUOUS
370
-3
390
F
  0
LAYER
  5
200
100
AcDbSymbolTableRecord
100
AcDbLayerTableRecord
  2
COSMETICI
 70
0
 62
7
  6
CONTINUOUS
370
-3
390
F
  0
LAYER
  5
201
100
AcDbSymbolTableRecord
100
AcDbLayerTableRecord
  2
CURVE
 70
0
 62
7
  6
CONTINUOUS
370
-3
390
F
  0
LAYER
  5
202
100
AcDbSymbolTableRecord
100
AcDbLayerTableRecord
  2
DRAFT
 70
0
 62
7
  6
CONTINUOUS
370
-3
390
F
  0
LAYER
  5
203
100
AcDbSymbolTableRecord
100
AcDbLayerTableRecord
  2
IMPORT_IGES
 70
0
 62
7
  6
CONTINUOUS
370
-3
390
F
  0
LAYER
  5
204
100
AcDbSymbolTableRecord
100
AcDbLayerTableRecord
  2
INTF_10
 70
0
 62
7
  6
CONTINUOUS
370
-3
390
F
  0
LAYER
  5
205
100
AcDbSymbolTableRecord
100
AcDbLayerTableRecord
  2
INTF_2
 70
0
 62
7
  6
CONTINUOUS
370
-3
390
F
  0
LAYER
  5
206
100
AcDbSymbolTableRecord
100
AcDbLayerTableRecord
  2
INTF_3
 70
0
 62
7
  6
CONTINUOUS
370
-3
390
F
  0
LAYER
  5
207
100
AcDbSymbolTableRecord
100
AcDbLayerTableRecord
  2
INTF_4
 70
0
 62
7
  6
CONTINUOUS
370
-3
390
F
  0
LAYER
  5
208
100
AcDbSymbolTableRecord
100
AcDbLayerTableRecord
  2
INTF_5
 70
0
 62
7
  6
CONTINUOUS
370
-3
390
F
  0
LAYER
  5
209
100
AcDbSymbolTableRecord
100
AcDbLayerTableRecord
  2
INTF_6
 70
0
 62
7
  6
CONTINUOUS
370
-3
390
F
  0
LAYER
  5
20A
100
AcDbSymbolTableRecord
100
AcDbLayerTableRecord
  2
INTF_7
 70
0
 62
7
  6
CONTINUOUS
370
-3
390
F
  0
LAYER
  5
20B
100
AcDbSymbolTableRecord
100
AcDbLayerTableRecord
  2
INTF_9
 70
0
 62
7
  6
CONTINUOUS
370
-3
390
F
  0
LAYER
  5
20C
100
AcDbSymbolTableRecord
100
AcDbLayerTableRecord
  2
INTF_BLANK
 70
0
 62
7
  6
CONTINUOUS
370
-3
390
F
  0
LAYER
  5
20D
100
AcDbSymbolTableRecord
100
AcDbLayerTableRecord
  2
INTF_RED
 70
0
 62
7
  6
CONTINUOUS
370
-3
390
F
  0
LAYER
  5
20E
100
AcDbSymbolTableRecord
100
AcDbLayerTableRecord
  2
NOTE
 70
0
 62
7
  6
CONTINUOUS
370
-3
390
F
  0
LAYER
  5
20F
100
AcDbSymbolTableRecord
100
AcDbLayerTableRecord
  2
PIANI
 70
0
 62
7
  6
CONTINUOUS
370
-3
390
F
  0
LAYER
  5
210
100
AcDbSymbolTableRecord
100
AcDbLayerTableRecord
  2
PUNTI
 70
0
 62
7
  6
CONTINUOUS
370
-3
390
F
  0
LAYER
  5
211
100
AcDbSymbolTableRecord
100
AcDbLayerTableRecord
  2
RACCORDO
 70
0
 62
7
  6
CONTINUOUS
370
-3
390
F
  0
LAYER
  5
212
100
AcDbSymbolTableRecord
100
AcDbLayerTableRecord
  2
RGB____0____0____0__
 70
0
 62
7
  6
CONTINUOUS
370
-3
390
F
  0
LAYER
  5
213
100
AcDbSymbolTableRecord
100
AcDbLayerTableRecord
  2
SIMBOLI
 70
0
 62
7
  6
CONTINUOUS
370
-3
390
F
  0
LAYER
  5
214
100
AcDbSymbolTableRecord
100
AcDbLayerTableRecord
  2
SMUSSO
 70
0
 62
7
  6
CONTINUOUS
370
-3
390
F
  0
LAYER
  5
215
100
AcDbSymbolTableRecord
100
AcDbLayerTableRecord
  2
SNAPLINE
 70
0
 62
7
  6
CONTINUOUS
370
-3
390
F
  0
LAYER
  5
216
100
AcDbSymbolTableRecord
100
AcDbLayerTableRecord
  2
SUPERFICI
 70
0
 62
7
  6
CONTINUOUS
370
-3
390
F
  0
LAYER
  5
217
100
AcDbSymbolTableRecord
100
AcDbLayerTableRecord
  2
TRASH
 70
0
 62
7
  6
CONTINUOUS
370
-3
390
F
  0
ENDTAB
  0
TABLE
  2
STYLE
  5
3
100
AcDbSymbolTable
 70
1
  0
STYLE
  5
11
100
AcDbSymbolTableRecord
100
AcDbTextStyleTableRecord
  2
STANDARD
 70
0
 40
0.0
 41
0.8
 50
0.0
 71
0
 42
0.2
  3
txt
  4

  0
STYLE
  5
218
100
AcDbSymbolTableRecord
100
AcDbTextStyleTableRecord
  2
TEXTSTYLE_1
 70
0
 40
0.0
 41
0.8
 50
0.0
 71
0
 42
0.2
  3
gdt
  4

  0
ENDTAB
  0
TABLE
  2
VIEW
  5
6
100
AcDbSymbolTable
 70
0
  0
ENDTAB
  0
TABLE
  2
UCS
  5
7
100
AcDbSymbolTable
 70
0
  0
ENDTAB
  0
TABLE
  2
APPID
  5
9
100
AcDbSymbolTable
 70
1
  0
APPID
  5
219
100
AcDbSymbolTableRecord
100
AcDbRegAppTableRecord
  2
ACAD
 70
0
  0
ENDTAB
  0
TABLE
  2
BLOCK_RECORD
  5
1
100
AcDbSymbolTable
 70
0
  0
BLOCK_RECORD
  5
21A
100
AcDbSymbolTableRecord
100
AcDbBlockTableRecord
  2
*Model_Space
  0
BLOCK_RECORD
  5
21B
100
AcDbSymbolTableRecord
100
AcDbBlockTableRecord
  2
*Paper_Space
  0
BLOCK_RECORD
  5
21C
100
AcDbSymbolTableRecord
100
AcDbBlockTableRecord
  2
_FILLED
  0
ENDTAB
  0
TABLE
  2
DIMSTYLE
  5
A
100
AcDbSymbolTable
 70
1
100
AcDbDimStyleTable
 71
0
  0
DIMSTYLE
105
21D
100
AcDbSymbolTableRecord
100
AcDbDimStyleTableRecord
  2
STANDARD
 70
0
  3

  4

 40
1.0
 41
3.0
 42
0.5
 43
0.38
 44
1.5
 45
0.0
 46
0.0
 47
0.01
 48
0.01
140
3.0
141
0.09
142
0.0
143
25.4
144
1.0
145
0.0
146
1.0
147
0.625
 71
1
 72
0
 73
0
 74
0
 75
0
 76
0
 77
1
 78
8
 79
2
170
0
171
1
172
0
173
0
174
0
175
0
176
0
177
0
178
0
270
2
179
2
271
2
272
2
273
2
274
2
275
0
280
0
281
0
282
0
283
1
284
8
285
0
286
0
287
3
288
0
340
11
278
44
341
21C
342
21C
343
21C
344
21C
  0
ENDTAB
  0
ENDSEC
  0
SECTION
  2
BLOCKS
  0
BLOCK
  5
20
100
AcDbEntity
  8
0
100
AcDbBlockBegin
  2
*Model_Space
 70
0
 10
0.0
 20
0.0
 30
0.0
  3
*Model_Space
  1

  0
ENDBLK
  5
21
100
AcDbEntity
  8
0
100
AcDbBlockEnd
  0
BLOCK
  5
1C
100
AcDbEntity
  8
0
100
AcDbBlockBegin
  2
*Paper_Space
 70
0
 10
0.0
 20
0.0
 30
0.0
  3
*Paper_Space
  1

  0
ENDBLK
  5
1D
100
AcDbEntity
  8
0
100
AcDbBlockEnd
  0
BLOCK
  5
21E
100
AcDbEntity
  8
0
100
AcDbBlockBegin
  2
_FILLED
 70
64
 10
0.0
 20
0.0
  3
_FILLED
  1

  0
SOLID
  5
21F
100
AcDbEntity
  8
0
  6
BYBLOCK
 62
0
100
AcDbTrace
 10
0.0
 20
0.0
 11
-1.0
 21
0.3166666667
 12
-1.0
 22
-0.3166666667
 13
-1.0
 23
-0.3166666667
  0
ENDBLK
  5
220
100
AcDbEntity
  8
0
  6
BYBLOCK
 62
0
100
AcDbBlockEnd
  0
ENDSEC
  0
SECTION
  2
ENTITIES
  0
LINE
  5
221
100
AcDbEntity
  8
RACCORDO
100
AcDbLine
 62
7
  6
CONTINUOUS
 10
-9.7213850216
 20
24.2698829357
 11
-8.675762214
 21
24.9385465991
  0
LINE
  5
222
100
AcDbEntity
  8
RACCORDO
100
AcDbLine
 62
250
  6
CONTINUOUS
 10
-9.4612660204
 20
24.2514009746
 11
-8.4193676132
 21
24.9176829271
  0
LWPOLYLINE
  5
223
100
AcDbEntity
  8
RACCORDO
100
AcDbPolyline
 62
250
  6
CONTINUOUS
 90
9
 70
0
 10
-9.7213850216
 20
24.2698829357
 10
-9.7008830743
 20
24.2810559187
 10
-9.671885649
 20
24.2913343763
 10
-9.6404263688
 20
24.2967538812
 10
-9.6068911333
 20
24.2972366195
 10
-9.5717893305
 20
24.2928040794
 10
-9.5355703231
 20
24.2835769134
 10
-9.4985941743
 20
24.2697082016
 10
-9.4612660204
 20
24.2514009746
  0
LINE
  5
224
100
AcDbEntity
  8
RACCORDO
100
AcDbLine
 62
7
  6
CONTINUOUS
 10
3.2289607419
 20
-27.8850719153
 11
-11.54038604
 21
-19.3574361869
  0
LINE
  5
225
100
AcDbEntity
  8
RACCORDO
100
AcDbLine
 62
250
  6
CONTINUOUS
 10
3.1273562339
 20
-27.6124130076
 11
-11.641990548
 21
-19.0847772791
  0
LINE
  5
226
100
AcDbEntity
  8
RACCORDO
100
AcDbLine
 62
250
  6
CONTINUOUS
 10
-11.54038604
 20
-19.3574361869
 11
-11.5429430402
 21
-19.3559292909
  0
LWPOLYLINE
  5
227
100
AcDbEntity
  8
RACCORDO
100
AcDbPolyline
 62
250
  6
CONTINUOUS
 90
10
 70
0
 10
-11.5429430402
 20
-19.3559292909
 10
-11.5658835513
 20
-19.3393481278
 10
-11.5861934191
 20
-19.3188052139
 10
-11.6036787192
 20
-19.2944966985
 10
-11.6181724973
 20
-19.2666546861
 10
-11.6295363624
 20
-19.2355450202
 10
-11.6376618091
 20
-19.2014647447
 10
-11.6424712535
 20
-19.1647392677
 10
-11.6439187736
 20
-19.1257192545
 10
-11.641990548
 20
-19.0847772791
  0
LINE
  5
228
100
AcDbEntity
  8
RACCORDO
100
AcDbLine
 62
7
  6
CONTINUOUS
 10
8.1377870426
 20
-16.1410345731
 11
7.6891162373
 21
-16.0879801825
  0
LWPOLYLINE
  5
229
100
AcDbEntity
  8
RACCORDO
100
AcDbPolyline
 62
250
  6
CONTINUOUS
 90
9
 70
0
 10
-11.7886148266
 20
-18.8825253439
 10
-11.7878825622
 20
-18.9113902518
 10
-11.7816869689
 20
-18.9380570769
 10
-11.7702530705
 20
-18.9646098799
 10
-11.7537067525
 20
-18.9907347445
 10
-11.7323010583
 20
-19.0160729555
 10
-11.7063393225
 20
-19.0403387553
 10
-11.6761172232
 20
-19.0633157464
 10
-11.641990548
 20
-19.0847772791
  0
LINE
  5
22A
100
AcDbEntity
  8
DRAFT
100
AcDbLine
 62
7
  6
CONTINUOUS
 10
8.2655379172
 20
-13.9238735116
 11
7.7038321434
 21
-13.8164446395
  0
LWPOLYLINE
  5
22B
100
AcDbEntity
  8
RACCORDO
100
AcDbPolyline
 62
250
  6
CONTINUOUS
 90
9
 70
0
 10
-10.7089369762
 20
-6.0454380637
 10
-10.7082670008
 20
-6.0738302934
 10
-10.7021780552
 20
-6.1004566689
 10
-10.6908812048
 20
-6.126944078
 10
-10.6744961556
 20
-6.1530118515
 10
-10.6531965293
 20
-6.1783837679
 10
-10.6272080239
 20
-6.2027909785
 10
-10.5968060226
 20
-6.2259748554
 10
-10.5623126753
 20
-6.2476897343
  0
LINE
  5
22C
100
AcDbEntity
  8
RACCORDO
100
AcDbLine
 62
7
  6
CONTINUOUS
 10
-9.9520110716
 20
11.5393211466
 11
-9.9520110716
 21
23.8486494197
  0
LWPOLYLINE
  5
22D
100
AcDbEntity
  8
RACCORDO
100
AcDbPolyline
 62
7
  6
CONTINUOUS
 90
10
 70
0
 10
-9.9520110714
 20
11.5393272654
 10
-9.9565385654
 20
9.6580113442
 10
-9.9735370992
 20
7.7136975107
 10
-10.008480259
 20
5.763711523
 10
-10.0664299465
 20
3.8053150846
 10
-10.1518831624
 20
1.8362941854
 10
-10.2644747813
 20
-0.1431703397
 10
-10.3993364263
 20
-2.1300709736
 10
-10.5512384115
 20
-4.1214835908
 10
-10.7089369576
 20
-6.0454378433
  0
LINE
  5
22E
100
AcDbEntity
  8
RACCORDO
100
AcDbLine
 62
250
  6
CONTINUOUS
 10
-9.8123749869
 20
9.0572294919
 11
-9.8072936612
 21
10.1479233228
  0
LINE
  5
22F
100
AcDbEntity
  8
RACCORDO
100
AcDbLine
 62
250
  6
CONTINUOUS
 10
-9.8207175909
 20
8.0583303281
 11
-9.8123749869
 21
9.0572294919
  0
LINE
  5
230
100
AcDbEntity
  8
RACCORDO
100
AcDbLine
 62
250
  6
CONTINUOUS
 10
-9.8322426488
 20
7.1352198472
 11
-9.8207175909
 21
8.0583303281
  0
LINE
  5
231
100
AcDbEntity
  8
RACCORDO
100
AcDbLine
 62
250
  6
CONTINUOUS
 10
-9.8468366981
 20
6.2734087262
 11
-9.8322426488
 21
7.1352198472
  0
LINE
  5
232
100
AcDbEntity
  8
RACCORDO
100
AcDbLine
 62
250
  6
CONTINUOUS
 10
-9.8643048459
 20
5.463309813
 11
-9.8468366981
 21
6.2734087262
  0
LINE
  5
233
100
AcDbEntity
  8
RACCORDO
100
AcDbLine
 62
250
  6
CONTINUOUS
 10
-9.8846595743
 20
4.6903856747
 11
-9.8643048459
 21
5.463309813
  0
LINE
  5
234
100
AcDbEntity
  8
RACCORDO
100
AcDbLine
 62
250
  6
CONTINUOUS
 10
-9.9081254886
 20
3.9399340183
 11
-9.8846595743
 21
4.6903856747
  0
LINE
  5
235
100
AcDbEntity
  8
RACCORDO
100
AcDbLine
 62
250
  6
CONTINUOUS
 10
-9.9349806926
 20
3.2022602258
 11
-9.9081254886
 21
3.9399340183
  0
LINE
  5
236
100
AcDbEntity
  8
RACCORDO
100
AcDbLine
 62
250
  6
CONTINUOUS
 10
-9.9659836399
 20
2.4607320418
 11
-9.9349806926
 21
3.2022602258
  0
LWPOLYLINE
  5
237
100
AcDbEntity
  8
RACCORDO
100
AcDbPolyline
 62
250
  6
CONTINUOUS
 90
16
 70
0
 10
-9.8055644621
 20
23.644512123
 10
-9.8036916252
 20
23.6875570004
 10
-9.798092956
 20
23.7323085499
 10
-9.7888277687
 20
23.7782926573
 10
-9.7759942221
 20
23.8250221503
 10
-9.7597282794
 20
23.8720019595
 10
-9.7402022681
 20
23.9187343632
 10
-9.717623054
 20
23.9647242612
 10
-9.6922298493
 20
24.0094844198
 10
-9.6642916791
 20
24.0525406337
 10
-9.6341045302
 20
24.0934367497
 10
-9.6019882165
 20
24.1317394994
 10
-9.5682829901
 20
24.1670430891
 10
-9.5333459365
 20
24.1989734997
 10
-9.4975471916
 20
24.2271924489
 10
-9.4612660204
 20
24.2514009746
  0
LINE
  5
238
100
AcDbEntity
  8
RACCORDO
100
AcDbLine
 62
250
  6
CONTINUOUS
 10
-10.0014107634
 20
1.7120206049
 11
-9.9659836399
 21
2.4607320418
  0
LINE
  5
239
100
AcDbEntity
  8
RACCORDO
100
AcDbLine
 62
250
  6
CONTINUOUS
 10
-10.0410988862
 20
0.9563787369
 11
-10.0014107634
 21
1.7120206049
  0
LINE
  5
23A
100
AcDbEntity
  8
RACCORDO
100
AcDbLine
 62
250
  6
CONTINUOUS
 10
-10.08440878
 20
0.2013289553
 11
-10.0410988862
 21
0.9563787369
  0
LINE
  5
23B
100
AcDbEntity
  8
RACCORDO
100
AcDbLine
 62
250
  6
CONTINUOUS
 10
-10.1311675302
 20
-0.5550231119
 11
-10.08440878
 21
0.2013289553
  0
LINE
  5
23C
100
AcDbEntity
  8
RACCORDO
100
AcDbLine
 62
250
  6
CONTINUOUS
 10
-10.2076244812
 20
-1.6982230583
 11
-10.1311675302
 21
-0.5550231119
  0
LINE
  5
23D
100
AcDbEntity
  8
RACCORDO
100
AcDbLine
 62
250
  6
CONTINUOUS
 10
-10.2921872492
 20
-2.8682465571
 11
-10.2076244812
 21
-1.6982230583
  0
LINE
  5
23E
100
AcDbEntity
  8
RACCORDO
100
AcDbLine
 62
250
  6
CONTINUOUS
 10
-10.3854743686
 20
-4.0819964904
 11
-10.2921872492
 21
-2.8682465571
  0
LINE
  5
23F
100
AcDbEntity
  8
RACCORDO
100
AcDbLine
 62
250
  6
CONTINUOUS
 10
-10.5247276216
 20
-5.7983465173
 11
-10.3854743686
 21
-4.0819964904
  0
LINE
  5
240
100
AcDbEntity
  8
RACCORDO
100
AcDbLine
 62
7
  6
CONTINUOUS
 10
-11.7886148266
 20
-18.8825253439
 11
-10.7089369762
 21
-6.0454380637
  0
LINE
  5
241
100
AcDbEntity
  8
RACCORDO
100
AcDbLine
 62
250
  6
CONTINUOUS
 10
-11.641990548
 20
-19.0847772791
 11
-10.5247276216
 21
-5.7983465173
  0
LWPOLYLINE
  5
242
100
AcDbEntity
  8
RACCORDO
100
AcDbPolyline
 62
250
  6
CONTINUOUS
 90
16
 70
0
 10
5.406948148
 20
15.6666804563
 10
5.3706669768
 20
15.6424719305
 10
5.3348682319
 20
15.6142529814
 10
5.2999311783
 20
15.5823225708
 10
5.2662259518
 20
15.5470189811
 10
5.2341096381
 20
15.5087162314
 10
5.2039224893
 20
15.4678201154
 10
5.175984319
 20
15.4247639014
 10
5.1505911144
 20
15.3800037429
 10
5.1280119002
 20
15.3340138449
 10
5.1084858889
 20
15.2872814411
 10
5.0922199462
 20
15.240301632
 10
5.0793863996
 20
15.193572139
 10
5.0701212124
 20
15.1475880316
 10
5.0645225431
 20
15.102836482
 10
5.0626497062
 20
15.0597916047
  0
LINE
  5
243
100
AcDbEntity
  8
RACCORDO
100
AcDbLine
 62
250
  6
CONTINUOUS
 10
6.504879982
 20
16.3006094104
 11
5.406948148
 21
15.6666804563
  0
LINE
  5
244
100
AcDbEntity
  8
RACCORDO
100
AcDbLine
 62
250
  6
CONTINUOUS
 10
6.8583122187
 20
15.6884468201
 11
5.7603803846
 21
15.054517866
  0
LWPOLYLINE
  5
245
100
AcDbEntity
  8
RACCORDO
100
AcDbPolyline
 62
250
  6
CONTINUOUS
 90
16
 70
0
 10
5.7603803846
 20
15.054517866
 10
5.7211561383
 20
15.0351467093
 10
5.6786821613
 20
15.018213566
 10
5.6334110765
 20
15.0038988843
 10
5.5858196538
 20
14.9923540304
 10
5.5364202899
 20
14.9837038849
 10
5.4857574074
 20
14.9780420999
 10
5.4343838175
 20
14.9754260798
 10
5.3828348097
 20
14.975878773
 10
5.331640296
 20
14.9793939436
 10
5.2812751039
 20
14.9859455049
 10
5.2323482115
 20
14.9954608768
 10
5.1855570535
 20
15.0077858665
 10
5.1414266249
 20
15.0227371543
 10
5.1003270318
 20
15.0401420463
 10
5.0626497062
 20
15.0597916047
  0
LINE
  5
246
100
AcDbEntity
  8
RACCORDO
100
AcDbLine
 62
250
  6
CONTINUOUS
 10
-10.5623126753
 20
-6.2476897343
 11
4.2650993179
 21
-14.8088515881
  0
LWPOLYLINE
  5
247
100
AcDbEntity
  8
RACCORDO
100
AcDbPolyline
 62
250
  6
CONTINUOUS
 90
9
 70
0
 10
-9.9520110712
 20
23.8486380127
 10
-9.9508945353
 20
23.8293670159
 10
-9.9448031114
 20
23.7998063798
 10
-9.9334529481
 20
23.7707262383
 10
-9.9169703237
 20
23.7424777803
 10
-9.8956231122
 20
23.7154638175
 10
-9.8697295575
 20
23.6899873081
 10
-9.8395892393
 20
23.6662615344
 10
-9.8055644621
 20
23.644512123
  0
LWPOLYLINE
  5
248
100
AcDbEntity
  8
RACCORDO
100
AcDbPolyline
 62
250
  6
CONTINUOUS
 90
9
 70
0
 10
-9.9520110716
 20
11.5393211466
 10
-9.9509688807
 20
11.5206910736
 10
-9.9450090901
 20
11.4911760545
 10
-9.9338262982
 20
11.4621711021
 10
-9.9175389795
 20
11.4339835055
 10
-9.8963196879
 20
11.4069118944
 10
-9.8703932283
 20
11.3812430753
 10
-9.8400342751
 20
11.3572489932
 10
-9.8055644621
 20
11.33518385
  0
LINE
  5
249
100
AcDbEntity
  8
RACCORDO
100
AcDbLine
 62
250
  6
CONTINUOUS
 10
-9.8072936612
 20
10.1479233228
 11
-9.8055644621
 21
23.644512123
  0
LINE
  5
24A
100
AcDbEntity
  8
RACCORDO
100
AcDbLine
 62
7
  6
CONTINUOUS
 10
8.1995761352
 20
-13.2472098249
 11
8.3953345022
 21
-13.3602382526
  0
LWPOLYLINE
  5
24B
100
AcDbEntity
  8
RACCORDO
100
AcDbPolyline
 62
250
  6
CONTINUOUS
 90
16
 70
0
 10
5.7603803846
 20
2.745189593
 10
5.7212756591
 20
2.7258716086
 10
5.6789388836
 20
2.7089768612
 10
5.6338185906
 20
2.6946843397
 10
5.5863928021
 20
2.6831454645
 10
5.5371639648
 20
2.674482482
 10
5.486653627
 20
2.6687871698
 10
5.435396914
 20
2.6661198655
 10
5.3839368584
 20
2.6665088271
 10
5.3328186457
 20
2.6699499333
 10
5.2825838409
 20
2.6764067269
 10
5.2337646495
 20
2.685810802
 10
5.1868782782
 20
2.6980625286
 10
5.1424214578
 20
2.7130321073
 10
5.1008651798
 20
2.7305609441
 10
5.0626497062
 20
2.7504633317
  0
LINE
  5
24C
100
AcDbEntity
  8
RACCORDO
100
AcDbLine
 62
250
  6
CONTINUOUS
 10
5.0626497062
 20
15.0597916047
 11
5.0617303802
 21
1.898690453
  0
LINE
  5
24D
100
AcDbEntity
  8
RACCORDO
100
AcDbLine
 62
250
  6
CONTINUOUS
 10
5.7603803846
 20
15.054517866
 11
5.759475438
 21
1.892413101
  0
LINE
  5
24E
100
AcDbEntity
  8
RACCORDO
100
AcDbLine
 62
250
  6
CONTINUOUS
 10
5.0617303802
 20
1.898690453
 11
5.0589199374
 21
1.0762838465
  0
LINE
  5
24F
100
AcDbEntity
  8
RACCORDO
100
AcDbLine
 62
250
  6
CONTINUOUS
 10
5.759475438
 20
1.892413101
 11
5.7545142646
 21
0.668089981
  0
LINE
  5
250
100
AcDbEntity
  8
RACCORDO
100
AcDbLine
 62
250
  6
CONTINUOUS
 10
5.0589199374
 20
1.0762838465
 11
5.0541023264
 21
0.2813561653
  0
LINE
  5
251
100
AcDbEntity
  8
RACCORDO
100
AcDbLine
 62
250
  6
CONTINUOUS
 10
5.7545142646
 20
0.668089981
 11
5.7485706863
 21
-0.1176153478
  0
LINE
  5
252
100
AcDbEntity
  8
RACCORDO
100
AcDbLine
 62
250
  6
CONTINUOUS
 10
5.0541023264
 20
0.2813561653
 11
5.0470459475
 21
-0.4922950361
  0
LINE
  5
253
100
AcDbEntity
  8
RACCORDO
100
AcDbLine
 62
250
  6
CONTINUOUS
 10
5.7485706863
 20
-0.1176153478
 11
5.7402948549
 21
-0.8841368322
  0
LINE
  5
254
100
AcDbEntity
  8
RACCORDO
100
AcDbLine
 62
250
  6
CONTINUOUS
 10
5.0470459475
 20
-0.4922950361
 11
5.0375030023
 21
-1.2503256752
  0
LINE
  5
255
100
AcDbEntity
  8
RACCORDO
100
AcDbLine
 62
250
  6
CONTINUOUS
 10
5.7402948549
 20
-0.8841368322
 11
5.7294108963
 21
-1.6371275132
  0
LINE
  5
256
100
AcDbEntity
  8
RACCORDO
100
AcDbLine
 62
250
  6
CONTINUOUS
 10
5.0375030023
 20
-1.2503256752
 11
5.0252325277
 21
-1.9965429746
  0
LINE
  5
257
100
AcDbEntity
  8
RACCORDO
100
AcDbLine
 62
250
  6
CONTINUOUS
 10
5.7294108963
 20
-1.6371275132
 11
5.7156111085
 21
-2.3822674474
  0
LINE
  5
258
100
AcDbEntity
  8
RACCORDO
100
AcDbLine
 62
250
  6
CONTINUOUS
 10
5.0252325277
 20
-1.9965429746
 11
5.0099520868
 21
-2.7366408779
  0
LINE
  5
259
100
AcDbEntity
  8
RACCORDO
100
AcDbLine
 62
250
  6
CONTINUOUS
 10
5.7156111085
 20
-2.3822674474
 11
5.6986633696
 21
-3.1233307365
  0
LINE
  5
25A
100
AcDbEntity
  8
RACCORDO
100
AcDbLine
 62
250
  6
CONTINUOUS
 10
5.0099520868
 20
-2.7366408779
 11
4.9913123726
 21
-3.4766916671
  0
LINE
  5
25B
100
AcDbEntity
  8
RACCORDO
100
AcDbLine
 62
250
  6
CONTINUOUS
 10
5.6986633696
 20
-3.1233307365
 11
5.6781671511
 21
-3.8669070922
  0
LINE
  5
25C
100
AcDbEntity
  8
RACCORDO
100
AcDbLine
 62
250
  6
CONTINUOUS
 10
4.9913123726
 20
-3.4766916671
 11
4.9689843406
 21
-4.2190825199
  0
LINE
  5
25D
100
AcDbEntity
  8
RACCORDO
100
AcDbLine
 62
250
  6
CONTINUOUS
 10
5.6781671511
 20
-3.8669070922
 11
5.6537303082
 21
-4.6141492015
  0
LINE
  5
25E
100
AcDbEntity
  8
RACCORDO
100
AcDbLine
 62
250
  6
CONTINUOUS
 10
4.9689843406
 20
-4.2190825199
 11
4.9425946503
 21
-4.9660873111
  0
LINE
  5
25F
100
AcDbEntity
  8
RACCORDO
100
AcDbLine
 62
250
  6
CONTINUOUS
 10
5.6537303082
 20
-4.6141492015
 11
5.6252016367
 21
-5.3639159116
  0
LINE
  5
260
100
AcDbEntity
  8
RACCORDO
100
AcDbLine
 62
250
  6
CONTINUOUS
 10
4.9425946503
 20
-4.9660873111
 11
4.912134204
 21
-5.7105441521
  0
LINE
  5
261
100
AcDbEntity
  8
RACCORDO
100
AcDbLine
 62
250
  6
CONTINUOUS
 10
5.6252016367
 20
-5.3639159116
 11
5.5925377477
 21
-6.1087033867
  0
LWPOLYLINE
  5
262
100
AcDbEntity
  8
RACCORDO
100
AcDbPolyline
 62
250
  6
CONTINUOUS
 90
11
 70
0
 10
3.1273562339
 20
-27.6124130076
 10
3.1254280083
 20
-27.653354983
 10
3.1268755284
 20
-27.6923749962
 10
3.1316849728
 20
-27.7291004732
 10
3.1398104195
 20
-27.7631807487
 10
3.1511742847
 20
-27.7942904146
 10
3.1656680627
 20
-27.822132427
 10
3.1831533628
 20
-27.8464409424
 10
3.2034632306
 20
-27.8669838563
 10
3.2264037417
 20
-27.8835650194
 10
3.2289607419
 20
-27.8850719153
  0
LINE
  5
263
100
AcDbEntity
  8
RACCORDO
100
AcDbLine
 62
250
  6
CONTINUOUS
 10
4.912134204
 20
-5.7105441521
 11
4.8774516805
 21
-6.4523267032
  0
LINE
  5
264
100
AcDbEntity
  8
RACCORDO
100
AcDbLine
 62
250
  6
CONTINUOUS
 10
5.5925377477
 20
-6.1087033867
 11
5.5556338793
 21
-6.853454809
  0
LINE
  5
265
100
AcDbEntity
  8
RACCORDO
100
AcDbLine
 62
250
  6
CONTINUOUS
 10
4.8774516805
 20
-6.4523267032
 11
4.8385506684
 21
-7.1944595818
  0
LINE
  5
266
100
AcDbEntity
  8
RACCORDO
100
AcDbLine
 62
250
  6
CONTINUOUS
 10
5.5556338793
 20
-6.853454809
 11
5.5142222121
 21
-7.6043346686
  0
LINE
  5
267
100
AcDbEntity
  8
RACCORDO
100
AcDbLine
 62
250
  6
CONTINUOUS
 10
4.8385506684
 20
-7.1944595818
 11
4.7947258281
 21
-7.9534890661
  0
LINE
  5
268
100
AcDbEntity
  8
RACCORDO
100
AcDbLine
 62
250
  6
CONTINUOUS
 10
5.5142222121
 20
-7.6043346686
 11
5.4676846993
 21
-8.3767273756
  0
LINE
  5
269
100
AcDbEntity
  8
RACCORDO
100
AcDbLine
 62
250
  6
CONTINUOUS
 10
4.7947258281
 20
-7.9534890661
 11
4.745387544
 21
-8.7392307932
  0
LINE
  5
26A
100
AcDbEntity
  8
RACCORDO
100
AcDbLine
 62
250
  6
CONTINUOUS
 10
5.4676846993
 20
-8.3767273756
 11
5.4148835003
 21
-9.1858367737
  0
LINE
  5
26B
100
AcDbEntity
  8
RACCORDO
100
AcDbLine
 62
250
  6
CONTINUOUS
 10
4.745387544
 20
-8.7392307932
 11
4.6894241745
 21
-9.5667973423
  0
LINE
  5
26C
100
AcDbEntity
  8
RACCORDO
100
AcDbLine
 62
250
  6
CONTINUOUS
 10
5.4148835003
 20
-9.1858367737
 11
5.3549948327
 21
-10.0417480173
  0
LINE
  5
26D
100
AcDbEntity
  8
RACCORDO
100
AcDbLine
 62
250
  6
CONTINUOUS
 10
4.6894241745
 20
-9.5667973423
 11
4.6254959902
 21
-10.4513620277
  0
LINE
  5
26E
100
AcDbEntity
  8
RACCORDO
100
AcDbLine
 62
250
  6
CONTINUOUS
 10
5.3549948327
 20
-10.0417480173
 11
5.2866162245
 21
-10.9596617375
  0
LINE
  5
26F
100
AcDbEntity
  8
RACCORDO
100
AcDbLine
 62
250
  6
CONTINUOUS
 10
4.6254959902
 20
-10.4513620277
 11
4.5525077907
 21
-11.4031454174
  0
LINE
  5
270
100
AcDbEntity
  8
RACCORDO
100
AcDbLine
 62
250
  6
CONTINUOUS
 10
5.2866162245
 20
-10.9596617375
 11
5.2082088401
 21
-11.9547815216
  0
LINE
  5
271
100
AcDbEntity
  8
RACCORDO
100
AcDbLine
 62
250
  6
CONTINUOUS
 10
4.5525077907
 20
-11.4031454174
 11
4.4689878008
 21
-12.4374061084
  0
LINE
  5
272
100
AcDbEntity
  8
RACCORDO
100
AcDbLine
 62
250
  6
CONTINUOUS
 10
5.2082088401
 20
-11.9547815216
 11
5.1187943679
 21
-13.0372098566
  0
LINE
  5
273
100
AcDbEntity
  8
RACCORDO
100
AcDbLine
 62
250
  6
CONTINUOUS
 10
4.4689878008
 20
-12.4374061084
 11
4.3733647422
 21
-13.5709477804
  0
LINE
  5
274
100
AcDbEntity
  8
RACCORDO
100
AcDbLine
 62
250
  6
CONTINUOUS
 10
5.1187943679
 20
-13.0372098566
 11
5.0166339775
 21
-14.225410424
  0
LINE
  5
275
100
AcDbEntity
  8
RACCORDO
100
AcDbLine
 62
250
  6
CONTINUOUS
 10
4.3733647422
 20
-13.5709477804
 11
4.2479021131
 21
-15.0023798726
  0
LINE
  5
276
100
AcDbEntity
  8
RACCORDO
100
AcDbLine
 62
250
  6
CONTINUOUS
 10
4.2479021131
 20
-15.0023798726
 11
3.1273562339
 21
-27.6124130076
  0
LINE
  5
277
100
AcDbEntity
  8
RACCORDO
100
AcDbLine
 62
250
  6
CONTINUOUS
 10
5.0166339775
 20
-14.225410424
 11
3.8231501098
 21
-27.6614772235
  0
LINE
  5
278
100
AcDbEntity
  8
RACCORDO
100
AcDbLine
 62
250
  6
CONTINUOUS
 10
-9.8055644621
 20
11.33518385
 11
5.0626497062
 21
2.7504633317
  0
LWPOLYLINE
  5
279
100
AcDbEntity
  8
RACCORDO
100
AcDbPolyline
 62
250
  6
CONTINUOUS
 90
16
 70
0
 10
5.7603803846
 20
15.054517866
 10
5.757490437
 20
15.097894788
 10
5.7508417361
 20
15.1431001836
 10
5.7405075433
 20
15.1896361692
 10
5.7265998919
 20
15.236995742
 10
5.7092730086
 20
15.2846518523
 10
5.6887254931
 20
15.3320631079
 10
5.6651923662
 20
15.378697858
 10
5.6389311864
 20
15.4240549852
 10
5.6102237139
 20
15.4676512962
 10
5.5793408074
 20
15.5090644424
 10
5.5466616758
 20
15.5477756595
 10
5.5126818592
 20
15.5832265768
 10
5.4778336783
 20
15.6150293734
 10
5.44246071
 20
15.6429315494
 10
5.4069481432
 20
15.6666804535
  0
LWPOLYLINE
  5
27A
100
AcDbEntity
  8
RACCORDO
100
AcDbPolyline
 62
250
  6
CONTINUOUS
 90
7
 70
0
 10
8.3953345022
 20
-15.9765712685
 10
8.395633565
 20
-15.9912788002
 10
8.394110359
 20
-16.0046938674
 10
8.3907877222
 20
-16.0165839897
 10
8.3857180074
 20
-16.0267444735
 10
8.3789858929
 20
-16.0349942232
 10
8.3734797574
 20
-16.0394609041
  0
LINE
  5
27B
100
AcDbEntity
  8
RACCORDO
100
AcDbLine
 62
7
  6
CONTINUOUS
 10
8.2655379172
 20
-13.9238735116
 11
8.302840321
 21
-16.0393200073
  0
LINE
  5
27C
100
AcDbEntity
  8
RACCORDO
100
AcDbLine
 62
7
  6
CONTINUOUS
 10
6.8583122187
 20
15.6884468201
 11
6.8583122187
 21
-26.5280252059
  0
LINE
  5
27D
100
AcDbEntity
  8
DRAFT
100
AcDbLine
 62
7
  6
CONTINUOUS
 10
7.7038321434
 20
-13.8164446395
 11
7.6891162373
 21
-16.0879801825
  0
LWPOLYLINE
  5
27E
100
AcDbEntity
  8
RACCORDO
100
AcDbPolyline
 62
250
  6
CONTINUOUS
 90
9
 70
0
 10
5.9581140681
 20
-26.9947382263
 10
5.9552386453
 20
-27.0367744212
 10
5.9486271065
 20
-27.0760581085
 10
5.9383518262
 20
-27.112159263
 10
5.9245252843
 20
-27.1446826975
 10
5.9072988353
 20
-27.1732723891
 10
5.8868610513
 20
-27.197615376
 10
5.8634356577
 20
-27.2174451839
 10
5.8440734477
 20
-27.2292158191
  0
LINE
  5
27F
100
AcDbEntity
  8
RACCORDO
100
AcDbLine
 62
250
  6
CONTINUOUS
 10
8.3953345022
 20
-15.9765712685
 11
8.3953345022
 21
-13.862042635
  0
LINE
  5
280
100
AcDbEntity
  8
RACCORDO
100
AcDbLine
 62
7
  6
CONTINUOUS
 10
8.4392684851
 20
-15.9153300795
 11
8.4392684851
 21
-13.4183411541
  0
LWPOLYLINE
  5
281
100
AcDbEntity
  8
RACCORDO
100
AcDbPolyline
 62
250
  6
CONTINUOUS
 90
10
 70
0
 10
3.8231501098
 20
-27.6614772235
 10
3.8134055072
 20
-27.706341325
 10
3.8000041272
 20
-27.7484251155
 10
3.7830925037
 20
-27.7872684392
 10
3.7628535054
 20
-27.8224496872
 10
3.739509896
 20
-27.8535803038
 10
3.7133247123
 20
-27.8803129573
 10
3.6845920993
 20
-27.9023555648
 10
3.6536231495
 20
-27.9194769461
 10
3.6265995582
 20
-27.9297756676
  0
LWPOLYLINE
  5
282
100
AcDbEntity
  8
RACCORDO
100
AcDbPolyline
 62
250
  6
CONTINUOUS
 90
4
 70
0
 10
5.8922626718
 20
-27.0220586072
 10
5.8825465928
 20
-27.0668155094
 10
5.869191387
 20
-27.1088069243
 10
5.8523423656
 20
-27.1475759612
  0
LINE
  5
283
100
AcDbEntity
  8
DRAFT
100
AcDbLine
 62
7
  6
CONTINUOUS
 10
7.7038321434
 20
-13.8164446395
 11
6.8583122187
 21
-14.2205855653
  0
LINE
  5
284
100
AcDbEntity
  8
RACCORDO
100
AcDbLine
 62
7
  6
CONTINUOUS
 10
8.3953345022
 20
-13.862042635
 11
8.2655379172
 21
-13.9238735116
  0
LWPOLYLINE
  5
285
100
AcDbEntity
  8
RACCORDO
100
AcDbPolyline
 62
250
  6
CONTINUOUS
 90
16
 70
0
 10
4.9608931938
 20
-14.8579158039
 10
4.9219890895
 20
-14.8727352428
 10
4.8798502091
 20
-14.8851786611
 10
4.8349230703
 20
-14.8951142043
 10
4.787683736
 20
-14.902436592
 10
4.7386327698
 20
-14.9070682339
 10
4.688289932
 20
-14.9089600514
 10
4.6371886722
 20
-14.9080919984
 10
4.585870476
 20
-14.9044732729
 10
4.5348791283
 20
-14.8981422201
 10
4.4847549503
 20
-14.8891659261
 10
4.4360290743
 20
-14.8776395065
 10
4.389217816
 20
-14.8636850992
 10
4.344817203
 20
-14.8474505697
 10
4.3032977189
 20
-14.8291079445
 10
4.2650993179
 20
-14.8088515881
  0
LINE
  5
286
100
AcDbEntity
  8
RACCORDO
100
AcDbLine
 62
7
  6
CONTINUOUS
 10
6.8583122187
 20
-13.5679848411
 11
7.9434394917
 21
-13.2224655437
  0
LINE
  5
287
100
AcDbEntity
  8
RACCORDO
100
AcDbLine
 62
250
  6
CONTINUOUS
 10
5.0626497062
 20
15.0597916047
 11
-9.8055644621
 21
23.644512123
  0
LINE
  5
288
100
AcDbEntity
  8
RACCORDO
100
AcDbLine
 62
250
  6
CONTINUOUS
 10
5.406948148
 20
15.6666804563
 11
-9.4612660204
 21
24.2514009746
  0
LINE
  5
289
100
AcDbEntity
  8
RACCORDO
100
AcDbLine
 62
250
  6
CONTINUOUS
 10
8.302840321
 20
-16.0393200073
 11
8.3953345022
 21
-15.9765712685
  0
LINE
  5
28A
100
AcDbEntity
  8
RACCORDO
100
AcDbLine
 62
7
  6
CONTINUOUS
 10
8.2809855762
 20
-16.1022096429
 11
8.3734797574
 21
-16.0394609041
  0
LINE
  5
28B
100
AcDbEntity
  8
DRAFT
100
AcDbLine
 62
7
  6
CONTINUOUS
 10
7.6891162373
 20
-16.0879801825
 11
6.8583122187
 21
-16.6500129479
  0
LWPOLYLINE
  5
28C
100
AcDbEntity
  8
RACCORDO
100
AcDbPolyline
 62
250
  6
CONTINUOUS
 90
10
 70
0
 10
8.3953345022
 20
-15.9765712685
 10
8.4042062833
 20
-15.9709792771
 10
8.4121968355
 20
-15.9649606238
 10
8.4192448955
 20
-15.9585614538
 10
8.4253032298
 20
-15.9518223753
 10
8.4303160225
 20
-15.9448028236
 10
8.4342323082
 20
-15.9375837789
 10
8.4370315118
 20
-15.9302316875
 10
8.4387102847
 20
-15.9227948869
 10
8.4392684851
 20
-15.9153300795
  0
LINE
  5
28D
100
AcDbEntity
  8
RACCORDO
100
AcDbLine
 62
7
  6
CONTINUOUS
 10
-8.4193676132
 20
24.9176829271
 11
6.504879982
 21
16.3006094104
  0
LWPOLYLINE
  5
28E
100
AcDbEntity
  8
RACCORDO
100
AcDbPolyline
 62
250
  6
CONTINUOUS
 90
3
 70
0
 10
5.8523423656
 20
-27.1475759612
 10
5.832182855
 20
-27.1827007903
 10
5.8089322013
 20
-27.2137992328
  0
LWPOLYLINE
  5
28F
100
AcDbEntity
  8
RACCORDO
100
AcDbPolyline
 62
250
  6
CONTINUOUS
 90
5
 70
0
 10
5.8089322013
 20
-27.2137992328
 10
5.7828433844
 20
-27.240532919
 10
5.7542002648
 20
-27.2626109705
 10
5.7233144957
 20
-27.2797931643
 10
5.6957137404
 20
-27.2903565506
  0
LINE
  5
290
100
AcDbEntity
  8
RACCORDO
100
AcDbLine
 62
250
  6
CONTINUOUS
 10
5.9581140681
 20
-26.9947382263
 11
6.8583122187
 21
-26.5280252059
  0
LINE
  5
291
100
AcDbEntity
  8
RACCORDO
100
AcDbLine
 62
7
  6
CONTINUOUS
 10
5.8440734477
 20
-27.2292158191
 11
6.7481963313
 21
-26.7604679979
  0
LWPOLYLINE
  5
292
100
AcDbEntity
  8
RACCORDO
100
AcDbPolyline
 62
250
  6
CONTINUOUS
 90
16
 70
0
 10
3.8231501098
 20
-27.6614772235
 10
3.7841461552
 20
-27.6763302415
 10
3.7418926606
 20
-27.6887951664
 10
3.6968395784
 20
-27.6987392815
 10
3.6494624836
 20
-27.7060572308
 10
3.6002697461
 20
-27.7106701225
 10
3.5497985043
 20
-27.7125287229
 10
3.4985953611
 20
-27.7116157945
 10
3.4471969567
 20
-27.7079437532
 10
3.3961374359
 20
-27.7015519252
 10
3.3459021685
 20
-27.6924964663
 10
3.2970856249
 20
-27.6808798488
 10
3.2503553456
 20
-27.6668751029
 10
3.2062310802
 20
-27.6506720937
 10
3.1650984751
 20
-27.6324482637
 10
3.1273562339
 20
-27.6124130076
  0
LWPOLYLINE
  5
293
100
AcDbEntity
  8
RACCORDO
100
AcDbPolyline
 62
7
  6
CONTINUOUS
 90
6
 70
0
 10
5.6989369952
 20
-27.2893534146
 10
5.7285153953
 20
-27.2794873905
 10
5.7581310609
 20
-27.2684038691
 10
5.7877451101
 20
-27.2560957291
 10
5.817332714
 20
-27.2425516982
 10
5.8440599705
 20
-27.2292228057
  0
LWPOLYLINE
  5
294
100
AcDbEntity
  8
RACCORDO
100
AcDbPolyline
 62
250
  6
CONTINUOUS
 90
10
 70
0
 10
5.8922626718
 20
-27.0220586072
 10
5.8994978949
 20
-27.0197361398
 10
5.9067550304
 20
-27.017234829
 10
5.9140340782
 20
-27.014554675
 10
5.9213370554
 20
-27.0116949299
 10
5.928661945
 20
-27.0086563416
 10
5.9360026961
 20
-27.0054411528
 10
5.9433572919
 20
-27.0020501111
 10
5.9507277492
 20
-26.9984824689
 10
5.9581140681
 20
-26.9947382263
  0
LINE
  5
295
100
AcDbEntity
  8
RACCORDO
100
AcDbLine
 62
250
  6
CONTINUOUS
 10
3.8231501098
 20
-27.6614772235
 11
5.8922626718
 21
-27.0220586072
  0
LINE
  5
296
100
AcDbEntity
  8
RACCORDO
100
AcDbLine
 62
7
  6
CONTINUOUS
 10
3.6265995582
 20
-27.9297756676
 11
5.6989369952
 21
-27.2893534146
  0
ARC
  5
297
100
AcDbEntity
  8
RACCORDO
100
AcDbCircle
 62
7
  6
CONTINUOUS
 10
-11.2903739599
 20
-18.9244304596
 40
0.5
100
AcDbArc
 50
175.1827163516
 51
239.9984015651
  0
ARC
  5
298
100
AcDbEntity
  8
RACCORDO
100
AcDbCircle
 62
7
  6
CONTINUOUS
 10
-9.4520110716
 20
23.8486494197
 40
0.5
100
AcDbArc
 50
122.5992954198
 51
180.0013071436
  0
ARC
  5
299
100
AcDbEntity
  8
RACCORDO
100
AcDbCircle
 62
7
  6
CONTINUOUS
 10
3.478972822
 20
-27.4520661881
 40
0.5
100
AcDbArc
 50
239.9984015652
 51
287.1696386884
  0
ARC
  5
29A
100
AcDbEntity
  8
RACCORDO
100
AcDbCircle
 62
7
  6
CONTINUOUS
 10
8.2892684851
 20
-15.9153300795
 40
0.15
100
AcDbArc
 50
304.1335575138
 51
359.9999864784
  0
ELLIPSE
  5
29B
100
AcDbEntity
  8
RACCORDO
100
AcDbEllipse
 62
7
  6
CONTINUOUS
 10
8.0581547789
 20
-13.3145783649
 30
0.0
 11
0.1998657389
 21
-0.0139556987
 31
0.0
 40
0.5250257892
 41
0.822041872
 42
2.2183052736
  0
ELLIPSE
  5
29C
100
AcDbEntity
  8
RACCORDO
100
AcDbEllipse
 62
7
  6
CONTINUOUS
 10
8.2892684851
 20
-13.4107646576
 30
0.0
 11
0.1498993042
 21
-0.010466774
 31
0.0
 40
0.5250257892
 41
0.0366437086
 42
0.822041872
  0
ELLIPSE
  5
29D
100
AcDbEntity
  8
RACCORDO
100
AcDbEllipse
 62
7
  6
CONTINUOUS
 10
6.5046376327
 20
-26.3235381006
 30
0.0
 11
-0.2501834304
 21
0.4333025529
 31
0.0
 40
0.5769361983
 41
-3.1677535987
 42
-2.3565853618
  0
ELLIPSE
  5
29E
100
AcDbEntity
  8
RACCORDO
100
AcDbEllipse
 62
7
  6
CONTINUOUS
 10
6.5046376327
 20
15.8923742616
 30
0.0
 11
-0.2500121049
 21
0.4330057129
 31
0.0
 40
0.5777274115
 41
-2.3559002616
 42
-0.7857891675
  0
ELLIPSE
  5
29F
100
AcDbEntity
  8
RACCORDO
100
AcDbEllipse
 62
7
  6
CONTINUOUS
 10
-8.4191252638
 20
24.5091679193
 30
0.0
 11
-0.2501834304
 21
0.4333025529
 31
0.0
 40
0.5769361983
 41
-0.7851038024
 42
0.0261609458
  0
ELLIPSE
  5
2A0
100
AcDbEntity
  8
RACCORDO
100
AcDbEllipse
 62
7
  6
CONTINUOUS
 10
8.2892684851
 20
-13.800801446
 30
0.0
 11
0.1498993042
 21
-0.010466774
 31
0.0
 40
0.5250257892
 41
-0.7487544548
 42
0.0366437086
  0
ELLIPSE
  5
2A1
100
AcDbEntity
  8
RACCORDO
100
AcDbEllipse
 62
7
  6
CONTINUOUS
 10
8.1356448539
 20
-16.0195494907
 30
0.0
 11
0.164501656
 21
-0.0427063664
 31
0.0
 40
0.7017366652
 41
4.9054027798
 42
6.4761991066
  0
ENDSEC
  0
SECTION
  2
OBJECTS
  0
DICTIONARY
  5
C
100
AcDbDictionary
280
0
281
1
  3
ACAD_GROUP
350
D
  3
ACAD_MLINESTYLE
350
17
  3
ACAD_LAYOUT
350
1A
  3
ACAD_PLOTSETTINGS
350
19
  3
ACAD_PLOTSTYLENAME
350
E
  0
DICTIONARY
  5
D
102
{ACAD_REACTORS
330
C
102
}
100
AcDbDictionary
280
0
281
1
  0
ACDBDICTIONARYWDFLT
  5
E
102
{ACAD_REACTORS
330
C
102
}
100
AcDbDictionary
281
1
  3
Normal
350
F
100
AcDbDictionaryWithDefault
340
F
  0
DICTIONARY
  5
17
102
{ACAD_REACTORS
330
C
102
}
100
AcDbDictionary
280
0
281
1
  3
Standard
350
18
  0
DICTIONARY
  5
19
102
{ACAD_REACTORS
330
C
102
}
100
AcDbDictionary
281
1
  0
DICTIONARY
  5
1A
102
{ACAD_REACTORS
330
C
102
}
100
AcDbDictionary
281
1
  3
Model
350
2A2
  3
Layout1
350
2A3
  0
ACDBPLACEHOLDER
  5
F
102
{ACAD_REACTORS
330
E
102
}
  0
MLINESTYLE
  5
18
102
{ACAD_REACTORS
330
17
102
}
100
AcDbMlineStyle
  2
STANDARD
 70
0
  3

 62
256
 51
90.0
 52
90.0
 71
2
 49
0.5
 62
256
  6
BYLAYER
 49
-0.5
 62
256
  6
BYLAYER
  0
LAYOUT
  5
2A2
102
{ACAD_REACTORS
330
1A
102
}
100
AcDbPlotSettings
  1

  2
none_device
  4
ISO_A4_(297.00_x_210.00_MM)
  6

 40
0.0
 41
0.0
 42
0.0
 43
0.0
 44
297.0
 45
210.0
 46
0.0
 47
0.0
 48
0.0
 49
0.0
140
0.0
141
0.0
142
1.0
143
1.0
 70
1024
 72
1
 73
0
 74
0
  7

 75
0
147
1.0
148
0.0
149
0.0
100
AcDbLayout
  1
Model
 70
0
 71
0
 10
0.0
 20
0.0
 11
297.0
 21
210.0
 12
0.0
 22
0.0
 32
0.0
 14
0.0
 24
0.0
 34
0.0
 15
0.0
 25
0.0
 35
0.0
146
0.0
 13
0.0
 23
0.0
 33
0.0
 16
1.0
 26
0.0
 36
0.0
 17
0.0
 27
1.0
 37
0.0
 76
0
330
21A
345
0
346
0
  0
LAYOUT
  5
2A3
102
{ACAD_REACTORS
330
1A
102
}
100
AcDbPlotSettings
  1

  2
none_device
  4
ISO_A4_(297.00_x_210.00_MM)
  6

 40
0.0
 41
0.0
 42
0.0
 43
0.0
 44
297.0
 45
210.0
 46
0.0
 47
0.0
 48
0.0
 49
0.0
140
0.0
141
0.0
142
1.0
143
1.0
 70
0
 72
1
 73
0
 74
0
  7

 75
0
147
1.0
148
0.0
149
0.0
100
AcDbLayout
  1
Layout1
 70
0
 71
1
 10
0.0
 20
0.0
 11
297.0
 21
210.0
 12
0.0
 22
0.0
 32
0.0
 14
0.0
 24
0.0
 34
0.0
 15
0.0
 25
0.0
 35
0.0
146
0.0
 13
0.0
 23
0.0
 33
0.0
 16
1.0
 26
0.0
 36
0.0
 17
0.0
 27
1.0
 37
0.0
 76
0
330
21B
345
0
346
0
  0
ENDSEC
  0
EOF
