  0
SECTION
  2
HEADER
  9
$ACADVER
  1
AC1024
  9
$DWGCODEPAGE
  3
ANSI_1252
  9
$EXTMAX
 10
210.0
 20
297.0
 30
0.0
  9
$EXTMIN
 10
0.0
 20
0.0
 30
0.0
  9
$LIMMIN
 10
0.0
 20
0.0
  9
$LIMMAX
 10
210.0
 20
297.0
  9
$VIEWCTR
 10
105.0
 20
148.5
  9
$VIEWSIZE
 40
297.0
  9
$CLAYER
  8
0
  9
$LTSCALE
 40
19.36
  9
$CELTYPE
  6
BYLAYER
  9
$DIMSCALE
 40
1.0
  9
$DIMASZ
 40
3.0
  9
$DIMEXO
 40
0.5
  9
$DIMDLI
 40
13.376
  9
$DIMEXE
 40
1.5
  9
$DIMCEN
 40
3.168
  9
$DIMLFAC
 40
1.0
  9
$DIMBLK
  1
_FILLED
  9
$DIMALT
 70
0
  9
$DIMALTF
 40
0.0393700787
  9
$DIMTXT
 40
3.0
  9
$DIMTOL
 70
1
  9
$DIMLIM
 70
0
  9
$DIMTFAC
 40
1.0
  9
$DIMTP
 40
0.01
  9
$DIMTM
 40
0.01
  9
$DIMGAP
 40
0.625
  9
$DIMDSEP
 70
44
  9
$AUNITS
 70
0
  9
$PDMODE
 70
3
  9
$PDSIZE
 40
3.0
  9
$HANDSEED
  5
279
  9
$TILEMODE
 70
1
  9
$MEASUREMENT
 70
1
  9
$INSUNITS
 70
4
  0
ENDSEC
  0
SECTION
  2
CLASSES
  0
CLASS
  1
ACDBDICTIONARYWDFLT
  2
AcDbDictionaryWithDefault
  3
AutoCAD 2000
 90
0
 91
1
280
0
281
0
  0
CLASS
  1
ACDBPLACEHOLDER
  2
AcDbPlaceHolder
  3
AutoCAD 2000
 90
0
 91
1
280
0
281
0
  0
CLASS
  1
LAYOUT
  2
AcDbLayout
  3
AutoCAD 2000
 90
0
 91
0
280
0
281
0
  0
ENDSEC
  0
SECTION
  2
TABLES
  0
TABLE
  2
VPORT
  5
8
100
AcDbSymbolTable
 70
2
  0
VPORT
  5
1F4
100
AcDbSymbolTableRecord
100
AcDbViewportTableRecord
  2
*ACTIVE
 70
0
 10
0.0
 20
0.0
 11
1.0
 21
1.0
 12
105.0
 22
148.5
 13
0.0
 23
0.0
 14
1.0
 24
1.0
 15
0.0
 25
0.0
 16
0.0
 26
0.0
 36
1.0
 17
0.0
 27
0.0
 37
0.0
 40
297.0
 41
0.7070707071
 42
50.0
 43
0.0
 44
0.0
 50
0.0
 51
0.0
 71
0
 72
100
 73
1
 74
1
 75
0
 76
0
 77
0
 78
0
  0
ENDTAB
  0
TABLE
  2
LTYPE
  5
5
100
AcDbSymbolTable
 70
6
  0
LTYPE
  5
14
100
AcDbSymbolTableRecord
100
AcDbLinetypeTableRecord
  2
BYBLOCK
 70
0
  3

 72
65
 73
0
 40
0.0
  0
LTYPE
  5
15
100
AcDbSymbolTableRecord
100
AcDbLinetypeTableRecord
  2
BYLAYER
 70
0
  3

 72
65
 73
0
 40
0.0
  0
LTYPE
  5
16
100
AcDbSymbolTableRecord
100
AcDbLinetypeTableRecord
  2
CONTINUOUS
 70
64
  3
Solid line
 72
65
 73
0
 40
0.0
  0
LTYPE
  5
1F5
100
AcDbSymbolTableRecord
100
AcDbLinetypeTableRecord
  2
CENTER
 70
64
  3
____ _ ____ _ ____ _ ____ _ ____ _ ____ _ ____
 72
65
 73
4
 40
0.6
 49
0.375
 74
0
 49
-0.075
 74
0
 49
0.075
 74
0
 49
-0.075
 74
0
  0
LTYPE
  5
1F6
100
AcDbSymbolTableRecord
100
AcDbLinetypeTableRecord
  2
HIDDEN
 70
64
  3
- - - - - - - - - - - - - - - - - - - -
 72
65
 73
2
 40
0.2
 49
0.1
 74
0
 49
-0.1
 74
0
  0
LTYPE
  5
1F7
100
AcDbSymbolTableRecord
100
AcDbLinetypeTableRecord
  2
PHANTOM
 70
64
  3
_____ _ _ _____ _ _ _____ _ _ _____
 72
65
 73
6
 40
0.8
 49
0.45
 74
0
 49
-0.05
 74
0
 49
0.1
 74
0
 49
-0.05
 74
0
 49
0.1
 74
0
 49
-0.05
 74
0
  0
LTYPE
  5
1F8
100
AcDbSymbolTableRecord
100
AcDbLinetypeTableRecord
  2
DOT
 70
64
  3
. . . . . . . . . . . . . . . . . . . .
 72
65
 73
2
 40
0.2
 49
0.1
 74
0
 49
-0.1
 74
0
  0
LTYPE
  5
1F9
100
AcDbSymbolTableRecord
100
AcDbLinetypeTableRecord
  2
DASHED
 70
64
  3
- - - - - - - - - - - - - - - - - - - -
 72
65
 73
2
 40
0.2
 49
0.1
 74
0
 49
-0.1
 74
0
  0
ENDTAB
  0
TABLE
  2
LAYER
  5
2
100
AcDbSymbolTable
 70
36
  0
LAYER
  5
10
100
AcDbSymbolTableRecord
100
AcDbLayerTableRecord
  2
0
 70
0
 62
7
  6
CONTINUOUS
370
-3
390
F
  0
LAYER
  5
1FA
100
AcDbSymbolTableRecord
100
AcDbLayerTableRecord
  2
DEFAULT_1
 70
0
 62
7
  6
CENTER
370
-3
390
F
  0
LAYER
  5
1FB
100
AcDbSymbolTableRecord
100
AcDbLayerTableRecord
  2
DEFAULT_2
 70
0
 62
7
  6
HIDDEN
370
-3
390
F
  0
LAYER
  5
1FC
100
AcDbSymbolTableRecord
100
AcDbLayerTableRecord
  2
DEFAULT_3
 70
0
 62
7
  6
PHANTOM
370
-3
390
F
  0
LAYER
  5
1FD
100
AcDbSymbolTableRecord
100
AcDbLayerTableRecord
  2
ASSI
 70
0
 62
7
  6
CONTINUOUS
370
-3
390
F
  0
LAYER
  5
1FE
100
AcDbSymbolTableRecord
100
AcDbLayerTableRecord
  2
COORDINATE
 70
0
 62
7
  6
CONTINUOUS
370
-3
390
F
  0
LAYER
  5
1FF
100
AcDbSymbolTableRecord
100
AcDbLayerTableRecord
  2
COPY_PUBLISH
 70
0
 62
7
  6
CONTINUOUS
370
-3
390
F
  0
LAYER
  5
200
100
AcDbSymbolTableRecord
100
AcDbLayerTableRecord
  2
COSMETICI
 70
0
 62
7
  6
CONTINUOUS
370
-3
390
F
  0
LAYER
  5
201
100
AcDbSymbolTableRecord
100
AcDbLayerTableRecord
  2
CURVE
 70
0
 62
7
  6
CONTINUOUS
370
-3
390
F
  0
LAYER
  5
202
100
AcDbSymbolTableRecord
100
AcDbLayerTableRecord
  2
DRAFT
 70
0
 62
7
  6
CONTINUOUS
370
-3
390
F
  0
LAYER
  5
203
100
AcDbSymbolTableRecord
100
AcDbLayerTableRecord
  2
IMPORT_IGES
 70
0
 62
7
  6
CONTINUOUS
370
-3
390
F
  0
LAYER
  5
204
100
AcDbSymbolTableRecord
100
AcDbLayerTableRecord
  2
INTF_1
 70
0
 62
7
  6
CONTINUOUS
370
-3
390
F
  0
LAYER
  5
205
100
AcDbSymbolTableRecord
100
AcDbLayerTableRecord
  2
INTF_2
 70
0
 62
7
  6
CONTINUOUS
370
-3
390
F
  0
LAYER
  5
206
100
AcDbSymbolTableRecord
100
AcDbLayerTableRecord
  2
INTF_4
 70
0
 62
7
  6
CONTINUOUS
370
-3
390
F
  0
LAYER
  5
207
100
AcDbSymbolTableRecord
100
AcDbLayerTableRecord
  2
NOTE
 70
0
 62
7
  6
CONTINUOUS
370
-3
390
F
  0
LAYER
  5
208
100
AcDbSymbolTableRecord
100
AcDbLayerTableRecord
  2
PIANI
 70
0
 62
7
  6
CONTINUOUS
370
-3
390
F
  0
LAYER
  5
209
100
AcDbSymbolTableRecord
100
AcDbLayerTableRecord
  2
PUNTI
 70
0
 62
7
  6
CONTINUOUS
370
-3
390
F
  0
LAYER
  5
20A
100
AcDbSymbolTableRecord
100
AcDbLayerTableRecord
  2
RACCORDO
 70
0
 62
7
  6
CONTINUOUS
370
-3
390
F
  0
LAYER
  5
20B
100
AcDbSymbolTableRecord
100
AcDbLayerTableRecord
  2
SIMBOLI
 70
0
 62
7
  6
CONTINUOUS
370
-3
390
F
  0
LAYER
  5
20C
100
AcDbSymbolTableRecord
100
AcDbLayerTableRecord
  2
SMUSSO
 70
0
 62
7
  6
CONTINUOUS
370
-3
390
F
  0
LAYER
  5
20D
100
AcDbSymbolTableRecord
100
AcDbLayerTableRecord
  2
SNAPLINE
 70
0
 62
7
  6
CONTINUOUS
370
-3
390
F
  0
LAYER
  5
20E
100
AcDbSymbolTableRecord
100
AcDbLayerTableRecord
  2
SUPERFICI
 70
0
 62
7
  6
CONTINUOUS
370
-3
390
F
  0
LAYER
  5
20F
100
AcDbSymbolTableRecord
100
AcDbLayerTableRecord
  2
TRASH
 70
0
 62
7
  6
CONTINUOUS
370
-3
390
F
  0
ENDTAB
  0
TABLE
  2
STYLE
  5
3
100
AcDbSymbolTable
 70
1
  0
STYLE
  5
11
100
AcDbSymbolTableRecord
100
AcDbTextStyleTableRecord
  2
STANDARD
 70
0
 40
0.0
 41
0.8
 50
0.0
 71
0
 42
0.2
  3
txt
  4

  0
STYLE
  5
210
100
AcDbSymbolTableRecord
100
AcDbTextStyleTableRecord
  2
TEXTSTYLE_1
 70
0
 40
0.0
 41
0.8
 50
0.0
 71
0
 42
0.2
  3
gdt
  4

  0
ENDTAB
  0
TABLE
  2
VIEW
  5
6
100
AcDbSymbolTable
 70
0
  0
ENDTAB
  0
TABLE
  2
UCS
  5
7
100
AcDbSymbolTable
 70
0
  0
ENDTAB
  0
TABLE
  2
APPID
  5
9
100
AcDbSymbolTable
 70
1
  0
APPID
  5
211
100
AcDbSymbolTableRecord
100
AcDbRegAppTableRecord
  2
ACAD
 70
0
  0
ENDTAB
  0
TABLE
  2
BLOCK_RECORD
  5
1
100
AcDbSymbolTable
 70
0
  0
BLOCK_RECORD
  5
212
100
AcDbSymbolTableRecord
100
AcDbBlockTableRecord
  2
*Model_Space
  0
BLOCK_RECORD
  5
213
100
AcDbSymbolTableRecord
100
AcDbBlockTableRecord
  2
*Paper_Space
  0
BLOCK_RECORD
  5
214
100
AcDbSymbolTableRecord
100
AcDbBlockTableRecord
  2
_FILLED
  0
ENDTAB
  0
TABLE
  2
DIMSTYLE
  5
A
100
AcDbSymbolTable
 70
1
100
AcDbDimStyleTable
 71
0
  0
DIMSTYLE
105
215
100
AcDbSymbolTableRecord
100
AcDbDimStyleTableRecord
  2
STANDARD
 70
0
  3

  4

 40
1.0
 41
3.0
 42
0.5
 43
0.38
 44
1.5
 45
0.0
 46
0.0
 47
0.01
 48
0.01
140
3.0
141
0.09
142
0.0
143
25.4
144
1.0
145
0.0
146
1.0
147
0.625
 71
1
 72
0
 73
0
 74
0
 75
0
 76
0
 77
1
 78
8
 79
2
170
0
171
1
172
0
173
0
174
0
175
0
176
0
177
0
178
0
270
2
179
2
271
2
272
2
273
2
274
2
275
0
280
0
281
0
282
0
283
1
284
8
285
0
286
0
287
3
288
0
340
11
278
44
341
214
342
214
343
214
344
214
  0
ENDTAB
  0
ENDSEC
  0
SECTION
  2
BLOCKS
  0
BLOCK
  5
20
100
AcDbEntity
  8
0
100
AcDbBlockBegin
  2
*Model_Space
 70
0
 10
0.0
 20
0.0
 30
0.0
  3
*Model_Space
  1

  0
ENDBLK
  5
21
100
AcDbEntity
  8
0
100
AcDbBlockEnd
  0
BLOCK
  5
1C
100
AcDbEntity
  8
0
100
AcDbBlockBegin
  2
*Paper_Space
 70
0
 10
0.0
 20
0.0
 30
0.0
  3
*Paper_Space
  1

  0
ENDBLK
  5
1D
100
AcDbEntity
  8
0
100
AcDbBlockEnd
  0
BLOCK
  5
216
100
AcDbEntity
  8
0
100
AcDbBlockBegin
  2
_FILLED
 70
64
 10
0.0
 20
0.0
  3
_FILLED
  1

  0
SOLID
  5
217
100
AcDbEntity
  8
0
  6
BYBLOCK
 62
0
100
AcDbTrace
 10
0.0
 20
0.0
 11
-1.0
 21
0.3166666667
 12
-1.0
 22
-0.3166666667
 13
-1.0
 23
-0.3166666667
  0
ENDBLK
  5
218
100
AcDbEntity
  8
0
  6
BYBLOCK
 62
0
100
AcDbBlockEnd
  0
ENDSEC
  0
SECTION
  2
ENTITIES
  0
LWPOLYLINE
  5
219
100
AcDbEntity
  8
ASSI
100
AcDbPolyline
 62
250
  6
CONTINUOUS
 90
16
 70
0
 10
-16.7892943525
 20
29.9648614068
 10
-16.8255755231
 20
29.9406528815
 10
-16.8613742675
 20
29.9124339329
 10
-16.8963113207
 20
29.8805035227
 10
-16.930016547
 20
29.8451999334
 10
-16.9621328606
 20
29.8068971841
 10
-16.9923200095
 20
29.7660010683
 10
-17.02025818
 20
29.7229448543
 10
-17.0456513849
 20
29.6781846955
 10
-17.0682305994
 20
29.6321947973
 10
-17.0877566108
 20
29.5854623936
 10
-17.1040225537
 20
29.5384825844
 10
-17.1168561005
 20
29.4917530912
 10
-17.1261212879
 20
29.4457689833
 10
-17.1317199573
 20
29.4010174332
 10
-17.1335927943
 20
29.3579725552
  0
LINE
  5
21A
100
AcDbEntity
  8
ASSI
100
AcDbLine
 62
7
  6
CONTINUOUS
 10
-15.4686753444
 20
30.9942069992
 11
-17.0494133538
 21
29.9833433678
  0
LINE
  5
21B
100
AcDbEntity
  8
ASSI
100
AcDbLine
 62
250
  6
CONTINUOUS
 10
-15.2408197931
 20
30.9550929359
 11
-16.7892943525
 21
29.9648614068
  0
LINE
  5
21C
100
AcDbEntity
  8
CURVE
100
AcDbLine
 62
7
  6
CONTINUOUS
 10
-10.3703739846
 20
17.3292216994
 11
-10.3262686616
 21
17.3733270225
  0
LINE
  5
21D
100
AcDbEntity
  8
CURVE
100
AcDbLine
 62
7
  6
CONTINUOUS
 10
-10.3703739846
 20
16.3336153515
 11
-9.6950944138
 21
17.0088949223
  0
LWPOLYLINE
  5
21E
100
AcDbEntity
  8
ASSI
100
AcDbPolyline
 62
250
  6
CONTINUOUS
 90
16
 70
0
 10
13.6445239508
 20
-30.5646985952
 10
13.6822012761
 20
-30.5843481535
 10
13.723300869
 20
-30.6017530455
 10
13.7674312975
 20
-30.6167043333
 10
13.8142224555
 20
-30.629029323
 10
13.8631493479
 20
-30.6385446949
 10
13.9135145401
 20
-30.6450962563
 10
13.9647090538
 20
-30.6486114269
 10
14.0162580617
 20
-30.6490641201
 10
14.0676316516
 20
-30.6464481001
 10
14.1182945341
 20
-30.6407863151
 10
14.1676938981
 20
-30.6321361696
 10
14.2152853209
 20
-30.6205913157
 10
14.2605564058
 20
-30.606276634
 10
14.3030303828
 20
-30.5893434906
 10
14.3422546292
 20
-30.569972334
  0
LINE
  5
21F
100
AcDbEntity
  8
ASSI
100
AcDbLine
 62
7
  6
CONTINUOUS
 10
-17.0300514838
 20
-13.0226681576
 11
13.7480652613
 21
-30.7935670258
  0
LINE
  5
220
100
AcDbEntity
  8
ASSI
100
AcDbLine
 62
250
  6
CONTINUOUS
 10
-17.1335927943
 20
-12.7937997271
 11
13.6445239508
 21
-30.5646985952
  0
LWPOLYLINE
  5
221
100
AcDbEntity
  8
ASSI
100
AcDbPolyline
 62
250
  6
CONTINUOUS
 90
9
 70
0
 10
-17.1335927943
 20
-12.7937997271
 10
-17.1676175736
 20
-12.7720503141
 10
-17.1977578929
 20
-12.7483245391
 10
-17.2236514479
 20
-12.7228480286
 10
-17.2449986591
 20
-12.695834065
 10
-17.2614812826
 20
-12.6675856067
 10
-17.272831445
 20
-12.6385054652
 10
-17.278922868
 20
-12.6089448295
 10
-17.2800394037
 20
-12.5896624304
  0
LWPOLYLINE
  5
222
100
AcDbEntity
  8
ASSI
100
AcDbPolyline
 62
250
  6
CONTINUOUS
 90
9
 70
0
 10
-17.2800393498
 20
7.8831449114
 10
-17.2790660408
 20
7.8652739331
 10
-17.27319778
 20
7.835684502
 10
-17.2620727866
 20
7.8065845432
 10
-17.2458046819
 20
7.7782916926
 10
-17.224569952
 20
7.7511182508
 10
-17.1985983725
 20
7.7253569868
 10
-17.1681645176
 20
7.7012792148
 10
-17.1335927943
 20
7.6791416429
  0
LWPOLYLINE
  5
223
100
AcDbEntity
  8
ASSI
100
AcDbPolyline
 62
250
  6
CONTINUOUS
 90
9
 70
0
 10
-17.1335927943
 20
-12.7937997271
 10
-17.1317199573
 20
-12.8346818999
 10
-17.1261212879
 20
-12.8729682469
 10
-17.1168561005
 20
-12.9082531486
 10
-17.1040225537
 20
-12.9401627836
 10
-17.0877566108
 20
-12.9683590897
 10
-17.0682305994
 20
-12.9925433449
 10
-17.0456513849
 20
-13.0124593322
 10
-17.0300514838
 20
-13.0226681576
  0
LINE
  5
224
100
AcDbEntity
  8
ASSI
100
AcDbLine
 62
7
  6
CONTINUOUS
 10
-17.2800394037
 20
29.5621098518
 11
-17.2800394037
 21
9.0891684819
  0
LINE
  5
225
100
AcDbEntity
  8
ASSI
100
AcDbLine
 62
7
  6
CONTINUOUS
 10
-17.2800394037
 20
7.8832789396
 11
-17.2800394037
 21
-12.5896624304
  0
LINE
  5
226
100
AcDbEntity
  8
ASSI
100
AcDbLine
 62
250
  6
CONTINUOUS
 10
-17.1335927943
 20
29.3579725552
 11
-17.1335927943
 21
8.8850311852
  0
LINE
  5
227
100
AcDbEntity
  8
ASSI
100
AcDbLine
 62
250
  6
CONTINUOUS
 10
-17.1335927943
 20
7.6791416429
 11
-17.1335927943
 21
-12.7937997271
  0
LWPOLYLINE
  5
228
100
AcDbEntity
  8
ASSI
100
AcDbPolyline
 62
250
  6
CONTINUOUS
 90
16
 70
0
 10
-17.1335927943
 20
7.6791416429
 10
-17.1316867953
 20
7.7225745627
 10
-17.1259893752
 20
7.7677400318
 10
-17.1165620016
 20
7.8141510659
 10
-17.1035045615
 20
7.8613129948
 10
-17.086958825
 20
7.9087116482
 10
-17.0671110493
 20
7.9558188607
 10
-17.0441842949
 20
8.0021169584
 10
-17.018424369
 20
8.0471197155
 10
-16.9901015006
 20
8.090358798
 10
-16.9594746703
 20
8.1314270828
 10
-16.926913738
 20
8.1698177287
 10
-16.8929098842
 20
8.2049819094
 10
-16.8578917755
 20
8.2365428809
 10
-16.8221976038
 20
8.2642598233
 10
-16.7862097612
 20
8.2878892147
  0
LINE
  5
229
100
AcDbEntity
  8
CURVE
100
AcDbLine
 62
7
  6
CONTINUOUS
 10
-10.0461139658
 20
15.6622690224
 11
-9.0639201661
 21
16.6444628221
  0
LINE
  5
22A
100
AcDbEntity
  8
CURVE
100
AcDbLine
 62
7
  6
CONTINUOUS
 10
-9.4149397181
 20
15.2978369222
 11
-9.0285974356
 21
15.6841792047
  0
LWPOLYLINE
  5
22B
100
AcDbEntity
  8
ASSI
100
AcDbPolyline
 62
250
  6
CONTINUOUS
 90
9
 70
0
 10
13.7480652613
 20
-30.7935670258
 10
13.7324653601
 20
-30.7833582004
 10
13.7098861457
 20
-30.7634422131
 10
13.6903601342
 20
-30.7392579579
 10
13.6740941914
 20
-30.7110616518
 10
13.6612606446
 20
-30.6791520167
 10
13.6519954571
 20
-30.6438671151
 10
13.6463967877
 20
-30.6055807681
 10
13.6445239508
 20
-30.5646985952
  0
LINE
  5
22C
100
AcDbEntity
  8
ASSI
100
AcDbLine
 62
7
  6
CONTINUOUS
 10
-17.046296457
 20
8.3064895036
 11
-16.7487035231
 21
8.4937159683
  0
LINE
  5
22D
100
AcDbEntity
  8
ASSI
100
AcDbLine
 62
250
  6
CONTINUOUS
 10
-16.7862097612
 20
8.2878892147
 11
-16.5976660913
 21
8.4065088481
  0
LWPOLYLINE
  5
22E
100
AcDbEntity
  8
CURVE
100
AcDbPolyline
 62
250
  6
CONTINUOUS
 90
55
 70
0
 10
-9.0639201661
 20
-9.3989456715
 10
-9.0629931472
 20
-9.3994588921
 10
-9.0620627601
 20
-9.3999306072
 10
-9.0611297932
 20
-9.4003612721
 10
-9.0601950349
 20
-9.4007513419
 10
-9.0592592737
 20
-9.4011012717
 10
-9.058323298
 20
-9.4014115167
 10
-9.0573878961
 20
-9.4016825321
 10
-9.0564538566
 20
-9.4019147729
 10
-9.0555219679
 20
-9.4021086943
 10
-9.0545930184
 20
-9.4022647514
 10
-9.0536677966
 20
-9.4023833994
 10
-9.0527470908
 20
-9.4024650935
 10
-9.0518316895
 20
-9.4025102887
 10
-9.0509223812
 20
-9.4025194403
 10
-9.0500199542
 20
-9.4024930033
 10
-9.049125197
 20
-9.4024314329
 10
-9.048238898
 20
-9.4023351842
 10
-9.0473618457
 20
-9.4022047125
 10
-9.0464948284
 20
-9.4020404727
 10
-9.0456386347
 20
-9.4018429202
 10
-9.0447940529
 20
-9.4016125099
 10
-9.0439618715
 20
-9.4013496971
 10
-9.0431428789
 20
-9.4010549369
 10
-9.0423378636
 20
-9.4007286844
 10
-9.0415476139
 20
-9.4003713948
 10
-9.0407729183
 20
-9.3999835232
 10
-9.0400145653
 20
-9.3995655248
 10
-9.0392733432
 20
-9.3991178546
 10
-9.0385500405
 20
-9.398640968
 10
-9.0378454456
 20
-9.3981353199
 10
-9.037160347
 20
-9.3976013655
 10
-9.0364955331
 20
-9.39703956
 10
-9.0358517923
 20
-9.3964503586
 10
-9.035229913
 20
-9.3958342163
 10
-9.0346306837
 20
-9.3951915882
 10
-9.0340548928
 20
-9.3945229297
 10
-9.0335033288
 20
-9.3938286957
 10
-9.03297678
 20
-9.3931093414
 10
-9.0324760349
 20
-9.392365322
 10
-9.0320018819
 20
-9.3915970926
 10
-9.0315551096
 20
-9.3908051084
 10
-9.0311365062
 20
-9.3899898244
 10
-9.0307468602
 20
-9.3891516959
 10
-9.0303869601
 20
-9.3882911779
 10
-9.0300575942
 20
-9.3874087257
 10
-9.0297595511
 20
-9.3865047944
 10
-9.0294936191
 20
-9.385579839
 10
-9.0292605867
 20
-9.3846343148
 10
-9.0290612424
 20
-9.3836686769
 10
-9.0288963744
 20
-9.3826833804
 10
-9.0287667713
 20
-9.3816788804
 10
-9.0286732215
 20
-9.3806556322
 10
-9.0286165135
 20
-9.3796140909
 10
-9.0285974356
 20
-9.3785547115
  0
LINE
  5
22F
100
AcDbEntity
  8
CURVE
100
AcDbLine
 62
250
  6
CONTINUOUS
 10
-9.0639201661
 20
-9.3989456715
 11
-10.3350512541
 21
-8.6650105123
  0
LWPOLYLINE
  5
230
100
AcDbEntity
  8
CURVE
100
AcDbPolyline
 62
250
  6
CONTINUOUS
 90
55
 70
0
 10
-10.3703739846
 20
-8.6038297485
 10
-10.3703549067
 20
-8.6049111585
 10
-10.3702981987
 20
-8.6060181849
 10
-10.3702046489
 20
-8.6071494621
 10
-10.3700750458
 20
-8.6083036244
 10
-10.3699101778
 20
-8.6094793063
 10
-10.3697108335
 20
-8.6106751421
 10
-10.3694778011
 20
-8.6118897663
 10
-10.3692118691
 20
-8.6131218132
 10
-10.368913826
 20
-8.6143699173
 10
-10.3685844601
 20
-8.615632713
 10
-10.36822456
 20
-8.6169088345
 10
-10.367834914
 20
-8.6181969165
 10
-10.3674163106
 20
-8.6194955931
 10
-10.3669695383
 20
-8.6208034989
 10
-10.3664953853
 20
-8.6221192683
 10
-10.3659946402
 20
-8.6234415355
 10
-10.3654680914
 20
-8.6247689351
 10
-10.3649165274
 20
-8.6261001015
 10
-10.3643407365
 20
-8.6274336689
 10
-10.3637415072
 20
-8.6287682719
 10
-10.3631196279
 20
-8.6301025448
 10
-10.3624758871
 20
-8.631435122
 10
-10.3618110732
 20
-8.632764638
 10
-10.3611259746
 20
-8.6340897271
 10
-10.3604213797
 20
-8.6354090236
 10
-10.359698077
 20
-8.6367211621
 10
-10.3589568549
 20
-8.638024777
 10
-10.3581985019
 20
-8.6393185025
 10
-10.3574238063
 20
-8.6406009731
 10
-10.3566335566
 20
-8.6418708232
 10
-10.3558285413
 20
-8.6431266873
 10
-10.3550095487
 20
-8.6443671996
 10
-10.3541773673
 20
-8.6455909946
 10
-10.3533327855
 20
-8.6467967068
 10
-10.3524765918
 20
-8.6479829704
 10
-10.3516095745
 20
-8.6491484199
 10
-10.3507325222
 20
-8.6502916897
 10
-10.3498462232
 20
-8.6514114142
 10
-10.348951466
 20
-8.6525062278
 10
-10.348049039
 20
-8.6535747648
 10
-10.3471397307
 20
-8.6546156598
 10
-10.3462243294
 20
-8.655627547
 10
-10.3453036236
 20
-8.6566090609
 10
-10.3443784018
 20
-8.6575588359
 10
-10.3434494523
 20
-8.6584755063
 10
-10.3425175635
 20
-8.6593577067
 10
-10.3415835241
 20
-8.6602040712
 10
-10.3406481222
 20
-8.6610132345
 10
-10.3397121465
 20
-8.6617838308
 10
-10.3387763853
 20
-8.6625144946
 10
-10.337841627
 20
-8.6632038603
 10
-10.3369086601
 20
-8.6638505622
 10
-10.335978273
 20
-8.6644532347
 10
-10.3350512541
 20
-8.6650105123
  0
LWPOLYLINE
  5
231
100
AcDbEntity
  8
CURVE
100
AcDbPolyline
 62
250
  6
CONTINUOUS
 90
55
 70
0
 10
-10.3703739846
 20
15.8902785553
 10
-10.3703549067
 20
15.8891971452
 10
-10.3702981987
 20
15.8880901188
 10
-10.3702046489
 20
15.8869588417
 10
-10.3700750458
 20
15.8858046794
 10
-10.3699101778
 20
15.8846289975
 10
-10.3697108335
 20
15.8834331617
 10
-10.3694778011
 20
15.8822185375
 10
-10.3692118691
 20
15.8809864905
 10
-10.368913826
 20
15.8797383865
 10
-10.3685844601
 20
15.8784755908
 10
-10.36822456
 20
15.8771994692
 10
-10.367834914
 20
15.8759113873
 10
-10.3674163106
 20
15.8746127107
 10
-10.3669695383
 20
15.8733048049
 10
-10.3664953853
 20
15.8719890355
 10
-10.3659946402
 20
15.8706667683
 10
-10.3654680914
 20
15.8693393687
 10
-10.3649165274
 20
15.8680082023
 10
-10.3643407365
 20
15.8666746349
 10
-10.3637415072
 20
15.8653400319
 10
-10.3631196279
 20
15.864005759
 10
-10.3624758871
 20
15.8626731817
 10
-10.3618110732
 20
15.8613436658
 10
-10.3611259746
 20
15.8600185767
 10
-10.3604213797
 20
15.8586992801
 10
-10.359698077
 20
15.8573871416
 10
-10.3589568549
 20
15.8560835268
 10
-10.3581985019
 20
15.8547898013
 10
-10.3574238063
 20
15.8535073307
 10
-10.3566335566
 20
15.8522374806
 10
-10.3558285413
 20
15.8509816165
 10
-10.3550095487
 20
15.8497411042
 10
-10.3541773673
 20
15.8485173092
 10
-10.3533327855
 20
15.847311597
 10
-10.3524765918
 20
15.8461253334
 10
-10.3516095745
 20
15.8449598839
 10
-10.3507325222
 20
15.8438166141
 10
-10.3498462232
 20
15.8426968896
 10
-10.348951466
 20
15.841602076
 10
-10.348049039
 20
15.8405335389
 10
-10.3471397307
 20
15.839492644
 10
-10.3462243294
 20
15.8384807568
 10
-10.3453036236
 20
15.8374992429
 10
-10.3443784018
 20
15.8365494679
 10
-10.3434494523
 20
15.8356327974
 10
-10.3425175635
 20
15.8347505971
 10
-10.3415835241
 20
15.8339042325
 10
-10.3406481222
 20
15.8330950693
 10
-10.3397121465
 20
15.832324473
 10
-10.3387763853
 20
15.8315938092
 10
-10.337841627
 20
15.8309044435
 10
-10.3369086601
 20
15.8302577416
 10
-10.335978273
 20
15.8296550691
 10
-10.3350512541
 20
15.8290977914
  0
LINE
  5
232
100
AcDbEntity
  8
CURVE
100
AcDbLine
 62
250
  6
CONTINUOUS
 10
-10.3703739846
 20
-8.6038297485
 11
-10.3703739846
 21
-7.1361012825
  0
LINE
  5
233
100
AcDbEntity
  8
CURVE
100
AcDbLine
 62
250
  6
CONTINUOUS
 10
-10.3703739846
 20
15.8902785553
 11
-10.3703739846
 21
17.3580070213
  0
LWPOLYLINE
  5
234
100
AcDbEntity
  8
CURVE
100
AcDbPolyline
 62
250
  6
CONTINUOUS
 90
55
 70
0
 10
-10.3350512541
 20
-7.1157103225
 10
-10.335978273
 20
-7.1151971019
 10
-10.3369086601
 20
-7.1147253868
 10
-10.337841627
 20
-7.1142947219
 10
-10.3387763853
 20
-7.1139046521
 10
-10.3397121465
 20
-7.1135547223
 10
-10.3406481222
 20
-7.1132444773
 10
-10.3415835241
 20
-7.1129734619
 10
-10.3425175635
 20
-7.1127412211
 10
-10.3434494523
 20
-7.1125472997
 10
-10.3443784018
 20
-7.1123912426
 10
-10.3453036236
 20
-7.1122725946
 10
-10.3462243294
 20
-7.1121909005
 10
-10.3471397307
 20
-7.1121457053
 10
-10.348049039
 20
-7.1121365537
 10
-10.348951466
 20
-7.1121629907
 10
-10.3498462232
 20
-7.1122245611
 10
-10.3507325222
 20
-7.1123208098
 10
-10.3516095745
 20
-7.1124512815
 10
-10.3524765918
 20
-7.1126155213
 10
-10.3533327855
 20
-7.1128130738
 10
-10.3541773673
 20
-7.1130434841
 10
-10.3550095487
 20
-7.1133062969
 10
-10.3558285413
 20
-7.1136010571
 10
-10.3566335566
 20
-7.1139273096
 10
-10.3574238063
 20
-7.1142845992
 10
-10.3581985019
 20
-7.1146724708
 10
-10.3589568549
 20
-7.1150904692
 10
-10.359698077
 20
-7.1155381394
 10
-10.3604213797
 20
-7.116015026
 10
-10.3611259746
 20
-7.1165206741
 10
-10.3618110732
 20
-7.1170546285
 10
-10.3624758871
 20
-7.117616434
 10
-10.3631196279
 20
-7.1182056354
 10
-10.3637415072
 20
-7.1188217777
 10
-10.3643407365
 20
-7.1194644058
 10
-10.3649165274
 20
-7.1201330643
 10
-10.3654680914
 20
-7.1208272983
 10
-10.3659946402
 20
-7.1215466526
 10
-10.3664953853
 20
-7.122290672
 10
-10.3669695383
 20
-7.1230589014
 10
-10.3674163106
 20
-7.1238508856
 10
-10.367834914
 20
-7.1246661696
 10
-10.36822456
 20
-7.1255042981
 10
-10.3685844601
 20
-7.1263648161
 10
-10.368913826
 20
-7.1272472683
 10
-10.3692118691
 20
-7.1281511996
 10
-10.3694778011
 20
-7.129076155
 10
-10.3697108335
 20
-7.1300216792
 10
-10.3699101778
 20
-7.1309873171
 10
-10.3700750458
 20
-7.1319726136
 10
-10.3702046489
 20
-7.1329771136
 10
-10.3702981987
 20
-7.1340003618
 10
-10.3703549067
 20
-7.1350419031
 10
-10.3703739846
 20
-7.1361012825
  0
LINE
  5
235
100
AcDbEntity
  8
CURVE
100
AcDbLine
 62
250
  6
CONTINUOUS
 10
-10.3350512541
 20
-7.1157103225
 11
-9.0639201661
 21
-7.8496454817
  0
LWPOLYLINE
  5
236
100
AcDbEntity
  8
CURVE
100
AcDbPolyline
 62
250
  6
CONTINUOUS
 90
55
 70
0
 10
-9.0285974356
 20
-7.9108262455
 10
-9.0286165135
 20
-7.9097448355
 10
-9.0286732215
 20
-7.9086378091
 10
-9.0287667713
 20
-7.9075065319
 10
-9.0288963744
 20
-7.9063523696
 10
-9.0290612424
 20
-7.9051766877
 10
-9.0292605867
 20
-7.9039808519
 10
-9.0294936191
 20
-7.9027662277
 10
-9.0297595511
 20
-7.9015341808
 10
-9.0300575942
 20
-7.9002860767
 10
-9.0303869601
 20
-7.899023281
 10
-9.0307468602
 20
-7.8977471595
 10
-9.0311365062
 20
-7.8964590775
 10
-9.0315551096
 20
-7.8951604009
 10
-9.0320018819
 20
-7.8938524951
 10
-9.0324760349
 20
-7.8925367257
 10
-9.03297678
 20
-7.8912144585
 10
-9.0335033288
 20
-7.8898870589
 10
-9.0340548928
 20
-7.8885558925
 10
-9.0346306837
 20
-7.8872223251
 10
-9.035229913
 20
-7.8858877221
 10
-9.0358517923
 20
-7.8845534492
 10
-9.0364955331
 20
-7.883220872
 10
-9.037160347
 20
-7.881891356
 10
-9.0378454456
 20
-7.8805662669
 10
-9.0385500405
 20
-7.8792469703
 10
-9.0392733432
 20
-7.8779348318
 10
-9.0400145653
 20
-7.876631217
 10
-9.0407729183
 20
-7.8753374915
 10
-9.0415476139
 20
-7.8740550209
 10
-9.0423378636
 20
-7.8727851708
 10
-9.0431428789
 20
-7.8715293067
 10
-9.0439618715
 20
-7.8702887944
 10
-9.0447940529
 20
-7.8690649994
 10
-9.0456386347
 20
-7.8678592872
 10
-9.0464948284
 20
-7.8666730236
 10
-9.0473618457
 20
-7.8655075741
 10
-9.048238898
 20
-7.8643643043
 10
-9.049125197
 20
-7.8632445798
 10
-9.0500199542
 20
-7.8621497662
 10
-9.0509223812
 20
-7.8610812292
 10
-9.0518316895
 20
-7.8600403342
 10
-9.0527470908
 20
-7.859028447
 10
-9.0536677966
 20
-7.8580469331
 10
-9.0545930184
 20
-7.8570971581
 10
-9.0555219679
 20
-7.8561804877
 10
-9.0564538566
 20
-7.8552982873
 10
-9.0573878961
 20
-7.8544519227
 10
-9.058323298
 20
-7.8536427595
 10
-9.0592592737
 20
-7.8528721632
 10
-9.0601950349
 20
-7.8521414994
 10
-9.0611297932
 20
-7.8514521337
 10
-9.0620627601
 20
-7.8508054318
 10
-9.0629931472
 20
-7.8502027593
 10
-9.0639201661
 20
-7.8496454817
  0
LWPOLYLINE
  5
237
100
AcDbEntity
  8
CURVE
100
AcDbPolyline
 62
250
  6
CONTINUOUS
 90
55
 70
0
 10
-9.0285974356
 20
16.5832820583
 10
-9.0286165135
 20
16.5843634683
 10
-9.0286732215
 20
16.5854704947
 10
-9.0287667713
 20
16.5866017719
 10
-9.0288963744
 20
16.5877559342
 10
-9.0290612424
 20
16.5889316161
 10
-9.0292605867
 20
16.5901274519
 10
-9.0294936191
 20
16.5913420761
 10
-9.0297595511
 20
16.592574123
 10
-9.0300575942
 20
16.5938222271
 10
-9.0303869601
 20
16.5950850227
 10
-9.0307468602
 20
16.5963611443
 10
-9.0311365062
 20
16.5976492262
 10
-9.0315551096
 20
16.5989479029
 10
-9.0320018819
 20
16.6002558087
 10
-9.0324760349
 20
16.601571578
 10
-9.03297678
 20
16.6028938453
 10
-9.0335033288
 20
16.6042212449
 10
-9.0340548928
 20
16.6055524112
 10
-9.0346306837
 20
16.6068859787
 10
-9.035229913
 20
16.6082205817
 10
-9.0358517923
 20
16.6095548546
 10
-9.0364955331
 20
16.6108874318
 10
-9.037160347
 20
16.6122169478
 10
-9.0378454456
 20
16.6135420369
 10
-9.0385500405
 20
16.6148613334
 10
-9.0392733432
 20
16.6161734719
 10
-9.0400145653
 20
16.6174770867
 10
-9.0407729183
 20
16.6187708123
 10
-9.0415476139
 20
16.6200532829
 10
-9.0423378636
 20
16.621323133
 10
-9.0431428789
 20
16.6225789971
 10
-9.0439618715
 20
16.6238195094
 10
-9.0447940529
 20
16.6250433044
 10
-9.0456386347
 20
16.6262490165
 10
-9.0464948284
 20
16.6274352802
 10
-9.0473618457
 20
16.6286007297
 10
-9.048238898
 20
16.6297439995
 10
-9.049125197
 20
16.630863724
 10
-9.0500199542
 20
16.6319585376
 10
-9.0509223812
 20
16.6330270746
 10
-9.0518316895
 20
16.6340679696
 10
-9.0527470908
 20
16.6350798568
 10
-9.0536677966
 20
16.6360613707
 10
-9.0545930184
 20
16.6370111457
 10
-9.0555219679
 20
16.6379278161
 10
-9.0564538566
 20
16.6388100164
 10
-9.0573878961
 20
16.639656381
 10
-9.058323298
 20
16.6404655443
 10
-9.0592592737
 20
16.6412361406
 10
-9.0601950349
 20
16.6419668044
 10
-9.0611297932
 20
16.64265617
 10
-9.0620627601
 20
16.643302872
 10
-9.0629931472
 20
16.6439055445
 10
-9.0639201661
 20
16.6444628221
  0
LINE
  5
238
100
AcDbEntity
  8
CURVE
100
AcDbLine
 62
250
  6
CONTINUOUS
 10
-9.0285974356
 20
16.5832820583
 11
-9.0285974356
 21
15.1155535923
  0
LINE
  5
239
100
AcDbEntity
  8
CURVE
100
AcDbLine
 62
250
  6
CONTINUOUS
 10
-9.0285974356
 20
-7.9108262455
 11
-9.0285974356
 21
-9.3785547115
  0
LINE
  5
23A
100
AcDbEntity
  8
ASSI
100
AcDbLine
 62
250
  6
CONTINUOUS
 10
13.9888223925
 20
12.1939625386
 11
15.6205741078
 21
13.1361108816
  0
LINE
  5
23B
100
AcDbEntity
  8
ASSI
100
AcDbLine
 62
250
  6
CONTINUOUS
 10
14.3422546292
 20
11.5817999483
 11
16.0705109586
 21
12.5796685712
  0
LWPOLYLINE
  5
23C
100
AcDbEntity
  8
ASSI
100
AcDbPolyline
 62
250
  6
CONTINUOUS
 90
16
 70
0
 10
13.6445239508
 20
-10.0917572253
 10
13.68218187
 20
-10.1113976512
 10
13.7232642889
 20
-10.1287977811
 10
13.7673813898
 20
-10.1437479794
 10
13.8141657361
 20
-10.1560750014
 10
13.8630921027
 20
-10.1655940597
 10
13.913459405
 20
-10.1721494218
 10
13.9646579156
 20
-10.1756680805
 10
14.0162134952
 20
-10.1761236853
 10
14.0675941007
 20
-10.173509775
 10
14.1182635478
 20
-10.1678493761
 10
14.1676695282
 20
-10.1591998734
 10
14.2152675585
 20
-10.1476548919
 10
14.2605450722
 20
-10.1333393
 10
14.3030250396
 20
-10.116404495
 10
14.3422546292
 20
-10.097030964
  0
LINE
  5
23D
100
AcDbEntity
  8
CURVE
100
AcDbLine
 62
7
  6
CONTINUOUS
 10
-10.3703739846
 20
-7.1648866043
 11
-10.3262686616
 21
-7.1207812813
  0
LINE
  5
23E
100
AcDbEntity
  8
CURVE
100
AcDbLine
 62
7
  6
CONTINUOUS
 10
-10.3703739846
 20
-8.1604929522
 11
-9.6950944138
 21
-7.4852133815
  0
LINE
  5
23F
100
AcDbEntity
  8
CURVE
100
AcDbLine
 62
7
  6
CONTINUOUS
 10
-10.0461139658
 20
-8.8318392814
 11
-9.0639201661
 21
-7.8496454817
  0
LINE
  5
240
100
AcDbEntity
  8
CURVE
100
AcDbLine
 62
7
  6
CONTINUOUS
 10
-9.4149397181
 20
-9.1962713815
 11
-9.0285974356
 21
-8.8099290991
  0
LWPOLYLINE
  5
241
100
AcDbEntity
  8
ASSI
100
AcDbPolyline
 62
250
  6
CONTINUOUS
 90
9
 70
0
 10
-16.7862097612
 20
8.2878892147
 10
-16.8240758367
 20
8.3064209499
 10
-16.8614597202
 20
8.3203193466
 10
-16.897952064
 20
8.3294322194
 10
-16.9331532827
 20
8.3336597838
 10
-16.9666779285
 20
8.3329557488
 10
-16.9981589118
 20
8.3273278232
 10
-17.0272515206
 20
8.3168376321
 10
-17.046296457
 20
8.3064895036
  0
LINE
  5
242
100
AcDbEntity
  8
ASSI
100
AcDbLine
 62
250
  6
CONTINUOUS
 10
13.6445239508
 20
-10.0917572253
 11
-17.1335927943
 21
7.6791416429
  0
LINE
  5
243
100
AcDbEntity
  8
ASSI
100
AcDbLine
 62
250
  6
CONTINUOUS
 10
13.9919069839
 20
-9.4830096535
 11
-16.7862097612
 21
8.2878892147
  0
LINE
  5
244
100
AcDbEntity
  8
ASSI
100
AcDbLine
 62
7
  6
CONTINUOUS
 10
-17.0300514838
 20
8.6561627546
 11
13.7480652613
 21
-9.1147361136
  0
LINE
  5
245
100
AcDbEntity
  8
ASSI
100
AcDbLine
 62
250
  6
CONTINUOUS
 10
-17.1335927943
 20
8.8850311852
 11
13.6445239508
 21
-8.885867683
  0
LWPOLYLINE
  5
246
100
AcDbEntity
  8
ASSI
100
AcDbPolyline
 62
250
  6
CONTINUOUS
 90
9
 70
0
 10
-17.1335927943
 20
8.8850311852
 10
-17.1676088183
 20
8.9067743958
 10
-17.1977447857
 20
8.9304948696
 10
-17.2236376205
 20
8.9559675307
 10
-17.2449872733
 20
8.9829802259
 10
-17.2614737038
 20
9.0112296968
 10
-17.2728271925
 20
9.0403111459
 10
-17.2789212955
 20
9.0698725243
 10
-17.2800394037
 20
9.0891684819
  0
LWPOLYLINE
  5
247
100
AcDbEntity
  8
ASSI
100
AcDbPolyline
 62
250
  6
CONTINUOUS
 90
9
 70
0
 10
-17.0300514838
 20
8.6561627546
 10
-17.0446988997
 20
8.6656747864
 10
-17.0675139346
 20
8.6855412393
 10
-17.0872488792
 20
8.7097322784
 10
-17.1036922872
 20
8.7379887135
 10
-17.1166679788
 20
8.7700077964
 10
-17.1260369285
 20
8.8054464649
 10
-17.1316987545
 20
8.8439250182
 10
-17.1335927943
 20
8.8850311852
  0
LINE
  5
248
100
AcDbEntity
  8
ASSI
100
AcDbLine
 62
7
  6
CONTINUOUS
 10
16.3866370744
 20
-8.1168046552
 11
16.3927948967
 21
-8.1203601046
  0
LWPOLYLINE
  5
249
100
AcDbEntity
  8
CURVE
100
AcDbPolyline
 62
250
  6
CONTINUOUS
 90
55
 70
0
 10
-9.0639201661
 20
15.0951626322
 10
-9.0629931472
 20
15.0946494117
 10
-9.0620627601
 20
15.0941776966
 10
-9.0611297932
 20
15.0937470317
 10
-9.0601950349
 20
15.0933569619
 10
-9.0592592737
 20
15.0930070321
 10
-9.058323298
 20
15.092696787
 10
-9.0573878961
 20
15.0924257717
 10
-9.0564538566
 20
15.0921935309
 10
-9.0555219679
 20
15.0919996095
 10
-9.0545930184
 20
15.0918435524
 10
-9.0536677966
 20
15.0917249044
 10
-9.0527470908
 20
15.0916432103
 10
-9.0518316895
 20
15.0915980151
 10
-9.0509223812
 20
15.0915888635
 10
-9.0500199542
 20
15.0916153005
 10
-9.049125197
 20
15.0916768709
 10
-9.048238898
 20
15.0917731195
 10
-9.0473618457
 20
15.0919035913
 10
-9.0464948284
 20
15.092067831
 10
-9.0456386347
 20
15.0922653836
 10
-9.0447940529
 20
15.0924957939
 10
-9.0439618715
 20
15.0927586067
 10
-9.0431428789
 20
15.0930533669
 10
-9.0423378636
 20
15.0933796194
 10
-9.0415476139
 20
15.093736909
 10
-9.0407729183
 20
15.0941247806
 10
-9.0400145653
 20
15.094542779
 10
-9.0392733432
 20
15.0949904491
 10
-9.0385500405
 20
15.0954673358
 10
-9.0378454456
 20
15.0959729839
 10
-9.037160347
 20
15.0965069383
 10
-9.0364955331
 20
15.0970687437
 10
-9.0358517923
 20
15.0976579452
 10
-9.035229913
 20
15.0982740875
 10
-9.0346306837
 20
15.0989167155
 10
-9.0340548928
 20
15.0995853741
 10
-9.0335033288
 20
15.1002796081
 10
-9.03297678
 20
15.1009989624
 10
-9.0324760349
 20
15.1017429818
 10
-9.0320018819
 20
15.1025112112
 10
-9.0315551096
 20
15.1033031954
 10
-9.0311365062
 20
15.1041184794
 10
-9.0307468602
 20
15.1049566079
 10
-9.0303869601
 20
15.1058171258
 10
-9.0300575942
 20
15.1066995781
 10
-9.0297595511
 20
15.1076035094
 10
-9.0294936191
 20
15.1085284648
 10
-9.0292605867
 20
15.109473989
 10
-9.0290612424
 20
15.1104396269
 10
-9.0288963744
 20
15.1114249234
 10
-9.0287667713
 20
15.1124294234
 10
-9.0286732215
 20
15.1134526716
 10
-9.0286165135
 20
15.1144942129
 10
-9.0285974356
 20
15.1155535923
  0
LINE
  5
24A
100
AcDbEntity
  8
CURVE
100
AcDbLine
 62
250
  6
CONTINUOUS
 10
-9.0639201661
 20
15.0951626322
 11
-10.3350512541
 21
15.8290977914
  0
LWPOLYLINE
  5
24B
100
AcDbEntity
  8
CURVE
100
AcDbPolyline
 62
250
  6
CONTINUOUS
 90
55
 70
0
 10
-10.3350512541
 20
17.3783979813
 10
-10.335978273
 20
17.3789112019
 10
-10.3369086601
 20
17.379382917
 10
-10.337841627
 20
17.3798135819
 10
-10.3387763853
 20
17.3802036517
 10
-10.3397121465
 20
17.3805535815
 10
-10.3406481222
 20
17.3808638265
 10
-10.3415835241
 20
17.3811348419
 10
-10.3425175635
 20
17.3813670826
 10
-10.3434494523
 20
17.381561004
 10
-10.3443784018
 20
17.3817170612
 10
-10.3453036236
 20
17.3818357092
 10
-10.3462243294
 20
17.3819174033
 10
-10.3471397307
 20
17.3819625985
 10
-10.348049039
 20
17.3819717501
 10
-10.348951466
 20
17.3819453131
 10
-10.3498462232
 20
17.3818837427
 10
-10.3507325222
 20
17.381787494
 10
-10.3516095745
 20
17.3816570223
 10
-10.3524765918
 20
17.3814927825
 10
-10.3533327855
 20
17.3812952299
 10
-10.3541773673
 20
17.3810648197
 10
-10.3550095487
 20
17.3808020069
 10
-10.3558285413
 20
17.3805072467
 10
-10.3566335566
 20
17.3801809942
 10
-10.3574238063
 20
17.3798237046
 10
-10.3581985019
 20
17.379435833
 10
-10.3589568549
 20
17.3790178346
 10
-10.359698077
 20
17.3785701644
 10
-10.3604213797
 20
17.3780932778
 10
-10.3611259746
 20
17.3775876297
 10
-10.3618110732
 20
17.3770536753
 10
-10.3624758871
 20
17.3764918698
 10
-10.3631196279
 20
17.3759026684
 10
-10.3637415072
 20
17.375286526
 10
-10.3643407365
 20
17.374643898
 10
-10.3649165274
 20
17.3739752394
 10
-10.3654680914
 20
17.3732810055
 10
-10.3659946402
 20
17.3725616512
 10
-10.3664953853
 20
17.3718176318
 10
-10.3669695383
 20
17.3710494024
 10
-10.3674163106
 20
17.3702574181
 10
-10.367834914
 20
17.3694421342
 10
-10.36822456
 20
17.3686040057
 10
-10.3685844601
 20
17.3677434877
 10
-10.368913826
 20
17.3668610355
 10
-10.3692118691
 20
17.3659571041
 10
-10.3694778011
 20
17.3650321488
 10
-10.3697108335
 20
17.3640866246
 10
-10.3699101778
 20
17.3631209866
 10
-10.3700750458
 20
17.3621356902
 10
-10.3702046489
 20
17.3611311902
 10
-10.3702981987
 20
17.360107942
 10
-10.3703549067
 20
17.3590664006
 10
-10.3703739846
 20
17.3580070213
  0
LINE
  5
24C
100
AcDbEntity
  8
CURVE
100
AcDbLine
 62
250
  6
CONTINUOUS
 10
-10.3350512541
 20
17.3783979813
 11
-9.0639201661
 21
16.6444628221
  0
LWPOLYLINE
  5
24D
100
AcDbEntity
  8
ASSI
100
AcDbPolyline
 62
250
  6
CONTINUOUS
 90
16
 70
0
 10
14.3422546292
 20
-10.097030964
 10
14.3396952604
 20
-10.0534549798
 10
14.333371931
 20
-10.0080519603
 10
14.3233543493
 20
-9.9613221742
 10
14.3097510979
 20
-9.9137748104
 10
14.292713102
 20
-9.8659393675
 10
14.2724359625
 20
-9.8183599118
 10
14.2491520042
 20
-9.7715704211
 10
14.2231162021
 20
-9.7260735608
 10
14.1946078671
 20
-9.6823538109
 10
14.1638951563
 20
-9.6408338156
 10
14.1313559902
 20
-9.602035084
 10
14.097486691
 20
-9.5665198128
 10
14.0627199145
 20
-9.5346764267
 10
14.0273983107
 20
-9.506755811
 10
13.9919069839
 20
-9.4830096535
  0
LWPOLYLINE
  5
24E
100
AcDbEntity
  8
ASSI
100
AcDbPolyline
 62
250
  6
CONTINUOUS
 90
9
 70
0
 10
13.6445239508
 20
-8.885867683
 10
13.6464299497
 20
-8.927099603
 10
13.6521273699
 20
-8.9656858341
 10
13.6615547435
 20
-9.0012103735
 10
13.6746121836
 20
-9.0332938978
 10
13.6911579201
 20
-9.0615859494
 10
13.7110056957
 20
-9.0857734481
 10
13.7339324502
 20
-9.1055963045
 10
13.7479547705
 20
-9.1146722612
  0
LINE
  5
24F
100
AcDbEntity
  8
ASSI
100
AcDbLine
 62
250
  6
CONTINUOUS
 10
13.6445239508
 20
-30.5646985952
 11
13.6445239508
 21
-10.0917572253
  0
LINE
  5
250
100
AcDbEntity
  8
ASSI
100
AcDbLine
 62
250
  6
CONTINUOUS
 10
13.6445239508
 20
-8.885867683
 11
13.6445239508
 21
11.587073687
  0
LWPOLYLINE
  5
251
100
AcDbEntity
  8
ASSI
100
AcDbPolyline
 62
250
  6
CONTINUOUS
 90
16
 70
0
 10
13.6445239508
 20
11.587073687
 10
13.6463967877
 20
11.630118565
 10
13.6519954571
 20
11.6748701151
 10
13.6612606446
 20
11.720854223
 10
13.6740941914
 20
11.7675837162
 10
13.6903601342
 20
11.8145635254
 10
13.7098861457
 20
11.8612959292
 10
13.7324653601
 20
11.9072858273
 10
13.757858565
 20
11.9520459861
 10
13.7857967355
 20
11.9951022001
 10
13.8159838845
 20
12.0359983159
 10
13.8481001981
 20
12.0743010653
 10
13.8818054243
 20
12.1096046546
 10
13.9167424776
 20
12.1415350647
 10
13.952541222
 20
12.1697540133
 10
13.9888223925
 20
12.1939625386
  0
LINE
  5
252
100
AcDbEntity
  8
ASSI
100
AcDbLine
 62
250
  6
CONTINUOUS
 10
14.3422546292
 20
-30.569972334
 11
14.3422546292
 21
-10.097030964
  0
LINE
  5
253
100
AcDbEntity
  8
ASSI
100
AcDbLine
 62
250
  6
CONTINUOUS
 10
14.3422546292
 20
-8.8911414217
 11
14.3422546292
 21
11.5817999483
  0
LWPOLYLINE
  5
254
100
AcDbEntity
  8
ASSI
100
AcDbPolyline
 62
250
  6
CONTINUOUS
 90
16
 70
0
 10
13.9919069839
 20
-9.4830096535
 10
13.9553983626
 20
-9.5070124065
 10
13.9193470169
 20
-9.5350931053
 10
13.8841392121
 20
-9.5669508847
 10
13.8501521755
 20
-9.6022444107
 10
13.8177500544
 20
-9.6405955376
 10
13.7872800153
 20
-9.6815933597
 10
13.7590685234
 20
-9.7247986137
 10
13.7334178454
 20
-9.7697483852
 10
13.7106028104
 20
-9.8159610686
 10
13.6908678658
 20
-9.862941527
 10
13.6744244579
 20
-9.9101863975
 10
13.6614487663
 20
-9.9571894838
 10
13.6520798166
 20
-10.0034471806
 10
13.6464179906
 20
-10.0484638686
 10
13.6445239508
 20
-10.0917572253
  0
LWPOLYLINE
  5
255
100
AcDbEntity
  8
ASSI
100
AcDbPolyline
 62
250
  6
CONTINUOUS
 90
9
 70
0
 10
14.2316302331
 20
-9.1238311065
 10
14.2496670199
 20
-9.112758697
 10
14.2728412485
 20
-9.0930650369
 10
14.2930068555
 20
-9.0688673269
 10
14.3099430306
 20
-9.0404305282
 10
14.3234643254
 20
-9.0080660192
 10
14.3334226838
 20
-8.9721281864
 10
14.3397090634
 20
-8.9330105432
 10
14.3422546292
 20
-8.8911414217
  0
LINE
  5
256
100
AcDbEntity
  8
ASSI
100
AcDbLine
 62
250
  6
CONTINUOUS
 10
16.3927948967
 20
-8.1203601046
 11
13.9919069839
 21
-9.4830096535
  0
LINE
  5
257
100
AcDbEntity
  8
ASSI
100
AcDbLine
 62
250
  6
CONTINUOUS
 10
16.7463079063
 20
-8.7325848789
 11
14.3422546292
 21
-10.097030964
  0
LINE
  5
258
100
AcDbEntity
  8
ASSI
100
AcDbLine
 62
250
  6
CONTINUOUS
 10
14.3422546292
 20
-8.8911414217
 11
16.7463079063
 21
-7.6211285737
  0
LINE
  5
259
100
AcDbEntity
  8
ASSI
100
AcDbLine
 62
7
  6
CONTINUOUS
 10
14.2316302331
 20
-9.1238311065
 11
16.6373257286
 21
-7.8529507076
  0
LWPOLYLINE
  5
25A
100
AcDbEntity
  8
ASSI
100
AcDbPolyline
 62
250
  6
CONTINUOUS
 90
16
 70
0
 10
14.3422546292
 20
-8.8911414217
 10
14.3037316019
 20
-8.9102004059
 10
14.261884972
 20
-8.9269709358
 10
14.2171128802
 20
-8.9412488287
 10
14.1697883204
 20
-8.9528661184
 10
14.1204453367
 20
-8.961644873
 10
14.0697957082
 20
-8.967438879
 10
14.0184539705
 20
-8.9701842849
 10
13.9668937645
 20
-8.9698621123
 10
13.9156466683
 20
-8.9664738521
 10
13.8652473082
 20
-8.9600504204
 10
13.8162458106
 20
-8.9506574206
 10
13.769183061
 20
-8.9383967537
 10
13.7245661175
 20
-8.9234010892
 10
13.6828648798
 20
-8.9058289628
 10
13.6445239508
 20
-8.885867683
  0
LWPOLYLINE
  5
25B
100
AcDbEntity
  8
ASSI
100
AcDbPolyline
 62
250
  6
CONTINUOUS
 90
16
 70
0
 10
13.6445239508
 20
11.587073687
 10
13.682192612
 20
11.5674282058
 10
13.7232842123
 20
11.5500255632
 10
13.7674079802
 20
11.535074949
 10
13.8141945233
 20
11.5227493369
 10
13.8631191361
 20
11.5132324766
 10
13.9134841738
 20
11.5066790351
 10
13.964681398
 20
11.5031619238
 10
14.0162353568
 20
11.5027076854
 10
14.067613634
 20
11.5053227209
 10
14.1182798328
 20
11.5109838647
 10
14.1676820745
 20
11.5196336508
 10
14.2152764673
 20
11.5311785011
 10
14.2605506898
 20
11.5454936127
 10
14.3030276573
 20
11.5624275804
 10
14.3422546292
 20
11.5817999483
  0
LWPOLYLINE
  5
25C
100
AcDbEntity
  8
ASSI
100
AcDbPolyline
 62
250
  6
CONTINUOUS
 90
9
 70
0
 10
-17.1335927943
 20
29.3579725552
 10
-17.1676246348
 20
29.3797269706
 10
-17.1977688499
 20
29.4034573604
 10
-17.2236635717
 20
29.4289377168
 10
-17.2450097048
 20
29.455954345
 10
-17.2614897506
 20
29.4842041194
 10
-17.2728366568
 20
29.5132843502
 10
-17.2789247185
 20
29.5428434208
 10
-17.280039403
 20
29.5620946848
  0
LINE
  5
25D
100
AcDbEntity
  8
ASSI
100
AcDbLine
 62
7
  6
CONTINUOUS
 10
16.7463079063
 20
-26.4120457509
 11
16.7463079063
 21
-8.7325848789
  0
LINE
  5
25E
100
AcDbEntity
  8
ASSI
100
AcDbLine
 62
7
  6
CONTINUOUS
 10
16.7463079063
 20
-7.6211285737
 11
16.7463079063
 21
10.0583322983
  0
LINE
  5
25F
100
AcDbEntity
  8
ASSI
100
AcDbLine
 62
250
  6
CONTINUOUS
 10
13.6445239508
 20
11.587073687
 11
-17.1335927943
 21
29.3579725552
  0
LINE
  5
260
100
AcDbEntity
  8
ASSI
100
AcDbLine
 62
250
  6
CONTINUOUS
 10
13.9888223925
 20
12.1939625386
 11
-16.7892943525
 21
29.9648614068
  0
LWPOLYLINE
  5
261
100
AcDbEntity
  8
ASSI
100
AcDbPolyline
 62
250
  6
CONTINUOUS
 90
16
 70
0
 10
13.9888223925
 20
12.1939625386
 10
14.0243428075
 20
12.1702079148
 10
14.0597217513
 20
12.1422997027
 10
14.0945739043
 20
12.1104912712
 10
14.1285555741
 20
12.0750358799
 10
14.1612346366
 20
12.0363218357
 10
14.1921160159
 20
11.9949076153
 10
14.2208203874
 20
11.9513128634
 10
14.2470776505
 20
11.905959545
 10
14.2706075135
 20
11.8593286009
 10
14.2911528046
 20
11.8119200003
 10
14.3084779442
 20
11.7642662408
 10
14.3223841058
 20
11.7169092732
 10
14.3327170915
 20
11.6703762649
 10
14.3393650014
 20
11.6251738996
 10
14.3422546292
 20
11.5817999483
  0
LINE
  5
262
100
AcDbEntity
  8
ASSI
100
AcDbLine
 62
7
  6
CONTINUOUS
 10
16.7339454038
 20
10.1572176616
 11
16.0705109586
 21
12.5796685712
  0
LWPOLYLINE
  5
263
100
AcDbEntity
  8
ASSI
100
AcDbPolyline
 62
250
  6
CONTINUOUS
 90
9
 70
0
 10
-16.7892943525
 20
29.9648614068
 10
-16.8266142792
 20
29.9831650692
 10
-16.8635842443
 20
29.9970327946
 10
-16.8997992189
 20
30.0062609723
 10
-16.9348992285
 20
30.0106958807
 10
-16.9684346742
 20
30.010216131
 10
-16.9998956597
 20
30.0047995671
 10
-17.0288963685
 20
29.9945232367
 10
-17.0494133538
 20
29.9833433678
  0
LINE
  5
264
100
AcDbEntity
  8
ASSI
100
AcDbLine
 62
7
  6
CONTINUOUS
 10
15.6205741078
 20
13.1361108816
 11
-15.2408197931
 21
30.9550929359
  0
LINE
  5
265
100
AcDbEntity
  8
ASSI
100
AcDbLine
 62
7
  6
CONTINUOUS
 10
16.7339454038
 20
-26.524478445
 11
16.0705109586
 21
-29.6739476854
  0
LWPOLYLINE
  5
266
100
AcDbEntity
  8
ASSI
100
AcDbPolyline
 62
250
  6
CONTINUOUS
 90
9
 70
0
 10
14.2283120568
 20
-30.804399052
 10
14.2470666101
 20
-30.7930369004
 10
14.2705997372
 20
-30.7732529394
 10
14.2911472528
 20
-30.748916022
 10
14.3084741362
 20
-30.7202932887
 10
14.3223817877
 20
-30.6877077051
 10
14.3327159806
 20
-30.6515225897
 10
14.3393646815
 20
-30.6121328699
 10
14.3422546292
 20
-30.569972334
  0
LINE
  5
267
100
AcDbEntity
  8
ASSI
100
AcDbLine
 62
250
  6
CONTINUOUS
 10
16.0705109586
 20
-29.6739476854
 11
14.3422546292
 21
-30.569972334
  0
LINE
  5
268
100
AcDbEntity
  8
ASSI
100
AcDbLine
 62
7
  6
CONTINUOUS
 10
15.890392981
 20
-29.9426834724
 11
14.2282140088
 21
-30.8044499268
  0
ARC
  5
269
100
AcDbEntity
  8
ASSI
100
AcDbCircle
 62
7
  6
CONTINUOUS
 10
-16.7800394037
 20
7.8832789396
 40
0.5
100
AcDbArc
 50
122.1754807991
 51
180.015358494
  0
ARC
  5
26A
100
AcDbEntity
  8
ASSI
100
AcDbCircle
 62
7
  6
CONTINUOUS
 10
-16.7800394037
 20
-12.5896624304
 40
0.5
100
AcDbArc
 50
179.9900082978
 51
239.9984015652
  0
ARC
  5
26B
100
AcDbEntity
  8
ASSI
100
AcDbCircle
 62
7
  6
CONTINUOUS
 10
13.9980773414
 20
-30.3605612986
 40
0.5
100
AcDbArc
 50
239.9984015652
 51
297.4174046156
  0
ARC
  5
26C
100
AcDbEntity
  8
ASSI
100
AcDbCircle
 62
7
  6
CONTINUOUS
 10
13.9980773414
 20
-8.6817303863
 40
0.5
100
AcDbArc
 50
239.9837780751
 51
297.8465900872
  0
ARC
  5
26D
100
AcDbEntity
  8
ASSI
100
AcDbCircle
 62
7
  6
CONTINUOUS
 10
-16.7800394037
 20
9.0891684819
 40
0.5
100
AcDbArc
 50
179.9841296142
 51
239.9984015652
  0
ARC
  5
26E
100
AcDbEntity
  8
ASSI
100
AcDbCircle
 62
7
  6
CONTINUOUS
 10
-16.7800394037
 20
29.5621098518
 40
0.5
100
AcDbArc
 50
122.5989154231
 51
180.0017380149
  0
ELLIPSE
  5
26F
100
AcDbEntity
  8
ASSI
100
AcDbEllipse
 62
7
  6
CONTINUOUS
 10
16.3926333202
 20
-8.5285641364
 30
0.0
 11
-0.2500883296
 21
0.432972707
 31
0.0
 40
0.5775954524
 41
-2.3562050126
 42
-0.7858655366
  0
ELLIPSE
  5
270
100
AcDbEntity
  8
ASSI
100
AcDbEllipse
 62
7
  6
CONTINUOUS
 10
16.0330836838
 20
-8.3280677227
 30
0.0
 11
0.499979581
 21
0.0076930498
 31
0.0
 40
0.5873737521
 41
7.0595459565
 42
7.4069329008
  0
ELLIPSE
  5
271
100
AcDbEntity
  8
ASSI
100
AcDbEllipse
 62
7
  6
CONTINUOUS
 10
16.3834963943
 20
-26.6108375243
 30
0.0
 11
0.2600728777
 21
0.4271418247
 31
0.0
 40
0.5922410672
 41
-1.033355665
 42
-0.7715562772
  0
ELLIPSE
  5
272
100
AcDbEntity
  8
ASSI
100
AcDbEllipse
 62
7
  6
CONTINUOUS
 10
15.716902546
 20
-29.4694262721
 30
0.0
 11
-0.1121548712
 21
0.4957473682
 31
0.0
 40
0.7039445592
 41
-2.9595186474
 42
-2.1483506142
  0
ELLIPSE
  5
273
100
AcDbEntity
  8
ASSI
100
AcDbEllipse
 62
7
  6
CONTINUOUS
 10
16.3926333202
 20
-7.4167347693
 30
0.0
 11
-0.2502024451
 21
0.4331706506
 31
0.0
 40
0.5770679437
 41
-3.1633994611
 42
-2.3566614272
  0
ELLIPSE
  5
274
100
AcDbEntity
  8
ASSI
100
AcDbEllipse
 62
7
  6
CONTINUOUS
 10
-15.1489351881
 20
30.6051820881
 30
0.0
 11
-0.3297163127
 21
0.381589989
 31
0.0
 40
0.4128243551
 41
-0.8709070521
 42
-0.0596421506
  0
ELLIPSE
  5
275
100
AcDbEntity
  8
ASSI
100
AcDbEllipse
 62
7
  6
CONTINUOUS
 10
16.3834963943
 20
9.8595405249
 30
0.0
 11
0.2600728777
 21
0.4271418247
 31
0.0
 40
0.5922410672
 41
-0.7715562772
 42
-0.5097568894
  0
ELLIPSE
  5
276
100
AcDbEntity
  8
ASSI
100
AcDbEllipse
 62
7
  6
CONTINUOUS
 10
15.716902546
 20
12.7836342202
 30
0.0
 11
-0.3313794069
 21
0.3842968449
 31
0.0
 40
0.4077379513
 41
-2.4333010859
 42
-0.8631899918
  0
ENDSEC
  0
SECTION
  2
OBJECTS
  0
DICTIONARY
  5
C
100
AcDbDictionary
280
0
281
1
  3
ACAD_GROUP
350
D
  3
ACAD_MLINESTYLE
350
17
  3
ACAD_LAYOUT
350
1A
  3
ACAD_PLOTSETTINGS
350
19
  3
ACAD_PLOTSTYLENAME
350
E
  0
DICTIONARY
  5
D
102
{ACAD_REACTORS
330
C
102
}
100
AcDbDictionary
280
0
281
1
  0
ACDBDICTIONARYWDFLT
  5
E
102
{ACAD_REACTORS
330
C
102
}
100
AcDbDictionary
281
1
  3
Normal
350
F
100
AcDbDictionaryWithDefault
340
F
  0
DICTIONARY
  5
17
102
{ACAD_REACTORS
330
C
102
}
100
AcDbDictionary
280
0
281
1
  3
Standard
350
18
  0
DICTIONARY
  5
19
102
{ACAD_REACTORS
330
C
102
}
100
AcDbDictionary
281
1
  0
DICTIONARY
  5
1A
102
{ACAD_REACTORS
330
C
102
}
100
AcDbDictionary
281
1
  3
Model
350
277
  3
Layout1
350
278
  0
ACDBPLACEHOLDER
  5
F
102
{ACAD_REACTORS
330
E
102
}
  0
MLINESTYLE
  5
18
102
{ACAD_REACTORS
330
17
102
}
100
AcDbMlineStyle
  2
STANDARD
 70
0
  3

 62
256
 51
90.0
 52
90.0
 71
2
 49
0.5
 62
256
  6
BYLAYER
 49
-0.5
 62
256
  6
BYLAYER
  0
LAYOUT
  5
277
102
{ACAD_REACTORS
330
1A
102
}
100
AcDbPlotSettings
  1

  2
none_device
  4

  6

 40
0.0
 41
0.0
 42
0.0
 43
0.0
 44
210.0
 45
297.0
 46
0.0
 47
0.0
 48
0.0
 49
0.0
140
0.0
141
0.0
142
1.0
143
1.0
 70
1024
 72
1
 73
0
 74
0
  7

 75
0
147
1.0
148
0.0
149
0.0
100
AcDbLayout
  1
Model
 70
0
 71
0
 10
0.0
 20
0.0
 11
210.0
 21
297.0
 12
0.0
 22
0.0
 32
0.0
 14
0.0
 24
0.0
 34
0.0
 15
0.0
 25
0.0
 35
0.0
146
0.0
 13
0.0
 23
0.0
 33
0.0
 16
1.0
 26
0.0
 36
0.0
 17
0.0
 27
1.0
 37
0.0
 76
0
330
212
345
0
346
0
  0
LAYOUT
  5
278
102
{ACAD_REACTORS
330
1A
102
}
100
AcDbPlotSettings
  1

  2
none_device
  4

  6

 40
0.0
 41
0.0
 42
0.0
 43
0.0
 44
210.0
 45
297.0
 46
0.0
 47
0.0
 48
0.0
 49
0.0
140
0.0
141
0.0
142
1.0
143
1.0
 70
0
 72
1
 73
0
 74
0
  7

 75
0
147
1.0
148
0.0
149
0.0
100
AcDbLayout
  1
Layout1
 70
0
 71
1
 10
0.0
 20
0.0
 11
210.0
 21
297.0
 12
0.0
 22
0.0
 32
0.0
 14
0.0
 24
0.0
 34
0.0
 15
0.0
 25
0.0
 35
0.0
146
0.0
 13
0.0
 23
0.0
 33
0.0
 16
1.0
 26
0.0
 36
0.0
 17
0.0
 27
1.0
 37
0.0
 76
0
330
213
345
0
346
0
  0
ENDSEC
  0
EOF
