  0
SECTION
  2
HEADER
  9
$ACADVER
  1
AC1024
  9
$DWGCODEPAGE
  3
ANSI_1252
  9
$EXTMAX
 10
210.0
 20
297.0
 30
0.0
  9
$EXTMIN
 10
0.0
 20
0.0
 30
0.0
  9
$LIMMIN
 10
0.0
 20
0.0
  9
$LIMMAX
 10
210.0
 20
297.0
  9
$VIEWCTR
 10
105.0
 20
148.5
  9
$VIEWSIZE
 40
297.0
  9
$CLAYER
  8
0
  9
$LTSCALE
 40
19.36
  9
$CELTYPE
  6
BYLAYER
  9
$DIMSCALE
 40
1.0
  9
$DIMASZ
 40
3.0
  9
$DIMEXO
 40
0.5
  9
$DIMDLI
 40
13.376
  9
$DIMEXE
 40
1.5
  9
$DIMCEN
 40
3.168
  9
$DIMLFAC
 40
1.0
  9
$DIMBLK
  1
_FILLED
  9
$DIMALT
 70
0
  9
$DIMALTF
 40
0.0393700787
  9
$DIMTXT
 40
3.0
  9
$DIMTOL
 70
1
  9
$DIMLIM
 70
0
  9
$DIMTFAC
 40
1.0
  9
$DIMTP
 40
0.01
  9
$DIMTM
 40
0.01
  9
$DIMGAP
 40
0.625
  9
$DIMDSEP
 70
44
  9
$AUNITS
 70
0
  9
$PDMODE
 70
3
  9
$PDSIZE
 40
3.0
  9
$HANDSEED
  5
280
  9
$TILEMODE
 70
1
  9
$MEASUREMENT
 70
1
  9
$INSUNITS
 70
4
  0
ENDSEC
  0
SECTION
  2
CLASSES
  0
CLASS
  1
ACDBDICTIONARYWDFLT
  2
AcDbDictionaryWithDefault
  3
AutoCAD 2000
 90
0
 91
1
280
0
281
0
  0
CLASS
  1
ACDBPLACEHOLDER
  2
AcDbPlaceHolder
  3
AutoCAD 2000
 90
0
 91
1
280
0
281
0
  0
CLASS
  1
LAYOUT
  2
AcDbLayout
  3
AutoCAD 2000
 90
0
 91
0
280
0
281
0
  0
ENDSEC
  0
SECTION
  2
TABLES
  0
TABLE
  2
VPORT
  5
8
100
AcDbSymbolTable
 70
2
  0
VPORT
  5
1F4
100
AcDbSymbolTableRecord
100
AcDbViewportTableRecord
  2
*ACTIVE
 70
0
 10
0.0
 20
0.0
 11
1.0
 21
1.0
 12
105.0
 22
148.5
 13
0.0
 23
0.0
 14
1.0
 24
1.0
 15
0.0
 25
0.0
 16
0.0
 26
0.0
 36
1.0
 17
0.0
 27
0.0
 37
0.0
 40
297.0
 41
0.7070707071
 42
50.0
 43
0.0
 44
0.0
 50
0.0
 51
0.0
 71
0
 72
100
 73
1
 74
1
 75
0
 76
0
 77
0
 78
0
  0
ENDTAB
  0
TABLE
  2
LTYPE
  5
5
100
AcDbSymbolTable
 70
6
  0
LTYPE
  5
14
100
AcDbSymbolTableRecord
100
AcDbLinetypeTableRecord
  2
BYBLOCK
 70
0
  3

 72
65
 73
0
 40
0.0
  0
LTYPE
  5
15
100
AcDbSymbolTableRecord
100
AcDbLinetypeTableRecord
  2
BYLAYER
 70
0
  3

 72
65
 73
0
 40
0.0
  0
LTYPE
  5
16
100
AcDbSymbolTableRecord
100
AcDbLinetypeTableRecord
  2
CONTINUOUS
 70
64
  3
Solid line
 72
65
 73
0
 40
0.0
  0
LTYPE
  5
1F5
100
AcDbSymbolTableRecord
100
AcDbLinetypeTableRecord
  2
CENTER
 70
64
  3
____ _ ____ _ ____ _ ____ _ ____ _ ____ _ ____
 72
65
 73
4
 40
0.6
 49
0.375
 74
0
 49
-0.075
 74
0
 49
0.075
 74
0
 49
-0.075
 74
0
  0
LTYPE
  5
1F6
100
AcDbSymbolTableRecord
100
AcDbLinetypeTableRecord
  2
HIDDEN
 70
64
  3
- - - - - - - - - - - - - - - - - - - -
 72
65
 73
2
 40
0.2
 49
0.1
 74
0
 49
-0.1
 74
0
  0
LTYPE
  5
1F7
100
AcDbSymbolTableRecord
100
AcDbLinetypeTableRecord
  2
PHANTOM
 70
64
  3
_____ _ _ _____ _ _ _____ _ _ _____
 72
65
 73
6
 40
0.8
 49
0.45
 74
0
 49
-0.05
 74
0
 49
0.1
 74
0
 49
-0.05
 74
0
 49
0.1
 74
0
 49
-0.05
 74
0
  0
LTYPE
  5
1F8
100
AcDbSymbolTableRecord
100
AcDbLinetypeTableRecord
  2
DOT
 70
64
  3
. . . . . . . . . . . . . . . . . . . .
 72
65
 73
2
 40
0.2
 49
0.1
 74
0
 49
-0.1
 74
0
  0
LTYPE
  5
1F9
100
AcDbSymbolTableRecord
100
AcDbLinetypeTableRecord
  2
DASHED
 70
64
  3
- - - - - - - - - - - - - - - - - - - -
 72
65
 73
2
 40
0.2
 49
0.1
 74
0
 49
-0.1
 74
0
  0
ENDTAB
  0
TABLE
  2
LAYER
  5
2
100
AcDbSymbolTable
 70
36
  0
LAYER
  5
10
100
AcDbSymbolTableRecord
100
AcDbLayerTableRecord
  2
0
 70
0
 62
7
  6
CONTINUOUS
370
-3
390
F
  0
LAYER
  5
1FA
100
AcDbSymbolTableRecord
100
AcDbLayerTableRecord
  2
DEFAULT_1
 70
0
 62
7
  6
CENTER
370
-3
390
F
  0
LAYER
  5
1FB
100
AcDbSymbolTableRecord
100
AcDbLayerTableRecord
  2
DEFAULT_2
 70
0
 62
7
  6
HIDDEN
370
-3
390
F
  0
LAYER
  5
1FC
100
AcDbSymbolTableRecord
100
AcDbLayerTableRecord
  2
DEFAULT_3
 70
0
 62
7
  6
PHANTOM
370
-3
390
F
  0
LAYER
  5
1FD
100
AcDbSymbolTableRecord
100
AcDbLayerTableRecord
  2
ASSI
 70
0
 62
7
  6
CONTINUOUS
370
-3
390
F
  0
LAYER
  5
1FE
100
AcDbSymbolTableRecord
100
AcDbLayerTableRecord
  2
COORDINATE
 70
0
 62
7
  6
CONTINUOUS
370
-3
390
F
  0
LAYER
  5
1FF
100
AcDbSymbolTableRecord
100
AcDbLayerTableRecord
  2
COPY_PUBLISH
 70
0
 62
7
  6
CONTINUOUS
370
-3
390
F
  0
LAYER
  5
200
100
AcDbSymbolTableRecord
100
AcDbLayerTableRecord
  2
COSMETICI
 70
0
 62
7
  6
CONTINUOUS
370
-3
390
F
  0
LAYER
  5
201
100
AcDbSymbolTableRecord
100
AcDbLayerTableRecord
  2
CURVE
 70
0
 62
7
  6
CONTINUOUS
370
-3
390
F
  0
LAYER
  5
202
100
AcDbSymbolTableRecord
100
AcDbLayerTableRecord
  2
DRAFT
 70
0
 62
7
  6
CONTINUOUS
370
-3
390
F
  0
LAYER
  5
203
100
AcDbSymbolTableRecord
100
AcDbLayerTableRecord
  2
IMPORT_IGES
 70
0
 62
7
  6
CONTINUOUS
370
-3
390
F
  0
LAYER
  5
204
100
AcDbSymbolTableRecord
100
AcDbLayerTableRecord
  2
INTF_1
 70
0
 62
7
  6
CONTINUOUS
370
-3
390
F
  0
LAYER
  5
205
100
AcDbSymbolTableRecord
100
AcDbLayerTableRecord
  2
INTF_2
 70
0
 62
7
  6
CONTINUOUS
370
-3
390
F
  0
LAYER
  5
206
100
AcDbSymbolTableRecord
100
AcDbLayerTableRecord
  2
INTF_4
 70
0
 62
7
  6
CONTINUOUS
370
-3
390
F
  0
LAYER
  5
207
100
AcDbSymbolTableRecord
100
AcDbLayerTableRecord
  2
NOTE
 70
0
 62
7
  6
CONTINUOUS
370
-3
390
F
  0
LAYER
  5
208
100
AcDbSymbolTableRecord
100
AcDbLayerTableRecord
  2
PIANI
 70
0
 62
7
  6
CONTINUOUS
370
-3
390
F
  0
LAYER
  5
209
100
AcDbSymbolTableRecord
100
AcDbLayerTableRecord
  2
PUNTI
 70
0
 62
7
  6
CONTINUOUS
370
-3
390
F
  0
LAYER
  5
20A
100
AcDbSymbolTableRecord
100
AcDbLayerTableRecord
  2
RACCORDO
 70
0
 62
7
  6
CONTINUOUS
370
-3
390
F
  0
LAYER
  5
20B
100
AcDbSymbolTableRecord
100
AcDbLayerTableRecord
  2
SIMBOLI
 70
0
 62
7
  6
CONTINUOUS
370
-3
390
F
  0
LAYER
  5
20C
100
AcDbSymbolTableRecord
100
AcDbLayerTableRecord
  2
SMUSSO
 70
0
 62
7
  6
CONTINUOUS
370
-3
390
F
  0
LAYER
  5
20D
100
AcDbSymbolTableRecord
100
AcDbLayerTableRecord
  2
SNAPLINE
 70
0
 62
7
  6
CONTINUOUS
370
-3
390
F
  0
LAYER
  5
20E
100
AcDbSymbolTableRecord
100
AcDbLayerTableRecord
  2
SUPERFICI
 70
0
 62
7
  6
CONTINUOUS
370
-3
390
F
  0
LAYER
  5
20F
100
AcDbSymbolTableRecord
100
AcDbLayerTableRecord
  2
TRASH
 70
0
 62
7
  6
CONTINUOUS
370
-3
390
F
  0
ENDTAB
  0
TABLE
  2
STYLE
  5
3
100
AcDbSymbolTable
 70
1
  0
STYLE
  5
11
100
AcDbSymbolTableRecord
100
AcDbTextStyleTableRecord
  2
STANDARD
 70
0
 40
0.0
 41
0.8
 50
0.0
 71
0
 42
0.2
  3
txt
  4

  0
STYLE
  5
210
100
AcDbSymbolTableRecord
100
AcDbTextStyleTableRecord
  2
TEXTSTYLE_1
 70
0
 40
0.0
 41
0.8
 50
0.0
 71
0
 42
0.2
  3
gdt
  4

  0
ENDTAB
  0
TABLE
  2
VIEW
  5
6
100
AcDbSymbolTable
 70
0
  0
ENDTAB
  0
TABLE
  2
UCS
  5
7
100
AcDbSymbolTable
 70
0
  0
ENDTAB
  0
TABLE
  2
APPID
  5
9
100
AcDbSymbolTable
 70
1
  0
APPID
  5
211
100
AcDbSymbolTableRecord
100
AcDbRegAppTableRecord
  2
ACAD
 70
0
  0
ENDTAB
  0
TABLE
  2
BLOCK_RECORD
  5
1
100
AcDbSymbolTable
 70
0
  0
BLOCK_RECORD
  5
212
100
AcDbSymbolTableRecord
100
AcDbBlockTableRecord
  2
*Model_Space
  0
BLOCK_RECORD
  5
213
100
AcDbSymbolTableRecord
100
AcDbBlockTableRecord
  2
*Paper_Space
  0
BLOCK_RECORD
  5
214
100
AcDbSymbolTableRecord
100
AcDbBlockTableRecord
  2
_FILLED
  0
ENDTAB
  0
TABLE
  2
DIMSTYLE
  5
A
100
AcDbSymbolTable
 70
1
100
AcDbDimStyleTable
 71
0
  0
DIMSTYLE
105
215
100
AcDbSymbolTableRecord
100
AcDbDimStyleTableRecord
  2
STANDARD
 70
0
  3

  4

 40
1.0
 41
3.0
 42
0.5
 43
0.38
 44
1.5
 45
0.0
 46
0.0
 47
0.01
 48
0.01
140
3.0
141
0.09
142
0.0
143
25.4
144
1.0
145
0.0
146
1.0
147
0.625
 71
1
 72
0
 73
0
 74
0
 75
0
 76
0
 77
1
 78
8
 79
2
170
0
171
1
172
0
173
0
174
0
175
0
176
0
177
0
178
0
270
2
179
2
271
2
272
2
273
2
274
2
275
0
280
0
281
0
282
0
283
1
284
8
285
0
286
0
287
3
288
0
340
11
278
44
341
214
342
214
343
214
344
214
  0
ENDTAB
  0
ENDSEC
  0
SECTION
  2
BLOCKS
  0
BLOCK
  5
20
100
AcDbEntity
  8
0
100
AcDbBlockBegin
  2
*Model_Space
 70
0
 10
0.0
 20
0.0
 30
0.0
  3
*Model_Space
  1

  0
ENDBLK
  5
21
100
AcDbEntity
  8
0
100
AcDbBlockEnd
  0
BLOCK
  5
1C
100
AcDbEntity
  8
0
100
AcDbBlockBegin
  2
*Paper_Space
 70
0
 10
0.0
 20
0.0
 30
0.0
  3
*Paper_Space
  1

  0
ENDBLK
  5
1D
100
AcDbEntity
  8
0
100
AcDbBlockEnd
  0
BLOCK
  5
216
100
AcDbEntity
  8
0
100
AcDbBlockBegin
  2
_FILLED
 70
64
 10
0.0
 20
0.0
  3
_FILLED
  1

  0
SOLID
  5
217
100
AcDbEntity
  8
0
  6
BYBLOCK
 62
0
100
AcDbTrace
 10
0.0
 20
0.0
 11
-1.0
 21
0.3166666667
 12
-1.0
 22
-0.3166666667
 13
-1.0
 23
-0.3166666667
  0
ENDBLK
  5
218
100
AcDbEntity
  8
0
  6
BYBLOCK
 62
0
100
AcDbBlockEnd
  0
ENDSEC
  0
SECTION
  2
ENTITIES
  0
LWPOLYLINE
  5
219
100
AcDbEntity
  8
ASSI
100
AcDbPolyline
 62
250
  6
CONTINUOUS
 90
16
 70
0
 10
-16.7296120291
 20
29.6670049876
 10
-16.7658931996
 20
29.6427964623
 10
-16.801691944
 20
29.6145775137
 10
-16.8366289973
 20
29.5826471036
 10
-16.8703342235
 20
29.5473435143
 10
-16.9024505372
 20
29.509040765
 10
-16.9326376861
 20
29.4681446491
 10
-16.9605758566
 20
29.4250884351
 10
-16.9859690615
 20
29.3803282763
 10
-17.0085482759
 20
29.3343383782
 10
-17.0280742874
 20
29.2876059744
 10
-17.0443402302
 20
29.2406261652
 10
-17.057173777
 20
29.193896672
 10
-17.0664389645
 20
29.1479125641
 10
-17.0720376339
 20
29.103161014
 10
-17.0739104709
 20
29.060116136
  0
LINE
  5
21A
100
AcDbEntity
  8
ASSI
100
AcDbLine
 62
7
  6
CONTINUOUS
 10
-15.4089930209
 20
30.69635058
 11
-16.9897310303
 21
29.6854869487
  0
LINE
  5
21B
100
AcDbEntity
  8
ASSI
100
AcDbLine
 62
250
  6
CONTINUOUS
 10
-15.1811374696
 20
30.6572365167
 11
-16.7296120291
 21
29.6670049876
  0
LINE
  5
21C
100
AcDbEntity
  8
CURVE
100
AcDbLine
 62
7
  6
CONTINUOUS
 10
-12.4683012221
 20
16.4909929918
 11
-12.229990794
 21
16.7293034199
  0
LINE
  5
21D
100
AcDbEntity
  8
CURVE
100
AcDbLine
 62
7
  6
CONTINUOUS
 10
-11.648445082
 20
16.315242784
 11
-10.9350190663
 21
17.0286687998
  0
LINE
  5
21E
100
AcDbEntity
  8
CURVE
100
AcDbLine
 62
7
  6
CONTINUOUS
 10
-10.3534728681
 20
16.61460865
 11
-9.6400473385
 21
17.3280341796
  0
LWPOLYLINE
  5
21F
100
AcDbEntity
  8
ASSI
100
AcDbPolyline
 62
250
  6
CONTINUOUS
 90
16
 70
0
 10
13.7042062742
 20
-30.8625550144
 10
13.7418835996
 20
-30.8822045726
 10
13.7829831924
 20
-30.8996094646
 10
13.8271136209
 20
-30.9145607525
 10
13.8739047789
 20
-30.9268857422
 10
13.9228316713
 20
-30.9364011141
 10
13.9731968635
 20
-30.9429526755
 10
14.0243913772
 20
-30.9464678461
 10
14.0759403851
 20
-30.9469205393
 10
14.1273139751
 20
-30.9443045193
 10
14.1779768576
 20
-30.9386427342
 10
14.2273762216
 20
-30.9299925888
 10
14.2749676444
 20
-30.9184477348
 10
14.3202387292
 20
-30.9041330532
 10
14.3627127062
 20
-30.8871999098
 10
14.4019369526
 20
-30.8678287531
  0
LINE
  5
220
100
AcDbEntity
  8
ASSI
100
AcDbLine
 62
7
  6
CONTINUOUS
 10
-16.9703691603
 20
-13.3205245768
 11
13.8077475847
 21
-31.091423445
  0
LINE
  5
221
100
AcDbEntity
  8
ASSI
100
AcDbLine
 62
250
  6
CONTINUOUS
 10
-17.0739104709
 20
-13.0916561462
 11
13.7042062742
 21
-30.8625550144
  0
LWPOLYLINE
  5
222
100
AcDbEntity
  8
ASSI
100
AcDbPolyline
 62
250
  6
CONTINUOUS
 90
9
 70
0
 10
-17.0739104709
 20
-13.0916561462
 10
-17.1079352501
 20
-13.0699067333
 10
-17.1380755695
 20
-13.0461809583
 10
-17.1639691245
 20
-13.0207044478
 10
-17.1853163357
 20
-12.9936904841
 10
-17.2017989592
 20
-12.9654420259
 10
-17.2131491216
 20
-12.9363618843
 10
-17.2192405446
 20
-12.9068012487
 10
-17.2203570803
 20
-12.8875188496
  0
LWPOLYLINE
  5
223
100
AcDbEntity
  8
ASSI
100
AcDbPolyline
 62
250
  6
CONTINUOUS
 90
9
 70
0
 10
-17.2203570264
 20
7.5852884923
 10
-17.2193837174
 20
7.5674175139
 10
-17.2135154566
 20
7.5378280829
 10
-17.2023904632
 20
7.508728124
 10
-17.1861223585
 20
7.4804352734
 10
-17.1648876286
 20
7.4532618316
 10
-17.1389160491
 20
7.4275005676
 10
-17.1084821942
 20
7.4034227956
 10
-17.0739104709
 20
7.3812852237
  0
LWPOLYLINE
  5
224
100
AcDbEntity
  8
ASSI
100
AcDbPolyline
 62
250
  6
CONTINUOUS
 90
9
 70
0
 10
-17.0739104709
 20
-13.0916561462
 10
-17.0720376339
 20
-13.1325383191
 10
-17.0664389645
 20
-13.1708246661
 10
-17.057173777
 20
-13.2061095677
 10
-17.0443402302
 20
-13.2380192028
 10
-17.0280742874
 20
-13.2662155089
 10
-17.0085482759
 20
-13.2903997641
 10
-16.9859690615
 20
-13.3103157514
 10
-16.9703691603
 20
-13.3205245768
  0
LINE
  5
225
100
AcDbEntity
  8
ASSI
100
AcDbLine
 62
7
  6
CONTINUOUS
 10
-17.2203570803
 20
29.2642534326
 11
-17.2203570803
 21
8.7913120627
  0
LINE
  5
226
100
AcDbEntity
  8
ASSI
100
AcDbLine
 62
7
  6
CONTINUOUS
 10
-17.2203570803
 20
7.5854225204
 11
-17.2203570803
 21
-12.8875188496
  0
LINE
  5
227
100
AcDbEntity
  8
ASSI
100
AcDbLine
 62
250
  6
CONTINUOUS
 10
-17.0739104709
 20
29.060116136
 11
-17.0739104709
 21
8.587174766
  0
LINE
  5
228
100
AcDbEntity
  8
ASSI
100
AcDbLine
 62
250
  6
CONTINUOUS
 10
-17.0739104709
 20
7.3812852237
 11
-17.0739104709
 21
-13.0916561462
  0
LWPOLYLINE
  5
229
100
AcDbEntity
  8
ASSI
100
AcDbPolyline
 62
250
  6
CONTINUOUS
 90
16
 70
0
 10
-17.0739104709
 20
7.3812852237
 10
-17.0720044719
 20
7.4247181436
 10
-17.0663070517
 20
7.4698836126
 10
-17.0568796782
 20
7.5162946467
 10
-17.043822238
 20
7.5634565756
 10
-17.0272765015
 20
7.610855229
 10
-17.0074287259
 20
7.6579624415
 10
-16.9845019715
 20
7.7042605393
 10
-16.9587420456
 20
7.7492632963
 10
-16.9304191772
 20
7.7925023788
 10
-16.8997923469
 20
7.8335706636
 10
-16.8672314145
 20
7.8719613096
 10
-16.8332275608
 20
7.9071254903
 10
-16.798209452
 20
7.9386864617
 10
-16.7625152804
 20
7.9664034042
 10
-16.7265274377
 20
7.9900327955
  0
LINE
  5
22A
100
AcDbEntity
  8
CURVE
100
AcDbLine
 62
7
  6
CONTINUOUS
 10
-9.4526556139
 20
16.5198195563
 11
-9.222768533
 21
16.7497066372
  0
LINE
  5
22B
100
AcDbEntity
  8
CURVE
100
AcDbLine
 62
7
  6
CONTINUOUS
 10
-9.0353768589
 20
15.9414919634
 11
-8.8054897274
 21
16.1713790949
  0
LINE
  5
22C
100
AcDbEntity
  8
CURVE
100
AcDbLine
 62
7
  6
CONTINUOUS
 10
-8.6180981038
 20
15.3631643706
 11
-8.3882109219
 21
15.5930515525
  0
LINE
  5
22D
100
AcDbEntity
  8
CURVE
100
AcDbLine
 62
7
  6
CONTINUOUS
 10
-8.2008193487
 20
14.7848367777
 11
-7.9709321163
 21
15.0147240101
  0
LWPOLYLINE
  5
22E
100
AcDbEntity
  8
ASSI
100
AcDbPolyline
 62
250
  6
CONTINUOUS
 90
9
 70
0
 10
13.8077475847
 20
-31.091423445
 10
13.7921476835
 20
-31.0812146196
 10
13.7695684691
 20
-31.0612986323
 10
13.7500424576
 20
-31.0371143771
 10
13.7337765148
 20
-31.008918071
 10
13.720942968
 20
-30.9770084359
 10
13.7116777805
 20
-30.9417235343
 10
13.7060791112
 20
-30.9034371873
 10
13.7042062742
 20
-30.8625550144
  0
LINE
  5
22F
100
AcDbEntity
  8
CURVE
100
AcDbLine
 62
7
  6
CONTINUOUS
 10
-7.7835405937
 20
14.2065091849
 11
-7.5536533108
 21
14.4363964678
  0
LINE
  5
230
100
AcDbEntity
  8
CURVE
100
AcDbLine
 62
7
  6
CONTINUOUS
 10
-7.3662618386
 20
13.628181592
 11
-7.1363745052
 21
13.8580689254
  0
LINE
  5
231
100
AcDbEntity
  8
CURVE
100
AcDbLine
 62
7
  6
CONTINUOUS
 10
-6.9489830836
 20
13.0498539992
 11
-6.8117927478
 21
13.1870443349
  0
LINE
  5
232
100
AcDbEntity
  8
ASSI
100
AcDbLine
 62
7
  6
CONTINUOUS
 10
-16.9866141336
 20
8.0086330845
 11
-16.6890211997
 21
8.1958595491
  0
LINE
  5
233
100
AcDbEntity
  8
ASSI
100
AcDbLine
 62
250
  6
CONTINUOUS
 10
-16.7265274377
 20
7.9900327955
 11
-16.5379837679
 21
8.1086524289
  0
LINE
  5
234
100
AcDbEntity
  8
CURVE
100
AcDbLine
 62
250
  6
CONTINUOUS
 10
-12.4683012221
 20
16.6742119532
 11
-12.4683012221
 21
16.1257121201
  0
LINE
  5
235
100
AcDbEntity
  8
CURVE
100
AcDbLine
 62
250
  6
CONTINUOUS
 10
-12.4678140255
 20
-5.4759755483
 11
-12.4678140255
 21
-6.0244753814
  0
LINE
  5
236
100
AcDbEntity
  8
CURVE
100
AcDbLine
 62
250
  6
CONTINUOUS
 10
-12.4678140255
 20
-6.0244753814
 11
-9.6395594348
 21
-9.9442947081
  0
LINE
  5
237
100
AcDbEntity
  8
CURVE
100
AcDbLine
 62
250
  6
CONTINUOUS
 10
-9.6395594348
 20
-9.3957956915
 11
-12.4678140255
 21
-5.4759755483
  0
LINE
  5
238
100
AcDbEntity
  8
CURVE
100
AcDbLine
 62
250
  6
CONTINUOUS
 10
-9.6395594348
 20
-9.9442947081
 11
-6.8113055513
 21
-9.2904724818
  0
LINE
  5
239
100
AcDbEntity
  8
CURVE
100
AcDbLine
 62
250
  6
CONTINUOUS
 10
-6.8113055513
 20
-8.7419726487
 11
-9.6395594348
 21
-9.3957956915
  0
LINE
  5
23A
100
AcDbEntity
  8
CURVE
100
AcDbLine
 62
250
  6
CONTINUOUS
 10
-6.8117927478
 20
12.8597150197
 11
-6.8117927478
 21
13.4082148529
  0
LINE
  5
23B
100
AcDbEntity
  8
CURVE
100
AcDbLine
 62
250
  6
CONTINUOUS
 10
-6.8113055513
 20
-9.2904724818
 11
-6.8113055513
 21
-8.7419726487
  0
LINE
  5
23C
100
AcDbEntity
  8
CURVE
100
AcDbLine
 62
7
  6
CONTINUOUS
 10
-12.4678140255
 20
-5.9865238249
 11
-12.2538329177
 21
-5.7725427171
  0
LINE
  5
23D
100
AcDbEntity
  8
CURVE
100
AcDbLine
 62
7
  6
CONTINUOUS
 10
-12.0664414868
 20
-6.580757634
 11
-11.8365541627
 21
-6.3508703099
  0
LINE
  5
23E
100
AcDbEntity
  8
CURVE
100
AcDbLine
 62
7
  6
CONTINUOUS
 10
-11.6491626812
 20
-7.1590851764
 11
-11.4192754076
 21
-6.9291979028
  0
LINE
  5
23F
100
AcDbEntity
  8
CURVE
100
AcDbLine
 62
7
  6
CONTINUOUS
 10
-11.2318838757
 20
-7.7374127188
 11
-11.0019966526
 21
-7.5075254956
  0
LINE
  5
240
100
AcDbEntity
  8
ASSI
100
AcDbLine
 62
250
  6
CONTINUOUS
 10
14.048504716
 20
11.8961061194
 11
15.6802564312
 21
12.8382544625
  0
LINE
  5
241
100
AcDbEntity
  8
ASSI
100
AcDbLine
 62
250
  6
CONTINUOUS
 10
14.4019369526
 20
11.2839435291
 11
16.1301932821
 21
12.2818121521
  0
LWPOLYLINE
  5
242
100
AcDbEntity
  8
ASSI
100
AcDbPolyline
 62
250
  6
CONTINUOUS
 90
16
 70
0
 10
13.7042062742
 20
-10.3896136445
 10
13.7418641934
 20
-10.4092540704
 10
13.7829466123
 20
-10.4266542003
 10
13.8270637133
 20
-10.4416043986
 10
13.8738480595
 20
-10.4539314205
 10
13.9227744262
 20
-10.4634504789
 10
13.9731417285
 20
-10.470005841
 10
14.024340239
 20
-10.4735244997
 10
14.0758958187
 20
-10.4739801045
 10
14.1272764241
 20
-10.4713661942
 10
14.1779458713
 20
-10.4657057953
 10
14.2273518516
 20
-10.4570562926
 10
14.2749498819
 20
-10.445511311
 10
14.3202273956
 20
-10.4311957192
 10
14.362707363
 20
-10.4142609142
 10
14.4019369526
 20
-10.3948873832
  0
LINE
  5
243
100
AcDbEntity
  8
CURVE
100
AcDbLine
 62
7
  6
CONTINUOUS
 10
-10.8146050701
 20
-8.3157402611
 11
-10.5847178975
 21
-8.0858530885
  0
LINE
  5
244
100
AcDbEntity
  8
CURVE
100
AcDbLine
 62
7
  6
CONTINUOUS
 10
-10.3973262646
 20
-8.8940678035
 11
-10.1674391425
 21
-8.6641806813
  0
LINE
  5
245
100
AcDbEntity
  8
CURVE
100
AcDbLine
 62
7
  6
CONTINUOUS
 10
-9.980047459
 20
-9.4723953458
 11
-9.7501603874
 21
-9.2425082742
  0
LWPOLYLINE
  5
246
100
AcDbEntity
  8
ASSI
100
AcDbPolyline
 62
250
  6
CONTINUOUS
 90
9
 70
0
 10
-16.7265274377
 20
7.9900327955
 10
-16.7643935133
 20
8.0085645308
 10
-16.8017773968
 20
8.0224629274
 10
-16.8382697406
 20
8.0315758002
 10
-16.8734709593
 20
8.0358033647
 10
-16.9069956051
 20
8.0350993296
 10
-16.9384765883
 20
8.029471404
 10
-16.9675691972
 20
8.0189812129
 10
-16.9866141336
 20
8.0086330845
  0
LINE
  5
247
100
AcDbEntity
  8
ASSI
100
AcDbLine
 62
250
  6
CONTINUOUS
 10
13.7042062742
 20
-10.3896136445
 11
-17.0739104709
 21
7.3812852237
  0
LINE
  5
248
100
AcDbEntity
  8
ASSI
100
AcDbLine
 62
250
  6
CONTINUOUS
 10
14.0515893073
 20
-9.7808660727
 11
-16.7265274377
 21
7.9900327955
  0
LINE
  5
249
100
AcDbEntity
  8
ASSI
100
AcDbLine
 62
7
  6
CONTINUOUS
 10
-16.9703691603
 20
8.3583063354
 11
13.8077475847
 21
-9.4125925327
  0
LINE
  5
24A
100
AcDbEntity
  8
ASSI
100
AcDbLine
 62
250
  6
CONTINUOUS
 10
-17.0739104709
 20
8.587174766
 11
13.7042062742
 21
-9.1837241022
  0
LWPOLYLINE
  5
24B
100
AcDbEntity
  8
ASSI
100
AcDbPolyline
 62
250
  6
CONTINUOUS
 90
9
 70
0
 10
-17.0739104709
 20
8.587174766
 10
-17.1079264949
 20
8.6089179766
 10
-17.1380624623
 20
8.6326384504
 10
-17.1639552971
 20
8.6581111116
 10
-17.1853049499
 20
8.6851238067
 10
-17.2017913804
 20
8.7133732777
 10
-17.2131448691
 20
8.7424547268
 10
-17.2192389721
 20
8.7720161051
 10
-17.2203570803
 20
8.7913120627
  0
LWPOLYLINE
  5
24C
100
AcDbEntity
  8
ASSI
100
AcDbPolyline
 62
250
  6
CONTINUOUS
 90
9
 70
0
 10
-16.9703691603
 20
8.3583063354
 10
-16.9850165763
 20
8.3678183672
 10
-17.0078316112
 20
8.3876848201
 10
-17.0275665558
 20
8.4118758592
 10
-17.0440099637
 20
8.4401322943
 10
-17.0569856553
 20
8.4721513772
 10
-17.0663546051
 20
8.5075900457
 10
-17.0720164311
 20
8.546068599
 10
-17.0739104709
 20
8.587174766
  0
LINE
  5
24D
100
AcDbEntity
  8
CURVE
100
AcDbLine
 62
7
  6
CONTINUOUS
 10
-9.4012490067
 20
-9.8892032414
 11
-8.6878233877
 21
-9.1757776224
  0
LINE
  5
24E
100
AcDbEntity
  8
CURVE
100
AcDbLine
 62
7
  6
CONTINUOUS
 10
-8.106277279
 20
-9.5898378616
 11
-7.3928511737
 21
-8.8764117563
  0
LINE
  5
24F
100
AcDbEntity
  8
ASSI
100
AcDbLine
 62
7
  6
CONTINUOUS
 10
16.4463193978
 20
-8.4146610743
 11
16.4524772202
 21
-8.4182165238
  0
LINE
  5
250
100
AcDbEntity
  8
CURVE
100
AcDbLine
 62
250
  6
CONTINUOUS
 10
-9.6400473385
 20
16.7795351629
 11
-6.8117927478
 21
12.8597150197
  0
LINE
  5
251
100
AcDbEntity
  8
CURVE
100
AcDbLine
 62
250
  6
CONTINUOUS
 10
-6.8117927478
 20
13.4082148529
 11
-9.6400473385
 21
17.3280341796
  0
LWPOLYLINE
  5
252
100
AcDbEntity
  8
ASSI
100
AcDbPolyline
 62
250
  6
CONTINUOUS
 90
16
 70
0
 10
14.4019369526
 20
-10.3948873832
 10
14.3993775838
 20
-10.3513113989
 10
14.3930542544
 20
-10.3059083795
 10
14.3830366727
 20
-10.2591785934
 10
14.3694334213
 20
-10.2116312296
 10
14.3523954254
 20
-10.1637957867
 10
14.332118286
 20
-10.116216331
 10
14.3088343277
 20
-10.0694268403
 10
14.2827985255
 20
-10.02392998
 10
14.2542901905
 20
-9.9802102301
 10
14.2235774797
 20
-9.9386902347
 10
14.1910383136
 20
-9.8998915032
 10
14.1571690144
 20
-9.864376232
 10
14.1224022379
 20
-9.8325328458
 10
14.0870806341
 20
-9.8046122302
 10
14.0515893073
 20
-9.7808660727
  0
LWPOLYLINE
  5
253
100
AcDbEntity
  8
ASSI
100
AcDbPolyline
 62
250
  6
CONTINUOUS
 90
9
 70
0
 10
13.7042062742
 20
-9.1837241022
 10
13.7061122731
 20
-9.2249560222
 10
13.7118096933
 20
-9.2635422533
 10
13.7212370669
 20
-9.2990667926
 10
13.734294507
 20
-9.3311503169
 10
13.7508402435
 20
-9.3594423686
 10
13.7706880191
 20
-9.3836298673
 10
13.7936147736
 20
-9.4034527237
 10
13.807637094
 20
-9.4125286803
  0
LINE
  5
254
100
AcDbEntity
  8
ASSI
100
AcDbLine
 62
250
  6
CONTINUOUS
 10
13.7042062742
 20
-30.8625550144
 11
13.7042062742
 21
-10.3896136445
  0
LINE
  5
255
100
AcDbEntity
  8
ASSI
100
AcDbLine
 62
250
  6
CONTINUOUS
 10
13.7042062742
 20
-9.1837241022
 11
13.7042062742
 21
11.2892172678
  0
LWPOLYLINE
  5
256
100
AcDbEntity
  8
ASSI
100
AcDbPolyline
 62
250
  6
CONTINUOUS
 90
16
 70
0
 10
13.7042062742
 20
11.2892172678
 10
13.7060791112
 20
11.3322621458
 10
13.7116777805
 20
11.3770136959
 10
13.720942968
 20
11.4229978038
 10
13.7337765148
 20
11.469727297
 10
13.7500424576
 20
11.5167071062
 10
13.7695684691
 20
11.56343951
 10
13.7921476835
 20
11.6094294082
 10
13.8175408884
 20
11.6541895669
 10
13.8454790589
 20
11.6972457809
 10
13.8756662079
 20
11.7381418968
 10
13.9077825215
 20
11.7764446461
 10
13.9414877477
 20
11.8117482354
 10
13.976424801
 20
11.8436786455
 10
14.0122235454
 20
11.8718975941
 10
14.048504716
 20
11.8961061194
  0
LINE
  5
257
100
AcDbEntity
  8
ASSI
100
AcDbLine
 62
250
  6
CONTINUOUS
 10
14.4019369526
 20
-30.8678287531
 11
14.4019369526
 21
-10.3948873832
  0
LINE
  5
258
100
AcDbEntity
  8
ASSI
100
AcDbLine
 62
250
  6
CONTINUOUS
 10
14.4019369526
 20
-9.1889978409
 11
14.4019369526
 21
11.2839435291
  0
LWPOLYLINE
  5
259
100
AcDbEntity
  8
ASSI
100
AcDbPolyline
 62
250
  6
CONTINUOUS
 90
16
 70
0
 10
14.0515893073
 20
-9.7808660727
 10
14.015080686
 20
-9.8048688257
 10
13.9790293403
 20
-9.8329495245
 10
13.9438215356
 20
-9.8648073039
 10
13.9098344989
 20
-9.9001008299
 10
13.8774323778
 20
-9.9384519568
 10
13.8469623387
 20
-9.9794497789
 10
13.8187508468
 20
-10.0226550328
 10
13.7931001688
 20
-10.0676048044
 10
13.7702851338
 20
-10.1138174878
 10
13.7505501893
 20
-10.1607979462
 10
13.7341067813
 20
-10.2080428166
 10
13.7211310897
 20
-10.255045903
 10
13.71176214
 20
-10.3013035997
 10
13.706100314
 20
-10.3463202878
 10
13.7042062742
 20
-10.3896136445
  0
LWPOLYLINE
  5
25A
100
AcDbEntity
  8
ASSI
100
AcDbPolyline
 62
250
  6
CONTINUOUS
 90
9
 70
0
 10
14.2913125565
 20
-9.4216875257
 10
14.3093493433
 20
-9.4106151162
 10
14.3325235719
 20
-9.390921456
 10
14.3526891789
 20
-9.3667237461
 10
14.3696253541
 20
-9.3382869474
 10
14.3831466488
 20
-9.3059224384
 10
14.3931050073
 20
-9.2699846055
 10
14.3993913868
 20
-9.2308669623
 10
14.4019369526
 20
-9.1889978409
  0
LINE
  5
25B
100
AcDbEntity
  8
ASSI
100
AcDbLine
 62
250
  6
CONTINUOUS
 10
16.4524772202
 20
-8.4182165238
 11
14.0515893073
 21
-9.7808660727
  0
LINE
  5
25C
100
AcDbEntity
  8
ASSI
100
AcDbLine
 62
250
  6
CONTINUOUS
 10
16.8059902297
 20
-9.0304412981
 11
14.4019369526
 21
-10.3948873832
  0
LINE
  5
25D
100
AcDbEntity
  8
ASSI
100
AcDbLine
 62
250
  6
CONTINUOUS
 10
14.4019369526
 20
-9.1889978409
 11
16.8059902297
 21
-7.9189849928
  0
LINE
  5
25E
100
AcDbEntity
  8
ASSI
100
AcDbLine
 62
7
  6
CONTINUOUS
 10
14.2913125565
 20
-9.4216875257
 11
16.6970080521
 21
-8.1508071267
  0
LWPOLYLINE
  5
25F
100
AcDbEntity
  8
ASSI
100
AcDbPolyline
 62
250
  6
CONTINUOUS
 90
16
 70
0
 10
14.4019369526
 20
-9.1889978409
 10
14.3634139253
 20
-9.2080568251
 10
14.3215672954
 20
-9.224827355
 10
14.2767952036
 20
-9.2391052478
 10
14.2294706438
 20
-9.2507225376
 10
14.1801276601
 20
-9.2595012922
 10
14.1294780316
 20
-9.2652952982
 10
14.0781362939
 20
-9.2680407041
 10
14.0265760879
 20
-9.2677185315
 10
13.9753289917
 20
-9.2643302713
 10
13.9249296316
 20
-9.2579068395
 10
13.875928134
 20
-9.2485138398
 10
13.8288653844
 20
-9.2362531729
 10
13.7842484409
 20
-9.2212575083
 10
13.7425472032
 20
-9.203685382
 10
13.7042062742
 20
-9.1837241022
  0
LWPOLYLINE
  5
260
100
AcDbEntity
  8
ASSI
100
AcDbPolyline
 62
250
  6
CONTINUOUS
 90
16
 70
0
 10
13.7042062742
 20
11.2892172678
 10
13.7418749355
 20
11.2695717867
 10
13.7829665358
 20
11.252169144
 10
13.8270903036
 20
11.2372185299
 10
13.8738768467
 20
11.2248929177
 10
13.9228014595
 20
11.2153760574
 10
13.9731664972
 20
11.2088226159
 10
14.0243637214
 20
11.2053055046
 10
14.0759176802
 20
11.2048512662
 10
14.1272959574
 20
11.2074663017
 10
14.1779621562
 20
11.2131274455
 10
14.2273643979
 20
11.2217772317
 10
14.2749587907
 20
11.2333220819
 10
14.3202330132
 20
11.2476371935
 10
14.3627099807
 20
11.2645711613
 10
14.4019369526
 20
11.2839435291
  0
LWPOLYLINE
  5
261
100
AcDbEntity
  8
ASSI
100
AcDbPolyline
 62
250
  6
CONTINUOUS
 90
9
 70
0
 10
-17.0739104709
 20
29.060116136
 10
-17.1079423114
 20
29.0818705514
 10
-17.1380865265
 20
29.1056009413
 10
-17.1639812483
 20
29.1310812976
 10
-17.1853273814
 20
29.1580979258
 10
-17.2018074272
 20
29.1863477002
 10
-17.2131543333
 20
29.215427931
 10
-17.2192423951
 20
29.2449870016
 10
-17.2203570796
 20
29.2642382656
  0
LINE
  5
262
100
AcDbEntity
  8
ASSI
100
AcDbLine
 62
7
  6
CONTINUOUS
 10
16.8059902297
 20
-26.70990217
 11
16.8059902297
 21
-9.0304412981
  0
LINE
  5
263
100
AcDbEntity
  8
ASSI
100
AcDbLine
 62
7
  6
CONTINUOUS
 10
16.8059902297
 20
-7.9189849928
 11
16.8059902297
 21
9.7604758791
  0
LINE
  5
264
100
AcDbEntity
  8
CURVE
100
AcDbLine
 62
250
  6
CONTINUOUS
 10
-12.4683012221
 20
16.1257121201
 11
-9.6400473385
 21
16.7795351629
  0
LINE
  5
265
100
AcDbEntity
  8
ASSI
100
AcDbLine
 62
250
  6
CONTINUOUS
 10
13.7042062742
 20
11.2892172678
 11
-17.0739104709
 21
29.060116136
  0
LINE
  5
266
100
AcDbEntity
  8
ASSI
100
AcDbLine
 62
250
  6
CONTINUOUS
 10
14.048504716
 20
11.8961061194
 11
-16.7296120291
 21
29.6670049876
  0
LWPOLYLINE
  5
267
100
AcDbEntity
  8
ASSI
100
AcDbPolyline
 62
250
  6
CONTINUOUS
 90
16
 70
0
 10
14.048504716
 20
11.8961061194
 10
14.084025131
 20
11.8723514956
 10
14.1194040747
 20
11.8444432836
 10
14.1542562277
 20
11.812634852
 10
14.1882378975
 20
11.7771794607
 10
14.22091696
 20
11.7384654165
 10
14.2517983393
 20
11.6970511961
 10
14.2805027108
 20
11.6534564442
 10
14.3067599739
 20
11.6081031258
 10
14.3302898369
 20
11.5614721817
 10
14.350835128
 20
11.5140635811
 10
14.3681602676
 20
11.4664098216
 10
14.3820664292
 20
11.419052854
 10
14.3923994149
 20
11.3725198458
 10
14.3990473249
 20
11.3273174804
 10
14.4019369526
 20
11.2839435291
  0
LINE
  5
268
100
AcDbEntity
  8
ASSI
100
AcDbLine
 62
7
  6
CONTINUOUS
 10
16.7936277272
 20
9.8593612424
 11
16.1301932821
 21
12.2818121521
  0
LINE
  5
269
100
AcDbEntity
  8
CURVE
100
AcDbLine
 62
250
  6
CONTINUOUS
 10
-9.6400473385
 20
17.3280341796
 11
-12.4683012221
 21
16.6742119532
  0
LWPOLYLINE
  5
26A
100
AcDbEntity
  8
ASSI
100
AcDbPolyline
 62
250
  6
CONTINUOUS
 90
9
 70
0
 10
-16.7296120291
 20
29.6670049876
 10
-16.7669319558
 20
29.68530865
 10
-16.8039019209
 20
29.6991763755
 10
-16.8401168955
 20
29.7084045531
 10
-16.8752169051
 20
29.7128394616
 10
-16.9087523508
 20
29.7123597118
 10
-16.9402133363
 20
29.7069431479
 10
-16.9692140451
 20
29.6966668176
 10
-16.9897310303
 20
29.6854869487
  0
LINE
  5
26B
100
AcDbEntity
  8
ASSI
100
AcDbLine
 62
7
  6
CONTINUOUS
 10
15.6802564312
 20
12.8382544625
 11
-15.1811374696
 21
30.6572365167
  0
LINE
  5
26C
100
AcDbEntity
  8
ASSI
100
AcDbLine
 62
7
  6
CONTINUOUS
 10
16.7936277272
 20
-26.8223348642
 11
16.1301932821
 21
-29.9718041046
  0
LWPOLYLINE
  5
26D
100
AcDbEntity
  8
ASSI
100
AcDbPolyline
 62
250
  6
CONTINUOUS
 90
9
 70
0
 10
14.2879943802
 20
-31.1022554712
 10
14.3067489335
 20
-31.0908933196
 10
14.3302820606
 20
-31.0711093585
 10
14.3508295763
 20
-31.0467724412
 10
14.3681564596
 20
-31.0181497079
 10
14.3820641112
 20
-30.9855641243
 10
14.392398304
 20
-30.9493790088
 10
14.399047005
 20
-30.909989289
 10
14.4019369526
 20
-30.8678287531
  0
LINE
  5
26E
100
AcDbEntity
  8
ASSI
100
AcDbLine
 62
250
  6
CONTINUOUS
 10
16.1301932821
 20
-29.9718041046
 11
14.4019369526
 21
-30.8678287531
  0
LINE
  5
26F
100
AcDbEntity
  8
ASSI
100
AcDbLine
 62
7
  6
CONTINUOUS
 10
15.9500753044
 20
-30.2405398916
 11
14.2878963322
 21
-31.102306346
  0
ARC
  5
270
100
AcDbEntity
  8
ASSI
100
AcDbCircle
 62
7
  6
CONTINUOUS
 10
-16.7203570803
 20
7.5854225204
 40
0.5
100
AcDbArc
 50
122.1754807991
 51
180.015358494
  0
ARC
  5
271
100
AcDbEntity
  8
ASSI
100
AcDbCircle
 62
7
  6
CONTINUOUS
 10
-16.7203570803
 20
-12.8875188496
 40
0.5
100
AcDbArc
 50
179.9900082978
 51
239.9984015652
  0
ARC
  5
272
100
AcDbEntity
  8
ASSI
100
AcDbCircle
 62
7
  6
CONTINUOUS
 10
14.0577596648
 20
-30.6584177178
 40
0.5
100
AcDbArc
 50
239.9984015652
 51
297.4174046156
  0
ARC
  5
273
100
AcDbEntity
  8
ASSI
100
AcDbCircle
 62
7
  6
CONTINUOUS
 10
14.0577596648
 20
-8.9795868055
 40
0.5
100
AcDbArc
 50
239.9837780751
 51
297.8465900872
  0
ARC
  5
274
100
AcDbEntity
  8
ASSI
100
AcDbCircle
 62
7
  6
CONTINUOUS
 10
-16.7203570803
 20
8.7913120627
 40
0.5
100
AcDbArc
 50
179.9841296142
 51
239.9984015652
  0
ARC
  5
275
100
AcDbEntity
  8
ASSI
100
AcDbCircle
 62
7
  6
CONTINUOUS
 10
-16.7203570803
 20
29.2642534326
 40
0.5
100
AcDbArc
 50
122.5989154231
 51
180.0017380149
  0
ELLIPSE
  5
276
100
AcDbEntity
  8
ASSI
100
AcDbEllipse
 62
7
  6
CONTINUOUS
 10
16.4523156437
 20
-8.8264205556
 30
0.0
 11
-0.2500883296
 21
0.432972707
 31
0.0
 40
0.5775954524
 41
-2.3562050126
 42
-0.7858655366
  0
ELLIPSE
  5
277
100
AcDbEntity
  8
ASSI
100
AcDbEllipse
 62
7
  6
CONTINUOUS
 10
16.0927660072
 20
-8.6259241419
 30
0.0
 11
0.499979581
 21
0.0076930498
 31
0.0
 40
0.5873737521
 41
7.0595459565
 42
7.4069329008
  0
ELLIPSE
  5
278
100
AcDbEntity
  8
ASSI
100
AcDbEllipse
 62
7
  6
CONTINUOUS
 10
16.4431787178
 20
-26.9086939435
 30
0.0
 11
0.2600728777
 21
0.4271418247
 31
0.0
 40
0.5922410672
 41
-1.033355665
 42
-0.7715562772
  0
ELLIPSE
  5
279
100
AcDbEntity
  8
ASSI
100
AcDbEllipse
 62
7
  6
CONTINUOUS
 10
15.7765848695
 20
-29.7672826913
 30
0.0
 11
-0.1121548712
 21
0.4957473682
 31
0.0
 40
0.7039445592
 41
-2.9595186474
 42
-2.1483506142
  0
ELLIPSE
  5
27A
100
AcDbEntity
  8
ASSI
100
AcDbEllipse
 62
7
  6
CONTINUOUS
 10
16.4523156437
 20
-7.7145911885
 30
0.0
 11
-0.2502024451
 21
0.4331706506
 31
0.0
 40
0.5770679437
 41
-3.1633994611
 42
-2.3566614272
  0
ELLIPSE
  5
27B
100
AcDbEntity
  8
ASSI
100
AcDbEllipse
 62
7
  6
CONTINUOUS
 10
-15.0892528646
 20
30.3073256689
 30
0.0
 11
-0.3297163127
 21
0.381589989
 31
0.0
 40
0.4128243551
 41
-0.8709070521
 42
-0.0596421506
  0
ELLIPSE
  5
27C
100
AcDbEntity
  8
ASSI
100
AcDbEllipse
 62
7
  6
CONTINUOUS
 10
16.4431787178
 20
9.5616841057
 30
0.0
 11
0.2600728777
 21
0.4271418247
 31
0.0
 40
0.5922410672
 41
-0.7715562772
 42
-0.5097568894
  0
ELLIPSE
  5
27D
100
AcDbEntity
  8
ASSI
100
AcDbEllipse
 62
7
  6
CONTINUOUS
 10
15.7765848695
 20
12.4857778011
 30
0.0
 11
-0.3313794069
 21
0.3842968449
 31
0.0
 40
0.4077379513
 41
-2.4333010859
 42
-0.8631899918
  0
ENDSEC
  0
SECTION
  2
OBJECTS
  0
DICTIONARY
  5
C
100
AcDbDictionary
280
0
281
1
  3
ACAD_GROUP
350
D
  3
ACAD_MLINESTYLE
350
17
  3
ACAD_LAYOUT
350
1A
  3
ACAD_PLOTSETTINGS
350
19
  3
ACAD_PLOTSTYLENAME
350
E
  0
DICTIONARY
  5
D
102
{ACAD_REACTORS
330
C
102
}
100
AcDbDictionary
280
0
281
1
  0
ACDBDICTIONARYWDFLT
  5
E
102
{ACAD_REACTORS
330
C
102
}
100
AcDbDictionary
281
1
  3
Normal
350
F
100
AcDbDictionaryWithDefault
340
F
  0
DICTIONARY
  5
17
102
{ACAD_REACTORS
330
C
102
}
100
AcDbDictionary
280
0
281
1
  3
Standard
350
18
  0
DICTIONARY
  5
19
102
{ACAD_REACTORS
330
C
102
}
100
AcDbDictionary
281
1
  0
DICTIONARY
  5
1A
102
{ACAD_REACTORS
330
C
102
}
100
AcDbDictionary
281
1
  3
Model
350
27E
  3
Layout1
350
27F
  0
ACDBPLACEHOLDER
  5
F
102
{ACAD_REACTORS
330
E
102
}
  0
MLINESTYLE
  5
18
102
{ACAD_REACTORS
330
17
102
}
100
AcDbMlineStyle
  2
STANDARD
 70
0
  3

 62
256
 51
90.0
 52
90.0
 71
2
 49
0.5
 62
256
  6
BYLAYER
 49
-0.5
 62
256
  6
BYLAYER
  0
LAYOUT
  5
27E
102
{ACAD_REACTORS
330
1A
102
}
100
AcDbPlotSettings
  1

  2
none_device
  4

  6

 40
0.0
 41
0.0
 42
0.0
 43
0.0
 44
210.0
 45
297.0
 46
0.0
 47
0.0
 48
0.0
 49
0.0
140
0.0
141
0.0
142
1.0
143
1.0
 70
1024
 72
1
 73
0
 74
0
  7

 75
0
147
1.0
148
0.0
149
0.0
100
AcDbLayout
  1
Model
 70
0
 71
0
 10
0.0
 20
0.0
 11
210.0
 21
297.0
 12
0.0
 22
0.0
 32
0.0
 14
0.0
 24
0.0
 34
0.0
 15
0.0
 25
0.0
 35
0.0
146
0.0
 13
0.0
 23
0.0
 33
0.0
 16
1.0
 26
0.0
 36
0.0
 17
0.0
 27
1.0
 37
0.0
 76
0
330
212
345
0
346
0
  0
LAYOUT
  5
27F
102
{ACAD_REACTORS
330
1A
102
}
100
AcDbPlotSettings
  1

  2
none_device
  4

  6

 40
0.0
 41
0.0
 42
0.0
 43
0.0
 44
210.0
 45
297.0
 46
0.0
 47
0.0
 48
0.0
 49
0.0
140
0.0
141
0.0
142
1.0
143
1.0
 70
0
 72
1
 73
0
 74
0
  7

 75
0
147
1.0
148
0.0
149
0.0
100
AcDbLayout
  1
Layout1
 70
0
 71
1
 10
0.0
 20
0.0
 11
210.0
 21
297.0
 12
0.0
 22
0.0
 32
0.0
 14
0.0
 24
0.0
 34
0.0
 15
0.0
 25
0.0
 35
0.0
146
0.0
 13
0.0
 23
0.0
 33
0.0
 16
1.0
 26
0.0
 36
0.0
 17
0.0
 27
1.0
 37
0.0
 76
0
330
213
345
0
346
0
  0
ENDSEC
  0
EOF
