  0
SECTION
  2
HEADER
  9
$ACADVER
  1
AC1024
  9
$DWGCODEPAGE
  3
ANSI_1252
  9
$EXTMAX
 10
210.0
 20
297.0
 30
0.0
  9
$EXTMIN
 10
0.0
 20
0.0
 30
0.0
  9
$LIMMIN
 10
0.0
 20
0.0
  9
$LIMMAX
 10
210.0
 20
297.0
  9
$VIEWCTR
 10
105.0
 20
148.5
  9
$VIEWSIZE
 40
297.0
  9
$CLAYER
  8
0
  9
$LTSCALE
 40
19.36
  9
$CELTYPE
  6
BYLAYER
  9
$DIMSCALE
 40
1.0
  9
$DIMASZ
 40
3.0
  9
$DIMEXO
 40
0.5
  9
$DIMDLI
 40
13.376
  9
$DIMEXE
 40
1.5
  9
$DIMCEN
 40
3.168
  9
$DIMLFAC
 40
1.0
  9
$DIMBLK
  1
_FILLED
  9
$DIMALT
 70
0
  9
$DIMALTF
 40
0.0393700787
  9
$DIMTXT
 40
3.0
  9
$DIMTOL
 70
1
  9
$DIMLIM
 70
0
  9
$DIMTFAC
 40
1.0
  9
$DIMTP
 40
0.01
  9
$DIMTM
 40
0.01
  9
$DIMGAP
 40
0.625
  9
$DIMDSEP
 70
44
  9
$AUNITS
 70
0
  9
$PDMODE
 70
3
  9
$PDSIZE
 40
3.0
  9
$HANDSEED
  5
2D8
  9
$TILEMODE
 70
1
  9
$MEASUREMENT
 70
1
  9
$INSUNITS
 70
4
  0
ENDSEC
  0
SECTION
  2
CLASSES
  0
CLASS
  1
ACDBDICTIONARYWDFLT
  2
AcDbDictionaryWithDefault
  3
AutoCAD 2000
 90
0
 91
1
280
0
281
0
  0
CLASS
  1
ACDBPLACEHOLDER
  2
AcDbPlaceHolder
  3
AutoCAD 2000
 90
0
 91
1
280
0
281
0
  0
CLASS
  1
LAYOUT
  2
AcDbLayout
  3
AutoCAD 2000
 90
0
 91
0
280
0
281
0
  0
ENDSEC
  0
SECTION
  2
TABLES
  0
TABLE
  2
VPORT
  5
8
100
AcDbSymbolTable
 70
2
  0
VPORT
  5
1F4
100
AcDbSymbolTableRecord
100
AcDbViewportTableRecord
  2
*ACTIVE
 70
0
 10
0.0
 20
0.0
 11
1.0
 21
1.0
 12
105.0
 22
148.5
 13
0.0
 23
0.0
 14
1.0
 24
1.0
 15
0.0
 25
0.0
 16
0.0
 26
0.0
 36
1.0
 17
0.0
 27
0.0
 37
0.0
 40
297.0
 41
0.7070707071
 42
50.0
 43
0.0
 44
0.0
 50
0.0
 51
0.0
 71
0
 72
100
 73
1
 74
1
 75
0
 76
0
 77
0
 78
0
  0
ENDTAB
  0
TABLE
  2
LTYPE
  5
5
100
AcDbSymbolTable
 70
6
  0
LTYPE
  5
14
100
AcDbSymbolTableRecord
100
AcDbLinetypeTableRecord
  2
BYBLOCK
 70
0
  3

 72
65
 73
0
 40
0.0
  0
LTYPE
  5
15
100
AcDbSymbolTableRecord
100
AcDbLinetypeTableRecord
  2
BYLAYER
 70
0
  3

 72
65
 73
0
 40
0.0
  0
LTYPE
  5
16
100
AcDbSymbolTableRecord
100
AcDbLinetypeTableRecord
  2
CONTINUOUS
 70
64
  3
Solid line
 72
65
 73
0
 40
0.0
  0
LTYPE
  5
1F5
100
AcDbSymbolTableRecord
100
AcDbLinetypeTableRecord
  2
CENTER
 70
64
  3
____ _ ____ _ ____ _ ____ _ ____ _ ____ _ ____
 72
65
 73
4
 40
0.6
 49
0.375
 74
0
 49
-0.075
 74
0
 49
0.075
 74
0
 49
-0.075
 74
0
  0
LTYPE
  5
1F6
100
AcDbSymbolTableRecord
100
AcDbLinetypeTableRecord
  2
HIDDEN
 70
64
  3
- - - - - - - - - - - - - - - - - - - -
 72
65
 73
2
 40
0.2
 49
0.1
 74
0
 49
-0.1
 74
0
  0
LTYPE
  5
1F7
100
AcDbSymbolTableRecord
100
AcDbLinetypeTableRecord
  2
PHANTOM
 70
64
  3
_____ _ _ _____ _ _ _____ _ _ _____
 72
65
 73
6
 40
0.8
 49
0.45
 74
0
 49
-0.05
 74
0
 49
0.1
 74
0
 49
-0.05
 74
0
 49
0.1
 74
0
 49
-0.05
 74
0
  0
LTYPE
  5
1F8
100
AcDbSymbolTableRecord
100
AcDbLinetypeTableRecord
  2
DOT
 70
64
  3
. . . . . . . . . . . . . . . . . . . .
 72
65
 73
2
 40
0.2
 49
0.1
 74
0
 49
-0.1
 74
0
  0
LTYPE
  5
1F9
100
AcDbSymbolTableRecord
100
AcDbLinetypeTableRecord
  2
DASHED
 70
64
  3
- - - - - - - - - - - - - - - - - - - -
 72
65
 73
2
 40
0.2
 49
0.1
 74
0
 49
-0.1
 74
0
  0
ENDTAB
  0
TABLE
  2
LAYER
  5
2
100
AcDbSymbolTable
 70
36
  0
LAYER
  5
10
100
AcDbSymbolTableRecord
100
AcDbLayerTableRecord
  2
0
 70
0
 62
7
  6
CONTINUOUS
370
-3
390
F
  0
LAYER
  5
1FA
100
AcDbSymbolTableRecord
100
AcDbLayerTableRecord
  2
DEFAULT_1
 70
0
 62
7
  6
CENTER
370
-3
390
F
  0
LAYER
  5
1FB
100
AcDbSymbolTableRecord
100
AcDbLayerTableRecord
  2
DEFAULT_2
 70
0
 62
7
  6
HIDDEN
370
-3
390
F
  0
LAYER
  5
1FC
100
AcDbSymbolTableRecord
100
AcDbLayerTableRecord
  2
DEFAULT_3
 70
0
 62
7
  6
PHANTOM
370
-3
390
F
  0
LAYER
  5
1FD
100
AcDbSymbolTableRecord
100
AcDbLayerTableRecord
  2
ASSI
 70
0
 62
7
  6
CONTINUOUS
370
-3
390
F
  0
LAYER
  5
1FE
100
AcDbSymbolTableRecord
100
AcDbLayerTableRecord
  2
COORDINATE
 70
0
 62
7
  6
CONTINUOUS
370
-3
390
F
  0
LAYER
  5
1FF
100
AcDbSymbolTableRecord
100
AcDbLayerTableRecord
  2
COPY_PUBLISH
 70
0
 62
7
  6
CONTINUOUS
370
-3
390
F
  0
LAYER
  5
200
100
AcDbSymbolTableRecord
100
AcDbLayerTableRecord
  2
COSMETICI
 70
0
 62
7
  6
CONTINUOUS
370
-3
390
F
  0
LAYER
  5
201
100
AcDbSymbolTableRecord
100
AcDbLayerTableRecord
  2
CURVE
 70
0
 62
7
  6
CONTINUOUS
370
-3
390
F
  0
LAYER
  5
202
100
AcDbSymbolTableRecord
100
AcDbLayerTableRecord
  2
DRAFT
 70
0
 62
7
  6
CONTINUOUS
370
-3
390
F
  0
LAYER
  5
203
100
AcDbSymbolTableRecord
100
AcDbLayerTableRecord
  2
IMPORT_IGES
 70
0
 62
7
  6
CONTINUOUS
370
-3
390
F
  0
LAYER
  5
204
100
AcDbSymbolTableRecord
100
AcDbLayerTableRecord
  2
INTF_1
 70
0
 62
7
  6
CONTINUOUS
370
-3
390
F
  0
LAYER
  5
205
100
AcDbSymbolTableRecord
100
AcDbLayerTableRecord
  2
INTF_2
 70
0
 62
7
  6
CONTINUOUS
370
-3
390
F
  0
LAYER
  5
206
100
AcDbSymbolTableRecord
100
AcDbLayerTableRecord
  2
INTF_4
 70
0
 62
7
  6
CONTINUOUS
370
-3
390
F
  0
LAYER
  5
207
100
AcDbSymbolTableRecord
100
AcDbLayerTableRecord
  2
INTF_8
 70
0
 62
7
  6
CONTINUOUS
370
-3
390
F
  0
LAYER
  5
208
100
AcDbSymbolTableRecord
100
AcDbLayerTableRecord
  2
INTF_9
 70
0
 62
7
  6
CONTINUOUS
370
-3
390
F
  0
LAYER
  5
209
100
AcDbSymbolTableRecord
100
AcDbLayerTableRecord
  2
NOTE
 70
0
 62
7
  6
CONTINUOUS
370
-3
390
F
  0
LAYER
  5
20A
100
AcDbSymbolTableRecord
100
AcDbLayerTableRecord
  2
PIANI
 70
0
 62
7
  6
CONTINUOUS
370
-3
390
F
  0
LAYER
  5
20B
100
AcDbSymbolTableRecord
100
AcDbLayerTableRecord
  2
PUNTI
 70
0
 62
7
  6
CONTINUOUS
370
-3
390
F
  0
LAYER
  5
20C
100
AcDbSymbolTableRecord
100
AcDbLayerTableRecord
  2
RACCORDO
 70
0
 62
7
  6
CONTINUOUS
370
-3
390
F
  0
LAYER
  5
20D
100
AcDbSymbolTableRecord
100
AcDbLayerTableRecord
  2
SIMBOLI
 70
0
 62
7
  6
CONTINUOUS
370
-3
390
F
  0
LAYER
  5
20E
100
AcDbSymbolTableRecord
100
AcDbLayerTableRecord
  2
SMUSSO
 70
0
 62
7
  6
CONTINUOUS
370
-3
390
F
  0
LAYER
  5
20F
100
AcDbSymbolTableRecord
100
AcDbLayerTableRecord
  2
SNAPLINE
 70
0
 62
7
  6
CONTINUOUS
370
-3
390
F
  0
LAYER
  5
210
100
AcDbSymbolTableRecord
100
AcDbLayerTableRecord
  2
SUPERFICI
 70
0
 62
7
  6
CONTINUOUS
370
-3
390
F
  0
LAYER
  5
211
100
AcDbSymbolTableRecord
100
AcDbLayerTableRecord
  2
TRASH
 70
0
 62
7
  6
CONTINUOUS
370
-3
390
F
  0
ENDTAB
  0
TABLE
  2
STYLE
  5
3
100
AcDbSymbolTable
 70
1
  0
STYLE
  5
11
100
AcDbSymbolTableRecord
100
AcDbTextStyleTableRecord
  2
STANDARD
 70
0
 40
0.0
 41
0.8
 50
0.0
 71
0
 42
0.2
  3
txt
  4

  0
STYLE
  5
212
100
AcDbSymbolTableRecord
100
AcDbTextStyleTableRecord
  2
TEXTSTYLE_1
 70
0
 40
0.0
 41
0.8
 50
0.0
 71
0
 42
0.2
  3
gdt
  4

  0
ENDTAB
  0
TABLE
  2
VIEW
  5
6
100
AcDbSymbolTable
 70
0
  0
ENDTAB
  0
TABLE
  2
UCS
  5
7
100
AcDbSymbolTable
 70
0
  0
ENDTAB
  0
TABLE
  2
APPID
  5
9
100
AcDbSymbolTable
 70
1
  0
APPID
  5
213
100
AcDbSymbolTableRecord
100
AcDbRegAppTableRecord
  2
ACAD
 70
0
  0
ENDTAB
  0
TABLE
  2
BLOCK_RECORD
  5
1
100
AcDbSymbolTable
 70
0
  0
BLOCK_RECORD
  5
214
100
AcDbSymbolTableRecord
100
AcDbBlockTableRecord
  2
*Model_Space
  0
BLOCK_RECORD
  5
215
100
AcDbSymbolTableRecord
100
AcDbBlockTableRecord
  2
*Paper_Space
  0
BLOCK_RECORD
  5
216
100
AcDbSymbolTableRecord
100
AcDbBlockTableRecord
  2
_FILLED
  0
ENDTAB
  0
TABLE
  2
DIMSTYLE
  5
A
100
AcDbSymbolTable
 70
1
100
AcDbDimStyleTable
 71
0
  0
DIMSTYLE
105
217
100
AcDbSymbolTableRecord
100
AcDbDimStyleTableRecord
  2
STANDARD
 70
0
  3

  4

 40
1.0
 41
3.0
 42
0.5
 43
0.38
 44
1.5
 45
0.0
 46
0.0
 47
0.01
 48
0.01
140
3.0
141
0.09
142
0.0
143
25.4
144
1.0
145
0.0
146
1.0
147
0.625
 71
1
 72
0
 73
0
 74
0
 75
0
 76
0
 77
1
 78
8
 79
2
170
0
171
1
172
0
173
0
174
0
175
0
176
0
177
0
178
0
270
2
179
2
271
2
272
2
273
2
274
2
275
0
280
0
281
0
282
0
283
1
284
8
285
0
286
0
287
3
288
0
340
11
278
44
341
216
342
216
343
216
344
216
  0
ENDTAB
  0
ENDSEC
  0
SECTION
  2
BLOCKS
  0
BLOCK
  5
20
100
AcDbEntity
  8
0
100
AcDbBlockBegin
  2
*Model_Space
 70
0
 10
0.0
 20
0.0
 30
0.0
  3
*Model_Space
  1

  0
ENDBLK
  5
21
100
AcDbEntity
  8
0
100
AcDbBlockEnd
  0
BLOCK
  5
1C
100
AcDbEntity
  8
0
100
AcDbBlockBegin
  2
*Paper_Space
 70
0
 10
0.0
 20
0.0
 30
0.0
  3
*Paper_Space
  1

  0
ENDBLK
  5
1D
100
AcDbEntity
  8
0
100
AcDbBlockEnd
  0
BLOCK
  5
218
100
AcDbEntity
  8
0
100
AcDbBlockBegin
  2
_FILLED
 70
64
 10
0.0
 20
0.0
  3
_FILLED
  1

  0
SOLID
  5
219
100
AcDbEntity
  8
0
  6
BYBLOCK
 62
0
100
AcDbTrace
 10
0.0
 20
0.0
 11
-1.0
 21
0.3166666667
 12
-1.0
 22
-0.3166666667
 13
-1.0
 23
-0.3166666667
  0
ENDBLK
  5
21A
100
AcDbEntity
  8
0
  6
BYBLOCK
 62
0
100
AcDbBlockEnd
  0
ENDSEC
  0
SECTION
  2
ENTITIES
  0
LWPOLYLINE
  5
21B
100
AcDbEntity
  8
ASSI
100
AcDbPolyline
 62
250
  6
CONTINUOUS
 90
16
 70
0
 10
-16.6082379941
 20
29.8676154784
 10
-16.6445191646
 20
29.8434069531
 10
-16.6803179091
 20
29.8151880044
 10
-16.7152549623
 20
29.7832575943
 10
-16.7489601885
 20
29.747954005
 10
-16.7810765022
 20
29.7096512557
 10
-16.8112636511
 20
29.6687551398
 10
-16.8392018216
 20
29.6256989259
 10
-16.8645950265
 20
29.5809387671
 10
-16.8871742409
 20
29.5349488689
 10
-16.9067002524
 20
29.4882164651
 10
-16.9229661952
 20
29.441236656
 10
-16.935799742
 20
29.3945071627
 10
-16.9450649295
 20
29.3485230549
 10
-16.9506635989
 20
29.3037715048
 10
-16.9525364359
 20
29.2607266267
  0
LINE
  5
21C
100
AcDbEntity
  8
ASSI
100
AcDbLine
 62
7
  6
CONTINUOUS
 10
-15.2876189859
 20
30.8969610708
 11
-16.8683569953
 21
29.8860974394
  0
LINE
  5
21D
100
AcDbEntity
  8
ASSI
100
AcDbLine
 62
250
  6
CONTINUOUS
 10
-15.0597634346
 20
30.8578470075
 11
-16.6082379941
 21
29.8676154784
  0
LINE
  5
21E
100
AcDbEntity
  8
CURVE
100
AcDbLine
 62
7
  6
CONTINUOUS
 10
-12.0556654817
 20
18.7362459117
 11
-11.4924170387
 21
19.2994943547
  0
LINE
  5
21F
100
AcDbEntity
  8
CURVE
100
AcDbLine
 62
7
  6
CONTINUOUS
 10
-12.1101930717
 20
17.6861119738
 11
-11.6719120721
 21
18.1243929734
  0
LINE
  5
220
100
AcDbEntity
  8
CURVE
100
AcDbLine
 62
7
  6
CONTINUOUS
 10
-11.046938577
 20
18.7493664685
 11
-10.8146790141
 21
18.9816260314
  0
LWPOLYLINE
  5
221
100
AcDbEntity
  8
CURVE
100
AcDbPolyline
 62
250
  6
CONTINUOUS
 90
56
 70
0
 10
-11.4682440754
 20
18.7929744537
 10
-11.4584160795
 20
18.8011637283
 10
-11.4480853832
 20
18.8086278269
 10
-11.437277988
 20
18.8153689525
 10
-11.4260198957
 20
18.8213893082
 10
-11.4143371077
 20
18.826691097
 10
-11.4022556258
 20
18.831276522
 10
-11.3898014515
 20
18.8351477862
 10
-11.3770005864
 20
18.8383070926
 10
-11.3638790322
 20
18.8407566444
 10
-11.3504627903
 20
18.8424986445
 10
-11.3367778626
 20
18.8435352961
 10
-11.3228502504
 20
18.8438688021
 10
-11.3087059556
 20
18.8435013656
 10
-11.2943709796
 20
18.8424351897
 10
-11.2783494195
 20
18.8404557984
 10
-11.2621457046
 20
18.8376718914
 10
-11.2457784643
 20
18.8341281985
 10
-11.2292663276
 20
18.8298694495
 10
-11.2126279239
 20
18.824940374
 10
-11.1958818823
 20
18.8193857017
 10
-11.1790468321
 20
18.8132501625
 10
-11.1600415853
 20
18.8057124195
 10
-11.140960218
 20
18.7975325486
 10
-11.1218155001
 20
18.788745571
 10
-11.1026202015
 20
18.7793865082
 10
-11.083387092
 20
18.7694903815
 10
-11.0641289413
 20
18.7590922125
 10
-11.0448585194
 20
18.7482270225
 10
-11.0229131918
 20
18.7353170176
 10
-11.0009852973
 20
18.7218270051
 10
-10.9790916228
 20
18.7077372817
 10
-10.9572489546
 20
18.6930281442
 10
-10.9354740794
 20
18.6776798891
 10
-10.9137837837
 20
18.6616728131
 10
-10.8975355405
 20
18.6491827568
 10
-10.8813577528
 20
18.6362781881
 10
-10.8652635248
 20
18.6229284919
 10
-10.849265961
 20
18.6091030532
 10
-10.8333781654
 20
18.5947712568
 10
-10.8176132426
 20
18.5799024876
 10
-10.8019842966
 20
18.5644661307
 10
-10.7885209847
 20
18.5505680808
 10
-10.7751985348
 20
18.5362384501
 10
-10.7620451338
 20
18.5214977766
 10
-10.749088969
 20
18.5063665981
 10
-10.7363582275
 20
18.4908654525
 10
-10.7238810964
 20
18.4750148776
 10
-10.7116857627
 20
18.4588354112
 10
-10.6998004138
 20
18.4423475913
 10
-10.6882532365
 20
18.4255719557
 10
-10.6770724182
 20
18.4085290423
 10
-10.6662861458
 20
18.3912393889
 10
-10.6559226065
 20
18.3737235334
 10
-10.6460099875
 20
18.3560020137
 10
-10.6365764758
 20
18.3380953676
  0
LINE
  5
222
100
AcDbEntity
  8
CURVE
100
AcDbLine
 62
7
  6
CONTINUOUS
 10
-12.0881060495
 20
16.7125926481
 11
-11.6823729037
 21
17.1183257938
  0
LINE
  5
223
100
AcDbEntity
  8
CURVE
100
AcDbLine
 62
7
  6
CONTINUOUS
 10
-10.5818410663
 20
18.2188576313
 11
-10.3377725236
 21
18.462926174
  0
LINE
  5
224
100
AcDbEntity
  8
CURVE
100
AcDbLine
 62
7
  6
CONTINUOUS
 10
-11.9127590736
 20
15.892333276
 11
-11.6209727538
 21
16.1841195958
  0
LINE
  5
225
100
AcDbEntity
  8
CURVE
100
AcDbLine
 62
7
  6
CONTINUOUS
 10
-10.4227284356
 20
17.382363914
 11
-10.0634616891
 21
17.7416306605
  0
LINE
  5
226
100
AcDbEntity
  8
CURVE
100
AcDbLine
 62
7
  6
CONTINUOUS
 10
-11.5285382311
 20
15.2809477706
 11
-11.3112150523
 21
15.4982709495
  0
LINE
  5
227
100
AcDbEntity
  8
CURVE
100
AcDbLine
 62
7
  6
CONTINUOUS
 10
-10.413429618
 20
16.3960563838
 11
-9.9836141483
 21
16.8258718535
  0
LINE
  5
228
100
AcDbEntity
  8
CURVE
100
AcDbLine
 62
7
  6
CONTINUOUS
 10
-9.3081980204
 20
17.5012879814
 11
-8.9611466576
 21
17.8483393442
  0
LWPOLYLINE
  5
229
100
AcDbEntity
  8
CURVE
100
AcDbPolyline
 62
250
  6
CONTINUOUS
 90
57
 70
0
 10
-10.643884627
 20
15.2414643682
 10
-10.6530415979
 20
15.2341056219
 10
-10.6626811054
 20
15.2274642238
 10
-10.6727759574
 20
15.2215317931
 10
-10.6832989618
 20
15.2162999489
 10
-10.6942229265
 20
15.2117603104
 10
-10.7055206595
 20
15.2079044967
 10
-10.7171649687
 20
15.2047241269
 10
-10.729128662
 20
15.2022108202
 10
-10.7413845473
 20
15.2003561958
 10
-10.7539054325
 20
15.1991518727
 10
-10.7666641257
 20
15.1985894702
 10
-10.7796334346
 20
15.1986606073
 10
-10.7927861673
 20
15.1993569032
 10
-10.8060951316
 20
15.2006699771
 10
-10.8214040407
 20
15.2028992131
 10
-10.8368649742
 20
15.205872376
 10
-10.8524627643
 20
15.2095451129
 10
-10.8681822431
 20
15.2138730709
 10
-10.8840082429
 20
15.2188118972
 10
-10.8999255959
 20
15.2243172389
 10
-10.9159191341
 20
15.2303447431
 10
-10.9341923555
 20
15.2377869236
 10
-10.9525332866
 20
15.2458136588
 10
-10.9709306398
 20
15.2543908979
 10
-10.9893731273
 20
15.26348459
 10
-11.0078494616
 20
15.2730606842
 10
-11.0263483549
 20
15.2830851298
 10
-11.0448585194
 20
15.2935238758
 10
-11.0679207362
 20
15.3070723462
 10
-11.0909651595
 20
15.3212299537
 10
-11.1139740212
 20
15.3360155331
 10
-11.1369295532
 20
15.3514479191
 10
-11.1598139874
 20
15.3675459465
 10
-11.1826095557
 20
15.3843284501
 10
-11.1995357215
 20
15.3973020625
 10
-11.2163896369
 20
15.4107020393
 10
-11.2331583253
 20
15.4245638007
 10
-11.2498288101
 20
15.4389227668
 10
-11.2663881149
 20
15.4538143578
 10
-11.282823263
 20
15.4692739937
 10
-11.2991212778
 20
15.4853370949
 10
-11.3120124464
 20
15.4986015633
 10
-11.3247827073
 20
15.5122555338
 10
-11.3374066773
 20
15.5262819455
 10
-11.3498589728
 20
15.5406637377
 10
-11.3621142107
 20
15.5553838496
 10
-11.3741470075
 20
15.5704252205
 10
-11.3859319798
 20
15.5857707895
 10
-11.3974437443
 20
15.6014034958
 10
-11.4086569177
 20
15.6173062788
 10
-11.4195461165
 20
15.6334620776
 10
-11.4300859575
 20
15.6498538315
 10
-11.4402510572
 20
15.6664644796
 10
-11.4500160324
 20
15.6832769613
 10
-11.4593554995
 20
15.7002742157
 10
-11.4682440754
 20
15.7174391821
  0
LWPOLYLINE
  5
22A
100
AcDbEntity
  8
ASSI
100
AcDbPolyline
 62
250
  6
CONTINUOUS
 90
16
 70
0
 10
13.8255803092
 20
-30.6619445237
 10
13.8632576346
 20
-30.6815940819
 10
13.9043572274
 20
-30.6989989739
 10
13.9484876559
 20
-30.7139502617
 10
13.9952788139
 20
-30.7262752514
 10
14.0442057063
 20
-30.7357906233
 10
14.0945708985
 20
-30.7423421847
 10
14.1457654122
 20
-30.7458573553
 10
14.1973144201
 20
-30.7463100486
 10
14.2486880101
 20
-30.7436940285
 10
14.2993508926
 20
-30.7380322435
 10
14.3487502566
 20
-30.729382098
 10
14.3963416794
 20
-30.7178372441
 10
14.4416127642
 20
-30.7035225624
 10
14.4840867412
 20
-30.6865894191
 10
14.5233109876
 20
-30.6672182624
  0
LINE
  5
22B
100
AcDbEntity
  8
ASSI
100
AcDbLine
 62
7
  6
CONTINUOUS
 10
-16.8489951253
 20
-13.119914086
 11
13.9291216197
 21
-30.8908129542
  0
LINE
  5
22C
100
AcDbEntity
  8
ASSI
100
AcDbLine
 62
250
  6
CONTINUOUS
 10
-16.9525364359
 20
-12.8910456555
 11
13.8255803092
 21
-30.6619445237
  0
LWPOLYLINE
  5
22D
100
AcDbEntity
  8
ASSI
100
AcDbPolyline
 62
250
  6
CONTINUOUS
 90
9
 70
0
 10
-16.9525364359
 20
-12.8910456555
 10
-16.9865612152
 20
-12.8692962426
 10
-17.0167015345
 20
-12.8455704675
 10
-17.0425950895
 20
-12.820093957
 10
-17.0639423007
 20
-12.7930799934
 10
-17.0804249242
 20
-12.7648315351
 10
-17.0917750866
 20
-12.7357513936
 10
-17.0978665096
 20
-12.706190758
 10
-17.0989830453
 20
-12.6869083588
  0
LWPOLYLINE
  5
22E
100
AcDbEntity
  8
ASSI
100
AcDbPolyline
 62
250
  6
CONTINUOUS
 90
9
 70
0
 10
-17.0989829914
 20
7.785898983
 10
-17.0980096824
 20
7.7680280047
 10
-17.0921414216
 20
7.7384385736
 10
-17.0810164282
 20
7.7093386147
 10
-17.0647483235
 20
7.6810457642
 10
-17.0435135936
 20
7.6538723224
 10
-17.0175420141
 20
7.6281110584
 10
-16.9871081592
 20
7.6040332864
 10
-16.9525364359
 20
7.5818957145
  0
LWPOLYLINE
  5
22F
100
AcDbEntity
  8
ASSI
100
AcDbPolyline
 62
250
  6
CONTINUOUS
 90
9
 70
0
 10
-16.9525364359
 20
-12.8910456555
 10
-16.9506635989
 20
-12.9319278283
 10
-16.9450649295
 20
-12.9702141754
 10
-16.935799742
 20
-13.005499077
 10
-16.9229661952
 20
-13.037408712
 10
-16.9067002524
 20
-13.0656050182
 10
-16.8871742409
 20
-13.0897892733
 10
-16.8645950265
 20
-13.1097052607
 10
-16.8489951253
 20
-13.119914086
  0
LINE
  5
230
100
AcDbEntity
  8
ASSI
100
AcDbLine
 62
7
  6
CONTINUOUS
 10
-17.0989830453
 20
29.4648639234
 11
-17.0989830453
 21
8.9919225534
  0
LINE
  5
231
100
AcDbEntity
  8
ASSI
100
AcDbLine
 62
7
  6
CONTINUOUS
 10
-17.0989830453
 20
7.7860330112
 11
-17.0989830453
 21
-12.6869083588
  0
LINE
  5
232
100
AcDbEntity
  8
ASSI
100
AcDbLine
 62
250
  6
CONTINUOUS
 10
-16.9525364359
 20
29.2607266267
 11
-16.9525364359
 21
8.7877852568
  0
LINE
  5
233
100
AcDbEntity
  8
ASSI
100
AcDbLine
 62
250
  6
CONTINUOUS
 10
-16.9525364359
 20
7.5818957145
 11
-16.9525364359
 21
-12.8910456555
  0
LWPOLYLINE
  5
234
100
AcDbEntity
  8
ASSI
100
AcDbPolyline
 62
250
  6
CONTINUOUS
 90
16
 70
0
 10
-16.9525364359
 20
7.5818957145
 10
-16.9506304369
 20
7.6253286343
 10
-16.9449330167
 20
7.6704941034
 10
-16.9355056432
 20
7.7169051375
 10
-16.922448203
 20
7.7640670663
 10
-16.9059024665
 20
7.8114657198
 10
-16.8860546909
 20
7.8585729323
 10
-16.8631279365
 20
7.90487103
 10
-16.8373680106
 20
7.9498737871
 10
-16.8090451422
 20
7.9931128696
 10
-16.7784183119
 20
8.0341811543
 10
-16.7458573795
 20
8.0725718003
 10
-16.7118535258
 20
8.107735981
 10
-16.676835417
 20
8.1392969524
 10
-16.6411412454
 20
8.1670138949
 10
-16.6051534027
 20
8.1906432863
  0
LINE
  5
235
100
AcDbEntity
  8
CURVE
100
AcDbLine
 62
7
  6
CONTINUOUS
 10
-10.9504954701
 20
14.8633841838
 11
-9.9872908253
 21
15.8265888286
  0
LINE
  5
236
100
AcDbEntity
  8
CURVE
100
AcDbLine
 62
7
  6
CONTINUOUS
 10
-9.3081980204
 20
16.5056816335
 11
-8.9240332701
 21
16.8898463837
  0
LINE
  5
237
100
AcDbEntity
  8
CURVE
100
AcDbLine
 62
7
  6
CONTINUOUS
 10
-8.8112908803
 20
17.0025887736
 11
-8.5537631356
 21
17.2601165183
  0
LINE
  5
238
100
AcDbEntity
  8
CURVE
100
AcDbLine
 62
7
  6
CONTINUOUS
 10
-9.3081980204
 20
15.5100752856
 11
-8.9240332701
 21
15.8942400358
  0
LINE
  5
239
100
AcDbEntity
  8
CURVE
100
AcDbLine
 62
7
  6
CONTINUOUS
 10
-8.5982806258
 20
16.2199926801
 11
-8.3407528811
 21
16.4775204248
  0
LINE
  5
23A
100
AcDbEntity
  8
CURVE
100
AcDbLine
 62
7
  6
CONTINUOUS
 10
-9.3081980204
 20
14.5144689377
 11
-8.9240332701
 21
14.8986336879
  0
LINE
  5
23B
100
AcDbEntity
  8
CURVE
100
AcDbLine
 62
7
  6
CONTINUOUS
 10
-8.3852703713
 20
15.4373965867
 11
-8.1277426266
 21
15.6949243314
  0
LINE
  5
23C
100
AcDbEntity
  8
CURVE
100
AcDbLine
 62
7
  6
CONTINUOUS
 10
-7.4887118632
 20
16.3339550948
 11
-7.1043031611
 21
16.7183637969
  0
LWPOLYLINE
  5
23D
100
AcDbEntity
  8
ASSI
100
AcDbPolyline
 62
250
  6
CONTINUOUS
 90
9
 70
0
 10
13.9291216197
 20
-30.8908129542
 10
13.9135217185
 20
-30.8806041288
 10
13.8909425041
 20
-30.8606881415
 10
13.8714164926
 20
-30.8365038864
 10
13.8551505498
 20
-30.8083075802
 10
13.842317003
 20
-30.7763979452
 10
13.8330518155
 20
-30.7411130435
 10
13.8274531462
 20
-30.7028266965
 10
13.8255803092
 20
-30.6619445237
  0
LINE
  5
23E
100
AcDbEntity
  8
CURVE
100
AcDbLine
 62
7
  6
CONTINUOUS
 10
-9.011052358
 20
13.8160082522
 11
-8.9240332701
 21
13.90302734
  0
LINE
  5
23F
100
AcDbEntity
  8
CURVE
100
AcDbLine
 62
7
  6
CONTINUOUS
 10
-8.1722601169
 20
14.6548004933
 11
-7.9147323721
 21
14.912328238
  0
LINE
  5
240
100
AcDbEntity
  8
CURVE
100
AcDbLine
 62
7
  6
CONTINUOUS
 10
-7.4887118632
 20
15.3383487469
 11
-7.1043031611
 21
15.722757449
  0
LINE
  5
241
100
AcDbEntity
  8
CURVE
100
AcDbLine
 62
7
  6
CONTINUOUS
 10
-7.9592498624
 20
13.8722043998
 11
-7.7017221177
 21
14.1297321445
  0
LINE
  5
242
100
AcDbEntity
  8
CURVE
100
AcDbLine
 62
7
  6
CONTINUOUS
 10
-7.4887118632
 20
14.342742399
 11
-7.1043031611
 21
14.7271511011
  0
LINE
  5
243
100
AcDbEntity
  8
CURVE
100
AcDbLine
 62
7
  6
CONTINUOUS
 10
-7.7462396079
 20
13.0896083064
 11
-7.1043031611
 21
13.7315447532
  0
LINE
  5
244
100
AcDbEntity
  8
CURVE
100
AcDbLine
 62
7
  6
CONTINUOUS
 10
-7.1175296147
 20
12.7227119516
 11
-7.1043031611
 21
12.7359384053
  0
LINE
  5
245
100
AcDbEntity
  8
ASSI
100
AcDbLine
 62
7
  6
CONTINUOUS
 10
-16.8652400986
 20
8.2092435752
 11
-16.5676471647
 21
8.3964700398
  0
LINE
  5
246
100
AcDbEntity
  8
ASSI
100
AcDbLine
 62
250
  6
CONTINUOUS
 10
-16.6051534027
 20
8.1906432863
 11
-16.4166097329
 21
8.3092629197
  0
LWPOLYLINE
  5
247
100
AcDbEntity
  8
CURVE
100
AcDbPolyline
 62
250
  6
CONTINUOUS
 90
31
 70
0
 10
-12.0811543509
 20
-8.4223604875
 10
-12.0901628187
 20
-8.4039228028
 10
-12.0988978933
 20
-8.3853961836
 10
-12.1073639628
 20
-8.3667883688
 10
-12.1155654152
 20
-8.3481070976
 10
-12.1235066387
 20
-8.329360109
 10
-12.1311920213
 20
-8.3105551422
 10
-12.1386259513
 20
-8.2916999362
 10
-12.1458128167
 20
-8.2728022301
 10
-12.1527570056
 20
-8.2538697631
 10
-12.1594629062
 20
-8.2349102741
 10
-12.1659349065
 20
-8.2159315023
 10
-12.1721773947
 20
-8.1969411867
 10
-12.178194759
 20
-8.1779470665
 10
-12.1839913873
 20
-8.1589568807
 10
-12.1895716678
 20
-8.1399783685
 10
-12.1949399887
 20
-8.1210192688
 10
-12.200100738
 20
-8.1020873209
 10
-12.205058304
 20
-8.0831902637
 10
-12.2098170745
 20
-8.0643358364
 10
-12.2143814379
 20
-8.045531778
 10
-12.2187557822
 20
-8.0267858277
 10
-12.2229444956
 20
-8.0081057245
 10
-12.2269519661
 20
-7.9894992075
 10
-12.2319608518
 20
-7.9651164951
 10
-12.2366761189
 20
-7.9408628358
 10
-12.2411108587
 20
-7.9167262443
 10
-12.2452781627
 20
-7.8926947355
 10
-12.2491911221
 20
-7.8687563242
 10
-12.2528628285
 20
-7.8448990252
 10
-12.2563063731
 20
-7.8211108532
  0
LWPOLYLINE
  5
248
100
AcDbEntity
  8
CURVE
100
AcDbPolyline
 62
250
  6
CONTINUOUS
 90
39
 70
0
 10
-12.107769551
 20
17.1876606623
 10
-12.1055148547
 20
17.0603140843
 10
-12.1025011928
 20
16.9520211789
 10
-12.0977499441
 20
16.8428300743
 10
-12.0917086379
 20
16.7477347455
 10
-12.0835904012
 20
16.6516103962
 10
-12.0751749799
 20
16.5717014627
 10
-12.0648802884
 20
16.4910188981
 10
-12.052369414
 20
16.4095519562
 10
-12.037305444
 20
16.3272898908
 10
-12.0218533777
 20
16.2546858914
 10
-12.0044796652
 20
16.1816192436
 10
-11.9922153785
 20
16.1338369233
 10
-11.9790341201
 20
16.0859155227
 10
-11.9647111427
 20
16.0378468613
 10
-11.943630171
 20
15.9738062279
 10
-11.9201588812
 20
15.9097037014
 10
-11.8943170102
 20
15.8457515425
 10
-11.8661242951
 20
15.782162012
 10
-11.8356004726
 20
15.7191473706
 10
-11.8087740311
 20
15.667917628
 10
-11.7804400805
 20
15.6173958338
 10
-11.7506541764
 20
15.5677576264
 10
-11.7194718745
 20
15.5191786439
 10
-11.6869487302
 20
15.4718345245
 10
-11.6531402992
 20
15.4259009065
 10
-11.6154003965
 20
15.3782094191
 10
-11.5764223752
 20
15.332383917
 10
-11.5363925848
 20
15.2884530696
 10
-11.491824169
 20
15.242810133
 10
-11.4463970701
 20
15.1994529451
 10
-11.4002782698
 20
15.1583877994
 10
-11.3475660646
 20
15.1147340994
 10
-11.2943532552
 20
15.0737463648
 10
-11.2408083218
 20
15.03515989
 10
-11.1789463004
 20
14.9933935231
 10
-11.1169360826
 20
14.9541972811
 10
-11.054846326
 20
14.917310017
 10
-10.9924643982
 20
14.8824373376
  0
LINE
  5
249
100
AcDbEntity
  8
CURVE
100
AcDbLine
 62
250
  6
CONTINUOUS
 10
-11.6828310597
 20
16.9427287077
 11
-11.6815522006
 21
17.7409845009
  0
LINE
  5
24A
100
AcDbEntity
  8
CURVE
100
AcDbLine
 62
250
  6
CONTINUOUS
 10
-12.2955044101
 20
-7.1972310292
 11
-12.2942186641
 21
-6.3992607585
  0
LWPOLYLINE
  5
24B
100
AcDbEntity
  8
CURVE
100
AcDbPolyline
 62
250
  6
CONTINUOUS
 90
25
 70
0
 10
-12.2942186641
 20
-6.3992607585
 10
-12.2937118209
 20
-6.3118070392
 10
-12.2926035238
 20
-6.2246939354
 10
-12.2912035655
 20
-6.1610336012
 10
-12.2891226398
 20
-6.0977929006
 10
-12.2861862399
 20
-6.0351056132
 10
-12.2822198591
 20
-5.973105519
 10
-12.2774369058
 20
-5.9158157392
 10
-12.2715538826
 20
-5.8592815366
 10
-12.2645254761
 20
-5.8035395712
 10
-12.2563063731
 20
-5.7486265033
 10
-12.2499984038
 20
-5.71181952
 10
-12.2429905246
 20
-5.6755609424
 10
-12.235153768
 20
-5.6399993549
 10
-12.2263591662
 20
-5.6052833417
 10
-12.2164777516
 20
-5.5715614872
 10
-12.2053805563
 20
-5.5389823758
 10
-12.1929386127
 20
-5.5076945917
 10
-12.1804304234
 20
-5.4806084197
 10
-12.1667351526
 20
-5.4547725035
 10
-12.151872851
 20
-5.4302576562
 10
-12.1358635692
 20
-5.4071346908
 10
-12.1187273581
 20
-5.3854744203
 10
-12.1004842684
 20
-5.3653476577
 10
-12.0811543509
 20
-5.3468252159
  0
LWPOLYLINE
  5
24C
100
AcDbEntity
  8
CURVE
100
AcDbPolyline
 62
250
  6
CONTINUOUS
 90
25
 70
0
 10
-11.6815522006
 20
17.7409845009
 10
-11.681045388
 20
17.8284265599
 10
-11.6799368534
 20
17.9155276705
 10
-11.6785371327
 20
17.9791527677
 10
-11.6764564385
 20
18.0423582457
 10
-11.6735200356
 20
18.10501038
 10
-11.6695531886
 20
18.1669754459
 10
-11.6647694894
 20
18.2242306345
 10
-11.6588858046
 20
18.2807301007
 10
-11.6518574404
 20
18.3364368331
 10
-11.6436397027
 20
18.3913138208
 10
-11.6373273697
 20
18.4281311112
 10
-11.6303150011
 20
18.4643994477
 10
-11.6224737074
 20
18.4999710248
 10
-11.6136745991
 20
18.5346980372
 10
-11.6037887867
 20
18.5684326793
 10
-11.5926873807
 20
18.6010271458
 10
-11.5802414916
 20
18.6323336312
 10
-11.5677328427
 20
18.659431887
 10
-11.5540339427
 20
18.6852768003
 10
-11.5391607459
 20
18.7097904632
 10
-11.5231292065
 20
18.7328949678
 10
-11.5059552788
 20
18.7545124063
 10
-11.487654917
 20
18.7745648709
 10
-11.4682440754
 20
18.7929744537
  0
LWPOLYLINE
  5
24D
100
AcDbEntity
  8
CURVE
100
AcDbPolyline
 62
250
  6
CONTINUOUS
 90
53
 70
0
 10
-11.6051592698
 20
-9.2577874019
 10
-11.5636306827
 20
-9.2796633994
 10
-11.5221653656
 20
-9.3002909
 10
-11.4807897348
 20
-9.3195423081
 10
-11.448263307
 20
-9.3336583777
 10
-11.415847312
 20
-9.3467533764
 10
-11.3835800576
 20
-9.3587403496
 10
-11.3514998517
 20
-9.3695323429
 10
-11.3196450022
 20
-9.3790424017
 10
-11.2841814373
 20
-9.3881006616
 10
-11.2491143391
 20
-9.3953840982
 10
-11.2145075027
 20
-9.4008450493
 10
-11.1804247231
 20
-9.4044358529
 10
-11.1492138353
 20
-9.4060456883
 10
-11.1185962843
 20
-9.4058897428
 10
-11.0886554774
 20
-9.4038658323
 10
-11.0594748217
 20
-9.3998717723
 10
-11.0330787165
 20
-9.3943182073
 10
-11.0074501922
 20
-9.3870130482
 10
-10.9826267613
 20
-9.3779982292
 10
-10.9586459362
 20
-9.3673156845
 10
-10.9355452293
 20
-9.3550073483
 10
-10.9133621532
 20
-9.3411151549
 10
-10.8921342201
 20
-9.3256810385
 10
-10.8718989425
 20
-9.3087469333
 10
-10.852606157
 20
-9.2902873019
 10
-10.8343088954
 20
-9.27045122
 10
-10.8169643102
 20
-9.2493319023
 10
-10.8005295543
 20
-9.2270225631
 10
-10.7849617803
 20
-9.2036164169
 10
-10.770218141
 20
-9.1792066782
 10
-10.7562557892
 20
-9.1538865615
 10
-10.7430318774
 20
-9.1277492813
 10
-10.7273738551
 20
-9.0937871515
 10
-10.7128103022
 20
-9.0587184142
 10
-10.699332273
 20
-9.0225848583
 10
-10.6869308218
 20
-8.9854282726
 10
-10.6755970028
 20
-8.947290446
 10
-10.6653218703
 20
-8.9082131674
 10
-10.6548590115
 20
-8.8625242229
 10
-10.6456488823
 20
-8.8157860105
 10
-10.6375765453
 20
-8.7681187933
 10
-10.630527063
 20
-8.7196428345
 10
-10.6243854981
 20
-8.670478397
 10
-10.6190369131
 20
-8.6207457438
 10
-10.6123927134
 20
-8.5466585752
 10
-10.6070490342
 20
-8.4717191466
 10
-10.6028350095
 20
-8.3960472781
 10
-10.5995797734
 20
-8.3197627897
 10
-10.5971124597
 20
-8.2429855011
 10
-10.5944471173
 20
-8.1202253239
 10
-10.5929838968
 20
-7.9967432126
 10
-10.5922403589
 20
-7.7484923573
  0
LINE
  5
24E
100
AcDbEntity
  8
CURVE
100
AcDbLine
 62
250
  6
CONTINUOUS
 10
-7.4175797494
 20
-11.5982924143
 11
-7.831220953
 21
-11.3594611675
  0
LINE
  5
24F
100
AcDbEntity
  8
CURVE
100
AcDbLine
 62
250
  6
CONTINUOUS
 10
-9.5072238305
 20
-10.3917581112
 11
-9.9208650341
 21
-10.1529268644
  0
LINE
  5
250
100
AcDbEntity
  8
CURVE
100
AcDbLine
 62
250
  6
CONTINUOUS
 10
-6.3766549279
 20
-10.2950312397
 11
-7.4175797494
 21
-9.6940142936
  0
LINE
  5
251
100
AcDbEntity
  8
CURVE
100
AcDbLine
 62
250
  6
CONTINUOUS
 10
-8.466299009
 20
-9.0884969366
 11
-9.5072238305
 21
-8.4874799906
  0
LINE
  5
252
100
AcDbEntity
  8
CURVE
100
AcDbLine
 62
250
  6
CONTINUOUS
 10
-9.5072238305
 20
-8.1052184046
 11
-8.466299009
 21
-8.7062353507
  0
LINE
  5
253
100
AcDbEntity
  8
CURVE
100
AcDbLine
 62
250
  6
CONTINUOUS
 10
-7.4175797494
 20
-9.3117527076
 11
-6.3766549279
 21
-9.9127696537
  0
LWPOLYLINE
  5
254
100
AcDbEntity
  8
CURVE
100
AcDbPolyline
 62
250
  6
CONTINUOUS
 90
29
 70
0
 10
-11.1664174334
 20
-5.3889278862
 10
-11.1810553818
 20
-5.3729742324
 10
-11.1958407059
 20
-5.3573395056
 10
-11.2107654342
 20
-5.3420168265
 10
-11.2258215956
 20
-5.326999316
 10
-11.2410012188
 20
-5.3122800946
 10
-11.2562963323
 20
-5.2978522831
 10
-11.271698965
 20
-5.2837090023
 10
-11.2872011455
 20
-5.2698433729
 10
-11.3027949026
 20
-5.2562485156
 10
-11.3184722649
 20
-5.2429175511
 10
-11.3342252611
 20
-5.2298436002
 10
-11.35004592
 20
-5.2170197835
 10
-11.3659262702
 20
-5.2044392219
 10
-11.3818583405
 20
-5.1920950361
 10
-11.3978341595
 20
-5.1799803467
 10
-11.4138457559
 20
-5.1680882746
 10
-11.4298851585
 20
-5.1564119404
 10
-11.445944396
 20
-5.1449444648
 10
-11.462015497
 20
-5.1336789687
 10
-11.4780904903
 20
-5.1226085727
 10
-11.4941614046
 20
-5.1117263975
 10
-11.5102202685
 20
-5.1010255639
 10
-11.5348535898
 20
-5.084926071
 10
-11.5594527319
 20
-5.0692173758
 10
-11.5840307592
 20
-5.0538786114
 10
-11.6086007359
 20
-5.0388889112
 10
-11.6331757264
 20
-5.0242274082
 10
-11.6577687949
 20
-5.0098732357
  0
LWPOLYLINE
  5
255
100
AcDbEntity
  8
CURVE
100
AcDbPolyline
 62
250
  6
CONTINUOUS
 90
30
 70
0
 10
-11.2489995412
 20
-5.801985611
 10
-11.2332443011
 20
-5.8336153047
 10
-11.2181784002
 20
-5.8655185674
 10
-11.2038178036
 20
-5.8976424149
 10
-11.190178476
 20
-5.9299338628
 10
-11.1772763823
 20
-5.9623399267
 10
-11.1651274872
 20
-5.9948076225
 10
-11.1537477556
 20
-6.0272839658
 10
-11.1431531523
 20
-6.0597159722
 10
-11.13249848
 20
-6.0949818877
 10
-11.1227295128
 20
-6.1301262969
 10
-11.1137792455
 20
-6.1651434336
 10
-11.1055806728
 20
-6.200027532
 10
-11.0980667896
 20
-6.2347728259
 10
-11.0911705907
 20
-6.2693735495
 10
-11.0848250708
 20
-6.3038239368
 10
-11.0789632248
 20
-6.3381182217
 10
-11.0707261262
 20
-6.3908375594
 10
-11.0634267619
 20
-6.4431851651
 10
-11.0570064148
 20
-6.4951764105
 10
-11.051406368
 20
-6.5468266671
 10
-11.0465679044
 20
-6.5981513065
 10
-11.0424323071
 20
-6.6491657002
 10
-11.0389408588
 20
-6.6998852199
 10
-11.0360348428
 20
-6.7503252371
 10
-11.0336555418
 20
-6.8005011234
 10
-11.0317442389
 20
-6.8504282503
 10
-11.0302422172
 20
-6.9001219895
 10
-11.0286609004
 20
-6.9723524974
 10
-11.0276399574
 20
-7.0442375965
  0
LWPOLYLINE
  5
256
100
AcDbEntity
  8
CURVE
100
AcDbPolyline
 62
250
  6
CONTINUOUS
 90
10
 70
0
 10
-12.2563063731
 20
-7.8211108532
 10
-12.2654809026
 20
-7.7540327872
 10
-12.2733854766
 20
-7.6874378719
 10
-12.2799901361
 20
-7.6213888326
 10
-12.285264922
 20
-7.5559483944
 10
-12.2893755696
 20
-7.4880872863
 10
-12.2922225046
 20
-7.4208643735
 10
-12.2940343114
 20
-7.3541811294
 10
-12.2950395742
 20
-7.2879390278
 10
-12.2955044101
 20
-7.1972310292
  0
LWPOLYLINE
  5
257
100
AcDbEntity
  8
CURVE
100
AcDbPolyline
 62
250
  6
CONTINUOUS
 90
42
 70
0
 10
-9.9803463617
 20
16.632782366
 10
-9.981638909
 20
16.7536839259
 10
-9.983826002
 20
16.8751080281
 10
-9.9871254447
 20
16.9971887584
 10
-9.9892922054
 20
17.0590024346
 10
-9.9919069967
 20
17.1210569582
 10
-9.9950800795
 20
17.1833923883
 10
-9.9989217144
 20
17.246048784
 10
-10.0035421622
 20
17.3090662043
 10
-10.0090516837
 20
17.3724847083
 10
-10.0155605394
 20
17.436344355
 10
-10.0231789903
 20
17.5006852036
 10
-10.0302795713
 20
17.5534508012
 10
-10.0382580584
 20
17.6065549313
 10
-10.0471836614
 20
17.6599905596
 10
-10.0571255899
 20
17.7137506517
 10
-10.0681530537
 20
17.7678281732
 10
-10.0803352625
 20
17.8222160897
 10
-10.0937414258
 20
17.8769073669
 10
-10.1084407536
 20
17.9318949703
 10
-10.1196575297
 20
17.9709552604
 10
-10.1315893
 20
18.010113774
 10
-10.1442695057
 20
18.0493240109
 10
-10.1577315885
 20
18.0885394709
 10
-10.1720089897
 20
18.1277136539
 10
-10.1871351507
 20
18.1668000598
 10
-10.2031435129
 20
18.2057521884
 10
-10.2200675179
 20
18.2445235396
 10
-10.237940607
 20
18.2830676133
 10
-10.2567962217
 20
18.3213379092
 10
-10.2771745149
 20
18.3602561266
 10
-10.2985581898
 20
18.398784604
 10
-10.3208838821
 20
18.4368705175
 10
-10.3440882274
 20
18.4744610434
 10
-10.3681078611
 20
18.5115033579
 10
-10.3928794189
 20
18.5479446371
 10
-10.4183395364
 20
18.5837320572
 10
-10.444424849
 20
18.6188127944
 10
-10.4710719924
 20
18.6531340249
 10
-10.4982176022
 20
18.6866429248
 10
-10.5257983138
 20
18.7192866705
 10
-10.5537507629
 20
18.7510124379
  0
LWPOLYLINE
  5
258
100
AcDbEntity
  8
CURVE
100
AcDbPolyline
 62
250
  6
CONTINUOUS
 90
42
 70
0
 10
-10.5928956957
 20
-7.5075567793
 10
-10.5941003422
 20
-7.3865897382
 10
-10.5962322857
 20
-7.2650858806
 10
-10.5995485101
 20
-7.1428922202
 10
-10.6017593035
 20
-7.0810553577
 10
-10.60443814
 20
-7.0189679275
 10
-10.6076876839
 20
-6.9565930197
 10
-10.6116105994
 20
-6.8938937243
 10
-10.616309551
 20
-6.8308331312
 10
-10.6218872031
 20
-6.7673743304
 10
-10.6284462199
 20
-6.703480412
 10
-10.6360892658
 20
-6.639114466
 10
-10.6431851666
 20
-6.5863516065
 10
-10.6511415709
 20
-6.5332571997
 10
-10.6600327083
 20
-6.4798369079
 10
-10.6699328083
 20
-6.4260963933
 10
-10.6809161004
 20
-6.3720413183
 10
-10.693056814
 20
-6.3176773452
 10
-10.7064291787
 20
-6.2630101362
 10
-10.721107424
 20
-6.2080453538
 10
-10.732313085
 20
-6.1690203004
 10
-10.7442403397
 20
-6.1298957512
 10
-10.756921081
 20
-6.0907180911
 10
-10.7703872018
 20
-6.051533705
 10
-10.7846705947
 20
-6.0123889778
 10
-10.7998031528
 20
-5.9733302943
 10
-10.8158167687
 20
-5.9344040396
 10
-10.8327433354
 20
-5.8956565985
 10
-10.8506147456
 20
-5.8571343559
 10
-10.8694628921
 20
-5.8188836967
 10
-10.8898492635
 20
-5.7799407917
 10
-10.9112365327
 20
-5.7413863754
 10
-10.9335622398
 20
-5.7032737149
 10
-10.9567639249
 20
-5.6656560776
 10
-10.9807791283
 20
-5.6285867307
 10
-11.00554539
 20
-5.5921189415
 10
-11.0310002502
 20
-5.5563059774
 10
-11.057081249
 20
-5.5212011055
 10
-11.0837259266
 20
-5.4868575931
 10
-11.1108718231
 20
-5.4533287076
 10
-11.1384564786
 20
-5.4206677162
 10
-11.1664174334
 20
-5.3889278862
  0
LINE
  5
259
100
AcDbEntity
  8
CURVE
100
AcDbLine
 62
250
  6
CONTINUOUS
 10
-11.0276399574
 20
-7.0442375965
 11
-11.0257334782
 21
-7.3291241892
  0
LINE
  5
25A
100
AcDbEntity
  8
CURVE
100
AcDbLine
 62
250
  6
CONTINUOUS
 10
-10.4148599909
 20
17.095862525
 11
-10.4124598409
 21
16.6695191865
  0
LINE
  5
25B
100
AcDbEntity
  8
CURVE
100
AcDbLine
 62
250
  6
CONTINUOUS
 10
-9.9795736885
 20
16.3920105304
 11
-9.9803463617
 21
16.632782366
  0
LINE
  5
25C
100
AcDbEntity
  8
CURVE
100
AcDbLine
 62
250
  6
CONTINUOUS
 10
-10.5922403589
 20
-7.7484923573
 11
-10.5928956957
 21
-7.5075567793
  0
LINE
  5
25D
100
AcDbEntity
  8
CURVE
100
AcDbLine
 62
250
  6
CONTINUOUS
 10
-9.9208650341
 20
-10.1529268644
 11
-9.9208650341
 21
-6.0914983478
  0
LINE
  5
25E
100
AcDbEntity
  8
CURVE
100
AcDbLine
 62
250
  6
CONTINUOUS
 10
-9.5072238305
 20
-6.7123103148
 11
-9.5072238305
 21
-8.1052184046
  0
LINE
  5
25F
100
AcDbEntity
  8
CURVE
100
AcDbLine
 62
250
  6
CONTINUOUS
 10
-9.5072238305
 20
-8.4874799906
 11
-9.5072238305
 21
-10.3917581112
  0
LINE
  5
260
100
AcDbEntity
  8
CURVE
100
AcDbLine
 62
250
  6
CONTINUOUS
 10
-9.3081980204
 20
13.9875764335
 11
-9.3081980204
 21
18.0487224514
  0
LINE
  5
261
100
AcDbEntity
  8
CURVE
100
AcDbLine
 62
250
  6
CONTINUOUS
 10
-11.0257334782
 20
-7.3291241892
 11
-11.0254727842
 21
-7.572110687
  0
LINE
  5
262
100
AcDbEntity
  8
CURVE
100
AcDbLine
 62
250
  6
CONTINUOUS
 10
-10.4124598409
 20
16.6695191865
 11
-10.4133145698
 21
16.3650999217
  0
LINE
  5
263
100
AcDbEntity
  8
CURVE
100
AcDbLine
 62
250
  6
CONTINUOUS
 10
-11.0254727842
 20
-7.572110687
 11
-11.0275625618
 21
-8.0197643696
  0
LINE
  5
264
100
AcDbEntity
  8
CURVE
100
AcDbLine
 62
250
  6
CONTINUOUS
 10
-10.4133145698
 20
16.3650999217
 11
-10.4148958913
 21
16.1201759545
  0
LWPOLYLINE
  5
265
100
AcDbEntity
  8
CURVE
100
AcDbPolyline
 62
250
  6
CONTINUOUS
 90
34
 70
0
 10
-11.0275625618
 20
-8.0197643696
 10
-11.0282957528
 20
-8.0666591941
 10
-11.0296685486
 20
-8.1131736062
 10
-11.0316862203
 20
-8.1592905358
 10
-11.0343540392
 20
-8.2049929132
 10
-11.0376772765
 20
-8.2502636682
 10
-11.0416612033
 20
-8.2950857311
 10
-11.0454122442
 20
-8.3313336727
 10
-11.0496379831
 20
-8.3672399388
 10
-11.0543691652
 20
-8.4027733474
 10
-11.0596365353
 20
-8.4379027164
 10
-11.0654708386
 20
-8.4725968638
 10
-11.0719028201
 20
-8.5068246078
 10
-11.0789632248
 20
-8.5405547662
 10
-11.0842511651
 20
-8.5636522848
 10
-11.0898795419
 20
-8.586463917
 10
-11.0958712797
 20
-8.6089584765
 10
-11.1022493027
 20
-8.6311047769
 10
-11.1090365353
 20
-8.6528716319
 10
-11.1162559016
 20
-8.6742278552
 10
-11.1239303262
 20
-8.6951422604
 10
-11.1320827333
 20
-8.7155836611
 10
-11.1407360471
 20
-8.7355208711
 10
-11.1499131921
 20
-8.7549227041
 10
-11.1585540876
 20
-8.7717448155
 10
-11.1676322453
 20
-8.7880906865
 10
-11.177150238
 20
-8.8039345138
 10
-11.1871106387
 20
-8.8192504942
 10
-11.1975160202
 20
-8.8340128244
 10
-11.2083689555
 20
-8.8481957012
 10
-11.2196720174
 20
-8.8617733215
 10
-11.231427779
 20
-8.8747198819
 10
-11.243638813
 20
-8.8870095793
 10
-11.2563076924
 20
-8.8986166104
  0
LWPOLYLINE
  5
266
100
AcDbEntity
  8
CURVE
100
AcDbPolyline
 62
250
  6
CONTINUOUS
 90
33
 70
0
 10
-10.4148958913
 20
16.1201759545
 10
-10.4156812651
 20
16.0733357874
 10
-10.4170905385
 20
16.0268682186
 10
-10.4191281518
 20
15.9807885716
 10
-10.4217985453
 20
15.93511217
 10
-10.4251061593
 20
15.8898543375
 10
-10.4290554341
 20
15.8450303975
 10
-10.4327634602
 20
15.8087782235
 10
-10.4369377202
 20
15.7728606424
 10
-10.4416139403
 20
15.7373129272
 10
-10.4468278471
 20
15.7021703509
 10
-10.4526151666
 20
15.6674681865
 10
-10.4590116252
 20
15.633241707
 10
-10.4660529493
 20
15.5995261852
 10
-10.471958082
 20
15.5738594682
 10
-10.4782986244
 20
15.5485599321
 10
-10.4851039096
 20
15.5236688478
 10
-10.4924032707
 20
15.4992274864
 10
-10.5002260409
 20
15.4752771188
 10
-10.5086015532
 20
15.451859016
 10
-10.5175591406
 20
15.429014449
 10
-10.5271281364
 20
15.4067846888
 10
-10.5373378735
 20
15.3852110064
 10
-10.5460115802
 20
15.3684024751
 10
-10.5551191367
 20
15.3520680144
 10
-10.56466293
 20
15.3362326701
 10
-10.5746453472
 20
15.3209214879
 10
-10.5850687753
 20
15.3061595138
 10
-10.5959356014
 20
15.2919717936
 10
-10.6072482126
 20
15.2783833731
 10
-10.6190089958
 20
15.2654192981
 10
-10.6312203383
 20
15.2531046146
 10
-10.643884627
 20
15.2414643682
  0
LWPOLYLINE
  5
267
100
AcDbEntity
  8
CURVE
100
AcDbPolyline
 62
250
  6
CONTINUOUS
 90
84
 70
0
 10
-11.6577687949
 20
-5.0098732357
 10
-11.7065630067
 20
-4.9825438794
 10
-11.7554924067
 20
-4.9568978615
 10
-11.8044311775
 20
-4.9331184882
 10
-11.8532535017
 20
-4.911389066
 10
-11.9018335621
 20
-4.8918929014
 10
-11.9500455413
 20
-4.8748133007
 10
-11.997763622
 20
-4.8603335703
 10
-12.0448619868
 20
-4.8486370167
 10
-12.0912148184
 20
-4.8399069463
 10
-12.1366962995
 20
-4.8343266654
 10
-12.1749268671
 20
-4.8321909791
 10
-12.2122718389
 20
-4.8326415631
 10
-12.2485800658
 20
-4.8358097542
 10
-12.2837003986
 20
-4.8418268889
 10
-12.3174816883
 20
-4.850824304
 10
-12.3477687666
 20
-4.8620215214
 10
-12.3767238515
 20
-4.875808704
 10
-12.4043203974
 20
-4.8920499584
 10
-12.4305318585
 20
-4.9106093914
 10
-12.4553316891
 20
-4.9313511095
 10
-12.4852365111
 20
-4.9611261806
 10
-12.5128506899
 20
-4.9940155565
 10
-12.5382792046
 20
-5.0297247931
 10
-12.5614179397
 20
-5.0676528777
 10
-12.5824951062
 20
-5.1079397717
 10
-12.6014947119
 20
-5.1504614812
 10
-12.6200494927
 20
-5.199754407
 10
-12.6362667044
 20
-5.251328802
 10
-12.6503525729
 20
-5.3049013584
 10
-12.6625133236
 20
-5.3601887685
 10
-12.6729551823
 20
-5.4169077245
 10
-12.6818843744
 20
-5.4747749185
 10
-12.6906538849
 20
-5.5435105848
 10
-12.6978359199
 20
-5.6133077431
 10
-12.7036261241
 20
-5.6840473693
 10
-12.7087061574
 20
-5.7643129972
 10
-12.7125692913
 20
-5.8453948134
 10
-12.7155018697
 20
-5.9270741874
 10
-12.7190054105
 20
-6.0661913861
 10
-12.7211961374
 20
-6.2060878416
 10
-12.7225930601
 20
-6.3601049353
 10
-12.7230536259
 20
-6.5238131184
 10
-12.7227338942
 20
-6.6807376191
 10
-12.7217746994
 20
-6.825769209
 10
-12.7202890537
 20
-6.9526635576
 10
-12.7179379201
 20
-7.0800481761
 10
-12.7149526846
 20
-7.1881990399
 10
-12.710294812
 20
-7.2972157373
 10
-12.7043318447
 20
-7.392250917
 10
-12.6962570717
 20
-7.4883299279
 10
-12.6878346236
 20
-7.5682362364
 10
-12.6775174134
 20
-7.6489232292
 10
-12.664998793
 20
-7.7303936977
 10
-12.6499721145
 20
-7.8126504333
 10
-12.6345776845
 20
-7.8853035235
 10
-12.6172072369
 20
-7.9584265577
 10
-12.604861497
 20
-8.0063103723
 10
-12.5915660673
 20
-8.0543391429
 10
-12.5771342081
 20
-8.1025153991
 10
-12.5560189646
 20
-8.1665320981
 10
-12.5325781439
 20
-8.2306041974
 10
-12.5068082384
 20
-8.2945238308
 10
-12.4787057406
 20
-8.3580831322
 10
-12.448267143
 20
-8.4210742353
 10
-12.4214790698
 20
-8.4723175609
 10
-12.3931650719
 20
-8.5228545858
 10
-12.3633830062
 20
-8.5725043611
 10
-12.3321907293
 20
-8.6210859378
 10
-12.2996460982
 20
-8.6684183669
 10
-12.2658069696
 20
-8.7143206994
 10
-12.2280323617
 20
-8.7619489908
 10
-12.1890209178
 20
-8.807703258
 10
-12.1489679033
 20
-8.8515751602
 10
-12.1044174113
 20
-8.8971614402
 10
-12.0590235671
 20
-8.9404927605
 10
-12.0129449402
 20
-8.9815525247
 10
-11.9602355501
 20
-9.0252476442
 10
-11.9070227004
 20
-9.0662829745
 10
-11.8534749923
 20
-9.1049210749
 10
-11.791612783
 20
-9.1467442139
 10
-11.7296016628
 20
-9.1859905658
 10
-11.6675129964
 20
-9.2229115889
 10
-11.6051592698
 20
-9.2577874019
  0
LINE
  5
268
100
AcDbEntity
  8
CURVE
100
AcDbLine
 62
250
  6
CONTINUOUS
 10
-6.313561204
 20
-8.5562910893
 11
-7.4175797494
 21
-7.9188446178
  0
LINE
  5
269
100
AcDbEntity
  8
CURVE
100
AcDbLine
 62
250
  6
CONTINUOUS
 10
-8.4032052851
 20
-7.3497567863
 11
-9.5072238305
 21
-6.7123103148
  0
LINE
  5
26A
100
AcDbEntity
  8
CURVE
100
AcDbLine
 62
250
  6
CONTINUOUS
 10
-9.9208650341
 20
-6.0914983478
 11
-8.4032052851
 21
-6.9677760661
  0
LINE
  5
26B
100
AcDbEntity
  8
CURVE
100
AcDbLine
 62
250
  6
CONTINUOUS
 10
-7.831220953
 20
-7.2980326508
 11
-6.313561204
 21
-8.1743103691
  0
LWPOLYLINE
  5
26C
100
AcDbEntity
  8
CURVE
100
AcDbPolyline
 62
250
  6
CONTINUOUS
 90
10
 70
0
 10
-11.6436397027
 20
16.3188294709
 10
-11.6528879566
 20
16.3859919672
 10
-11.6608239691
 20
16.4526567497
 10
-11.6674303236
 20
16.5187644342
 10
-11.6726896035
 20
16.5842556364
 10
-11.6767715697
 20
16.6520494483
 10
-11.6795921606
 20
16.7192046328
 10
-11.681382298
 20
16.785821734
 10
-11.6823729037
 20
16.8520012963
 10
-11.6828310597
 20
16.9427287077
  0
LINE
  5
26D
100
AcDbEntity
  8
CURVE
100
AcDbLine
 62
250
  6
CONTINUOUS
 10
-8.9240332701
 20
17.4168024181
 11
-8.9240332701
 21
13.7657645214
  0
LINE
  5
26E
100
AcDbEntity
  8
CURVE
100
AcDbLine
 62
250
  6
CONTINUOUS
 10
-8.466299009
 20
-8.7062353507
 11
-8.466299009
 21
-9.0884969366
  0
LINE
  5
26F
100
AcDbEntity
  8
CURVE
100
AcDbLine
 62
250
  6
CONTINUOUS
 10
-8.4032052851
 20
-6.9677760661
 11
-8.4032052851
 21
-7.3497567863
  0
LINE
  5
270
100
AcDbEntity
  8
CURVE
100
AcDbLine
 62
250
  6
CONTINUOUS
 10
-7.831220953
 20
-11.3594611675
 11
-7.831220953
 21
-7.2980326508
  0
LINE
  5
271
100
AcDbEntity
  8
CURVE
100
AcDbLine
 62
250
  6
CONTINUOUS
 10
-7.4887118632
 20
13.3471360511
 11
-7.4887118632
 21
16.9981739478
  0
LINE
  5
272
100
AcDbEntity
  8
CURVE
100
AcDbLine
 62
250
  6
CONTINUOUS
 10
-7.4175797494
 20
-7.9188446178
 11
-7.4175797494
 21
-9.3117527076
  0
LINE
  5
273
100
AcDbEntity
  8
CURVE
100
AcDbLine
 62
250
  6
CONTINUOUS
 10
-7.4175797494
 20
-9.6940142936
 11
-7.4175797494
 21
-11.5982924143
  0
LINE
  5
274
100
AcDbEntity
  8
CURVE
100
AcDbLine
 62
250
  6
CONTINUOUS
 10
-7.1043031611
 20
16.776221181
 11
-7.1043031611
 21
12.7150751631
  0
LINE
  5
275
100
AcDbEntity
  8
CURVE
100
AcDbLine
 62
250
  6
CONTINUOUS
 10
-6.3766549279
 20
-9.9127696537
 11
-6.3766549279
 21
-10.2950312397
  0
LINE
  5
276
100
AcDbEntity
  8
CURVE
100
AcDbLine
 62
250
  6
CONTINUOUS
 10
-6.313561204
 20
-8.1743103691
 11
-6.313561204
 21
-8.5562910893
  0
LINE
  5
277
100
AcDbEntity
  8
CURVE
100
AcDbLine
 62
7
  6
CONTINUOUS
 10
-12.6074209419
 20
-5.1691943159
 11
-12.2821650871
 21
-4.8439384611
  0
LINE
  5
278
100
AcDbEntity
  8
CURVE
100
AcDbLine
 62
7
  6
CONTINUOUS
 10
-12.7218596156
 20
-6.2792393375
 11
-12.2667038418
 21
-5.8240835637
  0
LINE
  5
279
100
AcDbEntity
  8
CURVE
100
AcDbLine
 62
7
  6
CONTINUOUS
 10
-11.7761194964
 20
-5.3334992183
 11
-11.5306171777
 21
-5.0879968996
  0
LINE
  5
27A
100
AcDbEntity
  8
CURVE
100
AcDbLine
 62
7
  6
CONTINUOUS
 10
-12.7114485284
 20
-7.2644345982
 11
-12.2950395742
 21
-6.848025644
  0
LINE
  5
27B
100
AcDbEntity
  8
CURVE
100
AcDbLine
 62
7
  6
CONTINUOUS
 10
-11.2489995412
 20
-5.801985611
 11
-11.0198599362
 21
-5.572846006
  0
LINE
  5
27C
100
AcDbEntity
  8
CURVE
100
AcDbLine
 62
7
  6
CONTINUOUS
 10
-12.571027723
 20
-8.1196201407
 11
-12.2581430807
 21
-7.8067354984
  0
LINE
  5
27D
100
AcDbEntity
  8
CURVE
100
AcDbLine
 62
7
  6
CONTINUOUS
 10
-11.0471999741
 20
-6.5957923918
 11
-10.7088308039
 21
-6.2574232216
  0
LINE
  5
27E
100
AcDbEntity
  8
CURVE
100
AcDbLine
 62
7
  6
CONTINUOUS
 10
-12.2218084059
 20
-8.7660071715
 11
-12.0032872798
 21
-8.5474860454
  0
LINE
  5
27F
100
AcDbEntity
  8
CURVE
100
AcDbLine
 62
7
  6
CONTINUOUS
 10
-11.0256972699
 20
-7.5698960355
 11
-10.5995315672
 21
-7.1437303328
  0
LINE
  5
280
100
AcDbEntity
  8
CURVE
100
AcDbLine
 62
7
  6
CONTINUOUS
 10
-9.9208650341
 20
-6.4650637997
 11
-9.6840396125
 21
-6.2282383781
  0
LWPOLYLINE
  5
281
100
AcDbEntity
  8
CURVE
100
AcDbPolyline
 62
250
  6
CONTINUOUS
 90
56
 70
0
 10
-12.0811543509
 20
-5.3468252159
 10
-12.0712896018
 20
-5.3386960834
 10
-12.0609271101
 20
-5.331287978
 10
-12.0500925495
 20
-5.3245986764
 10
-12.038811594
 20
-5.3186259554
 10
-12.0271099172
 20
-5.3133675917
 10
-12.0150131931
 20
-5.3088213623
 10
-12.0025470953
 20
-5.3049850438
 10
-11.9897372978
 20
-5.3018564132
 10
-11.9766094744
 20
-5.2994332471
 10
-11.9631892988
 20
-5.2977133223
 10
-11.9495024449
 20
-5.2966944158
 10
-11.9355745864
 20
-5.2963743042
 10
-11.9214313973
 20
-5.2967507643
 10
-11.9070985513
 20
-5.297821573
 10
-11.8910823563
 20
-5.2998008046
 10
-11.874884716
 20
-5.3025799693
 10
-11.858524066
 20
-5.3061153607
 10
-11.8420188418
 20
-5.3103632726
 10
-11.825387479
 20
-5.3152799985
 10
-11.8086484131
 20
-5.3208218322
 10
-11.7918200797
 20
-5.3269450673
 10
-11.7728351892
 20
-5.3344651181
 10
-11.7537738016
 20
-5.3426281049
 10
-11.7346487564
 20
-5.3513987948
 10
-11.7154728934
 20
-5.3607419549
 10
-11.6962590524
 20
-5.3706223526
 10
-11.677020073
 20
-5.3810047548
 10
-11.6577687949
 20
-5.3918539289
 10
-11.6357765566
 20
-5.404786366
 10
-11.6138017797
 20
-5.4183011535
 10
-11.5918612194
 20
-5.4324174198
 10
-11.569971631
 20
-5.4471542932
 10
-11.5481497698
 20
-5.4625309022
 10
-11.5264123909
 20
-5.4785663751
 10
-11.5101444821
 20
-5.4910651812
 10
-11.4939467889
 20
-5.5039776929
 10
-11.4778323602
 20
-5.5173347665
 10
-11.4618142445
 20
-5.5311672582
 10
-11.4459054906
 20
-5.5455060245
 10
-11.4301191473
 20
-5.5603819216
 10
-11.4144682633
 20
-5.5758258059
 10
-11.4010056685
 20
-5.5897096035
 10
-11.3876831625
 20
-5.6040242533
 10
-11.374528931
 20
-5.6187493681
 10
-11.3615711593
 20
-5.6338645609
 10
-11.348838033
 20
-5.6493494444
 10
-11.3363577374
 20
-5.6651836317
 10
-11.3241584582
 20
-5.6813467356
 10
-11.3122683808
 20
-5.697818369
 10
-11.3007156907
 20
-5.7145781447
 10
-11.2895285734
 20
-5.7316056758
 10
-11.2787352143
 20
-5.7488805751
 10
-11.2683637989
 20
-5.7663824555
 10
-11.2584425127
 20
-5.7840909298
 10
-11.2489995412
 20
-5.801985611
  0
LINE
  5
282
100
AcDbEntity
  8
ASSI
100
AcDbLine
 62
250
  6
CONTINUOUS
 10
14.169878751
 20
12.0967166102
 11
15.8016304662
 21
13.0388649532
  0
LINE
  5
283
100
AcDbEntity
  8
ASSI
100
AcDbLine
 62
250
  6
CONTINUOUS
 10
14.5233109876
 20
11.4845540198
 11
16.251567317
 21
12.4824226428
  0
LWPOLYLINE
  5
284
100
AcDbEntity
  8
ASSI
100
AcDbPolyline
 62
250
  6
CONTINUOUS
 90
16
 70
0
 10
13.8255803092
 20
-10.1890031537
 10
13.8632382284
 20
-10.2086435797
 10
13.9043206473
 20
-10.2260437096
 10
13.9484377483
 20
-10.2409939078
 10
13.9952220945
 20
-10.2533209298
 10
14.0441484612
 20
-10.2628399882
 10
14.0945157635
 20
-10.2693953502
 10
14.145714274
 20
-10.2729140089
 10
14.1972698537
 20
-10.2733696137
 10
14.2486504591
 20
-10.2707557034
 10
14.2993199063
 20
-10.2650953045
 10
14.3487258866
 20
-10.2564458018
 10
14.3963239169
 20
-10.2449008203
 10
14.4416014306
 20
-10.2305852284
 10
14.484081398
 20
-10.2136504234
 10
14.5233109876
 20
-10.1942768924
  0
LWPOLYLINE
  5
285
100
AcDbEntity
  8
CURVE
100
AcDbPolyline
 62
250
  6
CONTINUOUS
 90
31
 70
0
 10
-11.4682440754
 20
15.7174391821
 10
-11.477275342
 20
15.7358789146
 10
-11.4860322568
 20
15.7544087581
 10
-11.4945192035
 20
15.7730208904
 10
-11.5027405659
 20
15.7917074896
 10
-11.5107007276
 20
15.8104607335
 10
-11.5184040724
 20
15.8292728001
 10
-11.525854984
 20
15.8481358675
 10
-11.533057846
 20
15.8670421135
 10
-11.5400170421
 20
15.8859837161
 10
-11.5467369561
 20
15.9049528533
 10
-11.5532219716
 20
15.923941703
 10
-11.5594764724
 20
15.9429424432
 10
-11.5655048422
 20
15.9619472518
 10
-11.5713114646
 20
15.9809483069
 10
-11.5769007234
 20
15.9999377863
 10
-11.5822770022
 20
16.018907868
 10
-11.5874446847
 20
16.03785073
 10
-11.5924081548
 20
16.0567585503
 10
-11.5971717959
 20
16.0756235067
 10
-11.601739992
 20
16.0944377773
 10
-11.6061171266
 20
16.1131935401
 10
-11.6103075835
 20
16.1318829728
 10
-11.6143157463
 20
16.1504982537
 10
-11.6193204007
 20
16.1748734498
 10
-11.6240305649
 20
16.1991189414
 10
-11.6284598294
 20
16.2232469752
 10
-11.6326217848
 20
16.2472697982
 10
-11.6365300217
 20
16.2711996573
 10
-11.6401981308
 20
16.2950487992
 10
-11.6436397027
 20
16.3188294709
  0
LINE
  5
286
100
AcDbEntity
  8
CURVE
100
AcDbLine
 62
250
  6
CONTINUOUS
 10
-7.7449843313
 20
13.0849964411
 11
-8.9240332701
 21
17.4168024181
  0
LINE
  5
287
100
AcDbEntity
  8
CURVE
100
AcDbLine
 62
250
  6
CONTINUOUS
 10
-8.667760802
 20
17.6789420281
 11
-7.4887118632
 21
13.3471360511
  0
LINE
  5
288
100
AcDbEntity
  8
CURVE
100
AcDbLine
 62
7
  6
CONTINUOUS
 10
-11.6770532844
 20
-9.2168583979
 11
-11.4008453995
 21
-8.940650513
  0
LINE
  5
289
100
AcDbEntity
  8
CURVE
100
AcDbLine
 62
7
  6
CONTINUOUS
 10
-11.1082583069
 20
-8.6480634204
 11
-10.5960570034
 21
-8.1358621169
  0
LINE
  5
28A
100
AcDbEntity
  8
CURVE
100
AcDbLine
 62
7
  6
CONTINUOUS
 10
-9.9208650341
 20
-7.4606701476
 11
-9.5072238305
 21
-7.047028944
  0
LINE
  5
28B
100
AcDbEntity
  8
CURVE
100
AcDbLine
 62
7
  6
CONTINUOUS
 10
-9.2950257268
 20
-6.8348308403
 11
-9.0528653647
 21
-6.5926704783
  0
LINE
  5
28C
100
AcDbEntity
  8
CURVE
100
AcDbLine
 62
7
  6
CONTINUOUS
 10
-9.9208650341
 20
-8.4562764955
 11
-9.5072238305
 21
-8.0426352919
  0
LINE
  5
28D
100
AcDbEntity
  8
CURVE
100
AcDbLine
 62
7
  6
CONTINUOUS
 10
-8.6638514791
 20
-7.1992629405
 11
-8.421691117
 21
-6.9571025784
  0
LINE
  5
28E
100
AcDbEntity
  8
CURVE
100
AcDbLine
 62
7
  6
CONTINUOUS
 10
-9.9208650341
 20
-9.4518828434
 11
-9.5072238305
 21
-9.0382416399
  0
LINE
  5
28F
100
AcDbEntity
  8
CURVE
100
AcDbLine
 62
7
  6
CONTINUOUS
 10
-9.1580631704
 20
-8.6890809797
 11
-8.9157247507
 21
-8.4467425601
  0
LINE
  5
290
100
AcDbEntity
  8
CURVE
100
AcDbLine
 62
7
  6
CONTINUOUS
 10
-7.831220953
 20
-7.3622387623
 11
-7.7905168693
 21
-7.3215346786
  0
LWPOLYLINE
  5
291
100
AcDbEntity
  8
CURVE
100
AcDbPolyline
 62
250
  6
CONTINUOUS
 90
57
 70
0
 10
-11.2563076924
 20
-8.8986166104
 10
-11.2654726738
 20
-8.9060037856
 10
-11.2751218477
 20
-8.9126725251
 10
-11.2852279694
 20
-8.9186309677
 10
-11.2957637937
 20
-8.9238872523
 10
-11.3067020758
 20
-8.9284495176
 10
-11.3180155708
 20
-8.9323259025
 10
-11.3296770337
 20
-8.9355245459
 10
-11.3416592196
 20
-8.9380535866
 10
-11.3539348835
 20
-8.9399211634
 10
-11.3664767807
 20
-8.9411354152
 10
-11.379257666
 20
-8.9417044809
 10
-11.3922502946
 20
-8.9416364992
 10
-11.4054274216
 20
-8.940939609
 10
-11.4187618021
 20
-8.9396219492
 10
-11.4340837432
 20
-8.9373854199
 10
-11.449558399
 20
-8.9344018951
 10
-11.4651704085
 20
-8.9307163904
 10
-11.4809044111
 20
-8.9263739213
 10
-11.4967450459
 20
-8.9214195032
 10
-11.5126769522
 20
-8.9158981517
 10
-11.5286847691
 20
-8.9098548821
 10
-11.546979669
 20
-8.9023932218
 10
-11.5653418051
 20
-8.894347806
 10
-11.5837599708
 20
-8.8857527114
 10
-11.6022229593
 20
-8.8766420145
 10
-11.620719564
 20
-8.8670497919
 10
-11.6392385781
 20
-8.85701012
 10
-11.6577687949
 20
-8.8465570756
 10
-11.6808075084
 20
-8.8330211295
 10
-11.7038285535
 20
-8.8188794225
 10
-11.7268142679
 20
-8.8041125442
 10
-11.7497469892
 20
-8.7887010845
 10
-11.7726090551
 20
-8.7726256331
 10
-11.7953828034
 20
-8.7558667796
 10
-11.8123028027
 20
-8.742903608
 10
-11.8291506916
 20
-8.7295137579
 10
-11.8459133378
 20
-8.7156616674
 10
-11.862577609
 20
-8.701311775
 10
-11.8791303729
 20
-8.6864285187
 10
-11.8955584971
 20
-8.6709763369
 10
-11.9118488495
 20
-8.6549196679
 10
-11.9247591053
 20
-8.6416325462
 10
-11.9375475444
 20
-8.6279537827
 10
-11.9501887655
 20
-8.6139006742
 10
-11.9626573675
 20
-8.5994905173
 10
-11.9749279489
 20
-8.584740609
 10
-11.9869751085
 20
-8.5696682459
 10
-11.998773445
 20
-8.554290725
 10
-12.0102975571
 20
-8.5386253429
 10
-12.0215220436
 20
-8.5226893965
 10
-12.032421503
 20
-8.5065001826
 10
-12.0429705343
 20
-8.4900749979
 10
-12.0531437359
 20
-8.4734311392
 10
-12.0629157068
 20
-8.4565859034
 10
-12.0722610455
 20
-8.4395565873
 10
-12.0811543509
 20
-8.4223604875
  0
LWPOLYLINE
  5
292
100
AcDbEntity
  8
ASSI
100
AcDbPolyline
 62
250
  6
CONTINUOUS
 90
9
 70
0
 10
-16.6051534027
 20
8.1906432863
 10
-16.6430194783
 20
8.2091750215
 10
-16.6804033618
 20
8.2230734182
 10
-16.7168957056
 20
8.232186291
 10
-16.7520969243
 20
8.2364138554
 10
-16.7856215701
 20
8.2357098203
 10
-16.8171025533
 20
8.2300818948
 10
-16.8461951622
 20
8.2195917037
 10
-16.8652400986
 20
8.2092435752
  0
LINE
  5
293
100
AcDbEntity
  8
ASSI
100
AcDbLine
 62
250
  6
CONTINUOUS
 10
13.8255803092
 20
-10.1890031537
 11
-16.9525364359
 21
7.5818957145
  0
LINE
  5
294
100
AcDbEntity
  8
ASSI
100
AcDbLine
 62
250
  6
CONTINUOUS
 10
14.1729633423
 20
-9.5802555819
 11
-16.6051534027
 21
8.1906432863
  0
LINE
  5
295
100
AcDbEntity
  8
ASSI
100
AcDbLine
 62
7
  6
CONTINUOUS
 10
-16.8489951253
 20
8.5589168262
 11
13.9291216197
 21
-9.211982042
  0
LINE
  5
296
100
AcDbEntity
  8
ASSI
100
AcDbLine
 62
250
  6
CONTINUOUS
 10
-16.9525364359
 20
8.7877852568
 11
13.8255803092
 21
-8.9831136114
  0
LWPOLYLINE
  5
297
100
AcDbEntity
  8
ASSI
100
AcDbPolyline
 62
250
  6
CONTINUOUS
 90
9
 70
0
 10
-16.9525364359
 20
8.7877852568
 10
-16.9865524599
 20
8.8095284674
 10
-17.0166884273
 20
8.8332489412
 10
-17.0425812621
 20
8.8587216023
 10
-17.0639309149
 20
8.8857342975
 10
-17.0804173454
 20
8.9139837684
 10
-17.0917708341
 20
8.9430652175
 10
-17.0978649371
 20
8.9726265958
 10
-17.0989830453
 20
8.9919225534
  0
LWPOLYLINE
  5
298
100
AcDbEntity
  8
ASSI
100
AcDbPolyline
 62
250
  6
CONTINUOUS
 90
9
 70
0
 10
-16.8489951253
 20
8.5589168262
 10
-16.8636425413
 20
8.5684288579
 10
-16.8864575762
 20
8.5882953109
 10
-16.9061925208
 20
8.61248635
 10
-16.9226359287
 20
8.6407427851
 10
-16.9356116203
 20
8.672761868
 10
-16.9449805701
 20
8.7082005365
 10
-16.9506423961
 20
8.7466790898
 10
-16.9525364359
 20
8.7877852568
  0
LWPOLYLINE
  5
299
100
AcDbEntity
  8
CURVE
100
AcDbPolyline
 62
250
  6
CONTINUOUS
 90
30
 70
0
 10
-10.6365764758
 20
18.3380953676
 10
-10.6207519046
 20
18.3064872835
 10
-10.6056345554
 20
18.274596753
 10
-10.591237006
 20
18.2424781119
 10
-10.5775718345
 20
18.2101856956
 10
-10.5646516184
 20
18.1777738399
 10
-10.5524889357
 20
18.1452968805
 10
-10.5410963643
 20
18.1128091529
 10
-10.5304864818
 20
18.0803649928
 10
-10.5198127349
 20
18.0450978854
 10
-10.510018573
 20
18.0099528079
 10
-10.5010384257
 20
17.9749354344
 10
-10.4928067228
 20
17.9400514394
 10
-10.485257894
 20
17.9053064971
 10
-10.478326369
 20
17.8707062819
 10
-10.4719465775
 20
17.8362564679
 10
-10.4660529493
 20
17.8019627297
 10
-10.4577724223
 20
17.749233364
 10
-10.4504391486
 20
17.6968761381
 10
-10.4439941334
 20
17.6448762131
 10
-10.4383783819
 20
17.5932187499
 10
-10.4335328993
 20
17.5418889095
 10
-10.4293986908
 20
17.4908718529
 10
-10.4259167616
 20
17.4401527411
 10
-10.4230281169
 20
17.3897167351
 10
-10.4206737619
 20
17.3395489959
 10
-10.4187947017
 20
17.2896346845
 10
-10.4173319417
 20
17.2399589619
 10
-10.4158169144
 20
17.167737289
 10
-10.4148599909
 20
17.095862525
  0
LINE
  5
29A
100
AcDbEntity
  8
CURVE
100
AcDbLine
 62
7
  6
CONTINUOUS
 10
-9.7341244056
 20
-10.2607485629
 11
-9.5072238305
 21
-10.0338479878
  0
LINE
  5
29B
100
AcDbEntity
  8
CURVE
100
AcDbLine
 62
7
  6
CONTINUOUS
 10
-8.5268889226
 20
-9.0535130799
 11
-8.466299009
 21
-8.9929231662
  0
LINE
  5
29C
100
AcDbEntity
  8
CURVE
100
AcDbLine
 62
7
  6
CONTINUOUS
 10
-7.831220953
 20
-8.3578451102
 11
-7.4175797494
 21
-7.9442039067
  0
LINE
  5
29D
100
AcDbEntity
  8
CURVE
100
AcDbLine
 62
7
  6
CONTINUOUS
 10
-7.4015029836
 20
-7.9281271409
 11
-7.1593426215
 21
-7.6859667788
  0
LINE
  5
29E
100
AcDbEntity
  8
CURVE
100
AcDbLine
 62
7
  6
CONTINUOUS
 10
-7.831220953
 20
-9.3534514581
 11
-7.4175797494
 21
-8.9398102546
  0
LINE
  5
29F
100
AcDbEntity
  8
CURVE
100
AcDbLine
 62
7
  6
CONTINUOUS
 10
-6.7703287359
 20
-8.292559241
 11
-6.5281683738
 21
-8.050398879
  0
LINE
  5
2A0
100
AcDbEntity
  8
CURVE
100
AcDbLine
 62
7
  6
CONTINUOUS
 10
-7.831220953
 20
-10.349057806
 11
-7.4175797494
 21
-9.9354166025
  0
LINE
  5
2A1
100
AcDbEntity
  8
CURVE
100
AcDbLine
 62
7
  6
CONTINUOUS
 10
-7.2645404272
 20
-9.7823772802
 11
-7.0222020075
 21
-9.5400388606
  0
LINE
  5
2A2
100
AcDbEntity
  8
CURVE
100
AcDbLine
 62
7
  6
CONTINUOUS
 10
-7.831220953
 20
-11.344664154
 11
-7.4175797494
 21
-10.9310229504
  0
LINE
  5
2A3
100
AcDbEntity
  8
CURVE
100
AcDbLine
 62
7
  6
CONTINUOUS
 10
-6.6333661794
 20
-10.1468093804
 11
-6.3910277598
 21
-9.9044709607
  0
LINE
  5
2A4
100
AcDbEntity
  8
ASSI
100
AcDbLine
 62
7
  6
CONTINUOUS
 10
16.5676934328
 20
-8.2140505836
 11
16.5738512552
 21
-8.217606033
  0
LWPOLYLINE
  5
2A5
100
AcDbEntity
  8
CURVE
100
AcDbPolyline
 62
250
  6
CONTINUOUS
 90
29
 70
0
 10
-10.5537507629
 20
18.7510124379
 10
-10.5683861819
 20
18.7669645128
 10
-10.5831684935
 20
18.7825994494
 10
-10.5980897682
 20
18.7979239968
 10
-10.6131420767
 20
18.812944904
 10
-10.6283174895
 20
18.8276689203
 10
-10.643608077
 20
18.8421027947
 10
-10.65900591
 20
18.8562532764
 10
-10.6745030589
 20
18.8701271143
 10
-10.6900915943
 20
18.8837310576
 10
-10.7057635867
 20
18.8970718554
 10
-10.7215111068
 20
18.9101562568
 10
-10.7373262249
 20
18.922991011
 10
-10.7532010118
 20
18.9355828669
 10
-10.769127538
 20
18.9479385738
 10
-10.785097874
 20
18.9600648806
 10
-10.8011040903
 20
18.9719685366
 10
-10.8171382576
 20
18.9836562907
 10
-10.8331924463
 20
18.9951348922
 10
-10.8492587271
 20
19.00641109
 10
-10.8653291705
 20
19.0174916334
 10
-10.881395847
 20
19.0283832714
 10
-10.8974508272
 20
19.0390927531
 10
-10.9220595117
 20
19.0551911557
 10
-10.9466347922
 20
19.0708969786
 10
-10.971189501
 20
19.0862308839
 10
-10.9957364702
 20
19.1012135337
 10
-11.0202885323
 20
19.1158655903
 10
-11.0448585194
 20
19.1302077157
  0
LWPOLYLINE
  5
2A6
100
AcDbEntity
  8
CURVE
100
AcDbPolyline
 62
250
  6
CONTINUOUS
 90
52
 70
0
 10
-10.9924643982
 20
14.8824373376
 10
-10.9509190572
 20
14.8605707269
 10
-10.9094419032
 20
14.8399731432
 10
-10.8680621632
 20
14.820784775
 10
-10.827507404
 20
14.8034275164
 10
-10.7871394937
 20
14.7876938989
 10
-10.7470228615
 20
14.7737098109
 10
-10.7072219369
 20
14.7616011405
 10
-10.671694346
 20
14.7524039479
 10
-10.6365517654
 20
14.7449309419
 10
-10.6018706868
 20
14.7392820525
 10
-10.567727602
 20
14.7355572098
 10
-10.5365684656
 20
14.7339079834
 10
-10.5060174195
 20
14.734081994
 10
-10.4761525032
 20
14.7361566117
 10
-10.4470517563
 20
14.7402092063
 10
-10.4206611878
 20
14.7458227828
 10
-10.3950394503
 20
14.7531820228
 10
-10.3702226402
 20
14.7622444072
 10
-10.346246854
 20
14.7729674169
 10
-10.3231481881
 20
14.7853085328
 10
-10.3009627391
 20
14.7992252359
 10
-10.2797266032
 20
14.814675007
 10
-10.2594758771
 20
14.8316153271
 10
-10.2401626071
 20
14.8500684009
 10
-10.2218378607
 20
14.8698898121
 10
-10.204460867
 20
14.8909888279
 10
-10.1879908552
 20
14.9132747153
 10
-10.1723870541
 20
14.9366567416
 10
-10.1576086931
 20
14.9610441738
 10
-10.143615001
 20
14.986346279
 10
-10.130365207
 20
15.0124723246
 10
-10.1146917792
 20
15.0464159622
 10
-10.1001216807
 20
15.081477133
 10
-10.0866439424
 20
15.1176114014
 10
-10.0742475954
 20
15.1547743321
 10
-10.0629216709
 20
15.1929214895
 10
-10.0526551999
 20
15.2320084385
 10
-10.042192534
 20
15.2777463999
 10
-10.0329829882
 20
15.3245327058
 10
-10.0249112745
 20
15.3722471445
 10
-10.0178621045
 20
15.4207695047
 10
-10.0117201899
 20
15.469979575
 10
-10.0063702427
 20
15.5197571438
 10
-9.9997356086
 20
15.593737574
 10
-9.9943942465
 20
15.6685658658
 10
-9.990177756
 20
15.7441237103
 10
-9.986917737
 20
15.820292799
 10
-9.9844457893
 20
15.896954823
 10
-9.9817722047
 20
16.019850569
 10
-9.9803099
 20
16.1434738877
 10
-9.9795736885
 20
16.3920105304
  0
LINE
  5
2A7
100
AcDbEntity
  8
CURVE
100
AcDbLine
 62
250
  6
CONTINUOUS
 10
-7.1043031611
 20
12.7150751631
 11
-7.7449843313
 21
13.0849964411
  0
LINE
  5
2A8
100
AcDbEntity
  8
CURVE
100
AcDbLine
 62
250
  6
CONTINUOUS
 10
-8.9240332701
 20
13.7657645214
 11
-9.3081980204
 21
13.9875764335
  0
LWPOLYLINE
  5
2A9
100
AcDbEntity
  8
CURVE
100
AcDbPolyline
 62
250
  6
CONTINUOUS
 90
46
 70
0
 10
-11.0448585194
 20
19.1302077157
 10
-11.0937065284
 20
19.1575659107
 10
-11.1426918843
 20
19.1832373057
 10
-11.1916875374
 20
19.2070374894
 10
-11.2405664376
 20
19.2287820506
 10
-11.2892015351
 20
19.2482865779
 10
-11.3374657799
 20
19.2653666602
 10
-11.3852321222
 20
19.2798378861
 10
-11.4323735119
 20
19.2915158444
 10
-11.4787628992
 20
19.3002161239
 10
-11.5242732341
 20
19.3057543131
 10
-11.5624280049
 20
19.3078427607
 10
-11.5997009858
 20
19.3073570831
 10
-11.6359477145
 20
19.3041756584
 10
-11.671023729
 20
19.2981768644
 10
-11.7047845672
 20
19.2892390791
 10
-11.7351356046
 20
19.2781143522
 10
-11.7641632133
 20
19.2644135141
 10
-11.7918277091
 20
19.2482522466
 10
-11.8180894074
 20
19.2297462316
 10
-11.8429086238
 20
19.2090111509
 10
-11.8655235178
 20
19.1869480402
 10
-11.8868111034
 20
19.1630553773
 10
-11.9068310395
 20
19.1374812519
 10
-11.9256429848
 20
19.1103737537
 10
-11.9487494955
 20
19.0723653015
 10
-11.9698198791
 20
19.0320332629
 10
-11.9888280415
 20
18.9894788429
 10
-12.006558476
 20
18.9425732485
 10
-12.0221473921
 20
18.8935959414
 10
-12.0357524619
 20
18.8428105792
 10
-12.0486552893
 20
18.7850311063
 10
-12.0596314825
 20
18.7256704821
 10
-12.068974099
 20
18.6650247511
 10
-12.0777628835
 20
18.5963639198
 10
-12.0850416597
 20
18.5266185356
 10
-12.0909594536
 20
18.455928115
 10
-12.0961650754
 20
18.3758036744
 10
-12.1001162427
 20
18.2948599386
 10
-12.1030788043
 20
18.2132880729
 10
-12.1064937099
 20
18.0741426796
 10
-12.1085599176
 20
17.9341865063
 10
-12.109930196
 20
17.7802375341
 10
-12.1103869554
 20
17.6166897693
 10
-12.1100710301
 20
17.4595257398
 10
-12.107769551
 20
17.1876606623
  0
LINE
  5
2AA
100
AcDbEntity
  8
CURVE
100
AcDbLine
 62
250
  6
CONTINUOUS
 10
-9.3081980204
 20
18.0487224514
 11
-8.667760802
 21
17.6789420281
  0
LINE
  5
2AB
100
AcDbEntity
  8
CURVE
100
AcDbLine
 62
250
  6
CONTINUOUS
 10
-7.4887118632
 20
16.9981739478
 11
-7.1043031611
 21
16.776221181
  0
LWPOLYLINE
  5
2AC
100
AcDbEntity
  8
ASSI
100
AcDbPolyline
 62
250
  6
CONTINUOUS
 90
16
 70
0
 10
14.5233109876
 20
-10.1942768924
 10
14.5207516188
 20
-10.1507009082
 10
14.5144282894
 20
-10.1052978887
 10
14.5044107077
 20
-10.0585681027
 10
14.4908074563
 20
-10.0110207388
 10
14.4737694604
 20
-9.9631852959
 10
14.453492321
 20
-9.9156058403
 10
14.4302083627
 20
-9.8688163496
 10
14.4041725605
 20
-9.8233194892
 10
14.3756642255
 20
-9.7795997393
 10
14.3449515147
 20
-9.738079744
 10
14.3124123486
 20
-9.6992810124
 10
14.2785430494
 20
-9.6637657412
 10
14.2437762729
 20
-9.6319223551
 10
14.2084546691
 20
-9.6040017395
 10
14.1729633423
 20
-9.5802555819
  0
LWPOLYLINE
  5
2AD
100
AcDbEntity
  8
ASSI
100
AcDbPolyline
 62
250
  6
CONTINUOUS
 90
9
 70
0
 10
13.8255803092
 20
-8.9831136114
 10
13.8274863081
 20
-9.0243455315
 10
13.8331837283
 20
-9.0629317625
 10
13.8426111019
 20
-9.0984563019
 10
13.855668542
 20
-9.1305398262
 10
13.8722142785
 20
-9.1588318779
 10
13.8920620541
 20
-9.1830193765
 10
13.9149888086
 20
-9.2028422329
 10
13.929011129
 20
-9.2119181896
  0
LINE
  5
2AE
100
AcDbEntity
  8
ASSI
100
AcDbLine
 62
250
  6
CONTINUOUS
 10
13.8255803092
 20
-30.6619445237
 11
13.8255803092
 21
-10.1890031537
  0
LINE
  5
2AF
100
AcDbEntity
  8
ASSI
100
AcDbLine
 62
250
  6
CONTINUOUS
 10
13.8255803092
 20
-8.9831136114
 11
13.8255803092
 21
11.4898277585
  0
LWPOLYLINE
  5
2B0
100
AcDbEntity
  8
ASSI
100
AcDbPolyline
 62
250
  6
CONTINUOUS
 90
16
 70
0
 10
13.8255803092
 20
11.4898277585
 10
13.8274531462
 20
11.5328726366
 10
13.8330518155
 20
11.5776241867
 10
13.842317003
 20
11.6236082946
 10
13.8551505498
 20
11.6703377878
 10
13.8714164926
 20
11.7173175969
 10
13.8909425041
 20
11.7640500007
 10
13.9135217185
 20
11.8100398989
 10
13.9389149234
 20
11.8548000577
 10
13.9668530939
 20
11.8978562716
 10
13.9970402429
 20
11.9387523875
 10
14.0291565565
 20
11.9770551368
 10
14.0628617827
 20
12.0123587261
 10
14.097798836
 20
12.0442891363
 10
14.1335975804
 20
12.0725080849
 10
14.169878751
 20
12.0967166102
  0
LINE
  5
2B1
100
AcDbEntity
  8
ASSI
100
AcDbLine
 62
250
  6
CONTINUOUS
 10
14.5233109876
 20
-30.6672182624
 11
14.5233109876
 21
-10.1942768924
  0
LINE
  5
2B2
100
AcDbEntity
  8
ASSI
100
AcDbLine
 62
250
  6
CONTINUOUS
 10
14.5233109876
 20
-8.9883873501
 11
14.5233109876
 21
11.4845540198
  0
LWPOLYLINE
  5
2B3
100
AcDbEntity
  8
ASSI
100
AcDbPolyline
 62
250
  6
CONTINUOUS
 90
16
 70
0
 10
14.1729633423
 20
-9.5802555819
 10
14.136454721
 20
-9.6042583349
 10
14.1004033753
 20
-9.6323390337
 10
14.0651955706
 20
-9.6641968132
 10
14.0312085339
 20
-9.6994903392
 10
13.9988064128
 20
-9.7378414661
 10
13.9683363737
 20
-9.7788392881
 10
13.9401248818
 20
-9.8220445421
 10
13.9144742038
 20
-9.8669943136
 10
13.8916591688
 20
-9.913206997
 10
13.8719242243
 20
-9.9601874555
 10
13.8554808163
 20
-10.0074323259
 10
13.8425051247
 20
-10.0544354122
 10
13.833136175
 20
-10.100693109
 10
13.827474349
 20
-10.145709797
 10
13.8255803092
 20
-10.1890031537
  0
LWPOLYLINE
  5
2B4
100
AcDbEntity
  8
ASSI
100
AcDbPolyline
 62
250
  6
CONTINUOUS
 90
9
 70
0
 10
14.4126865915
 20
-9.2210770349
 10
14.4307233783
 20
-9.2100046254
 10
14.4538976069
 20
-9.1903109653
 10
14.4740632139
 20
-9.1661132553
 10
14.4909993891
 20
-9.1376764566
 10
14.5045206838
 20
-9.1053119477
 10
14.5144790422
 20
-9.0693741148
 10
14.5207654218
 20
-9.0302564716
 10
14.5233109876
 20
-8.9883873501
  0
LINE
  5
2B5
100
AcDbEntity
  8
ASSI
100
AcDbLine
 62
250
  6
CONTINUOUS
 10
16.5738512552
 20
-8.217606033
 11
14.1729633423
 21
-9.5802555819
  0
LINE
  5
2B6
100
AcDbEntity
  8
ASSI
100
AcDbLine
 62
250
  6
CONTINUOUS
 10
16.9273642647
 20
-8.8298308073
 11
14.5233109876
 21
-10.1942768924
  0
LINE
  5
2B7
100
AcDbEntity
  8
ASSI
100
AcDbLine
 62
250
  6
CONTINUOUS
 10
14.5233109876
 20
-8.9883873501
 11
16.9273642647
 21
-7.7183745021
  0
LINE
  5
2B8
100
AcDbEntity
  8
ASSI
100
AcDbLine
 62
7
  6
CONTINUOUS
 10
14.4126865915
 20
-9.2210770349
 11
16.8183820871
 21
-7.950196636
  0
LWPOLYLINE
  5
2B9
100
AcDbEntity
  8
ASSI
100
AcDbPolyline
 62
250
  6
CONTINUOUS
 90
16
 70
0
 10
14.5233109876
 20
-8.9883873501
 10
14.4847879603
 20
-9.0074463343
 10
14.4429413304
 20
-9.0242168642
 10
14.3981692386
 20
-9.0384947571
 10
14.3508446788
 20
-9.0501120468
 10
14.3015016951
 20
-9.0588908014
 10
14.2508520666
 20
-9.0646848075
 10
14.1995103289
 20
-9.0674302133
 10
14.1479501229
 20
-9.0671080407
 10
14.0967030267
 20
-9.0637197805
 10
14.0463036666
 20
-9.0572963488
 10
13.997302169
 20
-9.047903349
 10
13.9502394194
 20
-9.0356426821
 10
13.9056224759
 20
-9.0206470176
 10
13.8639212382
 20
-9.0030748912
 10
13.8255803092
 20
-8.9831136114
  0
LWPOLYLINE
  5
2BA
100
AcDbEntity
  8
ASSI
100
AcDbPolyline
 62
250
  6
CONTINUOUS
 90
16
 70
0
 10
13.8255803092
 20
11.4898277585
 10
13.8632489705
 20
11.4701822774
 10
13.9043405708
 20
11.4527796348
 10
13.9484643386
 20
11.4378290206
 10
13.9952508817
 20
11.4255034084
 10
14.0441754945
 20
11.4159865482
 10
14.0945405322
 20
11.4094331067
 10
14.1457377564
 20
11.4059159954
 10
14.1972917152
 20
11.405461757
 10
14.2486699924
 20
11.4080767925
 10
14.2993361912
 20
11.4137379363
 10
14.3487384329
 20
11.4223877224
 10
14.3963328257
 20
11.4339325727
 10
14.4416070482
 20
11.4482476843
 10
14.4840840157
 20
11.465181652
 10
14.5233109876
 20
11.4845540198
  0
LWPOLYLINE
  5
2BB
100
AcDbEntity
  8
ASSI
100
AcDbPolyline
 62
250
  6
CONTINUOUS
 90
9
 70
0
 10
-16.9525364359
 20
29.2607266267
 10
-16.9865682764
 20
29.2824810422
 10
-17.0167124915
 20
29.306211432
 10
-17.0426072133
 20
29.3316917884
 10
-17.0639533464
 20
29.3587084165
 10
-17.0804333922
 20
29.386958191
 10
-17.0917802983
 20
29.4160384218
 10
-17.0978683601
 20
29.4455974924
 10
-17.0989830446
 20
29.4648487564
  0
LINE
  5
2BC
100
AcDbEntity
  8
ASSI
100
AcDbLine
 62
7
  6
CONTINUOUS
 10
16.9273642647
 20
-26.5092916793
 11
16.9273642647
 21
-8.8298308073
  0
LINE
  5
2BD
100
AcDbEntity
  8
ASSI
100
AcDbLine
 62
7
  6
CONTINUOUS
 10
16.9273642647
 20
-7.7183745021
 11
16.9273642647
 21
9.9610863699
  0
LINE
  5
2BE
100
AcDbEntity
  8
ASSI
100
AcDbLine
 62
250
  6
CONTINUOUS
 10
13.8255803092
 20
11.4898277585
 11
-16.9525364359
 21
29.2607266267
  0
LINE
  5
2BF
100
AcDbEntity
  8
ASSI
100
AcDbLine
 62
250
  6
CONTINUOUS
 10
14.169878751
 20
12.0967166102
 11
-16.6082379941
 21
29.8676154784
  0
LWPOLYLINE
  5
2C0
100
AcDbEntity
  8
ASSI
100
AcDbPolyline
 62
250
  6
CONTINUOUS
 90
16
 70
0
 10
14.169878751
 20
12.0967166102
 10
14.205399166
 20
12.0729619864
 10
14.2407781097
 20
12.0450537743
 10
14.2756302627
 20
12.0132453428
 10
14.3096119325
 20
11.9777899515
 10
14.342290995
 20
11.9390759073
 10
14.3731723743
 20
11.8976616869
 10
14.4018767458
 20
11.854066935
 10
14.4281340089
 20
11.8087136166
 10
14.4516638719
 20
11.7620826725
 10
14.472209163
 20
11.7146740719
 10
14.4895343026
 20
11.6670203124
 10
14.5034404642
 20
11.6196633447
 10
14.5137734499
 20
11.5731303365
 10
14.5204213599
 20
11.5279279712
 10
14.5233109876
 20
11.4845540198
  0
LINE
  5
2C1
100
AcDbEntity
  8
ASSI
100
AcDbLine
 62
7
  6
CONTINUOUS
 10
16.9150017622
 20
10.0599717332
 11
16.251567317
 21
12.4824226428
  0
LWPOLYLINE
  5
2C2
100
AcDbEntity
  8
ASSI
100
AcDbPolyline
 62
250
  6
CONTINUOUS
 90
9
 70
0
 10
-16.6082379941
 20
29.8676154784
 10
-16.6455579208
 20
29.8859191408
 10
-16.6825278859
 20
29.8997868662
 10
-16.7187428605
 20
29.9090150439
 10
-16.7538428701
 20
29.9134499523
 10
-16.7873783158
 20
29.9129702026
 10
-16.8188393013
 20
29.9075536386
 10
-16.8478400101
 20
29.8972773083
 10
-16.8683569953
 20
29.8860974394
  0
LINE
  5
2C3
100
AcDbEntity
  8
ASSI
100
AcDbLine
 62
7
  6
CONTINUOUS
 10
15.8016304662
 20
13.0388649532
 11
-15.0597634346
 21
30.8578470075
  0
LINE
  5
2C4
100
AcDbEntity
  8
ASSI
100
AcDbLine
 62
7
  6
CONTINUOUS
 10
16.9150017622
 20
-26.6217243734
 11
16.251567317
 21
-29.7711936138
  0
LWPOLYLINE
  5
2C5
100
AcDbEntity
  8
ASSI
100
AcDbPolyline
 62
250
  6
CONTINUOUS
 90
9
 70
0
 10
14.4093684152
 20
-30.9016449804
 10
14.4281229685
 20
-30.8902828288
 10
14.4516560956
 20
-30.8704988678
 10
14.4722036113
 20
-30.8461619504
 10
14.4895304946
 20
-30.8175392171
 10
14.5034381462
 20
-30.7849536335
 10
14.513772339
 20
-30.7487685181
 10
14.52042104
 20
-30.7093787983
 10
14.5233109876
 20
-30.6672182624
  0
LINE
  5
2C6
100
AcDbEntity
  8
ASSI
100
AcDbLine
 62
250
  6
CONTINUOUS
 10
16.251567317
 20
-29.7711936138
 11
14.5233109876
 21
-30.6672182624
  0
LINE
  5
2C7
100
AcDbEntity
  8
ASSI
100
AcDbLine
 62
7
  6
CONTINUOUS
 10
16.0714493394
 20
-30.0399294008
 11
14.4092703672
 21
-30.9016958553
  0
ARC
  5
2C8
100
AcDbEntity
  8
ASSI
100
AcDbCircle
 62
7
  6
CONTINUOUS
 10
-16.5989830453
 20
7.7860330112
 40
0.5
100
AcDbArc
 50
122.1754807991
 51
180.015358494
  0
ARC
  5
2C9
100
AcDbEntity
  8
ASSI
100
AcDbCircle
 62
7
  6
CONTINUOUS
 10
-16.5989830453
 20
-12.6869083588
 40
0.5
100
AcDbArc
 50
179.9900082978
 51
239.9984015652
  0
ARC
  5
2CA
100
AcDbEntity
  8
ASSI
100
AcDbCircle
 62
7
  6
CONTINUOUS
 10
14.1791336998
 20
-30.457807227
 40
0.5
100
AcDbArc
 50
239.9984015652
 51
297.4174046156
  0
ARC
  5
2CB
100
AcDbEntity
  8
ASSI
100
AcDbCircle
 62
7
  6
CONTINUOUS
 10
14.1791336998
 20
-8.7789763148
 40
0.5
100
AcDbArc
 50
239.9837780751
 51
297.8465900872
  0
ARC
  5
2CC
100
AcDbEntity
  8
ASSI
100
AcDbCircle
 62
7
  6
CONTINUOUS
 10
-16.5989830453
 20
8.9919225534
 40
0.5
100
AcDbArc
 50
179.9841296142
 51
239.9984015652
  0
ARC
  5
2CD
100
AcDbEntity
  8
ASSI
100
AcDbCircle
 62
7
  6
CONTINUOUS
 10
-16.5989830453
 20
29.4648639234
 40
0.5
100
AcDbArc
 50
122.5989154231
 51
180.0017380149
  0
ELLIPSE
  5
2CE
100
AcDbEntity
  8
ASSI
100
AcDbEllipse
 62
7
  6
CONTINUOUS
 10
16.5736896787
 20
-8.6258100648
 30
0.0
 11
-0.2500883296
 21
0.432972707
 31
0.0
 40
0.5775954524
 41
-2.3562050126
 42
-0.7858655366
  0
ELLIPSE
  5
2CF
100
AcDbEntity
  8
ASSI
100
AcDbEllipse
 62
7
  6
CONTINUOUS
 10
16.2141400422
 20
-8.4253136511
 30
0.0
 11
0.499979581
 21
0.0076930498
 31
0.0
 40
0.5873737521
 41
7.0595459565
 42
7.4069329008
  0
ELLIPSE
  5
2D0
100
AcDbEntity
  8
ASSI
100
AcDbEllipse
 62
7
  6
CONTINUOUS
 10
16.5645527527
 20
-26.7080834527
 30
0.0
 11
0.2600728777
 21
0.4271418247
 31
0.0
 40
0.5922410672
 41
-1.033355665
 42
-0.7715562772
  0
ELLIPSE
  5
2D1
100
AcDbEntity
  8
ASSI
100
AcDbEllipse
 62
7
  6
CONTINUOUS
 10
15.8979589045
 20
-29.5666722005
 30
0.0
 11
-0.1121548712
 21
0.4957473682
 31
0.0
 40
0.7039445592
 41
-2.9595186474
 42
-2.1483506142
  0
ELLIPSE
  5
2D2
100
AcDbEntity
  8
ASSI
100
AcDbEllipse
 62
7
  6
CONTINUOUS
 10
16.5736896787
 20
-7.5139806977
 30
0.0
 11
-0.2502024451
 21
0.4331706506
 31
0.0
 40
0.5770679437
 41
-3.1633994611
 42
-2.3566614272
  0
ELLIPSE
  5
2D3
100
AcDbEntity
  8
ASSI
100
AcDbEllipse
 62
7
  6
CONTINUOUS
 10
-14.9678788296
 20
30.5079361597
 30
0.0
 11
-0.3297163127
 21
0.381589989
 31
0.0
 40
0.4128243551
 41
-0.8709070521
 42
-0.0596421506
  0
ELLIPSE
  5
2D4
100
AcDbEntity
  8
ASSI
100
AcDbEllipse
 62
7
  6
CONTINUOUS
 10
16.5645527527
 20
9.7622945965
 30
0.0
 11
0.2600728777
 21
0.4271418247
 31
0.0
 40
0.5922410672
 41
-0.7715562772
 42
-0.5097568894
  0
ELLIPSE
  5
2D5
100
AcDbEntity
  8
ASSI
100
AcDbEllipse
 62
7
  6
CONTINUOUS
 10
15.8979589045
 20
12.6863882918
 30
0.0
 11
-0.3313794069
 21
0.3842968449
 31
0.0
 40
0.4077379513
 41
-2.4333010859
 42
-0.8631899918
  0
ENDSEC
  0
SECTION
  2
OBJECTS
  0
DICTIONARY
  5
C
100
AcDbDictionary
280
0
281
1
  3
ACAD_GROUP
350
D
  3
ACAD_MLINESTYLE
350
17
  3
ACAD_LAYOUT
350
1A
  3
ACAD_PLOTSETTINGS
350
19
  3
ACAD_PLOTSTYLENAME
350
E
  0
DICTIONARY
  5
D
102
{ACAD_REACTORS
330
C
102
}
100
AcDbDictionary
280
0
281
1
  0
ACDBDICTIONARYWDFLT
  5
E
102
{ACAD_REACTORS
330
C
102
}
100
AcDbDictionary
281
1
  3
Normal
350
F
100
AcDbDictionaryWithDefault
340
F
  0
DICTIONARY
  5
17
102
{ACAD_REACTORS
330
C
102
}
100
AcDbDictionary
280
0
281
1
  3
Standard
350
18
  0
DICTIONARY
  5
19
102
{ACAD_REACTORS
330
C
102
}
100
AcDbDictionary
281
1
  0
DICTIONARY
  5
1A
102
{ACAD_REACTORS
330
C
102
}
100
AcDbDictionary
281
1
  3
Model
350
2D6
  3
Layout1
350
2D7
  0
ACDBPLACEHOLDER
  5
F
102
{ACAD_REACTORS
330
E
102
}
  0
MLINESTYLE
  5
18
102
{ACAD_REACTORS
330
17
102
}
100
AcDbMlineStyle
  2
STANDARD
 70
0
  3

 62
256
 51
90.0
 52
90.0
 71
2
 49
0.5
 62
256
  6
BYLAYER
 49
-0.5
 62
256
  6
BYLAYER
  0
LAYOUT
  5
2D6
102
{ACAD_REACTORS
330
1A
102
}
100
AcDbPlotSettings
  1

  2
none_device
  4

  6

 40
0.0
 41
0.0
 42
0.0
 43
0.0
 44
210.0
 45
297.0
 46
0.0
 47
0.0
 48
0.0
 49
0.0
140
0.0
141
0.0
142
1.0
143
1.0
 70
1024
 72
1
 73
0
 74
0
  7

 75
0
147
1.0
148
0.0
149
0.0
100
AcDbLayout
  1
Model
 70
0
 71
0
 10
0.0
 20
0.0
 11
210.0
 21
297.0
 12
0.0
 22
0.0
 32
0.0
 14
0.0
 24
0.0
 34
0.0
 15
0.0
 25
0.0
 35
0.0
146
0.0
 13
0.0
 23
0.0
 33
0.0
 16
1.0
 26
0.0
 36
0.0
 17
0.0
 27
1.0
 37
0.0
 76
0
330
214
345
0
346
0
  0
LAYOUT
  5
2D7
102
{ACAD_REACTORS
330
1A
102
}
100
AcDbPlotSettings
  1

  2
none_device
  4

  6

 40
0.0
 41
0.0
 42
0.0
 43
0.0
 44
210.0
 45
297.0
 46
0.0
 47
0.0
 48
0.0
 49
0.0
140
0.0
141
0.0
142
1.0
143
1.0
 70
0
 72
1
 73
0
 74
0
  7

 75
0
147
1.0
148
0.0
149
0.0
100
AcDbLayout
  1
Layout1
 70
0
 71
1
 10
0.0
 20
0.0
 11
210.0
 21
297.0
 12
0.0
 22
0.0
 32
0.0
 14
0.0
 24
0.0
 34
0.0
 15
0.0
 25
0.0
 35
0.0
146
0.0
 13
0.0
 23
0.0
 33
0.0
 16
1.0
 26
0.0
 36
0.0
 17
0.0
 27
1.0
 37
0.0
 76
0
330
215
345
0
346
0
  0
ENDSEC
  0
EOF
