  0
SECTION
  2
HEADER
  9
$ACADVER
  1
AC1024
  9
$DWGCODEPAGE
  3
ANSI_1252
  9
$EXTMAX
 10
210.0
 20
297.0
 30
0.0
  9
$EXTMIN
 10
0.0
 20
0.0
 30
0.0
  9
$LIMMIN
 10
0.0
 20
0.0
  9
$LIMMAX
 10
210.0
 20
297.0
  9
$VIEWCTR
 10
105.0
 20
148.5
  9
$VIEWSIZE
 40
297.0
  9
$CLAYER
  8
0
  9
$LTSCALE
 40
19.36
  9
$CELTYPE
  6
BYLAYER
  9
$DIMSCALE
 40
1.0
  9
$DIMASZ
 40
3.0
  9
$DIMEXO
 40
0.5
  9
$DIMDLI
 40
13.376
  9
$DIMEXE
 40
1.5
  9
$DIMCEN
 40
3.168
  9
$DIMLFAC
 40
1.0
  9
$DIMBLK
  1
_FILLED
  9
$DIMALT
 70
0
  9
$DIMALTF
 40
0.0393700787
  9
$DIMTXT
 40
3.0
  9
$DIMTOL
 70
1
  9
$DIMLIM
 70
0
  9
$DIMTFAC
 40
1.0
  9
$DIMTP
 40
0.01
  9
$DIMTM
 40
0.01
  9
$DIMGAP
 40
0.625
  9
$DIMDSEP
 70
44
  9
$AUNITS
 70
0
  9
$PDMODE
 70
3
  9
$PDSIZE
 40
3.0
  9
$HANDSEED
  5
27F
  9
$TILEMODE
 70
1
  9
$MEASUREMENT
 70
1
  9
$INSUNITS
 70
4
  0
ENDSEC
  0
SECTION
  2
CLASSES
  0
CLASS
  1
ACDBDICTIONARYWDFLT
  2
AcDbDictionaryWithDefault
  3
AutoCAD 2000
 90
0
 91
1
280
0
281
0
  0
CLASS
  1
ACDBPLACEHOLDER
  2
AcDbPlaceHolder
  3
AutoCAD 2000
 90
0
 91
1
280
0
281
0
  0
CLASS
  1
LAYOUT
  2
AcDbLayout
  3
AutoCAD 2000
 90
0
 91
0
280
0
281
0
  0
ENDSEC
  0
SECTION
  2
TABLES
  0
TABLE
  2
VPORT
  5
8
100
AcDbSymbolTable
 70
2
  0
VPORT
  5
1F4
100
AcDbSymbolTableRecord
100
AcDbViewportTableRecord
  2
*ACTIVE
 70
0
 10
0.0
 20
0.0
 11
1.0
 21
1.0
 12
105.0
 22
148.5
 13
0.0
 23
0.0
 14
1.0
 24
1.0
 15
0.0
 25
0.0
 16
0.0
 26
0.0
 36
1.0
 17
0.0
 27
0.0
 37
0.0
 40
297.0
 41
0.7070707071
 42
50.0
 43
0.0
 44
0.0
 50
0.0
 51
0.0
 71
0
 72
100
 73
1
 74
1
 75
0
 76
0
 77
0
 78
0
  0
ENDTAB
  0
TABLE
  2
LTYPE
  5
5
100
AcDbSymbolTable
 70
6
  0
LTYPE
  5
14
100
AcDbSymbolTableRecord
100
AcDbLinetypeTableRecord
  2
BYBLOCK
 70
0
  3

 72
65
 73
0
 40
0.0
  0
LTYPE
  5
15
100
AcDbSymbolTableRecord
100
AcDbLinetypeTableRecord
  2
BYLAYER
 70
0
  3

 72
65
 73
0
 40
0.0
  0
LTYPE
  5
16
100
AcDbSymbolTableRecord
100
AcDbLinetypeTableRecord
  2
CONTINUOUS
 70
64
  3
Solid line
 72
65
 73
0
 40
0.0
  0
LTYPE
  5
1F5
100
AcDbSymbolTableRecord
100
AcDbLinetypeTableRecord
  2
CENTER
 70
64
  3
____ _ ____ _ ____ _ ____ _ ____ _ ____ _ ____
 72
65
 73
4
 40
0.6
 49
0.375
 74
0
 49
-0.075
 74
0
 49
0.075
 74
0
 49
-0.075
 74
0
  0
LTYPE
  5
1F6
100
AcDbSymbolTableRecord
100
AcDbLinetypeTableRecord
  2
HIDDEN
 70
64
  3
- - - - - - - - - - - - - - - - - - - -
 72
65
 73
2
 40
0.2
 49
0.1
 74
0
 49
-0.1
 74
0
  0
LTYPE
  5
1F7
100
AcDbSymbolTableRecord
100
AcDbLinetypeTableRecord
  2
PHANTOM
 70
64
  3
_____ _ _ _____ _ _ _____ _ _ _____
 72
65
 73
6
 40
0.8
 49
0.45
 74
0
 49
-0.05
 74
0
 49
0.1
 74
0
 49
-0.05
 74
0
 49
0.1
 74
0
 49
-0.05
 74
0
  0
LTYPE
  5
1F8
100
AcDbSymbolTableRecord
100
AcDbLinetypeTableRecord
  2
DOT
 70
64
  3
. . . . . . . . . . . . . . . . . . . .
 72
65
 73
2
 40
0.2
 49
0.1
 74
0
 49
-0.1
 74
0
  0
LTYPE
  5
1F9
100
AcDbSymbolTableRecord
100
AcDbLinetypeTableRecord
  2
DASHED
 70
64
  3
- - - - - - - - - - - - - - - - - - - -
 72
65
 73
2
 40
0.2
 49
0.1
 74
0
 49
-0.1
 74
0
  0
ENDTAB
  0
TABLE
  2
LAYER
  5
2
100
AcDbSymbolTable
 70
36
  0
LAYER
  5
10
100
AcDbSymbolTableRecord
100
AcDbLayerTableRecord
  2
0
 70
0
 62
7
  6
CONTINUOUS
370
-3
390
F
  0
LAYER
  5
1FA
100
AcDbSymbolTableRecord
100
AcDbLayerTableRecord
  2
DEFAULT_1
 70
0
 62
7
  6
CENTER
370
-3
390
F
  0
LAYER
  5
1FB
100
AcDbSymbolTableRecord
100
AcDbLayerTableRecord
  2
DEFAULT_2
 70
0
 62
7
  6
HIDDEN
370
-3
390
F
  0
LAYER
  5
1FC
100
AcDbSymbolTableRecord
100
AcDbLayerTableRecord
  2
DEFAULT_3
 70
0
 62
7
  6
PHANTOM
370
-3
390
F
  0
LAYER
  5
1FD
100
AcDbSymbolTableRecord
100
AcDbLayerTableRecord
  2
ASSI
 70
0
 62
7
  6
CONTINUOUS
370
-3
390
F
  0
LAYER
  5
1FE
100
AcDbSymbolTableRecord
100
AcDbLayerTableRecord
  2
COORDINATE
 70
0
 62
7
  6
CONTINUOUS
370
-3
390
F
  0
LAYER
  5
1FF
100
AcDbSymbolTableRecord
100
AcDbLayerTableRecord
  2
COPY_PUBLISH
 70
0
 62
7
  6
CONTINUOUS
370
-3
390
F
  0
LAYER
  5
200
100
AcDbSymbolTableRecord
100
AcDbLayerTableRecord
  2
COSMETICI
 70
0
 62
7
  6
CONTINUOUS
370
-3
390
F
  0
LAYER
  5
201
100
AcDbSymbolTableRecord
100
AcDbLayerTableRecord
  2
CURVE
 70
0
 62
7
  6
CONTINUOUS
370
-3
390
F
  0
LAYER
  5
202
100
AcDbSymbolTableRecord
100
AcDbLayerTableRecord
  2
DRAFT
 70
0
 62
7
  6
CONTINUOUS
370
-3
390
F
  0
LAYER
  5
203
100
AcDbSymbolTableRecord
100
AcDbLayerTableRecord
  2
IMPORT_IGES
 70
0
 62
7
  6
CONTINUOUS
370
-3
390
F
  0
LAYER
  5
204
100
AcDbSymbolTableRecord
100
AcDbLayerTableRecord
  2
INTF_1
 70
0
 62
7
  6
CONTINUOUS
370
-3
390
F
  0
LAYER
  5
205
100
AcDbSymbolTableRecord
100
AcDbLayerTableRecord
  2
INTF_2
 70
0
 62
7
  6
CONTINUOUS
370
-3
390
F
  0
LAYER
  5
206
100
AcDbSymbolTableRecord
100
AcDbLayerTableRecord
  2
INTF_4
 70
0
 62
7
  6
CONTINUOUS
370
-3
390
F
  0
LAYER
  5
207
100
AcDbSymbolTableRecord
100
AcDbLayerTableRecord
  2
NOTE
 70
0
 62
7
  6
CONTINUOUS
370
-3
390
F
  0
LAYER
  5
208
100
AcDbSymbolTableRecord
100
AcDbLayerTableRecord
  2
PIANI
 70
0
 62
7
  6
CONTINUOUS
370
-3
390
F
  0
LAYER
  5
209
100
AcDbSymbolTableRecord
100
AcDbLayerTableRecord
  2
PUNTI
 70
0
 62
7
  6
CONTINUOUS
370
-3
390
F
  0
LAYER
  5
20A
100
AcDbSymbolTableRecord
100
AcDbLayerTableRecord
  2
RACCORDO
 70
0
 62
7
  6
CONTINUOUS
370
-3
390
F
  0
LAYER
  5
20B
100
AcDbSymbolTableRecord
100
AcDbLayerTableRecord
  2
SIMBOLI
 70
0
 62
7
  6
CONTINUOUS
370
-3
390
F
  0
LAYER
  5
20C
100
AcDbSymbolTableRecord
100
AcDbLayerTableRecord
  2
SMUSSO
 70
0
 62
7
  6
CONTINUOUS
370
-3
390
F
  0
LAYER
  5
20D
100
AcDbSymbolTableRecord
100
AcDbLayerTableRecord
  2
SNAPLINE
 70
0
 62
7
  6
CONTINUOUS
370
-3
390
F
  0
LAYER
  5
20E
100
AcDbSymbolTableRecord
100
AcDbLayerTableRecord
  2
SUPERFICI
 70
0
 62
7
  6
CONTINUOUS
370
-3
390
F
  0
LAYER
  5
20F
100
AcDbSymbolTableRecord
100
AcDbLayerTableRecord
  2
TRASH
 70
0
 62
7
  6
CONTINUOUS
370
-3
390
F
  0
ENDTAB
  0
TABLE
  2
STYLE
  5
3
100
AcDbSymbolTable
 70
1
  0
STYLE
  5
11
100
AcDbSymbolTableRecord
100
AcDbTextStyleTableRecord
  2
STANDARD
 70
0
 40
0.0
 41
0.8
 50
0.0
 71
0
 42
0.2
  3
txt
  4

  0
STYLE
  5
210
100
AcDbSymbolTableRecord
100
AcDbTextStyleTableRecord
  2
TEXTSTYLE_1
 70
0
 40
0.0
 41
0.8
 50
0.0
 71
0
 42
0.2
  3
gdt
  4

  0
ENDTAB
  0
TABLE
  2
VIEW
  5
6
100
AcDbSymbolTable
 70
0
  0
ENDTAB
  0
TABLE
  2
UCS
  5
7
100
AcDbSymbolTable
 70
0
  0
ENDTAB
  0
TABLE
  2
APPID
  5
9
100
AcDbSymbolTable
 70
1
  0
APPID
  5
211
100
AcDbSymbolTableRecord
100
AcDbRegAppTableRecord
  2
ACAD
 70
0
  0
ENDTAB
  0
TABLE
  2
BLOCK_RECORD
  5
1
100
AcDbSymbolTable
 70
0
  0
BLOCK_RECORD
  5
212
100
AcDbSymbolTableRecord
100
AcDbBlockTableRecord
  2
*Model_Space
  0
BLOCK_RECORD
  5
213
100
AcDbSymbolTableRecord
100
AcDbBlockTableRecord
  2
*Paper_Space
  0
BLOCK_RECORD
  5
214
100
AcDbSymbolTableRecord
100
AcDbBlockTableRecord
  2
_FILLED
  0
ENDTAB
  0
TABLE
  2
DIMSTYLE
  5
A
100
AcDbSymbolTable
 70
1
100
AcDbDimStyleTable
 71
0
  0
DIMSTYLE
105
215
100
AcDbSymbolTableRecord
100
AcDbDimStyleTableRecord
  2
STANDARD
 70
0
  3

  4

 40
1.0
 41
3.0
 42
0.5
 43
0.38
 44
1.5
 45
0.0
 46
0.0
 47
0.01
 48
0.01
140
3.0
141
0.09
142
0.0
143
25.4
144
1.0
145
0.0
146
1.0
147
0.625
 71
1
 72
0
 73
0
 74
0
 75
0
 76
0
 77
1
 78
8
 79
2
170
0
171
1
172
0
173
0
174
0
175
0
176
0
177
0
178
0
270
2
179
2
271
2
272
2
273
2
274
2
275
0
280
0
281
0
282
0
283
1
284
8
285
0
286
0
287
3
288
0
340
11
278
44
341
214
342
214
343
214
344
214
  0
ENDTAB
  0
ENDSEC
  0
SECTION
  2
BLOCKS
  0
BLOCK
  5
20
100
AcDbEntity
  8
0
100
AcDbBlockBegin
  2
*Model_Space
 70
0
 10
0.0
 20
0.0
 30
0.0
  3
*Model_Space
  1

  0
ENDBLK
  5
21
100
AcDbEntity
  8
0
100
AcDbBlockEnd
  0
BLOCK
  5
1C
100
AcDbEntity
  8
0
100
AcDbBlockBegin
  2
*Paper_Space
 70
0
 10
0.0
 20
0.0
 30
0.0
  3
*Paper_Space
  1

  0
ENDBLK
  5
1D
100
AcDbEntity
  8
0
100
AcDbBlockEnd
  0
BLOCK
  5
216
100
AcDbEntity
  8
0
100
AcDbBlockBegin
  2
_FILLED
 70
64
 10
0.0
 20
0.0
  3
_FILLED
  1

  0
SOLID
  5
217
100
AcDbEntity
  8
0
  6
BYBLOCK
 62
0
100
AcDbTrace
 10
0.0
 20
0.0
 11
-1.0
 21
0.3166666667
 12
-1.0
 22
-0.3166666667
 13
-1.0
 23
-0.3166666667
  0
ENDBLK
  5
218
100
AcDbEntity
  8
0
  6
BYBLOCK
 62
0
100
AcDbBlockEnd
  0
ENDSEC
  0
SECTION
  2
ENTITIES
  0
LWPOLYLINE
  5
219
100
AcDbEntity
  8
ASSI
100
AcDbPolyline
 62
250
  6
CONTINUOUS
 90
16
 70
0
 10
-8.9594225275
 20
25.2553897629
 10
-8.995703698
 20
25.2311812376
 10
-9.0315024424
 20
25.202962289
 10
-9.0664394957
 20
25.1710318788
 10
-9.1001447219
 20
25.1357282895
 10
-9.1322610355
 20
25.0974255402
 10
-9.1624481845
 20
25.0565294244
 10
-9.190386355
 20
25.0134732104
 10
-9.2157795599
 20
24.9687130516
 10
-9.2383587743
 20
24.9227231534
 10
-9.2578847858
 20
24.8759907497
 10
-9.2741507286
 20
24.8290109405
 10
-9.2869842754
 20
24.7822814473
 10
-9.2962494629
 20
24.7362973394
 10
-9.3018481323
 20
24.6915457893
 10
-9.3037209692
 20
24.6485009113
  0
LINE
  5
21A
100
AcDbEntity
  8
ASSI
100
AcDbLine
 62
7
  6
CONTINUOUS
 10
-7.6388035193
 20
26.2847353553
 11
-9.2195415287
 21
25.2738717239
  0
LINE
  5
21B
100
AcDbEntity
  8
ASSI
100
AcDbLine
 62
250
  6
CONTINUOUS
 10
-7.410947968
 20
26.245621292
 11
-8.9594225275
 21
25.2553897629
  0
LWPOLYLINE
  5
21C
100
AcDbEntity
  8
ASSI
100
AcDbPolyline
 62
250
  6
CONTINUOUS
 90
16
 70
0
 10
5.5644931991
 20
-26.0879918893
 10
5.6021775204
 20
-26.1076447395
 10
5.6432834193
 20
-26.1250513913
 10
5.687418903
 20
-26.1400031377
 10
5.7342129785
 20
-26.1523274739
 10
5.7831406818
 20
-26.1618415624
 10
5.8335056919
 20
-26.1683917202
 10
5.8846992864
 20
-26.171905531
 10
5.9362463641
 20
-26.1723570137
 10
5.9876175452
 20
-26.1697400439
 10
6.0382777061
 20
-26.1640776176
 10
6.0876740459
 20
-26.1554271941
 10
6.1352624519
 20
-26.1438824145
 10
6.1805306856
 20
-26.1295681362
 10
6.2230020041
 20
-26.1126357302
 10
6.2622238776
 20
-26.093265628
  0
LINE
  5
21D
100
AcDbEntity
  8
ASSI
100
AcDbLine
 62
7
  6
CONTINUOUS
 10
-9.2001796587
 20
-17.7321398015
 11
5.6680345096
 21
-26.3168603198
  0
LINE
  5
21E
100
AcDbEntity
  8
ASSI
100
AcDbLine
 62
250
  6
CONTINUOUS
 10
-9.3037209692
 20
-17.503271371
 11
5.5644931991
 21
-26.0879918893
  0
LWPOLYLINE
  5
21F
100
AcDbEntity
  8
ASSI
100
AcDbPolyline
 62
250
  6
CONTINUOUS
 90
9
 70
0
 10
-9.3037209692
 20
-17.503271371
 10
-9.3375124899
 20
-17.4816870814
 10
-9.3675106001
 20
-17.458125241
 10
-9.3933450506
 20
-17.4328011165
 10
-9.4146928977
 20
-17.4059370659
 10
-9.4312414209
 20
-17.3778113708
 10
-9.4427242701
 20
-17.3487622174
 10
-9.4489744442
 20
-17.3190661627
 10
-9.4501675786
 20
-17.2991340743
  0
LWPOLYLINE
  5
220
100
AcDbEntity
  8
ASSI
100
AcDbPolyline
 62
250
  6
CONTINUOUS
 90
9
 70
0
 10
5.6680345096
 20
-26.3168603198
 10
5.6524346085
 20
-26.3066514945
 10
5.629855394
 20
-26.2867355071
 10
5.6103293826
 20
-26.262551252
 10
5.5940634397
 20
-26.2343549458
 10
5.5812298929
 20
-26.2024453108
 10
5.5719647055
 20
-26.1671604092
 10
5.5663660361
 20
-26.1288740621
 10
5.5644931991
 20
-26.0879918893
  0
LINE
  5
221
100
AcDbEntity
  8
CURVE
100
AcDbLine
 62
250
  6
CONTINUOUS
 10
-1.8693699332
 20
-14.3559099329
 11
0.9588839504
 21
-13.7020877065
  0
LINE
  5
222
100
AcDbEntity
  8
CURVE
100
AcDbLine
 62
250
  6
CONTINUOUS
 10
0.9588839504
 20
-13.1535878734
 11
-1.8693699332
 21
-13.8074109162
  0
LINE
  5
223
100
AcDbEntity
  8
CURVE
100
AcDbLine
 62
7
  6
CONTINUOUS
 10
-4.116566098
 20
11.8485360031
 11
-3.4031399927
 21
12.5619621083
  0
LINE
  5
224
100
AcDbEntity
  8
ASSI
100
AcDbLine
 62
250
  6
CONTINUOUS
 10
5.9087916409
 20
16.6706692446
 11
7.5405433561
 21
17.6128175876
  0
LWPOLYLINE
  5
225
100
AcDbEntity
  8
ASSI
100
AcDbPolyline
 62
250
  6
CONTINUOUS
 90
9
 70
0
 10
-9.3037209692
 20
-17.503271371
 10
-9.3018481323
 20
-17.5441535438
 10
-9.2962494629
 20
-17.5824398908
 10
-9.2869842754
 20
-17.6177247925
 10
-9.2741507286
 20
-17.6496344275
 10
-9.2578847858
 20
-17.6778307336
 10
-9.2383587743
 20
-17.7020149888
 10
-9.2157795599
 20
-17.7219309761
 10
-9.2001796587
 20
-17.7321398015
  0
LINE
  5
226
100
AcDbEntity
  8
ASSI
100
AcDbLine
 62
7
  6
CONTINUOUS
 10
-9.4501675786
 20
24.8526382079
 11
-9.4501675786
 21
4.379696838
  0
LINE
  5
227
100
AcDbEntity
  8
ASSI
100
AcDbLine
 62
7
  6
CONTINUOUS
 10
-9.4501675786
 20
3.1738072957
 11
-9.4501675786
 21
-17.2991340743
  0
LWPOLYLINE
  5
228
100
AcDbEntity
  8
ASSI
100
AcDbPolyline
 62
250
  6
CONTINUOUS
 90
16
 70
0
 10
-9.3037209692
 20
2.969669999
 10
-9.3018086985
 20
3.0131759432
 10
-9.2960942413
 20
3.0584094153
 10
-9.2866418672
 20
3.1048803381
 10
-9.2735648857
 20
3.1520579701
 10
-9.2570022896
 20
3.1994598748
 10
-9.2370971329
 20
3.2466573163
 10
-9.2139973937
 20
3.2932356017
 10
-9.1879802674
 20
3.3385804745
 10
-9.159456383
 20
3.3819913134
 10
-9.1287875254
 20
3.4229790112
 10
-9.0962989334
 20
3.4611656708
 10
-9.0624222696
 20
3.4961046149
 10
-9.0275607335
 20
3.5274557091
 10
-8.9920734102
 20
3.5549687843
 10
-8.9563379361
 20
3.5784175708
  0
LINE
  5
229
100
AcDbEntity
  8
CURVE
100
AcDbLine
 62
7
  6
CONTINUOUS
 10
-2.821593884
 20
12.1479018691
 11
-2.108168265
 21
12.8613274881
  0
LINE
  5
22A
100
AcDbEntity
  8
CURVE
100
AcDbLine
 62
7
  6
CONTINUOUS
 10
-1.7592568843
 20
12.2146325209
 11
-1.5293698127
 21
12.4445195926
  0
LINE
  5
22B
100
AcDbEntity
  8
ASSI
100
AcDbLine
 62
250
  6
CONTINUOUS
 10
6.2622238776
 20
16.0585066542
 11
7.990480207
 21
17.0563752772
  0
LINE
  5
22C
100
AcDbEntity
  8
CURVE
100
AcDbLine
 62
250
  6
CONTINUOUS
 10
-4.6976245239
 20
-10.4360906062
 11
-1.8693699332
 21
-14.3559099329
  0
LINE
  5
22D
100
AcDbEntity
  8
CURVE
100
AcDbLine
 62
250
  6
CONTINUOUS
 10
-1.8693699332
 20
-13.8074109162
 11
-4.6976245239
 21
-9.887590773
  0
LWPOLYLINE
  5
22E
100
AcDbEntity
  8
ASSI
100
AcDbPolyline
 62
250
  6
CONTINUOUS
 90
9
 70
0
 10
-9.4501675248
 20
3.1736732675
 10
-9.4492359116
 20
3.1561917823
 10
-9.4433835244
 20
3.1264121514
 10
-9.4322661714
 20
3.0972496652
 10
-9.4160200852
 20
3.06894915
 10
-9.3948004163
 20
3.0417613702
 10
-9.3688139514
 20
3.0159625987
 10
-9.3383464667
 20
2.991845808
 10
-9.3037209692
 20
2.969669999
  0
LINE
  5
22F
100
AcDbEntity
  8
ASSI
100
AcDbLine
 62
250
  6
CONTINUOUS
 10
-9.3037209692
 20
24.6485009113
 11
-9.3037209692
 21
4.1755595413
  0
LINE
  5
230
100
AcDbEntity
  8
ASSI
100
AcDbLine
 62
250
  6
CONTINUOUS
 10
-9.3037209692
 20
2.969669999
 11
-9.3037209692
 21
-17.503271371
  0
LINE
  5
231
100
AcDbEntity
  8
CURVE
100
AcDbLine
 62
7
  6
CONTINUOUS
 10
-1.3419781293
 20
11.636304928
 11
-1.1120910071
 21
11.8661920502
  0
LINE
  5
232
100
AcDbEntity
  8
CURVE
100
AcDbLine
 62
7
  6
CONTINUOUS
 10
-0.9246993742
 20
11.0579773352
 11
-0.6948122016
 21
11.2878645078
  0
LINE
  5
233
100
AcDbEntity
  8
CURVE
100
AcDbLine
 62
7
  6
CONTINUOUS
 10
-0.5074206192
 20
10.4796497423
 11
-0.2775333961
 21
10.7095369655
  0
LINE
  5
234
100
AcDbEntity
  8
ASSI
100
AcDbLine
 62
7
  6
CONTINUOUS
 10
-9.216424632
 20
3.5970178597
 11
-8.918831698
 21
3.7842443244
  0
LINE
  5
235
100
AcDbEntity
  8
ASSI
100
AcDbLine
 62
250
  6
CONTINUOUS
 10
-8.9563379361
 20
3.5784175708
 11
-8.7677942663
 21
3.6970372042
  0
LINE
  5
236
100
AcDbEntity
  8
CURVE
100
AcDbLine
 62
7
  6
CONTINUOUS
 10
-0.0901418641
 20
9.9013221495
 11
0.1397454095
 21
10.1312094231
  0
LINE
  5
237
100
AcDbEntity
  8
CURVE
100
AcDbLine
 62
7
  6
CONTINUOUS
 10
0.327136891
 20
9.3229945566
 11
0.557024215
 21
9.5528818807
  0
LINE
  5
238
100
AcDbEntity
  8
CURVE
100
AcDbLine
 62
7
  6
CONTINUOUS
 10
0.744415646
 20
8.7446669638
 11
0.9583967538
 21
8.9586480716
  0
LINE
  5
239
100
AcDbEntity
  8
CURVE
100
AcDbLine
 62
250
  6
CONTINUOUS
 10
-4.6981117205
 20
12.2625967285
 11
-4.6981117205
 21
11.7140968954
  0
LINE
  5
23A
100
AcDbEntity
  8
CURVE
100
AcDbLine
 62
250
  6
CONTINUOUS
 10
-4.6976245239
 20
-9.887590773
 11
-4.6976245239
 21
-10.4360906062
  0
LWPOLYLINE
  5
23B
100
AcDbEntity
  8
ASSI
100
AcDbPolyline
 62
250
  6
CONTINUOUS
 90
16
 70
0
 10
5.5644931991
 20
-5.6150505193
 10
5.6018629763
 20
-5.6345552397
 10
5.6426592677
 20
-5.6518726007
 10
5.6865103132
 20
-5.6667883614
 10
5.733032248
 20
-5.6791155702
 10
5.7817434435
 20
-5.6886728751
 10
5.8320574537
 20
-5.6953056341
 10
5.8834966796
 20
-5.6989169062
 10
5.935469072
 20
-5.6994316411
 10
5.9871759198
 20
-5.6968343862
 10
6.0379548448
 20
-5.6911823629
 10
6.0873776897
 20
-5.6825474737
 10
6.1350067258
 20
-5.6710122095
 10
6.1803580664
 20
-5.6566882132
 10
6.2229162818
 20
-5.6397324447
 10
6.2622238776
 20
-5.620324258
  0
LINE
  5
23C
100
AcDbEntity
  8
ASSI
100
AcDbLine
 62
250
  6
CONTINUOUS
 10
5.5644931991
 20
-5.6150505193
 11
-9.3037209692
 21
2.969669999
  0
LWPOLYLINE
  5
23D
100
AcDbEntity
  8
ASSI
100
AcDbPolyline
 62
250
  6
CONTINUOUS
 90
9
 70
0
 10
-8.9563379361
 20
3.5784175708
 10
-8.9942040117
 20
3.596949306
 10
-9.0315878952
 20
3.6108477027
 10
-9.068080239
 20
3.6199605755
 10
-9.1032814577
 20
3.6241881399
 10
-9.1368061035
 20
3.6234841049
 10
-9.1682870867
 20
3.6178561793
 10
-9.1973796956
 20
3.6073659882
 10
-9.216424632
 20
3.5970178597
  0
LINE
  5
23E
100
AcDbEntity
  8
ASSI
100
AcDbLine
 62
250
  6
CONTINUOUS
 10
5.9118762322
 20
-5.0063029475
 11
-8.9563379361
 21
3.5784175708
  0
LINE
  5
23F
100
AcDbEntity
  8
ASSI
100
AcDbLine
 62
7
  6
CONTINUOUS
 10
-9.2001796587
 20
3.9466911107
 11
5.6680345096
 21
-4.6380294076
  0
LINE
  5
240
100
AcDbEntity
  8
ASSI
100
AcDbLine
 62
250
  6
CONTINUOUS
 10
-9.3037209692
 20
4.1755595413
 11
5.5644931991
 21
-4.409160977
  0
LWPOLYLINE
  5
241
100
AcDbEntity
  8
ASSI
100
AcDbPolyline
 62
250
  6
CONTINUOUS
 90
9
 70
0
 10
-9.3037209692
 20
4.1755595413
 10
-9.3375019595
 20
4.1971363823
 10
-9.3674945762
 20
4.2206916496
 10
-9.3933277671
 20
4.2460106937
 10
-9.4146777436
 20
4.2728718758
 10
-9.4312304148
 20
4.3009971096
 10
-9.4427179502
 20
4.3300477885
 10
-9.448972454
 20
4.3597481529
 10
-9.4501675786
 20
4.379696838
  0
LWPOLYLINE
  5
242
100
AcDbEntity
  8
ASSI
100
AcDbPolyline
 62
250
  6
CONTINUOUS
 90
9
 70
0
 10
-9.2001796587
 20
3.9466911107
 10
-9.2148270747
 20
3.9562031425
 10
-9.2376421096
 20
3.9760695954
 10
-9.2573770542
 20
4.0002606345
 10
-9.2738204621
 20
4.0285170696
 10
-9.2867961537
 20
4.0605361525
 10
-9.2961651034
 20
4.095974821
 10
-9.3018269295
 20
4.1344533743
 10
-9.3037209692
 20
4.1755595413
  0
LINE
  5
243
100
AcDbEntity
  8
CURVE
100
AcDbLine
 62
250
  6
CONTINUOUS
 10
0.9583967538
 20
8.448099795
 11
0.9583967538
 21
8.9965996281
  0
LINE
  5
244
100
AcDbEntity
  8
CURVE
100
AcDbLine
 62
250
  6
CONTINUOUS
 10
0.9588839504
 20
-13.7020877065
 11
0.9588839504
 21
-13.1535878734
  0
LINE
  5
245
100
AcDbEntity
  8
ASSI
100
AcDbLine
 62
7
  6
CONTINUOUS
 10
8.3066063227
 20
-3.6400979492
 11
8.3127641451
 21
-3.6436533986
  0
LWPOLYLINE
  5
246
100
AcDbEntity
  8
ASSI
100
AcDbPolyline
 62
250
  6
CONTINUOUS
 90
9
 70
0
 10
5.5644931991
 20
-4.409160977
 10
5.5664054699
 20
-4.4504586789
 10
5.572119927
 20
-4.4890932391
 10
5.5815723012
 20
-4.5246487972
 10
5.5946492826
 20
-4.5567254588
 10
5.6112118787
 20
-4.5850012927
 10
5.6311170354
 20
-4.6092127582
 10
5.6542167747
 20
-4.6291160437
 10
5.6679240189
 20
-4.6379655552
  0
LWPOLYLINE
  5
247
100
AcDbEntity
  8
ASSI
100
AcDbPolyline
 62
250
  6
CONTINUOUS
 90
16
 70
0
 10
5.5644931991
 20
16.0637803929
 10
5.5663660361
 20
16.106825271
 10
5.5719647055
 20
16.1515768211
 10
5.5812298929
 20
16.1975609289
 10
5.5940634397
 20
16.2442904222
 10
5.6103293826
 20
16.2912702313
 10
5.629855394
 20
16.3380026351
 10
5.6524346085
 20
16.3839925333
 10
5.6778278134
 20
16.4287526921
 10
5.7057659839
 20
16.471808906
 10
5.7359531328
 20
16.5127050219
 10
5.7680694464
 20
16.5510077712
 10
5.8017746727
 20
16.5863113605
 10
5.8367117259
 20
16.6182417707
 10
5.8725104703
 20
16.6464607193
 10
5.9087916409
 20
16.6706692446
  0
LINE
  5
248
100
AcDbEntity
  8
CURVE
100
AcDbLine
 62
7
  6
CONTINUOUS
 10
-4.6976245239
 20
-10.3981390496
 11
-4.4836434161
 21
-10.1841579418
  0
LINE
  5
249
100
AcDbEntity
  8
CURVE
100
AcDbLine
 62
7
  6
CONTINUOUS
 10
-4.2962519852
 20
-10.9923728587
 11
-4.0663646611
 21
-10.7624855347
  0
LINE
  5
24A
100
AcDbEntity
  8
CURVE
100
AcDbLine
 62
7
  6
CONTINUOUS
 10
-3.8789731796
 20
-11.5707004011
 11
-3.649085906
 21
-11.3408131275
  0
LWPOLYLINE
  5
24B
100
AcDbEntity
  8
ASSI
100
AcDbPolyline
 62
250
  6
CONTINUOUS
 90
16
 70
0
 10
6.2622238776
 20
-5.620324258
 10
6.2596562856
 20
-5.5766659631
 10
6.2533131372
 20
-5.531187263
 10
6.2432676007
 20
-5.4843921167
 10
6.2296427744
 20
-5.4368267648
 10
6.2125869029
 20
-5.3889887213
 10
6.1922516926
 20
-5.341320826
 10
6.1687948912
 20
-5.2942536101
 10
6.1425044626
 20
-5.2484178631
 10
6.1137994244
 20
-5.2045294822
 10
6.0830484908
 20
-5.1630927154
 10
6.0505841712
 20
-5.1245004883
 10
6.0168435927
 20
-5.0892130969
 10
5.9822341221
 20
-5.0575821948
 10
5.9471183765
 20
-5.0298674633
 10
5.9118762322
 20
-5.0063029475
  0
LINE
  5
24C
100
AcDbEntity
  8
ASSI
100
AcDbLine
 62
250
  6
CONTINUOUS
 10
5.5644931991
 20
-26.0879918893
 11
5.5644931991
 21
-5.6150505193
  0
LINE
  5
24D
100
AcDbEntity
  8
ASSI
100
AcDbLine
 62
250
  6
CONTINUOUS
 10
5.5644931991
 20
-4.409160977
 11
5.5644931991
 21
16.0637803929
  0
LINE
  5
24E
100
AcDbEntity
  8
ASSI
100
AcDbLine
 62
250
  6
CONTINUOUS
 10
6.2622238776
 20
-26.093265628
 11
6.2622238776
 21
-5.620324258
  0
LINE
  5
24F
100
AcDbEntity
  8
ASSI
100
AcDbLine
 62
250
  6
CONTINUOUS
 10
6.2622238776
 20
-4.4144347157
 11
6.2622238776
 21
16.0585066542
  0
LINE
  5
250
100
AcDbEntity
  8
CURVE
100
AcDbLine
 62
7
  6
CONTINUOUS
 10
-3.4616943741
 20
-12.1490279435
 11
-3.231807151
 21
-11.9191407204
  0
LINE
  5
251
100
AcDbEntity
  8
CURVE
100
AcDbLine
 62
7
  6
CONTINUOUS
 10
-3.0444155685
 20
-12.7273554858
 11
-2.8145283959
 21
-12.4974683132
  0
LWPOLYLINE
  5
252
100
AcDbEntity
  8
ASSI
100
AcDbPolyline
 62
250
  6
CONTINUOUS
 90
16
 70
0
 10
5.9118762322
 20
-5.0063029475
 10
5.8753676109
 20
-5.0303057005
 10
5.8393162653
 20
-5.0583863993
 10
5.8041084605
 20
-5.0902441788
 10
5.7701214238
 20
-5.1255377048
 10
5.7377193028
 20
-5.1638888317
 10
5.7072492636
 20
-5.2048866537
 10
5.6790377717
 20
-5.2480919077
 10
5.6533870937
 20
-5.2930416792
 10
5.6305720588
 20
-5.3392543626
 10
5.6108371142
 20
-5.3862348211
 10
5.5943937062
 20
-5.4334796915
 10
5.5814180146
 20
-5.4804827778
 10
5.5720490649
 20
-5.5267404746
 10
5.5663872389
 20
-5.5717571626
 10
5.5644931991
 20
-5.6150505193
  0
LWPOLYLINE
  5
253
100
AcDbEntity
  8
ASSI
100
AcDbPolyline
 62
250
  6
CONTINUOUS
 90
9
 70
0
 10
6.1515994814
 20
-4.6471244005
 10
6.1696362682
 20
-4.636051991
 10
6.1928104969
 20
-4.6163583309
 10
6.2129761039
 20
-4.5921606209
 10
6.229912279
 20
-4.5637238222
 10
6.2434335738
 20
-4.5313593133
 10
6.2533919322
 20
-4.4954214804
 10
6.2596783117
 20
-4.4563038372
 10
6.2622238776
 20
-4.4144347157
  0
LINE
  5
254
100
AcDbEntity
  8
ASSI
100
AcDbLine
 62
250
  6
CONTINUOUS
 10
8.3127641451
 20
-3.6436533986
 11
5.9118762322
 21
-5.0063029475
  0
LINE
  5
255
100
AcDbEntity
  8
ASSI
100
AcDbLine
 62
250
  6
CONTINUOUS
 10
6.2622238776
 20
-4.4144347157
 11
8.6662771546
 21
-3.1444218677
  0
LINE
  5
256
100
AcDbEntity
  8
ASSI
100
AcDbLine
 62
7
  6
CONTINUOUS
 10
6.1515994814
 20
-4.6471244005
 11
8.557294977
 21
-3.3762440016
  0
LWPOLYLINE
  5
257
100
AcDbEntity
  8
ASSI
100
AcDbPolyline
 62
250
  6
CONTINUOUS
 90
16
 70
0
 10
6.2622238776
 20
-4.4144347157
 10
6.2239873814
 20
-4.4333658111
 10
6.1824234404
 20
-4.4500597929
 10
6.1379129039
 20
-4.4643078166
 10
6.0908471785
 20
-4.475928537
 10
6.0417160816
 20
-4.4847474139
 10
5.9911140864
 20
-4.490618188
 10
5.9395226291
 20
-4.4934509882
 10
5.8875375912
 20
-4.493179481
 10
5.8359610804
 20
-4.489800386
 10
5.7854534268
 20
-4.4833813657
 10
5.7364386546
 20
-4.4740010792
 10
5.6893510723
 20
-4.4617491083
 10
5.6446691682
 20
-4.4467448491
 10
5.6029003525
 20
-4.4291533053
 10
5.5644931991
 20
-4.409160977
  0
LINE
  5
258
100
AcDbEntity
  8
CURVE
100
AcDbLine
 62
250
  6
CONTINUOUS
 10
-1.8698578369
 20
12.3679199382
 11
0.9583967538
 21
8.448099795
  0
LINE
  5
259
100
AcDbEntity
  8
CURVE
100
AcDbLine
 62
250
  6
CONTINUOUS
 10
0.9583967538
 20
8.9965996281
 11
-1.8698578369
 21
12.9164189549
  0
LINE
  5
25A
100
AcDbEntity
  8
ASSI
100
AcDbLine
 62
7
  6
CONTINUOUS
 10
8.6662771546
 20
-21.9353390449
 11
8.6662771546
 21
-4.2558781729
  0
LINE
  5
25B
100
AcDbEntity
  8
ASSI
100
AcDbLine
 62
7
  6
CONTINUOUS
 10
8.6662771546
 20
-3.1444218677
 11
8.6662771546
 21
14.5350390043
  0
LINE
  5
25C
100
AcDbEntity
  8
CURVE
100
AcDbLine
 62
7
  6
CONTINUOUS
 10
-2.627136763
 20
-13.3056830282
 11
-2.3972496408
 21
-13.0757959061
  0
LINE
  5
25D
100
AcDbEntity
  8
CURVE
100
AcDbLine
 62
7
  6
CONTINUOUS
 10
-2.2098579574
 20
-13.8840105706
 11
-1.9799708858
 21
-13.6541234989
  0
LINE
  5
25E
100
AcDbEntity
  8
CURVE
100
AcDbLine
 62
7
  6
CONTINUOUS
 10
-1.6310595051
 20
-14.3008184662
 11
-0.9176338861
 21
-13.5873928471
  0
LINE
  5
25F
100
AcDbEntity
  8
ASSI
100
AcDbLine
 62
250
  6
CONTINUOUS
 10
8.6662771546
 20
-4.2558781729
 11
6.2622238776
 21
-5.620324258
  0
LINE
  5
260
100
AcDbEntity
  8
CURVE
100
AcDbLine
 62
7
  6
CONTINUOUS
 10
-0.3360877774
 20
-14.0014530863
 11
0.3773383279
 21
-13.2880269811
  0
LINE
  5
261
100
AcDbEntity
  8
CURVE
100
AcDbLine
 62
250
  6
CONTINUOUS
 10
-4.6981117205
 20
11.7140968954
 11
-1.8698578369
 21
12.3679199382
  0
LINE
  5
262
100
AcDbEntity
  8
CURVE
100
AcDbLine
 62
250
  6
CONTINUOUS
 10
-1.8698578369
 20
12.9164189549
 11
-4.6981117205
 21
12.2625967285
  0
LINE
  5
263
100
AcDbEntity
  8
ASSI
100
AcDbLine
 62
7
  6
CONTINUOUS
 10
8.6539146521
 20
14.6339243676
 11
7.990480207
 21
17.0563752772
  0
LINE
  5
264
100
AcDbEntity
  8
ASSI
100
AcDbLine
 62
7
  6
CONTINUOUS
 10
8.6539146521
 20
-22.047771739
 11
7.990480207
 21
-25.1972409794
  0
LINE
  5
265
100
AcDbEntity
  8
ASSI
100
AcDbLine
 62
250
  6
CONTINUOUS
 10
5.5644931991
 20
16.0637803929
 11
-9.3037209692
 21
24.6485009113
  0
LWPOLYLINE
  5
266
100
AcDbEntity
  8
ASSI
100
AcDbPolyline
 62
250
  6
CONTINUOUS
 90
9
 70
0
 10
-9.3037209692
 20
24.6485009113
 10
-9.3377585113
 20
24.6702593661
 10
-9.3679057744
 20
24.6939933969
 10
-9.3938012903
 20
24.719476672
 10
-9.4151462915
 20
24.7464949848
 10
-9.4316241146
 20
24.7747452275
 10
-9.4429685898
 20
24.8038253531
 10
-9.4490542966
 20
24.833383893
 10
-9.450167578
 20
24.8526230403
  0
LWPOLYLINE
  5
267
100
AcDbEntity
  8
ASSI
100
AcDbPolyline
 62
250
  6
CONTINUOUS
 90
16
 70
0
 10
5.5644931991
 20
16.0637803929
 10
5.6018758768
 20
16.0442695924
 10
5.6426835522
 20
16.0269490595
 10
5.6865433967
 20
16.0120325716
 10
5.7330702995
 20
15.9997065922
 10
5.7817822941
 20
15.9901516823
 10
5.8320936623
 20
15.9835216292
 10
5.883525424
 20
15.979912857
 10
5.9354868868
 20
15.97939963
 10
5.9871846174
 20
15.9819972272
 10
6.0379582836
 20
15.9876490398
 10
6.0873779214
 20
15.9962834867
 10
6.1350051971
 20
16.0078182776
 10
6.1803559516
 20
16.0221419466
 10
6.2229147612
 20
16.0390977922
 10
6.2622238776
 20
16.0585066542
  0
LINE
  5
268
100
AcDbEntity
  8
ASSI
100
AcDbLine
 62
250
  6
CONTINUOUS
 10
5.9087916409
 20
16.6706692446
 11
-8.9594225275
 21
25.2553897629
  0
LWPOLYLINE
  5
269
100
AcDbEntity
  8
ASSI
100
AcDbPolyline
 62
250
  6
CONTINUOUS
 90
16
 70
0
 10
5.9087916409
 20
16.6706692446
 10
5.9443180212
 20
16.6469102754
 10
5.979701388
 20
16.618997578
 10
6.0145563311
 20
16.5871851035
 10
6.0485388851
 20
16.5517269427
 10
6.0812173202
 20
16.5130116039
 10
6.1120974891
 20
16.4715968784
 10
6.1408003185
 20
16.4280022804
 10
6.1670556704
 20
16.3826500452
 10
6.190583604
 20
16.3360207085
 10
6.2111270684
 20
16.2886141166
 10
6.2284505336
 20
16.2409627825
 10
6.2423553133
 20
16.1936083901
 10
6.2526872672
 20
16.1470779609
 10
6.2593345137
 20
16.1018781548
 10
6.2622238776
 20
16.0585066542
  0
LWPOLYLINE
  5
26A
100
AcDbEntity
  8
ASSI
100
AcDbPolyline
 62
250
  6
CONTINUOUS
 90
9
 70
0
 10
-8.9594225275
 20
25.2553897629
 10
-8.9964833079
 20
25.2735810379
 10
-9.0332414057
 20
25.287412031
 10
-9.0692966846
 20
25.2966675652
 10
-9.1042685135
 20
25.3011791206
 10
-9.1377324842
 20
25.300818148
 10
-9.1692370439
 20
25.2955303802
 10
-9.1984392959
 20
25.2853182032
 10
-9.2195415287
 20
25.2738717239
  0
LINE
  5
26B
100
AcDbEntity
  8
ASSI
100
AcDbLine
 62
7
  6
CONTINUOUS
 10
7.5405433561
 20
17.6128175876
 11
-7.410947968
 21
26.245621292
  0
LWPOLYLINE
  5
26C
100
AcDbEntity
  8
ASSI
100
AcDbPolyline
 62
250
  6
CONTINUOUS
 90
9
 70
0
 10
6.1482813051
 20
-26.327692346
 10
6.1667053115
 20
-26.3165606594
 10
6.1904099624
 20
-26.2967051906
 10
6.2110157123
 20
-26.2723501166
 10
6.2283611496
 20
-26.2437475858
 10
6.2422914166
 20
-26.2111699694
 10
6.2526549036
 20
-26.1749507085
 10
6.2593247181
 20
-26.1355048551
 10
6.2622238776
 20
-26.093265628
  0
LINE
  5
26D
100
AcDbEntity
  8
ASSI
100
AcDbLine
 62
250
  6
CONTINUOUS
 10
7.990480207
 20
-25.1972409794
 11
6.2622238776
 21
-26.093265628
  0
LINE
  5
26E
100
AcDbEntity
  8
ASSI
100
AcDbLine
 62
7
  6
CONTINUOUS
 10
7.8103622293
 20
-25.4659767664
 11
6.1481832572
 21
-26.3277432209
  0
ARC
  5
26F
100
AcDbEntity
  8
ASSI
100
AcDbCircle
 62
7
  6
CONTINUOUS
 10
-8.9501675786
 20
3.1738072957
 40
0.5
100
AcDbArc
 50
122.1754807991
 51
180.015358494
  0
ARC
  5
270
100
AcDbEntity
  8
ASSI
100
AcDbCircle
 62
7
  6
CONTINUOUS
 10
-8.9501675786
 20
-17.2991340743
 40
0.5
100
AcDbArc
 50
179.9900082978
 51
239.9984015652
  0
ARC
  5
271
100
AcDbEntity
  8
ASSI
100
AcDbCircle
 62
7
  6
CONTINUOUS
 10
5.9180465897
 20
-25.8838545926
 40
0.5
100
AcDbArc
 50
239.9984015652
 51
297.4174046156
  0
ARC
  5
272
100
AcDbEntity
  8
ASSI
100
AcDbCircle
 62
7
  6
CONTINUOUS
 10
5.9180465897
 20
-4.2050236804
 40
0.5
100
AcDbArc
 50
239.9837780751
 51
297.8465900872
  0
ARC
  5
273
100
AcDbEntity
  8
ASSI
100
AcDbCircle
 62
7
  6
CONTINUOUS
 10
-8.9501675786
 20
4.379696838
 40
0.5
100
AcDbArc
 50
179.9841296142
 51
239.9984015652
  0
ARC
  5
274
100
AcDbEntity
  8
ASSI
100
AcDbCircle
 62
7
  6
CONTINUOUS
 10
-8.9501675786
 20
24.8526382079
 40
0.5
100
AcDbArc
 50
122.5989151677
 51
180.0017380816
  0
ELLIPSE
  5
275
100
AcDbEntity
  8
ASSI
100
AcDbEllipse
 62
7
  6
CONTINUOUS
 10
8.3126025686
 20
-4.0518574305
 30
0.0
 11
-0.2500883296
 21
0.432972707
 31
0.0
 40
0.5775954524
 41
-2.3562050126
 42
-0.7858655366
  0
ELLIPSE
  5
276
100
AcDbEntity
  8
ASSI
100
AcDbEllipse
 62
7
  6
CONTINUOUS
 10
7.9530529321
 20
-3.8513610167
 30
0.0
 11
0.499979581
 21
0.0076930498
 31
0.0
 40
0.5873737521
 41
7.0595459565
 42
7.4069329008
  0
ELLIPSE
  5
277
100
AcDbEntity
  8
ASSI
100
AcDbEllipse
 62
7
  6
CONTINUOUS
 10
8.3034656427
 20
-22.1341308183
 30
0.0
 11
0.2600728777
 21
0.4271418247
 31
0.0
 40
0.5922410672
 41
-1.033355665
 42
-0.7715562772
  0
ELLIPSE
  5
278
100
AcDbEntity
  8
ASSI
100
AcDbEllipse
 62
7
  6
CONTINUOUS
 10
7.6368717944
 20
-24.9927195661
 30
0.0
 11
-0.1121548712
 21
0.4957473682
 31
0.0
 40
0.7039445592
 41
-2.9595186474
 42
-2.1483506142
  0
ELLIPSE
  5
279
100
AcDbEntity
  8
ASSI
100
AcDbEllipse
 62
7
  6
CONTINUOUS
 10
-7.319063363
 20
25.8957104442
 30
0.0
 11
-0.3297163127
 21
0.381589989
 31
0.0
 40
0.4128243551
 41
-0.8709070521
 42
-0.0596421506
  0
ELLIPSE
  5
27A
100
AcDbEntity
  8
ASSI
100
AcDbEllipse
 62
7
  6
CONTINUOUS
 10
8.3126025686
 20
-2.9400280634
 30
0.0
 11
-0.2502024451
 21
0.4331706506
 31
0.0
 40
0.5770679437
 41
-3.1633994611
 42
-2.3566614272
  0
ELLIPSE
  5
27B
100
AcDbEntity
  8
ASSI
100
AcDbEllipse
 62
7
  6
CONTINUOUS
 10
8.3034656427
 20
14.3362472309
 30
0.0
 11
0.2600728777
 21
0.4271418247
 31
0.0
 40
0.5922410672
 41
-0.7715562772
 42
-0.5097568894
  0
ELLIPSE
  5
27C
100
AcDbEntity
  8
ASSI
100
AcDbEllipse
 62
7
  6
CONTINUOUS
 10
7.6368717944
 20
17.2603409262
 30
0.0
 11
-0.3313794069
 21
0.3842968449
 31
0.0
 40
0.4077379513
 41
-2.4333010859
 42
-0.8631899918
  0
ENDSEC
  0
SECTION
  2
OBJECTS
  0
DICTIONARY
  5
C
100
AcDbDictionary
280
0
281
1
  3
ACAD_GROUP
350
D
  3
ACAD_MLINESTYLE
350
17
  3
ACAD_LAYOUT
350
1A
  3
ACAD_PLOTSETTINGS
350
19
  3
ACAD_PLOTSTYLENAME
350
E
  0
DICTIONARY
  5
D
102
{ACAD_REACTORS
330
C
102
}
100
AcDbDictionary
280
0
281
1
  0
ACDBDICTIONARYWDFLT
  5
E
102
{ACAD_REACTORS
330
C
102
}
100
AcDbDictionary
281
1
  3
Normal
350
F
100
AcDbDictionaryWithDefault
340
F
  0
DICTIONARY
  5
17
102
{ACAD_REACTORS
330
C
102
}
100
AcDbDictionary
280
0
281
1
  3
Standard
350
18
  0
DICTIONARY
  5
19
102
{ACAD_REACTORS
330
C
102
}
100
AcDbDictionary
281
1
  0
DICTIONARY
  5
1A
102
{ACAD_REACTORS
330
C
102
}
100
AcDbDictionary
281
1
  3
Model
350
27D
  3
Layout1
350
27E
  0
ACDBPLACEHOLDER
  5
F
102
{ACAD_REACTORS
330
E
102
}
  0
MLINESTYLE
  5
18
102
{ACAD_REACTORS
330
17
102
}
100
AcDbMlineStyle
  2
STANDARD
 70
0
  3

 62
256
 51
90.0
 52
90.0
 71
2
 49
0.5
 62
256
  6
BYLAYER
 49
-0.5
 62
256
  6
BYLAYER
  0
LAYOUT
  5
27D
102
{ACAD_REACTORS
330
1A
102
}
100
AcDbPlotSettings
  1

  2
none_device
  4

  6

 40
0.0
 41
0.0
 42
0.0
 43
0.0
 44
210.0
 45
297.0
 46
0.0
 47
0.0
 48
0.0
 49
0.0
140
0.0
141
0.0
142
1.0
143
1.0
 70
1024
 72
1
 73
0
 74
0
  7

 75
0
147
1.0
148
0.0
149
0.0
100
AcDbLayout
  1
Model
 70
0
 71
0
 10
0.0
 20
0.0
 11
210.0
 21
297.0
 12
0.0
 22
0.0
 32
0.0
 14
0.0
 24
0.0
 34
0.0
 15
0.0
 25
0.0
 35
0.0
146
0.0
 13
0.0
 23
0.0
 33
0.0
 16
1.0
 26
0.0
 36
0.0
 17
0.0
 27
1.0
 37
0.0
 76
0
330
212
345
0
346
0
  0
LAYOUT
  5
27E
102
{ACAD_REACTORS
330
1A
102
}
100
AcDbPlotSettings
  1

  2
none_device
  4

  6

 40
0.0
 41
0.0
 42
0.0
 43
0.0
 44
210.0
 45
297.0
 46
0.0
 47
0.0
 48
0.0
 49
0.0
140
0.0
141
0.0
142
1.0
143
1.0
 70
0
 72
1
 73
0
 74
0
  7

 75
0
147
1.0
148
0.0
149
0.0
100
AcDbLayout
  1
Layout1
 70
0
 71
1
 10
0.0
 20
0.0
 11
210.0
 21
297.0
 12
0.0
 22
0.0
 32
0.0
 14
0.0
 24
0.0
 34
0.0
 15
0.0
 25
0.0
 35
0.0
146
0.0
 13
0.0
 23
0.0
 33
0.0
 16
1.0
 26
0.0
 36
0.0
 17
0.0
 27
1.0
 37
0.0
 76
0
330
213
345
0
346
0
  0
ENDSEC
  0
EOF
