  0
SECTION
  2
HEADER
  9
$ACADVER
  1
AC1024
  9
$DWGCODEPAGE
  3
ANSI_1252
  9
$EXTMAX
 10
210.0
 20
297.0
 30
0.0
  9
$EXTMIN
 10
0.0
 20
0.0
 30
0.0
  9
$LIMMIN
 10
0.0
 20
0.0
  9
$LIMMAX
 10
210.0
 20
297.0
  9
$VIEWCTR
 10
105.0
 20
148.5
  9
$VIEWSIZE
 40
297.0
  9
$CLAYER
  8
0
  9
$LTSCALE
 40
19.36
  9
$CELTYPE
  6
BYLAYER
  9
$DIMSCALE
 40
1.0
  9
$DIMASZ
 40
3.0
  9
$DIMEXO
 40
0.5
  9
$DIMDLI
 40
13.376
  9
$DIMEXE
 40
1.5
  9
$DIMCEN
 40
3.168
  9
$DIMLFAC
 40
1.0
  9
$DIMBLK
  1
_FILLED
  9
$DIMALT
 70
0
  9
$DIMALTF
 40
0.0393700787
  9
$DIMTXT
 40
3.0
  9
$DIMTOL
 70
1
  9
$DIMLIM
 70
0
  9
$DIMTFAC
 40
1.0
  9
$DIMTP
 40
0.01
  9
$DIMTM
 40
0.01
  9
$DIMGAP
 40
0.625
  9
$DIMDSEP
 70
44
  9
$AUNITS
 70
0
  9
$PDMODE
 70
3
  9
$PDSIZE
 40
3.0
  9
$HANDSEED
  5
2BB
  9
$TILEMODE
 70
1
  9
$MEASUREMENT
 70
1
  9
$INSUNITS
 70
4
  0
ENDSEC
  0
SECTION
  2
CLASSES
  0
CLASS
  1
ACDBDICTIONARYWDFLT
  2
AcDbDictionaryWithDefault
  3
AutoCAD 2000
 90
0
 91
1
280
0
281
0
  0
CLASS
  1
ACDBPLACEHOLDER
  2
AcDbPlaceHolder
  3
AutoCAD 2000
 90
0
 91
1
280
0
281
0
  0
CLASS
  1
LAYOUT
  2
AcDbLayout
  3
AutoCAD 2000
 90
0
 91
0
280
0
281
0
  0
ENDSEC
  0
SECTION
  2
TABLES
  0
TABLE
  2
VPORT
  5
8
100
AcDbSymbolTable
 70
2
  0
VPORT
  5
1F4
100
AcDbSymbolTableRecord
100
AcDbViewportTableRecord
  2
*ACTIVE
 70
0
 10
0.0
 20
0.0
 11
1.0
 21
1.0
 12
105.0
 22
148.5
 13
0.0
 23
0.0
 14
1.0
 24
1.0
 15
0.0
 25
0.0
 16
0.0
 26
0.0
 36
1.0
 17
0.0
 27
0.0
 37
0.0
 40
297.0
 41
0.7070707071
 42
50.0
 43
0.0
 44
0.0
 50
0.0
 51
0.0
 71
0
 72
100
 73
1
 74
1
 75
0
 76
0
 77
0
 78
0
  0
ENDTAB
  0
TABLE
  2
LTYPE
  5
5
100
AcDbSymbolTable
 70
6
  0
LTYPE
  5
14
100
AcDbSymbolTableRecord
100
AcDbLinetypeTableRecord
  2
BYBLOCK
 70
0
  3

 72
65
 73
0
 40
0.0
  0
LTYPE
  5
15
100
AcDbSymbolTableRecord
100
AcDbLinetypeTableRecord
  2
BYLAYER
 70
0
  3

 72
65
 73
0
 40
0.0
  0
LTYPE
  5
16
100
AcDbSymbolTableRecord
100
AcDbLinetypeTableRecord
  2
CONTINUOUS
 70
64
  3
Solid line
 72
65
 73
0
 40
0.0
  0
LTYPE
  5
1F5
100
AcDbSymbolTableRecord
100
AcDbLinetypeTableRecord
  2
CENTER
 70
64
  3
____ _ ____ _ ____ _ ____ _ ____ _ ____ _ ____
 72
65
 73
4
 40
0.6
 49
0.375
 74
0
 49
-0.075
 74
0
 49
0.075
 74
0
 49
-0.075
 74
0
  0
LTYPE
  5
1F6
100
AcDbSymbolTableRecord
100
AcDbLinetypeTableRecord
  2
HIDDEN
 70
64
  3
- - - - - - - - - - - - - - - - - - - -
 72
65
 73
2
 40
0.2
 49
0.1
 74
0
 49
-0.1
 74
0
  0
LTYPE
  5
1F7
100
AcDbSymbolTableRecord
100
AcDbLinetypeTableRecord
  2
PHANTOM
 70
64
  3
_____ _ _ _____ _ _ _____ _ _ _____
 72
65
 73
6
 40
0.8
 49
0.45
 74
0
 49
-0.05
 74
0
 49
0.1
 74
0
 49
-0.05
 74
0
 49
0.1
 74
0
 49
-0.05
 74
0
  0
LTYPE
  5
1F8
100
AcDbSymbolTableRecord
100
AcDbLinetypeTableRecord
  2
DOT
 70
64
  3
. . . . . . . . . . . . . . . . . . . .
 72
65
 73
2
 40
0.2
 49
0.1
 74
0
 49
-0.1
 74
0
  0
LTYPE
  5
1F9
100
AcDbSymbolTableRecord
100
AcDbLinetypeTableRecord
  2
DASHED
 70
64
  3
- - - - - - - - - - - - - - - - - - - -
 72
65
 73
2
 40
0.2
 49
0.1
 74
0
 49
-0.1
 74
0
  0
ENDTAB
  0
TABLE
  2
LAYER
  5
2
100
AcDbSymbolTable
 70
36
  0
LAYER
  5
10
100
AcDbSymbolTableRecord
100
AcDbLayerTableRecord
  2
0
 70
0
 62
7
  6
CONTINUOUS
370
-3
390
F
  0
LAYER
  5
1FA
100
AcDbSymbolTableRecord
100
AcDbLayerTableRecord
  2
DEFAULT_1
 70
0
 62
7
  6
CENTER
370
-3
390
F
  0
LAYER
  5
1FB
100
AcDbSymbolTableRecord
100
AcDbLayerTableRecord
  2
DEFAULT_2
 70
0
 62
7
  6
HIDDEN
370
-3
390
F
  0
LAYER
  5
1FC
100
AcDbSymbolTableRecord
100
AcDbLayerTableRecord
  2
DEFAULT_3
 70
0
 62
7
  6
PHANTOM
370
-3
390
F
  0
LAYER
  5
1FD
100
AcDbSymbolTableRecord
100
AcDbLayerTableRecord
  2
ASSI
 70
0
 62
7
  6
CONTINUOUS
370
-3
390
F
  0
LAYER
  5
1FE
100
AcDbSymbolTableRecord
100
AcDbLayerTableRecord
  2
COORDINATE
 70
0
 62
7
  6
CONTINUOUS
370
-3
390
F
  0
LAYER
  5
1FF
100
AcDbSymbolTableRecord
100
AcDbLayerTableRecord
  2
COPY_PUBLISH
 70
0
 62
7
  6
CONTINUOUS
370
-3
390
F
  0
LAYER
  5
200
100
AcDbSymbolTableRecord
100
AcDbLayerTableRecord
  2
COSMETICI
 70
0
 62
7
  6
CONTINUOUS
370
-3
390
F
  0
LAYER
  5
201
100
AcDbSymbolTableRecord
100
AcDbLayerTableRecord
  2
CURVE
 70
0
 62
7
  6
CONTINUOUS
370
-3
390
F
  0
LAYER
  5
202
100
AcDbSymbolTableRecord
100
AcDbLayerTableRecord
  2
DRAFT
 70
0
 62
7
  6
CONTINUOUS
370
-3
390
F
  0
LAYER
  5
203
100
AcDbSymbolTableRecord
100
AcDbLayerTableRecord
  2
IMPORT_IGES
 70
0
 62
7
  6
CONTINUOUS
370
-3
390
F
  0
LAYER
  5
204
100
AcDbSymbolTableRecord
100
AcDbLayerTableRecord
  2
INTF_1
 70
0
 62
7
  6
CONTINUOUS
370
-3
390
F
  0
LAYER
  5
205
100
AcDbSymbolTableRecord
100
AcDbLayerTableRecord
  2
INTF_2
 70
0
 62
7
  6
CONTINUOUS
370
-3
390
F
  0
LAYER
  5
206
100
AcDbSymbolTableRecord
100
AcDbLayerTableRecord
  2
INTF_4
 70
0
 62
7
  6
CONTINUOUS
370
-3
390
F
  0
LAYER
  5
207
100
AcDbSymbolTableRecord
100
AcDbLayerTableRecord
  2
NOTE
 70
0
 62
7
  6
CONTINUOUS
370
-3
390
F
  0
LAYER
  5
208
100
AcDbSymbolTableRecord
100
AcDbLayerTableRecord
  2
PIANI
 70
0
 62
7
  6
CONTINUOUS
370
-3
390
F
  0
LAYER
  5
209
100
AcDbSymbolTableRecord
100
AcDbLayerTableRecord
  2
PUNTI
 70
0
 62
7
  6
CONTINUOUS
370
-3
390
F
  0
LAYER
  5
20A
100
AcDbSymbolTableRecord
100
AcDbLayerTableRecord
  2
RACCORDO
 70
0
 62
7
  6
CONTINUOUS
370
-3
390
F
  0
LAYER
  5
20B
100
AcDbSymbolTableRecord
100
AcDbLayerTableRecord
  2
SIMBOLI
 70
0
 62
7
  6
CONTINUOUS
370
-3
390
F
  0
LAYER
  5
20C
100
AcDbSymbolTableRecord
100
AcDbLayerTableRecord
  2
SMUSSO
 70
0
 62
7
  6
CONTINUOUS
370
-3
390
F
  0
LAYER
  5
20D
100
AcDbSymbolTableRecord
100
AcDbLayerTableRecord
  2
SNAPLINE
 70
0
 62
7
  6
CONTINUOUS
370
-3
390
F
  0
LAYER
  5
20E
100
AcDbSymbolTableRecord
100
AcDbLayerTableRecord
  2
SUPERFICI
 70
0
 62
7
  6
CONTINUOUS
370
-3
390
F
  0
LAYER
  5
20F
100
AcDbSymbolTableRecord
100
AcDbLayerTableRecord
  2
TRASH
 70
0
 62
7
  6
CONTINUOUS
370
-3
390
F
  0
ENDTAB
  0
TABLE
  2
STYLE
  5
3
100
AcDbSymbolTable
 70
1
  0
STYLE
  5
11
100
AcDbSymbolTableRecord
100
AcDbTextStyleTableRecord
  2
STANDARD
 70
0
 40
0.0
 41
0.8
 50
0.0
 71
0
 42
0.2
  3
txt
  4

  0
STYLE
  5
210
100
AcDbSymbolTableRecord
100
AcDbTextStyleTableRecord
  2
TEXTSTYLE_1
 70
0
 40
0.0
 41
0.8
 50
0.0
 71
0
 42
0.2
  3
gdt
  4

  0
ENDTAB
  0
TABLE
  2
VIEW
  5
6
100
AcDbSymbolTable
 70
0
  0
ENDTAB
  0
TABLE
  2
UCS
  5
7
100
AcDbSymbolTable
 70
0
  0
ENDTAB
  0
TABLE
  2
APPID
  5
9
100
AcDbSymbolTable
 70
1
  0
APPID
  5
211
100
AcDbSymbolTableRecord
100
AcDbRegAppTableRecord
  2
ACAD
 70
0
  0
ENDTAB
  0
TABLE
  2
BLOCK_RECORD
  5
1
100
AcDbSymbolTable
 70
0
  0
BLOCK_RECORD
  5
212
100
AcDbSymbolTableRecord
100
AcDbBlockTableRecord
  2
*Model_Space
  0
BLOCK_RECORD
  5
213
100
AcDbSymbolTableRecord
100
AcDbBlockTableRecord
  2
*Paper_Space
  0
BLOCK_RECORD
  5
214
100
AcDbSymbolTableRecord
100
AcDbBlockTableRecord
  2
_FILLED
  0
ENDTAB
  0
TABLE
  2
DIMSTYLE
  5
A
100
AcDbSymbolTable
 70
1
100
AcDbDimStyleTable
 71
0
  0
DIMSTYLE
105
215
100
AcDbSymbolTableRecord
100
AcDbDimStyleTableRecord
  2
STANDARD
 70
0
  3

  4

 40
1.0
 41
3.0
 42
0.5
 43
0.38
 44
1.5
 45
0.0
 46
0.0
 47
0.01
 48
0.01
140
3.0
141
0.09
142
0.0
143
25.4
144
1.0
145
0.0
146
1.0
147
0.625
 71
1
 72
0
 73
0
 74
0
 75
0
 76
0
 77
1
 78
8
 79
2
170
0
171
1
172
0
173
0
174
0
175
0
176
0
177
0
178
0
270
2
179
2
271
2
272
2
273
2
274
2
275
0
280
0
281
0
282
0
283
1
284
8
285
0
286
0
287
3
288
0
340
11
278
44
341
214
342
214
343
214
344
214
  0
ENDTAB
  0
ENDSEC
  0
SECTION
  2
BLOCKS
  0
BLOCK
  5
20
100
AcDbEntity
  8
0
100
AcDbBlockBegin
  2
*Model_Space
 70
0
 10
0.0
 20
0.0
 30
0.0
  3
*Model_Space
  1

  0
ENDBLK
  5
21
100
AcDbEntity
  8
0
100
AcDbBlockEnd
  0
BLOCK
  5
1C
100
AcDbEntity
  8
0
100
AcDbBlockBegin
  2
*Paper_Space
 70
0
 10
0.0
 20
0.0
 30
0.0
  3
*Paper_Space
  1

  0
ENDBLK
  5
1D
100
AcDbEntity
  8
0
100
AcDbBlockEnd
  0
BLOCK
  5
216
100
AcDbEntity
  8
0
100
AcDbBlockBegin
  2
_FILLED
 70
64
 10
0.0
 20
0.0
  3
_FILLED
  1

  0
SOLID
  5
217
100
AcDbEntity
  8
0
  6
BYBLOCK
 62
0
100
AcDbTrace
 10
0.0
 20
0.0
 11
-1.0
 21
0.3166666667
 12
-1.0
 22
-0.3166666667
 13
-1.0
 23
-0.3166666667
  0
ENDBLK
  5
218
100
AcDbEntity
  8
0
  6
BYBLOCK
 62
0
100
AcDbBlockEnd
  0
ENDSEC
  0
SECTION
  2
ENTITIES
  0
LWPOLYLINE
  5
219
100
AcDbEntity
  8
ASSI
100
AcDbPolyline
 62
250
  6
CONTINUOUS
 90
16
 70
0
 10
-9.0529336584
 20
24.9114828824
 10
-9.089214829
 20
24.8872743571
 10
-9.1250135734
 20
24.8590554085
 10
-9.1599506266
 20
24.8271249983
 10
-9.1936558529
 20
24.791821409
 10
-9.2257721665
 20
24.7535186597
 10
-9.2559593154
 20
24.7126225439
 10
-9.2838974859
 20
24.6695663299
 10
-9.3092906908
 20
24.6248061711
 10
-9.3318699052
 20
24.5788162729
 10
-9.3513959167
 20
24.5320838691
 10
-9.3676618596
 20
24.48510406
 10
-9.3804954063
 20
24.4383745668
 10
-9.3897605938
 20
24.3923904589
 10
-9.3953592632
 20
24.3476389088
 10
-9.3972321002
 20
24.3045940308
  0
LINE
  5
21A
100
AcDbEntity
  8
ASSI
100
AcDbLine
 62
7
  6
CONTINUOUS
 10
-7.7323146502
 20
25.9408284748
 11
-9.3130526597
 21
24.9299648434
  0
LINE
  5
21B
100
AcDbEntity
  8
ASSI
100
AcDbLine
 62
250
  6
CONTINUOUS
 10
-7.504459099
 20
25.9017144115
 11
-9.0529336584
 21
24.9114828824
  0
LWPOLYLINE
  5
21C
100
AcDbEntity
  8
ASSI
100
AcDbPolyline
 62
250
  6
CONTINUOUS
 90
16
 70
0
 10
5.4709820682
 20
-26.4318987698
 10
5.5086663895
 20
-26.45155162
 10
5.5497722884
 20
-26.4689582719
 10
5.593907772
 20
-26.4839100182
 10
5.6407018476
 20
-26.4962343544
 10
5.6896295509
 20
-26.5057484429
 10
5.7399945609
 20
-26.5122986007
 10
5.7911881555
 20
-26.5158124116
 10
5.8427352332
 20
-26.5162638942
 10
5.8941064143
 20
-26.5136469244
 10
5.9447665751
 20
-26.5079844981
 10
5.994162915
 20
-26.4993340746
 10
6.0417513209
 20
-26.4877892951
 10
6.0870195546
 20
-26.4734750167
 10
6.1294908732
 20
-26.4565426107
 10
6.1687127466
 20
-26.4371725085
  0
LINE
  5
21D
100
AcDbEntity
  8
ASSI
100
AcDbLine
 62
7
  6
CONTINUOUS
 10
-9.2936907896
 20
-18.076046682
 11
5.5745233787
 21
-26.6607672004
  0
LINE
  5
21E
100
AcDbEntity
  8
ASSI
100
AcDbLine
 62
250
  6
CONTINUOUS
 10
-9.3972321002
 20
-17.8471782515
 11
5.4709820682
 21
-26.4318987698
  0
LWPOLYLINE
  5
21F
100
AcDbEntity
  8
ASSI
100
AcDbPolyline
 62
250
  6
CONTINUOUS
 90
9
 70
0
 10
-9.3972321002
 20
-17.8471782515
 10
-9.4310236209
 20
-17.8255939619
 10
-9.4610217311
 20
-17.8020321216
 10
-9.4868561815
 20
-17.776707997
 10
-9.5082040287
 20
-17.7498439465
 10
-9.5247525519
 20
-17.7217182513
 10
-9.536235401
 20
-17.6926690979
 10
-9.5424855751
 20
-17.6629730432
 10
-9.5436787096
 20
-17.6430409548
  0
LWPOLYLINE
  5
220
100
AcDbEntity
  8
ASSI
100
AcDbPolyline
 62
250
  6
CONTINUOUS
 90
9
 70
0
 10
5.5745233787
 20
-26.6607672004
 10
5.5589234775
 20
-26.650558375
 10
5.5363442631
 20
-26.6306423876
 10
5.5168182516
 20
-26.6064581325
 10
5.5005523088
 20
-26.5782618263
 10
5.487718762
 20
-26.5463521913
 10
5.4784535745
 20
-26.5110672897
 10
5.4728549051
 20
-26.4727809426
 10
5.4709820682
 20
-26.4318987698
  0
LINE
  5
221
100
AcDbEntity
  8
CURVE
100
AcDbLine
 62
250
  6
CONTINUOUS
 10
-3.8381529966
 20
14.7199216721
 11
-4.0880919092
 21
14.575638785
  0
LINE
  5
222
100
AcDbEntity
  8
CURVE
100
AcDbLine
 62
250
  6
CONTINUOUS
 10
-3.088093014
 20
12.8438707585
 11
-2.8381541014
 21
12.9881544621
  0
LINE
  5
223
100
AcDbEntity
  8
CURVE
100
AcDbLine
 62
250
  6
CONTINUOUS
 10
-3.3615396916
 20
-13.6705992158
 11
-2.6883372663
 21
-13.6103714749
  0
LINE
  5
224
100
AcDbEntity
  8
CURVE
100
AcDbLine
 62
250
  6
CONTINUOUS
 10
-1.0610554602
 20
-13.4653216182
 11
-0.3877314126
 21
-13.4051641005
  0
LINE
  5
225
100
AcDbEntity
  8
CURVE
100
AcDbLine
 62
250
  6
CONTINUOUS
 10
-2.1397383696
 20
-15.190643565
 11
-1.7862677105
 21
-15.3947330935
  0
LINE
  5
226
100
AcDbEntity
  8
CURVE
100
AcDbLine
 62
250
  6
CONTINUOUS
 10
-1.7862677105
 20
-14.4968819584
 11
-2.1397383696
 21
-14.2927924298
  0
LINE
  5
227
100
AcDbEntity
  8
CURVE
100
AcDbLine
 62
7
  6
CONTINUOUS
 10
-3.8252820262
 20
14.1205125297
 11
-3.6140198121
 21
14.3317747438
  0
LINE
  5
228
100
AcDbEntity
  8
CURVE
100
AcDbLine
 62
7
  6
CONTINUOUS
 10
-4.5037755904
 20
12.4464126176
 11
-4.2450315469
 21
12.7051566611
  0
LINE
  5
229
100
AcDbEntity
  8
CURVE
100
AcDbLine
 62
7
  6
CONTINUOUS
 10
-3.460827343
 20
13.489360865
 11
-3.24956502
 21
13.700623188
  0
LINE
  5
22A
100
AcDbEntity
  8
CURVE
100
AcDbLine
 62
7
  6
CONTINUOUS
 10
-3.8726013426
 20
12.0819805175
 11
-3.6138572992
 21
12.3407245609
  0
LINE
  5
22B
100
AcDbEntity
  8
CURVE
100
AcDbLine
 62
7
  6
CONTINUOUS
 10
-3.0963726598
 20
12.8582092003
 11
-2.8851102279
 21
13.0694716322
  0
LINE
  5
22C
100
AcDbEntity
  8
CURVE
100
AcDbLine
 62
7
  6
CONTINUOUS
 10
-2.1398606991
 20
13.814721161
 11
-1.7863893329
 21
14.1681925272
  0
LINE
  5
22D
100
AcDbEntity
  8
CURVE
100
AcDbLine
 62
250
  6
CONTINUOUS
 10
-3.088093014
 20
10.8231427481
 11
-4.0880919092
 21
10.2455866484
  0
LINE
  5
22E
100
AcDbEntity
  8
ASSI
100
AcDbLine
 62
250
  6
CONTINUOUS
 10
5.8152805099
 20
16.326762364
 11
7.4470322252
 21
17.2689107071
  0
LINE
  5
22F
100
AcDbEntity
  8
CURVE
100
AcDbLine
 62
250
  6
CONTINUOUS
 10
-0.0880970354
 20
12.5546863594
 11
-1.0880959306
 21
11.9776928077
  0
LINE
  5
230
100
AcDbEntity
  8
CURVE
100
AcDbLine
 62
250
  6
CONTINUOUS
 10
-0.5645887181
 20
-12.9497589542
 11
-1.2379127657
 21
-13.0099164719
  0
LINE
  5
231
100
AcDbEntity
  8
CURVE
100
AcDbLine
 62
250
  6
CONTINUOUS
 10
-2.8650729494
 20
-13.1550365518
 11
-3.538396997
 21
-13.2151940695
  0
LINE
  5
232
100
AcDbEntity
  8
CURVE
100
AcDbLine
 62
250
  6
CONTINUOUS
 10
-2.1397383696
 20
-12.1235468432
 11
-1.7862677105
 21
-12.3276363717
  0
LWPOLYLINE
  5
233
100
AcDbEntity
  8
ASSI
100
AcDbPolyline
 62
250
  6
CONTINUOUS
 90
9
 70
0
 10
-9.3972321002
 20
-17.8471782515
 10
-9.3953592632
 20
-17.8880604243
 10
-9.3897605938
 20
-17.9263467713
 10
-9.3804954063
 20
-17.961631673
 10
-9.3676618596
 20
-17.993541308
 10
-9.3513959167
 20
-18.0217376142
 10
-9.3318699052
 20
-18.0459218693
 10
-9.3092906908
 20
-18.0658378566
 10
-9.2936907896
 20
-18.076046682
  0
LINE
  5
234
100
AcDbEntity
  8
ASSI
100
AcDbLine
 62
7
  6
CONTINUOUS
 10
-9.5436787096
 20
24.5087313274
 11
-9.5436787096
 21
4.0357899574
  0
LINE
  5
235
100
AcDbEntity
  8
ASSI
100
AcDbLine
 62
7
  6
CONTINUOUS
 10
-9.5436787096
 20
2.8299004152
 11
-9.5436787096
 21
-17.6430409548
  0
LWPOLYLINE
  5
236
100
AcDbEntity
  8
ASSI
100
AcDbPolyline
 62
250
  6
CONTINUOUS
 90
16
 70
0
 10
-9.3972321002
 20
2.6257631185
 10
-9.3953198294
 20
2.6692690627
 10
-9.3896053723
 20
2.7145025348
 10
-9.3801529981
 20
2.7609734576
 10
-9.3670760167
 20
2.8081510896
 10
-9.3505134206
 20
2.8555529943
 10
-9.3306082639
 20
2.9027504358
 10
-9.3075085246
 20
2.9493287212
 10
-9.2814913984
 20
2.994673594
 10
-9.2529675139
 20
3.0380844328
 10
-9.2222986564
 20
3.0790721307
 10
-9.1898100644
 20
3.1172587903
 10
-9.1559334006
 20
3.1521977344
 10
-9.1210718644
 20
3.1835488286
 10
-9.0855845412
 20
3.2110619038
 10
-9.049849067
 20
3.2345106903
  0
LINE
  5
237
100
AcDbEntity
  8
CURVE
100
AcDbLine
 62
7
  6
CONTINUOUS
 10
-2.0766324613
 20
12.8823430509
 11
-1.7863893329
 21
13.1725861793
  0
LINE
  5
238
100
AcDbEntity
  8
CURVE
100
AcDbLine
 62
7
  6
CONTINUOUS
 10
-3.9525492639
 20
10.0108199004
 11
-3.2115022546
 21
10.7518669097
  0
LINE
  5
239
100
AcDbEntity
  8
CURVE
100
AcDbLine
 62
7
  6
CONTINUOUS
 10
-2.6372164972
 20
11.3261526671
 11
-1.963125016
 21
12.0002441483
  0
LINE
  5
23A
100
AcDbEntity
  8
CURVE
100
AcDbLine
 62
7
  6
CONTINUOUS
 10
-2.3027553656
 20
10.6650074507
 11
-1.4754557148
 21
11.4923071016
  0
LINE
  5
23B
100
AcDbEntity
  8
CURVE
100
AcDbLine
 62
7
  6
CONTINUOUS
 10
-1.0522159529
 20
11.9155468634
 11
-0.8563593458
 21
12.1114034705
  0
LINE
  5
23C
100
AcDbEntity
  8
CURVE
100
AcDbLine
 62
250
  6
CONTINUOUS
 10
-3.8381529966
 20
9.8126797534
 11
-2.8381541014
 21
10.3902358531
  0
LINE
  5
23D
100
AcDbEntity
  8
ASSI
100
AcDbLine
 62
250
  6
CONTINUOUS
 10
6.1687127466
 20
15.7145997737
 11
7.896969076
 21
16.7124683967
  0
LINE
  5
23E
100
AcDbEntity
  8
CURVE
100
AcDbLine
 62
250
  6
CONTINUOUS
 10
-0.838157018
 20
11.5447859127
 11
0.1618418772
 21
12.1217802808
  0
LINE
  5
23F
100
AcDbEntity
  8
CURVE
100
AcDbLine
 62
250
  6
CONTINUOUS
 10
-1.7862677105
 20
-11.4297852365
 11
-2.1397383696
 21
-11.225695708
  0
LINE
  5
240
100
AcDbEntity
  8
CURVE
100
AcDbLine
 62
250
  6
CONTINUOUS
 10
-3.538396997
 20
-11.5860092792
 11
-2.8650729494
 21
-12.4237045296
  0
LINE
  5
241
100
AcDbEntity
  8
CURVE
100
AcDbLine
 62
250
  6
CONTINUOUS
 10
-1.2379127657
 20
-14.4478284034
 11
-0.5645887181
 21
-15.2855236538
  0
LINE
  5
242
100
AcDbEntity
  8
CURVE
100
AcDbLine
 62
250
  6
CONTINUOUS
 10
-0.3877314126
 20
-15.0343488908
 11
-1.0610554602
 21
-14.1966536404
  0
LINE
  5
243
100
AcDbEntity
  8
CURVE
100
AcDbLine
 62
250
  6
CONTINUOUS
 10
-2.6883372663
 20
-12.1724595433
 11
-3.3615396916
 21
-11.3348345162
  0
LWPOLYLINE
  5
244
100
AcDbEntity
  8
ASSI
100
AcDbPolyline
 62
250
  6
CONTINUOUS
 90
9
 70
0
 10
-9.5436786557
 20
2.829766387
 10
-9.5427470426
 20
2.8122849018
 10
-9.5368946553
 20
2.7825052708
 10
-9.5257773023
 20
2.7533427847
 10
-9.5095312162
 20
2.7250422695
 10
-9.4883115472
 20
2.6978544897
 10
-9.4623250823
 20
2.6720557182
 10
-9.4318575977
 20
2.6479389275
 10
-9.3972321002
 20
2.6257631185
  0
LINE
  5
245
100
AcDbEntity
  8
ASSI
100
AcDbLine
 62
250
  6
CONTINUOUS
 10
-9.3972321002
 20
24.3045940308
 11
-9.3972321002
 21
3.8316526608
  0
LINE
  5
246
100
AcDbEntity
  8
ASSI
100
AcDbLine
 62
250
  6
CONTINUOUS
 10
-9.3972321002
 20
2.6257631185
 11
-9.3972321002
 21
-17.8471782515
  0
LINE
  5
247
100
AcDbEntity
  8
CURVE
100
AcDbLine
 62
7
  6
CONTINUOUS
 10
-1.6980447928
 20
10.2741116757
 11
-1.2586953771
 21
10.7134610914
  0
LINE
  5
248
100
AcDbEntity
  8
CURVE
100
AcDbLine
 62
7
  6
CONTINUOUS
 10
0.1329579042
 20
12.1051143726
 11
0.1573697498
 21
12.1295262182
  0
LINE
  5
249
100
AcDbEntity
  8
CURVE
100
AcDbLine
 62
7
  6
CONTINUOUS
 10
-2.1398606991
 20
8.8366894214
 11
-1.7863893329
 21
9.1901607877
  0
LINE
  5
24A
100
AcDbEntity
  8
CURVE
100
AcDbLine
 62
7
  6
CONTINUOUS
 10
-0.5489977206
 20
10.4275523999
 11
-0.4579860605
 21
10.5185640601
  0
LINE
  5
24B
100
AcDbEntity
  8
ASSI
100
AcDbLine
 62
7
  6
CONTINUOUS
 10
-9.3099357629
 20
3.2531109792
 11
-9.012342829
 21
3.4403374438
  0
LINE
  5
24C
100
AcDbEntity
  8
ASSI
100
AcDbLine
 62
250
  6
CONTINUOUS
 10
-9.049849067
 20
3.2345106903
 11
-8.8613053972
 21
3.3531303237
  0
LINE
  5
24D
100
AcDbEntity
  8
CURVE
100
AcDbLine
 62
250
  6
CONTINUOUS
 10
-0.838157018
 20
9.5240579023
 11
-1.0880959306
 21
9.3797741987
  0
LINE
  5
24E
100
AcDbEntity
  8
CURVE
100
AcDbLine
 62
250
  6
CONTINUOUS
 10
-3.538396997
 20
-13.2151940695
 11
-3.3615396916
 21
-13.6705992158
  0
LINE
  5
24F
100
AcDbEntity
  8
CURVE
100
AcDbLine
 62
7
  6
CONTINUOUS
 10
-2.0264050804
 20
7.9545386923
 11
-1.7863893329
 21
8.1945544397
  0
LINE
  5
250
100
AcDbEntity
  8
CURVE
100
AcDbLine
 62
7
  6
CONTINUOUS
 10
-0.9098868348
 20
9.0710569378
 11
-0.6986164375
 21
9.2823273352
  0
LINE
  5
251
100
AcDbEntity
  8
CURVE
100
AcDbLine
 62
7
  6
CONTINUOUS
 10
-0.0855558562
 20
9.8953879164
 11
0.1731881873
 21
10.1541319599
  0
LINE
  5
252
100
AcDbEntity
  8
CURVE
100
AcDbLine
 62
7
  6
CONTINUOUS
 10
-0.5455070788
 20
8.4398303459
 11
-0.3342366815
 21
8.6511007433
  0
LINE
  5
253
100
AcDbEntity
  8
CURVE
100
AcDbLine
 62
7
  6
CONTINUOUS
 10
0.5456183915
 20
9.5309558162
 11
0.804362435
 21
9.7896998597
  0
LINE
  5
254
100
AcDbEntity
  8
CURVE
100
AcDbLine
 62
7
  6
CONTINUOUS
 10
-0.1811273228
 20
7.808603754
 11
0.0301430745
 21
8.0198741514
  0
LINE
  5
255
100
AcDbEntity
  8
CURVE
100
AcDbLine
 62
250
  6
CONTINUOUS
 10
-0.0880970354
 20
7.6474444406
 11
0.1618418772
 21
7.7917281443
  0
LINE
  5
256
100
AcDbEntity
  8
CURVE
100
AcDbLine
 62
250
  6
CONTINUOUS
 10
-2.6883372663
 20
-13.6103714749
 11
-2.8650729494
 21
-13.1550365518
  0
LINE
  5
257
100
AcDbEntity
  8
CURVE
100
AcDbLine
 62
250
  6
CONTINUOUS
 10
-4.7916228514
 20
13.02075163
 11
-4.7916228514
 21
12.6126120186
  0
LINE
  5
258
100
AcDbEntity
  8
CURVE
100
AcDbLine
 62
250
  6
CONTINUOUS
 10
-1.2379127657
 20
-13.0099164719
 11
-1.0610554602
 21
-13.4653216182
  0
LINE
  5
259
100
AcDbEntity
  8
CURVE
100
AcDbLine
 62
250
  6
CONTINUOUS
 10
-0.3877314126
 20
-13.4051641005
 11
-0.5645887181
 21
-12.9497589542
  0
LWPOLYLINE
  5
25A
100
AcDbEntity
  8
CURVE
100
AcDbPolyline
 62
250
  6
CONTINUOUS
 90
17
 70
0
 10
-2.4228073563
 20
-13.0450100171
 10
-2.4140527775
 20
-13.1531601887
 10
-2.3881225004
 20
-13.2673005221
 10
-2.3460042012
 20
-13.3830834473
 10
-2.288169516
 20
-13.4980651862
 10
-2.2188442864
 20
-13.6038442993
 10
-2.1397787893
 20
-13.6984471563
 10
-2.0539846048
 20
-13.7782703638
 10
-1.963125016
 20
-13.8412031849
 10
-1.8738389149
 20
-13.8826472696
 10
-1.7879536936
 20
-13.9022955796
 10
-1.7087406935
 20
-13.8993997171
 10
-1.638080516
 20
-13.8734184273
 10
-1.5811361304
 20
-13.8262501008
 10
-1.5387415828
 20
-13.7594341503
 10
-1.5125116683
 20
-13.6755155747
 10
-1.5034426757
 20
-13.5758396149
  0
LWPOLYLINE
  5
25B
100
AcDbEntity
  8
CURVE
100
AcDbPolyline
 62
250
  6
CONTINUOUS
 90
17
 70
0
 10
-1.5034426757
 20
-13.5758396613
 10
-1.5121972545
 20
-13.4676894896
 10
-1.5381275316
 20
-13.3535491562
 10
-1.5802458308
 20
-13.237766231
 10
-1.638080516
 20
-13.1227844921
 10
-1.7074057456
 20
-13.017005379
 10
-1.7864712427
 20
-12.922402522
 10
-1.8722654272
 20
-12.8425793145
 10
-1.963125016
 20
-12.7796464934
 10
-2.0524111171
 20
-12.7382024088
 10
-2.1382963384
 20
-12.7185540987
 10
-2.2175093384
 20
-12.7214499613
 10
-2.288169516
 20
-12.747431251
 10
-2.3451139016
 20
-12.7945995775
 10
-2.3875084492
 20
-12.861415528
 10
-2.4137383636
 20
-12.9453341036
 10
-2.4228073563
 20
-13.0450100635
  0
LINE
  5
25C
100
AcDbEntity
  8
CURVE
100
AcDbLine
 62
250
  6
CONTINUOUS
 10
-3.3772523113
 20
11.795972195
 11
-3.3772523113
 21
12.2041118063
  0
LINE
  5
25D
100
AcDbEntity
  8
CURVE
100
AcDbLine
 62
250
  6
CONTINUOUS
 10
-2.1398606991
 20
14.551409505
 11
-2.1398606991
 21
12.918850243
  0
LINE
  5
25E
100
AcDbEntity
  8
CURVE
100
AcDbLine
 62
250
  6
CONTINUOUS
 10
-2.1398606991
 20
9.6526058066
 11
-2.1398606991
 21
8.0200465446
  0
LINE
  5
25F
100
AcDbEntity
  8
CURVE
100
AcDbLine
 62
250
  6
CONTINUOUS
 10
-2.1397383696
 20
-11.225695708
 11
-2.1397383696
 21
-12.1235468432
  0
LINE
  5
260
100
AcDbEntity
  8
CURVE
100
AcDbLine
 62
250
  6
CONTINUOUS
 10
-2.1397383696
 20
-14.2927924298
 11
-2.1397383696
 21
-15.190643565
  0
LWPOLYLINE
  5
261
100
AcDbEntity
  8
ASSI
100
AcDbPolyline
 62
250
  6
CONTINUOUS
 90
16
 70
0
 10
5.4709820682
 20
-5.9589573998
 10
5.5083518454
 20
-5.9784621202
 10
5.5491481367
 20
-5.9957794812
 10
5.5929991822
 20
-6.0106952419
 10
5.639521117
 20
-6.0230224507
 10
5.6882323126
 20
-6.0325797556
 10
5.7385463228
 20
-6.0392125146
 10
5.7899855487
 20
-6.0428237867
 10
5.841957941
 20
-6.0433385216
 10
5.8936647888
 20
-6.0407412667
 10
5.9444437138
 20
-6.0350892434
 10
5.9938665587
 20
-6.0264543542
 10
6.0414955949
 20
-6.0149190901
 10
6.0868469354
 20
-6.0005950937
 10
6.1294051508
 20
-5.9836393252
 10
6.1687127466
 20
-5.9642311385
  0
LINE
  5
262
100
AcDbEntity
  8
ASSI
100
AcDbLine
 62
250
  6
CONTINUOUS
 10
5.4709820682
 20
-5.9589573998
 11
-9.3972321002
 21
2.6257631185
  0
LINE
  5
263
100
AcDbEntity
  8
CURVE
100
AcDbLine
 62
250
  6
CONTINUOUS
 10
-1.7863893329
 20
7.8159566078
 11
-1.7863893329
 21
9.4485158698
  0
LINE
  5
264
100
AcDbEntity
  8
CURVE
100
AcDbLine
 62
250
  6
CONTINUOUS
 10
-1.7863893329
 20
12.7147603062
 11
-1.7863893329
 21
14.3473195682
  0
LINE
  5
265
100
AcDbEntity
  8
CURVE
100
AcDbLine
 62
250
  6
CONTINUOUS
 10
-1.7862677105
 20
-15.3947330935
 11
-1.7862677105
 21
-14.4968819584
  0
LINE
  5
266
100
AcDbEntity
  8
CURVE
100
AcDbLine
 62
250
  6
CONTINUOUS
 10
-1.7862677105
 20
-12.3276363717
 11
-1.7862677105
 21
-11.4297852365
  0
LINE
  5
267
100
AcDbEntity
  8
CURVE
100
AcDbLine
 62
250
  6
CONTINUOUS
 10
-0.5489977206
 20
10.571113052
 11
-0.5489977206
 21
10.1629734407
  0
LWPOLYLINE
  5
268
100
AcDbEntity
  8
ASSI
100
AcDbPolyline
 62
250
  6
CONTINUOUS
 90
9
 70
0
 10
-9.049849067
 20
3.2345106903
 10
-9.0877151426
 20
3.2530424255
 10
-9.1250990261
 20
3.2669408222
 10
-9.1615913699
 20
3.276053695
 10
-9.1967925886
 20
3.2802812594
 10
-9.2303172344
 20
3.2795772243
 10
-9.2617982176
 20
3.2739492988
 10
-9.2908908265
 20
3.2634591077
 10
-9.3099357629
 20
3.2531109792
  0
LINE
  5
269
100
AcDbEntity
  8
ASSI
100
AcDbLine
 62
250
  6
CONTINUOUS
 10
5.8183651013
 20
-5.350209828
 11
-9.049849067
 21
3.2345106903
  0
LINE
  5
26A
100
AcDbEntity
  8
ASSI
100
AcDbLine
 62
7
  6
CONTINUOUS
 10
-9.2936907896
 20
3.6027842302
 11
5.5745233787
 21
-4.9819362881
  0
LINE
  5
26B
100
AcDbEntity
  8
ASSI
100
AcDbLine
 62
250
  6
CONTINUOUS
 10
-9.3972321002
 20
3.8316526608
 11
5.4709820682
 21
-4.7530678575
  0
LWPOLYLINE
  5
26C
100
AcDbEntity
  8
ASSI
100
AcDbPolyline
 62
250
  6
CONTINUOUS
 90
9
 70
0
 10
-9.3972321002
 20
3.8316526608
 10
-9.4310130905
 20
3.8532295018
 10
-9.4610057071
 20
3.8767847691
 10
-9.4868388981
 20
3.9021038132
 10
-9.5081888745
 20
3.9289649953
 10
-9.5247415457
 20
3.9570902291
 10
-9.5362290811
 20
3.986140908
 10
-9.542483585
 20
4.0158412724
 10
-9.5436787096
 20
4.0357899574
  0
LWPOLYLINE
  5
26D
100
AcDbEntity
  8
ASSI
100
AcDbPolyline
 62
250
  6
CONTINUOUS
 90
9
 70
0
 10
-9.2936907896
 20
3.6027842302
 10
-9.3083382056
 20
3.6122962619
 10
-9.3311532405
 20
3.6321627149
 10
-9.3508881851
 20
3.656353754
 10
-9.3673315931
 20
3.6846101891
 10
-9.3803072847
 20
3.716629272
 10
-9.3896762344
 20
3.7520679405
 10
-9.3953380604
 20
3.7905464938
 10
-9.3972321002
 20
3.8316526608
  0
LINE
  5
26E
100
AcDbEntity
  8
CURVE
100
AcDbLine
 62
250
  6
CONTINUOUS
 10
0.8653728194
 20
9.346333617
 11
0.8653728194
 21
9.7544732284
  0
LINE
  5
26F
100
AcDbEntity
  8
ASSI
100
AcDbLine
 62
7
  6
CONTINUOUS
 10
8.2130951918
 20
-3.9840048297
 11
8.2192530141
 21
-3.9875602792
  0
LINE
  5
270
100
AcDbEntity
  8
CURVE
100
AcDbLine
 62
250
  6
CONTINUOUS
 10
-3.3615396916
 20
-11.3348345162
 11
-3.538396997
 21
-11.5860092792
  0
LINE
  5
271
100
AcDbEntity
  8
CURVE
100
AcDbLine
 62
250
  6
CONTINUOUS
 10
-4.0880919092
 20
10.2455866484
 11
-3.8381529966
 21
9.8126797534
  0
LINE
  5
272
100
AcDbEntity
  8
CURVE
100
AcDbLine
 62
250
  6
CONTINUOUS
 10
-2.8381541014
 20
10.3902358531
 11
-3.088093014
 21
10.8231427481
  0
LWPOLYLINE
  5
273
100
AcDbEntity
  8
ASSI
100
AcDbPolyline
 62
250
  6
CONTINUOUS
 90
9
 70
0
 10
5.4709820682
 20
-4.7530678575
 10
5.4728943389
 20
-4.7943655594
 10
5.4786087961
 20
-4.8330001196
 10
5.4880611702
 20
-4.8685556777
 10
5.5011381517
 20
-4.9006323393
 10
5.5177007478
 20
-4.9289081732
 10
5.5376059045
 20
-4.9531196387
 10
5.5607056437
 20
-4.9730229242
 10
5.5744128879
 20
-4.9818724357
  0
LWPOLYLINE
  5
274
100
AcDbEntity
  8
ASSI
100
AcDbPolyline
 62
250
  6
CONTINUOUS
 90
16
 70
0
 10
5.4709820682
 20
15.7198735124
 10
5.4728549051
 20
15.7629183905
 10
5.4784535745
 20
15.8076699406
 10
5.487718762
 20
15.8536540484
 10
5.5005523088
 20
15.9003835416
 10
5.5168182516
 20
15.9473633508
 10
5.5363442631
 20
15.9940957546
 10
5.5589234775
 20
16.0400856528
 10
5.5843166824
 20
16.0848458116
 10
5.6122548529
 20
16.1279020255
 10
5.6424420019
 20
16.1687981414
 10
5.6745583155
 20
16.2071008907
 10
5.7082635417
 20
16.24240448
 10
5.743200595
 20
16.2743348901
 10
5.7789993394
 20
16.3025538388
 10
5.8152805099
 20
16.326762364
  0
LINE
  5
275
100
AcDbEntity
  8
CURVE
100
AcDbLine
 62
250
  6
CONTINUOUS
 10
-2.8650729494
 20
-12.4237045296
 11
-2.6883372663
 21
-12.1724595433
  0
LINE
  5
276
100
AcDbEntity
  8
CURVE
100
AcDbLine
 62
7
  6
CONTINUOUS
 10
-3.5195212995
 20
-11.6094928934
 11
-3.3095502444
 21
-11.3995218383
  0
LINE
  5
277
100
AcDbEntity
  8
CURVE
100
AcDbLine
 62
250
  6
CONTINUOUS
 10
-4.0880919092
 20
14.575638785
 11
-3.088093014
 21
12.8438707585
  0
LINE
  5
278
100
AcDbEntity
  8
CURVE
100
AcDbLine
 62
250
  6
CONTINUOUS
 10
-2.8381541014
 20
12.9881544621
 11
-3.8381529966
 21
14.7199216721
  0
LINE
  5
279
100
AcDbEntity
  8
CURVE
100
AcDbLine
 62
250
  6
CONTINUOUS
 10
-1.0880959306
 20
11.9776928077
 11
-0.838157018
 21
11.5447859127
  0
LINE
  5
27A
100
AcDbEntity
  8
CURVE
100
AcDbLine
 62
250
  6
CONTINUOUS
 10
-1.0880959306
 20
9.3797741987
 11
-0.0880970354
 21
7.6474444406
  0
LINE
  5
27B
100
AcDbEntity
  8
CURVE
100
AcDbLine
 62
250
  6
CONTINUOUS
 10
0.1618418772
 20
7.7917281443
 11
-0.838157018
 21
9.5240579023
  0
LWPOLYLINE
  5
27C
100
AcDbEntity
  8
ASSI
100
AcDbPolyline
 62
250
  6
CONTINUOUS
 90
16
 70
0
 10
6.1687127466
 20
-5.9642311385
 10
6.1661451547
 20
-5.9205728436
 10
6.1598020063
 20
-5.8750941435
 10
6.1497564697
 20
-5.8282989972
 10
6.1361316434
 20
-5.7807336453
 10
6.1190757719
 20
-5.7328956018
 10
6.0987405616
 20
-5.6852277065
 10
6.0752837603
 20
-5.6381604906
 10
6.0489933317
 20
-5.5923247437
 10
6.0202882934
 20
-5.5484363627
 10
5.9895373598
 20
-5.5069995959
 10
5.9570730402
 20
-5.4684073688
 10
5.9233324617
 20
-5.4331199774
 10
5.8887229912
 20
-5.4014890753
 10
5.8536072455
 20
-5.3737743438
 10
5.8183651013
 20
-5.350209828
  0
LINE
  5
27D
100
AcDbEntity
  8
ASSI
100
AcDbLine
 62
250
  6
CONTINUOUS
 10
5.4709820682
 20
-26.4318987698
 11
5.4709820682
 21
-5.9589573998
  0
LINE
  5
27E
100
AcDbEntity
  8
ASSI
100
AcDbLine
 62
250
  6
CONTINUOUS
 10
5.4709820682
 20
-4.7530678575
 11
5.4709820682
 21
15.7198735124
  0
LINE
  5
27F
100
AcDbEntity
  8
ASSI
100
AcDbLine
 62
250
  6
CONTINUOUS
 10
6.1687127466
 20
-26.4371725085
 11
6.1687127466
 21
-5.9642311385
  0
LINE
  5
280
100
AcDbEntity
  8
ASSI
100
AcDbLine
 62
250
  6
CONTINUOUS
 10
6.1687127466
 20
-4.7583415962
 11
6.1687127466
 21
15.7145997737
  0
LINE
  5
281
100
AcDbEntity
  8
CURVE
100
AcDbLine
 62
250
  6
CONTINUOUS
 10
-1.0610554602
 20
-14.1966536404
 11
-1.2379127657
 21
-14.4478284034
  0
LINE
  5
282
100
AcDbEntity
  8
CURVE
100
AcDbLine
 62
7
  6
CONTINUOUS
 10
-3.0758699862
 20
-12.161447928
 11
-2.8659227428
 21
-11.9515006846
  0
LINE
  5
283
100
AcDbEntity
  8
CURVE
100
AcDbLine
 62
7
  6
CONTINUOUS
 10
-3.4252812594
 20
-13.5064655491
 11
-3.0943355151
 21
-13.1755198048
  0
LINE
  5
284
100
AcDbEntity
  8
CURVE
100
AcDbLine
 62
7
  6
CONTINUOUS
 10
-2.0780060317
 20
-12.1591903214
 11
-1.7862677105
 21
-11.8674520002
  0
LWPOLYLINE
  5
285
100
AcDbEntity
  8
ASSI
100
AcDbPolyline
 62
250
  6
CONTINUOUS
 90
16
 70
0
 10
5.8183651013
 20
-5.350209828
 10
5.78185648
 20
-5.374212581
 10
5.7458051343
 20
-5.4022932798
 10
5.7105973296
 20
-5.4341510593
 10
5.6766102929
 20
-5.4694445853
 10
5.6442081718
 20
-5.5077957122
 10
5.6137381327
 20
-5.5487935342
 10
5.5855266408
 20
-5.5919987882
 10
5.5598759628
 20
-5.6369485597
 10
5.5370609278
 20
-5.6831612431
 10
5.5173259832
 20
-5.7301417016
 10
5.5008825753
 20
-5.777386572
 10
5.4879068837
 20
-5.8243896583
 10
5.478537934
 20
-5.8706473551
 10
5.472876108
 20
-5.9156640431
 10
5.4709820682
 20
-5.9589573998
  0
LWPOLYLINE
  5
286
100
AcDbEntity
  8
ASSI
100
AcDbPolyline
 62
250
  6
CONTINUOUS
 90
9
 70
0
 10
6.0580883505
 20
-4.991031281
 10
6.0761251373
 20
-4.9799588715
 10
6.0992993659
 20
-4.9602652114
 10
6.1194649729
 20
-4.9360675014
 10
6.136401148
 20
-4.9076307027
 10
6.1499224428
 20
-4.8752661938
 10
6.1598808012
 20
-4.8393283609
 10
6.1661671808
 20
-4.8002107177
 10
6.1687127466
 20
-4.7583415962
  0
LINE
  5
287
100
AcDbEntity
  8
ASSI
100
AcDbLine
 62
250
  6
CONTINUOUS
 10
8.2192530141
 20
-3.9875602792
 11
5.8183651013
 21
-5.350209828
  0
LINE
  5
288
100
AcDbEntity
  8
ASSI
100
AcDbLine
 62
250
  6
CONTINUOUS
 10
6.1687127466
 20
-4.7583415962
 11
8.5727660237
 21
-3.4883287482
  0
LINE
  5
289
100
AcDbEntity
  8
ASSI
100
AcDbLine
 62
7
  6
CONTINUOUS
 10
6.0580883505
 20
-4.991031281
 11
8.463783846
 21
-3.7201508821
  0
LWPOLYLINE
  5
28A
100
AcDbEntity
  8
ASSI
100
AcDbPolyline
 62
250
  6
CONTINUOUS
 90
16
 70
0
 10
6.1687127466
 20
-4.7583415962
 10
6.1304762504
 20
-4.7772726916
 10
6.0889123094
 20
-4.7939666734
 10
6.044401773
 20
-4.8082146971
 10
5.9973360476
 20
-4.8198354175
 10
5.9482049507
 20
-4.8286542944
 10
5.8976029554
 20
-4.8345250685
 10
5.8460114981
 20
-4.8373578687
 10
5.7940264603
 20
-4.8370863616
 10
5.7424499494
 20
-4.8337072665
 10
5.6919422959
 20
-4.8272882462
 10
5.6429275236
 20
-4.8179079597
 10
5.5958399414
 20
-4.8056559888
 10
5.5511580373
 20
-4.7906517296
 10
5.5093892215
 20
-4.7730601858
 10
5.4709820682
 20
-4.7530678575
  0
LINE
  5
28B
100
AcDbEntity
  8
CURVE
100
AcDbLine
 62
250
  6
CONTINUOUS
 10
-2.1398606991
 20
8.0200465446
 11
-1.7863893329
 21
7.8159566078
  0
LINE
  5
28C
100
AcDbEntity
  8
CURVE
100
AcDbLine
 62
250
  6
CONTINUOUS
 10
0.1618418772
 20
12.1217802808
 11
-0.0880970354
 21
12.5546863594
  0
LINE
  5
28D
100
AcDbEntity
  8
ASSI
100
AcDbLine
 62
7
  6
CONTINUOUS
 10
8.5727660237
 20
-22.2792459254
 11
8.5727660237
 21
-4.5997850534
  0
LINE
  5
28E
100
AcDbEntity
  8
ASSI
100
AcDbLine
 62
7
  6
CONTINUOUS
 10
8.5727660237
 20
-3.4883287482
 11
8.5727660237
 21
14.1911321238
  0
LINE
  5
28F
100
AcDbEntity
  8
CURVE
100
AcDbLine
 62
250
  6
CONTINUOUS
 10
-0.5645887181
 20
-15.2855236538
 11
-0.3877314126
 21
-15.0343488908
  0
LINE
  5
290
100
AcDbEntity
  8
CURVE
100
AcDbLine
 62
7
  6
CONTINUOUS
 10
-2.3337105085
 20
-13.4105011461
 11
-1.8158597465
 21
-12.8926503842
  0
LINE
  5
291
100
AcDbEntity
  8
CURVE
100
AcDbLine
 62
7
  6
CONTINUOUS
 10
-1.8241997354
 20
-13.8965967209
 11
-1.5034426757
 21
-13.5758396613
  0
LINE
  5
292
100
AcDbEntity
  8
CURVE
100
AcDbLine
 62
7
  6
CONTINUOUS
 10
-1.1538863526
 20
-13.2262833381
 11
-0.9080480245
 21
-12.98044501
  0
LINE
  5
293
100
AcDbEntity
  8
CURVE
100
AcDbLine
 62
7
  6
CONTINUOUS
 10
-2.12889884
 20
-15.1969021735
 11
-1.7862677105
 21
-14.854271044
  0
LINE
  5
294
100
AcDbEntity
  8
ASSI
100
AcDbLine
 62
250
  6
CONTINUOUS
 10
8.5727660237
 20
-4.5997850534
 11
6.1687127466
 21
-5.9642311385
  0
LWPOLYLINE
  5
295
100
AcDbEntity
  8
CURVE
100
AcDbPolyline
 62
250
  6
CONTINUOUS
 90
81
 70
0
 10
-1.9629706356
 20
10.3673141246
 10
-1.9342808409
 20
10.3514156414
 10
-1.9056391947
 20
10.3368705453
 10
-1.8770936194
 20
10.3237056763
 10
-1.8486920375
 20
10.3119478746
 10
-1.8204823715
 20
10.30162398
 10
-1.7933214869
 20
10.2929958384
 10
-1.7664237484
 20
10.2857570897
 10
-1.7398262189
 20
10.2799201569
 10
-1.7135659612
 20
10.275497463
 10
-1.6876800383
 20
10.2725014308
 10
-1.6628447201
 20
10.2709630913
 10
-1.6384366017
 20
10.2707858987
 10
-1.6144920305
 20
10.2719637829
 10
-1.5910473537
 20
10.2744906733
 10
-1.5681389186
 20
10.2783604998
 10
-1.5458030723
 20
10.2835671921
 10
-1.5240761622
 20
10.2901046797
 10
-1.5029945354
 20
10.2979668924
 10
-1.4825945394
 20
10.3071477599
 10
-1.4629125212
 20
10.3176412118
 10
-1.4439872988
 20
10.3294343553
 10
-1.4258394614
 20
10.3425049711
 10
-1.4084924446
 20
10.356824668
 10
-1.3919696841
 20
10.372365055
 10
-1.3762946153
 20
10.389097741
 10
-1.361490674
 20
10.4069943349
 10
-1.3475812957
 20
10.4260264456
 10
-1.3345899161
 20
10.4461656821
 10
-1.3225399707
 20
10.4673836533
 10
-1.3114548952
 20
10.489651968
 10
-1.3011109356
 20
10.5135479669
 10
-1.2918143915
 20
10.5384806411
 10
-1.2835733303
 20
10.5644119328
 10
-1.2763958193
 20
10.5913037843
 10
-1.2702899259
 20
10.6191181379
 10
-1.2651251246
 20
10.6487093897
 10
-1.2611075082
 20
10.6791848692
 10
-1.2582372589
 20
10.7104892153
 10
-1.256514559
 20
10.7425670669
 10
-1.2559395908
 20
10.7753630628
 10
-1.2565130717
 20
10.8088406664
 10
-1.2582352976
 20
10.8429260899
 10
-1.2611058165
 20
10.8775636293
 10
-1.2651241766
 20
10.9126975806
 10
-1.2702899259
 20
10.9482722399
 10
-1.2763958001
 20
10.9831512507
 10
-1.2835731114
 20
11.0183452717
 10
-1.2918139826
 20
11.0538070089
 10
-1.3011105363
 20
11.0894891682
 10
-1.3114548952
 20
11.1253444556
 10
-1.3225386463
 20
11.1604210289
 10
-1.3345874695
 20
11.1955617291
 10
-1.3475779638
 20
11.2307110752
 10
-1.361486728
 20
11.2658135864
 10
-1.3762903611
 20
11.3008137818
 10
-1.3919654619
 20
11.3356561802
 10
-1.4084886295
 20
11.370285301
 10
-1.4258364626
 20
11.404645663
 10
-1.4439855602
 20
11.4386817855
 10
-1.4629125212
 20
11.4723381875
 10
-1.482593447
 20
11.5055633498
 10
-1.5029926074
 20
11.5383051304
 10
-1.5240736501
 20
11.5705154207
 10
-1.5458002225
 20
11.6021461125
 10
-1.568135972
 20
11.6331490975
 10
-1.5910445461
 20
11.6634762674
 10
-1.6144895923
 20
11.6930795137
 10
-1.6384347581
 20
11.7219107282
 10
-1.662843691
 20
11.7499218025
 10
-1.6876800383
 20
11.7770646284
 10
-1.7135657992
 20
11.8039611148
 10
-1.7398260226
 20
11.8298629896
 10
-1.7664235982
 20
11.8547400605
 10
-1.7933214155
 20
11.8785621351
 10
-1.820482364
 20
11.9012990211
 10
-1.8487225724
 20
11.9235750782
 10
-1.8771550062
 20
11.9446364795
 10
-1.9057316009
 20
11.964454365
 10
-1.9344042923
 20
11.9829998746
 10
-1.963125016
 20
12.0002441483
  0
LINE
  5
296
100
AcDbEntity
  8
CURVE
100
AcDbLine
 62
250
  6
CONTINUOUS
 10
-1.7863893329
 20
9.4485158698
 11
-2.1398606991
 21
9.6526058066
  0
LINE
  5
297
100
AcDbEntity
  8
CURVE
100
AcDbLine
 62
250
  6
CONTINUOUS
 10
-4.7916228514
 20
12.6126120186
 11
-3.3772523113
 21
11.795972195
  0
LINE
  5
298
100
AcDbEntity
  8
CURVE
100
AcDbLine
 62
250
  6
CONTINUOUS
 10
-0.5489977206
 20
10.1629734407
 11
0.8653728194
 21
9.346333617
  0
LINE
  5
299
100
AcDbEntity
  8
CURVE
100
AcDbLine
 62
250
  6
CONTINUOUS
 10
0.8653728194
 20
9.7544732284
 11
-0.5489977206
 21
10.571113052
  0
LINE
  5
29A
100
AcDbEntity
  8
CURVE
100
AcDbLine
 62
250
  6
CONTINUOUS
 10
-3.3772523113
 20
12.2041118063
 11
-4.7916228514
 21
13.02075163
  0
LINE
  5
29B
100
AcDbEntity
  8
CURVE
100
AcDbLine
 62
7
  6
CONTINUOUS
 10
-0.8574988758
 20
-14.9211085571
 11
-0.6475250301
 21
-14.7111347115
  0
LWPOLYLINE
  5
29C
100
AcDbEntity
  8
CURVE
100
AcDbPolyline
 62
250
  6
CONTINUOUS
 90
81
 70
0
 10
-1.963125016
 20
12.0002441483
 10
-1.9918038741
 20
12.01613638
 10
-2.0204346432
 20
12.0306751354
 10
-2.0489692659
 20
12.0438331632
 10
-2.0773596853
 20
12.055583212
 10
-2.1055578441
 20
12.0658980305
 10
-2.1326991061
 20
12.0745135302
 10
-2.1595770443
 20
12.0817395389
 10
-2.1861547352
 20
12.0875643517
 10
-2.2123952553
 20
12.0919762633
 10
-2.238261681
 20
12.0949635685
 10
-2.2630989701
 20
12.0964966896
 10
-2.2875089345
 20
12.0966691682
 10
-2.311455395
 20
12.0954872289
 10
-2.3349021725
 20
12.092957096
 10
-2.3578130876
 20
12.0890849939
 10
-2.3801519612
 20
12.0838771472
 10
-2.401882614
 20
12.0773397801
 10
-2.4229688667
 20
12.0694791173
 10
-2.4433745402
 20
12.0603013831
 10
-2.4630634551
 20
12.0498128019
 10
-2.4820046089
 20
12.0380211942
 10
-2.5001690045
 20
12.0249527026
 10
-2.5175330711
 20
12.0106354977
 10
-2.5340732377
 20
11.9950977504
 10
-2.5497659334
 20
11.9783676314
 10
-2.5645875872
 20
11.9604733115
 10
-2.5785146284
 20
11.9414429614
 10
-2.5915234858
 20
11.9213047519
 10
-2.6035905886
 20
11.9000868538
 10
-2.6146923659
 20
11.8778174378
 10
-2.6250527946
 20
11.8539189892
 10
-2.6343650236
 20
11.8289823619
 10
-2.6426208149
 20
11.8030455679
 10
-2.6498119302
 20
11.7761466193
 10
-2.6559301313
 20
11.7483235283
 10
-2.6611060703
 20
11.7187212262
 10
-2.6651327489
 20
11.688232778
 10
-2.668009489
 20
11.6569134346
 10
-2.6697356125
 20
11.6248184468
 10
-2.6703104411
 20
11.5920030656
 10
-2.6697341215
 20
11.5585415329
 10
-2.6680075228
 20
11.5244715014
 10
-2.6651310529
 20
11.4898488723
 10
-2.6611051198
 20
11.4547295468
 10
-2.6559301313
 20
11.4191694263
 10
-2.6498119111
 20
11.3842949144
 10
-2.6426205958
 20
11.3491056058
 10
-2.634364614
 20
11.3136491056
 10
-2.6250523945
 20
11.2779730188
 10
-2.6146923659
 20
11.2421249502
 10
-2.6035892623
 20
11.2070429708
 10
-2.5915210363
 20
11.1718980388
 10
-2.5785112931
 20
11.1367455171
 10
-2.5645836382
 20
11.1016407684
 10
-2.5497616767
 20
11.0666391555
 10
-2.5340690139
 20
11.0317960412
 10
-2.517529255
 20
10.9971667884
 10
-2.5001660054
 20
10.9628067597
 10
-2.4820028704
 20
10.9287713181
 10
-2.4630634551
 20
10.8951158262
 10
-2.4433734481
 20
10.8618943903
 10
-2.4229669392
 20
10.8291562058
 10
-2.4018801025
 20
10.7969492109
 10
-2.380149112
 20
10.7653213439
 10
-2.3578101416
 20
10.7343205431
 10
-2.3348993653
 20
10.7039947467
 10
-2.3114529571
 20
10.674391893
 10
-2.287507091
 20
10.6455599203
 10
-2.263097941
 20
10.6175467669
 10
-2.238261681
 20
10.5904003709
 10
-2.2123950935
 20
10.5635178791
 10
-2.1861545393
 20
10.5376277771
 10
-2.1595768944
 20
10.512761182
 10
-2.1326990349
 20
10.4889492109
 10
-2.1055578366
 20
10.4662229808
 10
-2.0773292951
 20
10.4439528192
 10
-2.0489080787
 20
10.4228987861
 10
-2.020342413
 20
10.4030889481
 10
-1.9916805234
 20
10.384551372
 10
-1.9629706356
 20
10.3673141246
  0
LINE
  5
29D
100
AcDbEntity
  8
CURVE
100
AcDbLine
 62
250
  6
CONTINUOUS
 10
-2.1398606991
 20
12.918850243
 11
-1.7863893329
 21
12.7147603062
  0
LINE
  5
29E
100
AcDbEntity
  8
CURVE
100
AcDbLine
 62
250
  6
CONTINUOUS
 10
-1.7863893329
 20
14.3473195682
 11
-2.1398606991
 21
14.551409505
  0
LINE
  5
29F
100
AcDbEntity
  8
ASSI
100
AcDbLine
 62
7
  6
CONTINUOUS
 10
8.5604035212
 20
14.2900174871
 11
7.896969076
 21
16.7124683967
  0
LINE
  5
2A0
100
AcDbEntity
  8
ASSI
100
AcDbLine
 62
7
  6
CONTINUOUS
 10
8.5604035212
 20
-22.3916786195
 11
7.896969076
 21
-25.54114786
  0
LINE
  5
2A1
100
AcDbEntity
  8
ASSI
100
AcDbLine
 62
250
  6
CONTINUOUS
 10
5.4709820682
 20
15.7198735124
 11
-9.3972321002
 21
24.3045940308
  0
LWPOLYLINE
  5
2A2
100
AcDbEntity
  8
ASSI
100
AcDbPolyline
 62
250
  6
CONTINUOUS
 90
9
 70
0
 10
-9.3972321002
 20
24.3045940308
 10
-9.4312696422
 20
24.3263524856
 10
-9.4614169053
 20
24.3500865164
 10
-9.4873124212
 20
24.3755697915
 10
-9.5086574224
 20
24.4025881043
 10
-9.5251352455
 20
24.430838347
 10
-9.5364797207
 20
24.4599184725
 10
-9.5425654275
 20
24.4894770124
 10
-9.5436787089
 20
24.5087161598
  0
LWPOLYLINE
  5
2A3
100
AcDbEntity
  8
ASSI
100
AcDbPolyline
 62
250
  6
CONTINUOUS
 90
16
 70
0
 10
5.4709820682
 20
15.7198735124
 10
5.5083647459
 20
15.7003627119
 10
5.5491724213
 20
15.683042179
 10
5.5930322658
 20
15.6681256911
 10
5.6395591686
 20
15.6557997117
 10
5.6882711632
 20
15.6462448018
 10
5.7385825313
 20
15.6396147487
 10
5.7900142931
 20
15.6360059764
 10
5.8419757559
 20
15.6354927495
 10
5.8936734865
 20
15.6380903467
 10
5.9444471526
 20
15.6437421593
 10
5.9938667904
 20
15.6523766062
 10
6.0414940661
 20
15.6639113971
 10
6.0868448207
 20
15.6782350661
 10
6.1294036302
 20
15.6951909117
 10
6.1687127466
 20
15.7145997737
  0
LINE
  5
2A4
100
AcDbEntity
  8
ASSI
100
AcDbLine
 62
250
  6
CONTINUOUS
 10
5.8152805099
 20
16.326762364
 11
-9.0529336584
 21
24.9114828824
  0
LWPOLYLINE
  5
2A5
100
AcDbEntity
  8
ASSI
100
AcDbPolyline
 62
250
  6
CONTINUOUS
 90
16
 70
0
 10
5.8152805099
 20
16.326762364
 10
5.8508068902
 20
16.3030033949
 10
5.886190257
 20
16.2750906975
 10
5.9210452001
 20
16.243278223
 10
5.9550277542
 20
16.2078200621
 10
5.9877061892
 20
16.1691047234
 10
6.0185863582
 20
16.1276899979
 10
6.0472891875
 20
16.0840953999
 10
6.0735445394
 20
16.0387431647
 10
6.0970724731
 20
15.992113828
 10
6.1176159375
 20
15.9447072361
 10
6.1349394026
 20
15.897055902
 10
6.1488441824
 20
15.8497015096
 10
6.1591761362
 20
15.8031710804
 10
6.1658233827
 20
15.7579712743
 10
6.1687127466
 20
15.7145997737
  0
LWPOLYLINE
  5
2A6
100
AcDbEntity
  8
ASSI
100
AcDbPolyline
 62
250
  6
CONTINUOUS
 90
9
 70
0
 10
-9.0529336584
 20
24.9114828824
 10
-9.0899944388
 20
24.9296741574
 10
-9.1267525367
 20
24.9435051505
 10
-9.1628078155
 20
24.9527606847
 10
-9.1977796445
 20
24.9572722401
 10
-9.2312436152
 20
24.9569112675
 10
-9.2627481749
 20
24.9516234997
 10
-9.2919504269
 20
24.9414113227
 10
-9.3130526597
 20
24.9299648434
  0
LINE
  5
2A7
100
AcDbEntity
  8
ASSI
100
AcDbLine
 62
7
  6
CONTINUOUS
 10
7.4470322252
 20
17.2689107071
 11
-7.504459099
 21
25.9017144115
  0
LWPOLYLINE
  5
2A8
100
AcDbEntity
  8
ASSI
100
AcDbPolyline
 62
250
  6
CONTINUOUS
 90
9
 70
0
 10
6.0547701742
 20
-26.6715992266
 10
6.0731941806
 20
-26.6604675399
 10
6.0968988314
 20
-26.6406120711
 10
6.1175045814
 20
-26.6162569971
 10
6.1348500187
 20
-26.5876544663
 10
6.1487802857
 20
-26.5550768499
 10
6.1591437726
 20
-26.518857589
 10
6.1658135871
 20
-26.4794117356
 10
6.1687127466
 20
-26.4371725085
  0
LINE
  5
2A9
100
AcDbEntity
  8
ASSI
100
AcDbLine
 62
250
  6
CONTINUOUS
 10
7.896969076
 20
-25.54114786
 11
6.1687127466
 21
-26.4371725085
  0
LINE
  5
2AA
100
AcDbEntity
  8
ASSI
100
AcDbLine
 62
7
  6
CONTINUOUS
 10
7.7168510984
 20
-25.809883647
 11
6.0546721262
 21
-26.6716501014
  0
ARC
  5
2AB
100
AcDbEntity
  8
ASSI
100
AcDbCircle
 62
7
  6
CONTINUOUS
 10
-9.0436787096
 20
2.8299004152
 40
0.5
100
AcDbArc
 50
122.1754807991
 51
180.015358494
  0
ARC
  5
2AC
100
AcDbEntity
  8
ASSI
100
AcDbCircle
 62
7
  6
CONTINUOUS
 10
-9.0436787096
 20
-17.6430409548
 40
0.5
100
AcDbArc
 50
179.9900082978
 51
239.9984015652
  0
ARC
  5
2AD
100
AcDbEntity
  8
ASSI
100
AcDbCircle
 62
7
  6
CONTINUOUS
 10
5.8245354588
 20
-26.2277614731
 40
0.5
100
AcDbArc
 50
239.9984015652
 51
297.4174046156
  0
ARC
  5
2AE
100
AcDbEntity
  8
ASSI
100
AcDbCircle
 62
7
  6
CONTINUOUS
 10
5.8245354588
 20
-4.5489305609
 40
0.5
100
AcDbArc
 50
239.9837780751
 51
297.8465900872
  0
ARC
  5
2AF
100
AcDbEntity
  8
ASSI
100
AcDbCircle
 62
7
  6
CONTINUOUS
 10
-9.0436787096
 20
4.0357899574
 40
0.5
100
AcDbArc
 50
179.9841296142
 51
239.9984015652
  0
ARC
  5
2B0
100
AcDbEntity
  8
ASSI
100
AcDbCircle
 62
7
  6
CONTINUOUS
 10
-9.0436787096
 20
24.5087313274
 40
0.5
100
AcDbArc
 50
122.5989151677
 51
180.0017380816
  0
ELLIPSE
  5
2B1
100
AcDbEntity
  8
ASSI
100
AcDbEllipse
 62
7
  6
CONTINUOUS
 10
8.2190914376
 20
-4.395764311
 30
0.0
 11
-0.2500883296
 21
0.432972707
 31
0.0
 40
0.5775954524
 41
-2.3562050126
 42
-0.7858655366
  0
ELLIPSE
  5
2B2
100
AcDbEntity
  8
ASSI
100
AcDbEllipse
 62
7
  6
CONTINUOUS
 10
7.8595418012
 20
-4.1952678972
 30
0.0
 11
0.499979581
 21
0.0076930498
 31
0.0
 40
0.5873737521
 41
7.0595459565
 42
7.4069329008
  0
ELLIPSE
  5
2B3
100
AcDbEntity
  8
ASSI
100
AcDbEllipse
 62
7
  6
CONTINUOUS
 10
8.2099545117
 20
-22.4780376988
 30
0.0
 11
0.2600728777
 21
0.4271418247
 31
0.0
 40
0.5922410672
 41
-1.033355665
 42
-0.7715562772
  0
ELLIPSE
  5
2B4
100
AcDbEntity
  8
ASSI
100
AcDbEllipse
 62
7
  6
CONTINUOUS
 10
7.5433606635
 20
-25.3366264466
 30
0.0
 11
-0.1121548712
 21
0.4957473682
 31
0.0
 40
0.7039445592
 41
-2.9595186474
 42
-2.1483506142
  0
ELLIPSE
  5
2B5
100
AcDbEntity
  8
ASSI
100
AcDbEllipse
 62
7
  6
CONTINUOUS
 10
-7.412574494
 20
25.5518035637
 30
0.0
 11
-0.3297163127
 21
0.381589989
 31
0.0
 40
0.4128243551
 41
-0.8709070521
 42
-0.0596421506
  0
ELLIPSE
  5
2B6
100
AcDbEntity
  8
ASSI
100
AcDbEllipse
 62
7
  6
CONTINUOUS
 10
8.2190914376
 20
-3.2839349439
 30
0.0
 11
-0.2502024451
 21
0.4331706506
 31
0.0
 40
0.5770679437
 41
-3.1633994611
 42
-2.3566614272
  0
ELLIPSE
  5
2B7
100
AcDbEntity
  8
ASSI
100
AcDbEllipse
 62
7
  6
CONTINUOUS
 10
8.2099545117
 20
13.9923403504
 30
0.0
 11
0.2600728777
 21
0.4271418247
 31
0.0
 40
0.5922410672
 41
-0.7715562772
 42
-0.5097568894
  0
ELLIPSE
  5
2B8
100
AcDbEntity
  8
ASSI
100
AcDbEllipse
 62
7
  6
CONTINUOUS
 10
7.5433606635
 20
16.9164340457
 30
0.0
 11
-0.3313794069
 21
0.3842968449
 31
0.0
 40
0.4077379513
 41
-2.4333010859
 42
-0.8631899918
  0
ENDSEC
  0
SECTION
  2
OBJECTS
  0
DICTIONARY
  5
C
100
AcDbDictionary
280
0
281
1
  3
ACAD_GROUP
350
D
  3
ACAD_MLINESTYLE
350
17
  3
ACAD_LAYOUT
350
1A
  3
ACAD_PLOTSETTINGS
350
19
  3
ACAD_PLOTSTYLENAME
350
E
  0
DICTIONARY
  5
D
102
{ACAD_REACTORS
330
C
102
}
100
AcDbDictionary
280
0
281
1
  0
ACDBDICTIONARYWDFLT
  5
E
102
{ACAD_REACTORS
330
C
102
}
100
AcDbDictionary
281
1
  3
Normal
350
F
100
AcDbDictionaryWithDefault
340
F
  0
DICTIONARY
  5
17
102
{ACAD_REACTORS
330
C
102
}
100
AcDbDictionary
280
0
281
1
  3
Standard
350
18
  0
DICTIONARY
  5
19
102
{ACAD_REACTORS
330
C
102
}
100
AcDbDictionary
281
1
  0
DICTIONARY
  5
1A
102
{ACAD_REACTORS
330
C
102
}
100
AcDbDictionary
281
1
  3
Model
350
2B9
  3
Layout1
350
2BA
  0
ACDBPLACEHOLDER
  5
F
102
{ACAD_REACTORS
330
E
102
}
  0
MLINESTYLE
  5
18
102
{ACAD_REACTORS
330
17
102
}
100
AcDbMlineStyle
  2
STANDARD
 70
0
  3

 62
256
 51
90.0
 52
90.0
 71
2
 49
0.5
 62
256
  6
BYLAYER
 49
-0.5
 62
256
  6
BYLAYER
  0
LAYOUT
  5
2B9
102
{ACAD_REACTORS
330
1A
102
}
100
AcDbPlotSettings
  1

  2
none_device
  4

  6

 40
0.0
 41
0.0
 42
0.0
 43
0.0
 44
210.0
 45
297.0
 46
0.0
 47
0.0
 48
0.0
 49
0.0
140
0.0
141
0.0
142
1.0
143
1.0
 70
1024
 72
1
 73
0
 74
0
  7

 75
0
147
1.0
148
0.0
149
0.0
100
AcDbLayout
  1
Model
 70
0
 71
0
 10
0.0
 20
0.0
 11
210.0
 21
297.0
 12
0.0
 22
0.0
 32
0.0
 14
0.0
 24
0.0
 34
0.0
 15
0.0
 25
0.0
 35
0.0
146
0.0
 13
0.0
 23
0.0
 33
0.0
 16
1.0
 26
0.0
 36
0.0
 17
0.0
 27
1.0
 37
0.0
 76
0
330
212
345
0
346
0
  0
LAYOUT
  5
2BA
102
{ACAD_REACTORS
330
1A
102
}
100
AcDbPlotSettings
  1

  2
none_device
  4

  6

 40
0.0
 41
0.0
 42
0.0
 43
0.0
 44
210.0
 45
297.0
 46
0.0
 47
0.0
 48
0.0
 49
0.0
140
0.0
141
0.0
142
1.0
143
1.0
 70
0
 72
1
 73
0
 74
0
  7

 75
0
147
1.0
148
0.0
149
0.0
100
AcDbLayout
  1
Layout1
 70
0
 71
1
 10
0.0
 20
0.0
 11
210.0
 21
297.0
 12
0.0
 22
0.0
 32
0.0
 14
0.0
 24
0.0
 34
0.0
 15
0.0
 25
0.0
 35
0.0
146
0.0
 13
0.0
 23
0.0
 33
0.0
 16
1.0
 26
0.0
 36
0.0
 17
0.0
 27
1.0
 37
0.0
 76
0
330
213
345
0
346
0
  0
ENDSEC
  0
EOF
