  0
SECTION
  2
HEADER
  9
$ACADVER
  1
AC1024
  9
$DWGCODEPAGE
  3
ANSI_1252
  9
$EXTMAX
 10
210.0
 20
297.0
 30
0.0
  9
$EXTMIN
 10
0.0
 20
0.0
 30
0.0
  9
$LIMMIN
 10
0.0
 20
0.0
  9
$LIMMAX
 10
210.0
 20
297.0
  9
$VIEWCTR
 10
105.0
 20
148.5
  9
$VIEWSIZE
 40
297.0
  9
$CLAYER
  8
0
  9
$LTSCALE
 40
19.36
  9
$CELTYPE
  6
BYLAYER
  9
$DIMSCALE
 40
1.0
  9
$DIMASZ
 40
3.0
  9
$DIMEXO
 40
0.5
  9
$DIMDLI
 40
13.376
  9
$DIMEXE
 40
1.5
  9
$DIMCEN
 40
3.168
  9
$DIMLFAC
 40
1.0
  9
$DIMBLK
  1
_FILLED
  9
$DIMALT
 70
0
  9
$DIMALTF
 40
0.0393700787
  9
$DIMTXT
 40
3.0
  9
$DIMTOL
 70
1
  9
$DIMLIM
 70
0
  9
$DIMTFAC
 40
1.0
  9
$DIMTP
 40
0.01
  9
$DIMTM
 40
0.01
  9
$DIMGAP
 40
0.625
  9
$DIMDSEP
 70
44
  9
$AUNITS
 70
0
  9
$PDMODE
 70
3
  9
$PDSIZE
 40
3.0
  9
$HANDSEED
  5
2DA
  9
$TILEMODE
 70
1
  9
$MEASUREMENT
 70
1
  9
$INSUNITS
 70
4
  0
ENDSEC
  0
SECTION
  2
CLASSES
  0
CLASS
  1
ACDBDICTIONARYWDFLT
  2
AcDbDictionaryWithDefault
  3
AutoCAD 2000
 90
0
 91
1
280
0
281
0
  0
CLASS
  1
ACDBPLACEHOLDER
  2
AcDbPlaceHolder
  3
AutoCAD 2000
 90
0
 91
1
280
0
281
0
  0
CLASS
  1
LAYOUT
  2
AcDbLayout
  3
AutoCAD 2000
 90
0
 91
0
280
0
281
0
  0
ENDSEC
  0
SECTION
  2
TABLES
  0
TABLE
  2
VPORT
  5
8
100
AcDbSymbolTable
 70
2
  0
VPORT
  5
1F4
100
AcDbSymbolTableRecord
100
AcDbViewportTableRecord
  2
*ACTIVE
 70
0
 10
0.0
 20
0.0
 11
1.0
 21
1.0
 12
105.0
 22
148.5
 13
0.0
 23
0.0
 14
1.0
 24
1.0
 15
0.0
 25
0.0
 16
0.0
 26
0.0
 36
1.0
 17
0.0
 27
0.0
 37
0.0
 40
297.0
 41
0.7070707071
 42
50.0
 43
0.0
 44
0.0
 50
0.0
 51
0.0
 71
0
 72
100
 73
1
 74
1
 75
0
 76
0
 77
0
 78
0
  0
ENDTAB
  0
TABLE
  2
LTYPE
  5
5
100
AcDbSymbolTable
 70
6
  0
LTYPE
  5
14
100
AcDbSymbolTableRecord
100
AcDbLinetypeTableRecord
  2
BYBLOCK
 70
0
  3

 72
65
 73
0
 40
0.0
  0
LTYPE
  5
15
100
AcDbSymbolTableRecord
100
AcDbLinetypeTableRecord
  2
BYLAYER
 70
0
  3

 72
65
 73
0
 40
0.0
  0
LTYPE
  5
16
100
AcDbSymbolTableRecord
100
AcDbLinetypeTableRecord
  2
CONTINUOUS
 70
64
  3
Solid line
 72
65
 73
0
 40
0.0
  0
LTYPE
  5
1F5
100
AcDbSymbolTableRecord
100
AcDbLinetypeTableRecord
  2
CENTER
 70
64
  3
____ _ ____ _ ____ _ ____ _ ____ _ ____ _ ____
 72
65
 73
4
 40
0.6
 49
0.375
 74
0
 49
-0.075
 74
0
 49
0.075
 74
0
 49
-0.075
 74
0
  0
LTYPE
  5
1F6
100
AcDbSymbolTableRecord
100
AcDbLinetypeTableRecord
  2
HIDDEN
 70
64
  3
- - - - - - - - - - - - - - - - - - - -
 72
65
 73
2
 40
0.2
 49
0.1
 74
0
 49
-0.1
 74
0
  0
LTYPE
  5
1F7
100
AcDbSymbolTableRecord
100
AcDbLinetypeTableRecord
  2
PHANTOM
 70
64
  3
_____ _ _ _____ _ _ _____ _ _ _____
 72
65
 73
6
 40
0.8
 49
0.45
 74
0
 49
-0.05
 74
0
 49
0.1
 74
0
 49
-0.05
 74
0
 49
0.1
 74
0
 49
-0.05
 74
0
  0
LTYPE
  5
1F8
100
AcDbSymbolTableRecord
100
AcDbLinetypeTableRecord
  2
DOT
 70
64
  3
. . . . . . . . . . . . . . . . . . . .
 72
65
 73
2
 40
0.2
 49
0.1
 74
0
 49
-0.1
 74
0
  0
LTYPE
  5
1F9
100
AcDbSymbolTableRecord
100
AcDbLinetypeTableRecord
  2
DASHED
 70
64
  3
- - - - - - - - - - - - - - - - - - - -
 72
65
 73
2
 40
0.2
 49
0.1
 74
0
 49
-0.1
 74
0
  0
ENDTAB
  0
TABLE
  2
LAYER
  5
2
100
AcDbSymbolTable
 70
36
  0
LAYER
  5
10
100
AcDbSymbolTableRecord
100
AcDbLayerTableRecord
  2
0
 70
0
 62
7
  6
CONTINUOUS
370
-3
390
F
  0
LAYER
  5
1FA
100
AcDbSymbolTableRecord
100
AcDbLayerTableRecord
  2
DEFAULT_1
 70
0
 62
7
  6
CENTER
370
-3
390
F
  0
LAYER
  5
1FB
100
AcDbSymbolTableRecord
100
AcDbLayerTableRecord
  2
DEFAULT_2
 70
0
 62
7
  6
HIDDEN
370
-3
390
F
  0
LAYER
  5
1FC
100
AcDbSymbolTableRecord
100
AcDbLayerTableRecord
  2
DEFAULT_3
 70
0
 62
7
  6
PHANTOM
370
-3
390
F
  0
LAYER
  5
1FD
100
AcDbSymbolTableRecord
100
AcDbLayerTableRecord
  2
ASSI
 70
0
 62
7
  6
CONTINUOUS
370
-3
390
F
  0
LAYER
  5
1FE
100
AcDbSymbolTableRecord
100
AcDbLayerTableRecord
  2
COORDINATE
 70
0
 62
7
  6
CONTINUOUS
370
-3
390
F
  0
LAYER
  5
1FF
100
AcDbSymbolTableRecord
100
AcDbLayerTableRecord
  2
COPY_PUBLISH
 70
0
 62
7
  6
CONTINUOUS
370
-3
390
F
  0
LAYER
  5
200
100
AcDbSymbolTableRecord
100
AcDbLayerTableRecord
  2
COSMETICI
 70
0
 62
7
  6
CONTINUOUS
370
-3
390
F
  0
LAYER
  5
201
100
AcDbSymbolTableRecord
100
AcDbLayerTableRecord
  2
CURVE
 70
0
 62
7
  6
CONTINUOUS
370
-3
390
F
  0
LAYER
  5
202
100
AcDbSymbolTableRecord
100
AcDbLayerTableRecord
  2
DRAFT
 70
0
 62
7
  6
CONTINUOUS
370
-3
390
F
  0
LAYER
  5
203
100
AcDbSymbolTableRecord
100
AcDbLayerTableRecord
  2
IMPORT_IGES
 70
0
 62
7
  6
CONTINUOUS
370
-3
390
F
  0
LAYER
  5
204
100
AcDbSymbolTableRecord
100
AcDbLayerTableRecord
  2
INTF_1
 70
0
 62
7
  6
CONTINUOUS
370
-3
390
F
  0
LAYER
  5
205
100
AcDbSymbolTableRecord
100
AcDbLayerTableRecord
  2
INTF_2
 70
0
 62
7
  6
CONTINUOUS
370
-3
390
F
  0
LAYER
  5
206
100
AcDbSymbolTableRecord
100
AcDbLayerTableRecord
  2
INTF_4
 70
0
 62
7
  6
CONTINUOUS
370
-3
390
F
  0
LAYER
  5
207
100
AcDbSymbolTableRecord
100
AcDbLayerTableRecord
  2
INTF_8
 70
0
 62
7
  6
CONTINUOUS
370
-3
390
F
  0
LAYER
  5
208
100
AcDbSymbolTableRecord
100
AcDbLayerTableRecord
  2
INTF_9
 70
0
 62
7
  6
CONTINUOUS
370
-3
390
F
  0
LAYER
  5
209
100
AcDbSymbolTableRecord
100
AcDbLayerTableRecord
  2
NOTE
 70
0
 62
7
  6
CONTINUOUS
370
-3
390
F
  0
LAYER
  5
20A
100
AcDbSymbolTableRecord
100
AcDbLayerTableRecord
  2
PIANI
 70
0
 62
7
  6
CONTINUOUS
370
-3
390
F
  0
LAYER
  5
20B
100
AcDbSymbolTableRecord
100
AcDbLayerTableRecord
  2
PUNTI
 70
0
 62
7
  6
CONTINUOUS
370
-3
390
F
  0
LAYER
  5
20C
100
AcDbSymbolTableRecord
100
AcDbLayerTableRecord
  2
RACCORDO
 70
0
 62
7
  6
CONTINUOUS
370
-3
390
F
  0
LAYER
  5
20D
100
AcDbSymbolTableRecord
100
AcDbLayerTableRecord
  2
SIMBOLI
 70
0
 62
7
  6
CONTINUOUS
370
-3
390
F
  0
LAYER
  5
20E
100
AcDbSymbolTableRecord
100
AcDbLayerTableRecord
  2
SMUSSO
 70
0
 62
7
  6
CONTINUOUS
370
-3
390
F
  0
LAYER
  5
20F
100
AcDbSymbolTableRecord
100
AcDbLayerTableRecord
  2
SNAPLINE
 70
0
 62
7
  6
CONTINUOUS
370
-3
390
F
  0
LAYER
  5
210
100
AcDbSymbolTableRecord
100
AcDbLayerTableRecord
  2
SUPERFICI
 70
0
 62
7
  6
CONTINUOUS
370
-3
390
F
  0
LAYER
  5
211
100
AcDbSymbolTableRecord
100
AcDbLayerTableRecord
  2
TRASH
 70
0
 62
7
  6
CONTINUOUS
370
-3
390
F
  0
ENDTAB
  0
TABLE
  2
STYLE
  5
3
100
AcDbSymbolTable
 70
1
  0
STYLE
  5
11
100
AcDbSymbolTableRecord
100
AcDbTextStyleTableRecord
  2
STANDARD
 70
0
 40
0.0
 41
0.8
 50
0.0
 71
0
 42
0.2
  3
txt
  4

  0
STYLE
  5
212
100
AcDbSymbolTableRecord
100
AcDbTextStyleTableRecord
  2
TEXTSTYLE_1
 70
0
 40
0.0
 41
0.8
 50
0.0
 71
0
 42
0.2
  3
gdt
  4

  0
ENDTAB
  0
TABLE
  2
VIEW
  5
6
100
AcDbSymbolTable
 70
0
  0
ENDTAB
  0
TABLE
  2
UCS
  5
7
100
AcDbSymbolTable
 70
0
  0
ENDTAB
  0
TABLE
  2
APPID
  5
9
100
AcDbSymbolTable
 70
1
  0
APPID
  5
213
100
AcDbSymbolTableRecord
100
AcDbRegAppTableRecord
  2
ACAD
 70
0
  0
ENDTAB
  0
TABLE
  2
BLOCK_RECORD
  5
1
100
AcDbSymbolTable
 70
0
  0
BLOCK_RECORD
  5
214
100
AcDbSymbolTableRecord
100
AcDbBlockTableRecord
  2
*Model_Space
  0
BLOCK_RECORD
  5
215
100
AcDbSymbolTableRecord
100
AcDbBlockTableRecord
  2
*Paper_Space
  0
BLOCK_RECORD
  5
216
100
AcDbSymbolTableRecord
100
AcDbBlockTableRecord
  2
_FILLED
  0
ENDTAB
  0
TABLE
  2
DIMSTYLE
  5
A
100
AcDbSymbolTable
 70
1
100
AcDbDimStyleTable
 71
0
  0
DIMSTYLE
105
217
100
AcDbSymbolTableRecord
100
AcDbDimStyleTableRecord
  2
STANDARD
 70
0
  3

  4

 40
1.0
 41
3.0
 42
0.5
 43
0.38
 44
1.5
 45
0.0
 46
0.0
 47
0.01
 48
0.01
140
3.0
141
0.09
142
0.0
143
25.4
144
1.0
145
0.0
146
1.0
147
0.625
 71
1
 72
0
 73
0
 74
0
 75
0
 76
0
 77
1
 78
8
 79
2
170
0
171
1
172
0
173
0
174
0
175
0
176
0
177
0
178
0
270
2
179
2
271
2
272
2
273
2
274
2
275
0
280
0
281
0
282
0
283
1
284
8
285
0
286
0
287
3
288
0
340
11
278
44
341
216
342
216
343
216
344
216
  0
ENDTAB
  0
ENDSEC
  0
SECTION
  2
BLOCKS
  0
BLOCK
  5
20
100
AcDbEntity
  8
0
100
AcDbBlockBegin
  2
*Model_Space
 70
0
 10
0.0
 20
0.0
 30
0.0
  3
*Model_Space
  1

  0
ENDBLK
  5
21
100
AcDbEntity
  8
0
100
AcDbBlockEnd
  0
BLOCK
  5
1C
100
AcDbEntity
  8
0
100
AcDbBlockBegin
  2
*Paper_Space
 70
0
 10
0.0
 20
0.0
 30
0.0
  3
*Paper_Space
  1

  0
ENDBLK
  5
1D
100
AcDbEntity
  8
0
100
AcDbBlockEnd
  0
BLOCK
  5
218
100
AcDbEntity
  8
0
100
AcDbBlockBegin
  2
_FILLED
 70
64
 10
0.0
 20
0.0
  3
_FILLED
  1

  0
SOLID
  5
219
100
AcDbEntity
  8
0
  6
BYBLOCK
 62
0
100
AcDbTrace
 10
0.0
 20
0.0
 11
-1.0
 21
0.3166666667
 12
-1.0
 22
-0.3166666667
 13
-1.0
 23
-0.3166666667
  0
ENDBLK
  5
21A
100
AcDbEntity
  8
0
  6
BYBLOCK
 62
0
100
AcDbBlockEnd
  0
ENDSEC
  0
SECTION
  2
ENTITIES
  0
LWPOLYLINE
  5
21B
100
AcDbEntity
  8
ASSI
100
AcDbPolyline
 62
250
  6
CONTINUOUS
 90
16
 70
0
 10
-8.7648016485
 20
25.4437337491
 10
-8.8010828191
 20
25.4195252239
 10
-8.8368815635
 20
25.3913062752
 10
-8.8718186168
 20
25.3593758651
 10
-8.905523843
 20
25.3240722758
 10
-8.9376401566
 20
25.2857695265
 10
-8.9678273056
 20
25.2448734106
 10
-8.9957654761
 20
25.2018171967
 10
-9.021158681
 20
25.1570570379
 10
-9.0437378954
 20
25.1110671397
 10
-9.0632639069
 20
25.0643347359
 10
-9.0795298497
 20
25.0173549267
 10
-9.0923633965
 20
24.9706254335
 10
-9.101628584
 20
24.9246413257
 10
-9.1072272533
 20
24.8798897756
 10
-9.1091000903
 20
24.8368448975
  0
LINE
  5
21C
100
AcDbEntity
  8
ASSI
100
AcDbLine
 62
7
  6
CONTINUOUS
 10
-7.4441826404
 20
26.4730793415
 11
-9.0249206498
 21
25.4622157102
  0
LINE
  5
21D
100
AcDbEntity
  8
ASSI
100
AcDbLine
 62
250
  6
CONTINUOUS
 10
-7.2163270891
 20
26.4339652782
 11
-8.7648016485
 21
25.4437337491
  0
LWPOLYLINE
  5
21E
100
AcDbEntity
  8
ASSI
100
AcDbPolyline
 62
250
  6
CONTINUOUS
 90
16
 70
0
 10
5.7591140781
 20
-25.899647903
 10
5.7967983994
 20
-25.9193007532
 10
5.8379042982
 20
-25.9367074051
 10
5.8820397819
 20
-25.9516591514
 10
5.9288338574
 20
-25.9639834876
 10
5.9777615608
 20
-25.9734975761
 10
6.0281265708
 20
-25.9800477339
 10
6.0793201654
 20
-25.9835615448
 10
6.130867243
 20
-25.9840130274
 10
6.1822384241
 20
-25.9813960576
 10
6.232898585
 20
-25.9757336314
 10
6.2822949249
 20
-25.9670832078
 10
6.3298833308
 20
-25.9555384283
 10
6.3751515645
 20
-25.9412241499
 10
6.417622883
 20
-25.9242917439
 10
6.4568447565
 20
-25.9049216417
  0
LINE
  5
21F
100
AcDbEntity
  8
ASSI
100
AcDbLine
 62
7
  6
CONTINUOUS
 10
-9.0055587798
 20
-17.5437958153
 11
5.8626553886
 21
-26.1285163336
  0
LINE
  5
220
100
AcDbEntity
  8
ASSI
100
AcDbLine
 62
250
  6
CONTINUOUS
 10
-9.1091000903
 20
-17.3149273847
 11
5.7591140781
 21
-25.899647903
  0
LWPOLYLINE
  5
221
100
AcDbEntity
  8
ASSI
100
AcDbPolyline
 62
250
  6
CONTINUOUS
 90
9
 70
0
 10
-9.1091000903
 20
-17.3149273847
 10
-9.142891611
 20
-17.2933430951
 10
-9.1728897212
 20
-17.2697812548
 10
-9.1987241716
 20
-17.2444571303
 10
-9.2200720188
 20
-17.2175930797
 10
-9.236620542
 20
-17.1894673845
 10
-9.2481033911
 20
-17.1604182311
 10
-9.2543535653
 20
-17.1307221764
 10
-9.2555466997
 20
-17.110790088
  0
LWPOLYLINE
  5
222
100
AcDbEntity
  8
ASSI
100
AcDbPolyline
 62
250
  6
CONTINUOUS
 90
9
 70
0
 10
5.8626553886
 20
-26.1285163336
 10
5.8470554874
 20
-26.1183075082
 10
5.824476273
 20
-26.0983915209
 10
5.8049502615
 20
-26.0742072657
 10
5.7886843187
 20
-26.0460109596
 10
5.7758507719
 20
-26.0141013245
 10
5.7665855844
 20
-25.9788164229
 10
5.760986915
 20
-25.9405300759
 10
5.7591140781
 20
-25.899647903
  0
LINE
  5
223
100
AcDbEntity
  8
CURVE
100
AcDbLine
 62
7
  6
CONTINUOUS
 10
-4.1590435073
 20
14.5229266353
 11
-3.8058228187
 21
14.8761473239
  0
LWPOLYLINE
  5
224
100
AcDbEntity
  8
CURVE
100
AcDbPolyline
 62
250
  6
CONTINUOUS
 90
56
 70
0
 10
-3.6248077298
 20
14.3690927245
 10
-3.6149797339
 20
14.3772819991
 10
-3.6046490376
 20
14.3847460977
 10
-3.5938416425
 20
14.3914872233
 10
-3.5825835501
 20
14.397507579
 10
-3.5709007622
 20
14.4028093678
 10
-3.5588192803
 20
14.4073947928
 10
-3.5463651059
 20
14.4112660569
 10
-3.5335642409
 20
14.4144253634
 10
-3.5204426866
 20
14.4168749152
 10
-3.5070264448
 20
14.4186169153
 10
-3.493341517
 20
14.4196535669
 10
-3.4794139049
 20
14.4199870729
 10
-3.46526961
 20
14.4196196364
 10
-3.450934634
 20
14.4185534605
 10
-3.4349130739
 20
14.4165740691
 10
-3.4187093591
 20
14.4137901622
 10
-3.4023421187
 20
14.4102464693
 10
-3.3858299821
 20
14.4059877203
 10
-3.3691915783
 20
14.4010586448
 10
-3.3524455368
 20
14.3955039725
 10
-3.3356104865
 20
14.3893684333
 10
-3.3166052397
 20
14.3818306903
 10
-3.2975238724
 20
14.3736508194
 10
-3.2783791546
 20
14.3648638418
 10
-3.259183856
 20
14.3555047789
 10
-3.2399507464
 20
14.3456086523
 10
-3.2206925958
 20
14.3352104833
 10
-3.2014221739
 20
14.3243452933
 10
-3.1794768462
 20
14.3114352884
 10
-3.1575489518
 20
14.2979452759
 10
-3.1356552772
 20
14.2838555525
 10
-3.113812609
 20
14.269146415
 10
-3.0920377338
 20
14.2537981599
 10
-3.0703474382
 20
14.2377910838
 10
-3.054099195
 20
14.2253010275
 10
-3.0379214072
 20
14.2123964589
 10
-3.0218271793
 20
14.1990467627
 10
-3.0058296154
 20
14.1852213239
 10
-2.9899418199
 20
14.1708895275
 10
-2.974176897
 20
14.1560207584
 10
-2.9585479511
 20
14.1405844014
 10
-2.9450846392
 20
14.1266863516
 10
-2.9317621892
 20
14.1123567209
 10
-2.9186087883
 20
14.0976160474
 10
-2.9056526235
 20
14.0824848689
 10
-2.8929218819
 20
14.0669837233
 10
-2.8804447508
 20
14.0511331484
 10
-2.8682494172
 20
14.034953682
 10
-2.8563640682
 20
14.0184658621
 10
-2.844816891
 20
14.0016902265
 10
-2.8336360726
 20
13.9846473131
 10
-2.8228498002
 20
13.9673576597
 10
-2.812486261
 20
13.9498418042
 10
-2.802573642
 20
13.9321202845
 10
-2.7931401303
 20
13.9142136383
  0
LWPOLYLINE
  5
225
100
AcDbEntity
  8
CURVE
100
AcDbPolyline
 62
250
  6
CONTINUOUS
 90
53
 70
0
 10
-3.7617229243
 20
-13.6816691311
 10
-3.7201943371
 20
-13.7035451286
 10
-3.67872902
 20
-13.7241726292
 10
-3.6373533893
 20
-13.7434240373
 10
-3.6048269615
 20
-13.7575401069
 10
-3.5724109664
 20
-13.7706351056
 10
-3.540143712
 20
-13.7826220788
 10
-3.5080635062
 20
-13.7934140721
 10
-3.4762086567
 20
-13.8029241309
 10
-3.4407450917
 20
-13.8119823908
 10
-3.4056779935
 20
-13.8192658274
 10
-3.3710711571
 20
-13.8247267786
 10
-3.3369883775
 20
-13.8283175821
 10
-3.3057774897
 20
-13.8299274175
 10
-3.2751599388
 20
-13.8297714721
 10
-3.2452191319
 20
-13.8277475615
 10
-3.2160384762
 20
-13.8237535015
 10
-3.1896423709
 20
-13.8181999365
 10
-3.1640138466
 20
-13.8108947774
 10
-3.1391904157
 20
-13.8018799584
 10
-3.1152095906
 20
-13.7911974137
 10
-3.0921088838
 20
-13.7788890775
 10
-3.0699258076
 20
-13.7649968841
 10
-3.0486978745
 20
-13.7495627677
 10
-3.028462597
 20
-13.7326286625
 10
-3.0091698115
 20
-13.7141690311
 10
-2.9908725498
 20
-13.6943329492
 10
-2.9735279647
 20
-13.6732136315
 10
-2.9570932087
 20
-13.6509042923
 10
-2.9415254348
 20
-13.6274981461
 10
-2.9267817955
 20
-13.6030884074
 10
-2.9128194436
 20
-13.5777682907
 10
-2.8995955319
 20
-13.5516310105
 10
-2.8839375096
 20
-13.5176688807
 10
-2.8693739567
 20
-13.4826001434
 10
-2.8558959275
 20
-13.4464665875
 10
-2.8434944762
 20
-13.4093100018
 10
-2.8321606572
 20
-13.3711721752
 10
-2.8218855248
 20
-13.3320948966
 10
-2.811422666
 20
-13.2864059521
 10
-2.8022125368
 20
-13.2396677397
 10
-2.7941401997
 20
-13.1920005225
 10
-2.7870907175
 20
-13.1435245637
 10
-2.7809491526
 20
-13.0943601262
 10
-2.7756005676
 20
-13.0446274731
 10
-2.7689563678
 20
-12.9705403044
 10
-2.7636126886
 20
-12.8956008758
 10
-2.759398664
 20
-12.8199290073
 10
-2.7561434278
 20
-12.7436445189
 10
-2.7536761141
 20
-12.6668672303
 10
-2.7510107718
 20
-12.5441070531
 10
-2.7495475512
 20
-12.4206249419
 10
-2.7488040134
 20
-12.1723740865
  0
LINE
  5
226
100
AcDbEntity
  8
CURVE
100
AcDbLine
 62
250
  6
CONTINUOUS
 10
0.4258565961
 20
-16.0221741435
 11
0.0122153926
 21
-15.7833428967
  0
LINE
  5
227
100
AcDbEntity
  8
CURVE
100
AcDbLine
 62
250
  6
CONTINUOUS
 10
-1.663787485
 20
-14.8156398404
 11
-2.0774286885
 21
-14.5768085937
  0
LINE
  5
228
100
AcDbEntity
  8
CURVE
100
AcDbLine
 62
7
  6
CONTINUOUS
 10
-4.2659234428
 20
13.4204403519
 11
-3.8132000728
 21
13.8731637218
  0
LINE
  5
229
100
AcDbEntity
  8
CURVE
100
AcDbLine
 62
7
  6
CONTINUOUS
 10
-3.3083765914
 20
14.3779872033
 11
-3.0644693801
 21
14.6218944146
  0
LINE
  5
22A
100
AcDbEntity
  8
CURVE
100
AcDbLine
 62
7
  6
CONTINUOUS
 10
-4.2549167136
 20
12.4358407332
 11
-3.8389365582
 21
12.8518208886
  0
LINE
  5
22B
100
AcDbEntity
  8
CURVE
100
AcDbLine
 62
7
  6
CONTINUOUS
 10
-2.7877687704
 20
13.9029886764
 11
-2.5567989577
 21
14.1339584891
  0
LINE
  5
22C
100
AcDbEntity
  8
ASSI
100
AcDbLine
 62
250
  6
CONTINUOUS
 10
6.1034125198
 20
16.8590132308
 11
7.7351642351
 21
17.8011615739
  0
LINE
  5
22D
100
AcDbEntity
  8
CURVE
100
AcDbLine
 62
250
  6
CONTINUOUS
 10
1.4667814176
 20
-14.7189129689
 11
0.4258565961
 21
-14.1178960228
  0
LINE
  5
22E
100
AcDbEntity
  8
CURVE
100
AcDbLine
 62
250
  6
CONTINUOUS
 10
-0.6228626634
 20
-13.5123786659
 11
-1.663787485
 21
-12.9113617198
  0
LINE
  5
22F
100
AcDbEntity
  8
CURVE
100
AcDbLine
 62
250
  6
CONTINUOUS
 10
-1.663787485
 20
-12.5291001338
 11
-0.6228626634
 21
-13.1301170799
  0
LINE
  5
230
100
AcDbEntity
  8
CURVE
100
AcDbLine
 62
250
  6
CONTINUOUS
 10
0.4258565961
 20
-13.7356344368
 11
1.4667814176
 21
-14.3366513829
  0
LWPOLYLINE
  5
231
100
AcDbEntity
  8
ASSI
100
AcDbPolyline
 62
250
  6
CONTINUOUS
 90
9
 70
0
 10
-9.1091000903
 20
-17.3149273847
 10
-9.1072272533
 20
-17.3558095575
 10
-9.101628584
 20
-17.3940959046
 10
-9.0923633965
 20
-17.4293808062
 10
-9.0795298497
 20
-17.4612904413
 10
-9.0632639069
 20
-17.4894867474
 10
-9.0437378954
 20
-17.5136710025
 10
-9.021158681
 20
-17.5335869899
 10
-9.0055587798
 20
-17.5437958153
  0
LINE
  5
232
100
AcDbEntity
  8
ASSI
100
AcDbLine
 62
7
  6
CONTINUOUS
 10
-9.2555466997
 20
25.0409821942
 11
-9.2555466997
 21
4.5680408242
  0
LINE
  5
233
100
AcDbEntity
  8
ASSI
100
AcDbLine
 62
7
  6
CONTINUOUS
 10
-9.2555466997
 20
3.3621512819
 11
-9.2555466997
 21
-17.110790088
  0
LWPOLYLINE
  5
234
100
AcDbEntity
  8
ASSI
100
AcDbPolyline
 62
250
  6
CONTINUOUS
 90
16
 70
0
 10
-9.1091000903
 20
3.1580139853
 10
-9.1071878196
 20
3.2015199295
 10
-9.1014733624
 20
3.2467534016
 10
-9.0920209883
 20
3.2932243243
 10
-9.0789440068
 20
3.3404019563
 10
-9.0623814107
 20
3.3878038611
 10
-9.042476254
 20
3.4350013026
 10
-9.0193765147
 20
3.481579588
 10
-8.9933593885
 20
3.5269244607
 10
-8.964835504
 20
3.5703352996
 10
-8.9341666465
 20
3.6113229975
 10
-8.9016780545
 20
3.649509657
 10
-8.8678013907
 20
3.6844486012
 10
-8.8329398546
 20
3.7157996953
 10
-8.7974525313
 20
3.7433127706
 10
-8.7617170572
 20
3.7667615571
  0
LINE
  5
235
100
AcDbEntity
  8
CURVE
100
AcDbLine
 62
7
  6
CONTINUOUS
 10
-4.1107276583
 20
11.5844234406
 11
-3.8002033572
 21
11.8949477417
  0
LINE
  5
236
100
AcDbEntity
  8
CURVE
100
AcDbLine
 62
7
  6
CONTINUOUS
 10
-2.5892843464
 20
13.1058667525
 11
-2.2494769549
 21
13.445674144
  0
LINE
  5
237
100
AcDbEntity
  8
CURVE
100
AcDbLine
 62
7
  6
CONTINUOUS
 10
-3.7581823224
 20
10.9413624286
 11
-3.5401619136
 21
11.1593828374
  0
LINE
  5
238
100
AcDbEntity
  8
CURVE
100
AcDbLine
 62
7
  6
CONTINUOUS
 10
-2.5694331831
 20
12.1301115678
 11
-2.143338601
 21
12.55620615
  0
LINE
  5
239
100
AcDbEntity
  8
CURVE
100
AcDbLine
 62
7
  6
CONTINUOUS
 10
-1.4647616748
 20
13.2347830762
 11
-1.2174808676
 21
13.4820638833
  0
LINE
  5
23A
100
AcDbEntity
  8
CURVE
100
AcDbLine
 62
7
  6
CONTINUOUS
 10
-3.2108167048
 20
10.4931216982
 11
-2.9290788509
 21
10.7748595521
  0
LINE
  5
23B
100
AcDbEntity
  8
CURVE
100
AcDbLine
 62
7
  6
CONTINUOUS
 10
-2.6599143916
 20
11.0440240115
 11
-2.1401163359
 21
11.5638220672
  0
LINE
  5
23C
100
AcDbEntity
  8
CURVE
100
AcDbLine
 62
7
  6
CONTINUOUS
 10
-1.4647616748
 20
12.2391767282
 11
-1.0805969245
 21
12.6233414785
  0
LINE
  5
23D
100
AcDbEntity
  8
CURVE
100
AcDbLine
 62
7
  6
CONTINUOUS
 10
-1.0015253499
 20
12.7024130532
 11
-0.7439976052
 21
12.9599407979
  0
LWPOLYLINE
  5
23E
100
AcDbEntity
  8
CURVE
100
AcDbPolyline
 62
250
  6
CONTINUOUS
 90
57
 70
0
 10
-2.8004482814
 20
10.817582639
 10
-2.8096052524
 20
10.8102238927
 10
-2.8192447599
 20
10.8035824946
 10
-2.8293396118
 20
10.7976500639
 10
-2.8398626162
 20
10.7924182197
 10
-2.850786581
 20
10.7878785812
 10
-2.862084314
 20
10.7840227675
 10
-2.8737286231
 20
10.7808423977
 10
-2.8856923164
 20
10.778329091
 10
-2.8979482017
 20
10.7764744666
 10
-2.910469087
 20
10.7752701435
 10
-2.9232277801
 20
10.774707741
 10
-2.9361970891
 20
10.7747788781
 10
-2.9493498218
 20
10.775475174
 10
-2.9626587861
 20
10.7767882479
 10
-2.9779676951
 20
10.7790174839
 10
-2.9934286286
 20
10.7819906468
 10
-3.0090264187
 20
10.7856633837
 10
-3.0247458976
 20
10.7899913417
 10
-3.0405718974
 20
10.794930168
 10
-3.0564892503
 20
10.8004355097
 10
-3.0724827886
 20
10.8064630139
 10
-3.0907560099
 20
10.8139051944
 10
-3.109096941
 20
10.8219319296
 10
-3.1274942942
 20
10.8305091687
 10
-3.1459367818
 20
10.8396028608
 10
-3.164413116
 20
10.849178955
 10
-3.1829120093
 20
10.8592034005
 10
-3.2014221739
 20
10.8696421466
 10
-3.2244843907
 20
10.883190617
 10
-3.247528814
 20
10.8973482245
 10
-3.2705376756
 20
10.9121338039
 10
-3.2934932076
 20
10.9275661899
 10
-3.3163776419
 20
10.9436642173
 10
-3.3391732102
 20
10.9604467209
 10
-3.356099376
 20
10.9734203333
 10
-3.3729532913
 20
10.9868203101
 10
-3.3897219797
 20
11.0006820715
 10
-3.4063924646
 20
11.0150410376
 10
-3.4229517693
 20
11.0299326286
 10
-3.4393869174
 20
11.0453922645
 10
-3.4556849322
 20
11.0614553657
 10
-3.4685761008
 20
11.0747198341
 10
-3.4813463618
 20
11.0883738046
 10
-3.4939703317
 20
11.1024002163
 10
-3.5064226273
 20
11.1167820085
 10
-3.5186778651
 20
11.1315021204
 10
-3.5307106619
 20
11.1465434913
 10
-3.5424956342
 20
11.1618890602
 10
-3.5540073988
 20
11.1775217666
 10
-3.5652205721
 20
11.1934245496
 10
-3.576109771
 20
11.2095803484
 10
-3.586649612
 20
11.2259721023
 10
-3.5968147117
 20
11.2425827504
 10
-3.6065796868
 20
11.2593952321
 10
-3.615919154
 20
11.2763924865
 10
-3.6248077298
 20
11.2935574529
  0
LINE
  5
23F
100
AcDbEntity
  8
ASSI
100
AcDbLine
 62
250
  6
CONTINUOUS
 10
6.4568447565
 20
16.2468506405
 11
8.1851010859
 21
17.2447192635
  0
LWPOLYLINE
  5
240
100
AcDbEntity
  8
CURVE
100
AcDbPolyline
 62
250
  6
CONTINUOUS
 90
84
 70
0
 10
-3.8143324494
 20
-9.4337549649
 10
-3.8631266612
 20
-9.4064256087
 10
-3.9120560611
 20
-9.3807795907
 10
-3.9609948319
 20
-9.3570002174
 10
-4.0098171562
 20
-9.3352707952
 10
-4.0583972166
 20
-9.3157746306
 10
-4.1066091958
 20
-9.2986950299
 10
-4.1543272765
 20
-9.2842152995
 10
-4.2014256413
 20
-9.2725187459
 10
-4.2477784729
 20
-9.2637886755
 10
-4.293259954
 20
-9.2582083946
 10
-4.3314905215
 20
-9.2560727083
 10
-4.3688354933
 20
-9.2565232923
 10
-4.4051437202
 20
-9.2596914834
 10
-4.4402640531
 20
-9.2657086181
 10
-4.4740453427
 20
-9.2747060333
 10
-4.5043324211
 20
-9.2859032506
 10
-4.533287506
 20
-9.2996904332
 10
-4.5608840518
 20
-9.3159316876
 10
-4.5870955129
 20
-9.3344911206
 10
-4.6118953436
 20
-9.3552328387
 10
-4.6418001655
 20
-9.3850079098
 10
-4.6694143444
 20
-9.4178972857
 10
-4.694842859
 20
-9.4536065223
 10
-4.7179815941
 20
-9.4915346069
 10
-4.7390587606
 20
-9.5318215009
 10
-4.7580583664
 20
-9.5743432104
 10
-4.7766131471
 20
-9.6236361362
 10
-4.7928303589
 20
-9.6752105312
 10
-4.8069162273
 20
-9.7287830877
 10
-4.8190769781
 20
-9.7840704978
 10
-4.8295188367
 20
-9.8407894537
 10
-4.8384480289
 20
-9.8986566477
 10
-4.8472175393
 20
-9.967392314
 10
-4.8543995744
 20
-10.0371894723
 10
-4.8601897785
 20
-10.1079290985
 10
-4.8652698118
 20
-10.1881947264
 10
-4.8691329458
 20
-10.2692765427
 10
-4.8720655241
 20
-10.3509559167
 10
-4.875569065
 20
-10.4900731154
 10
-4.8777597919
 20
-10.6299695708
 10
-4.8791567145
 20
-10.7839866645
 10
-4.8796172803
 20
-10.9476948476
 10
-4.8792975487
 20
-11.1046193483
 10
-4.8783383538
 20
-11.2496509382
 10
-4.8768527082
 20
-11.3765452868
 10
-4.8745015745
 20
-11.5039299053
 10
-4.871516339
 20
-11.6120807691
 10
-4.8668584664
 20
-11.7210974665
 10
-4.8608954991
 20
-11.8161326462
 10
-4.8528207261
 20
-11.9122116571
 10
-4.844398278
 20
-11.9921179657
 10
-4.8340810678
 20
-12.0728049584
 10
-4.8215624474
 20
-12.1542754269
 10
-4.8065357689
 20
-12.2365321625
 10
-4.7911413389
 20
-12.3091852527
 10
-4.7737708913
 20
-12.3823082869
 10
-4.7614251514
 20
-12.4301921016
 10
-4.7481297218
 20
-12.4782208721
 10
-4.7336978626
 20
-12.5263971283
 10
-4.7125826191
 20
-12.5904138273
 10
-4.6891417983
 20
-12.6544859266
 10
-4.6633718928
 20
-12.71840556
 10
-4.6352693951
 20
-12.7819648614
 10
-4.6048307975
 20
-12.8449559646
 10
-4.5780427243
 20
-12.8961992901
 10
-4.5497287264
 20
-12.946736315
 10
-4.5199466606
 20
-12.9963860903
 10
-4.4887543838
 20
-13.044967667
 10
-4.4562097527
 20
-13.0923000961
 10
-4.4223706241
 20
-13.1382024286
 10
-4.3845960162
 20
-13.1858307201
 10
-4.3455845723
 20
-13.2315849872
 10
-4.3055315578
 20
-13.2754568894
 10
-4.2609810658
 20
-13.3210431694
 10
-4.2155872215
 20
-13.3643744897
 10
-4.1695085947
 20
-13.4054342539
 10
-4.1167992046
 20
-13.4491293734
 10
-4.0635863548
 20
-13.4901647037
 10
-4.0100386467
 20
-13.5288028042
 10
-3.9481764374
 20
-13.5706259431
 10
-3.8861653173
 20
-13.609872295
 10
-3.8240766509
 20
-13.6467933181
 10
-3.7617229243
 20
-13.6816691311
  0
LINE
  5
241
100
AcDbEntity
  8
CURVE
100
AcDbLine
 62
250
  6
CONTINUOUS
 10
1.5298751415
 20
-12.9801728185
 11
0.4258565961
 21
-12.342726347
  0
LINE
  5
242
100
AcDbEntity
  8
CURVE
100
AcDbLine
 62
250
  6
CONTINUOUS
 10
-0.5597689396
 20
-11.7736385155
 11
-1.663787485
 21
-11.136192044
  0
LINE
  5
243
100
AcDbEntity
  8
CURVE
100
AcDbLine
 62
250
  6
CONTINUOUS
 10
-2.0774286885
 20
-10.515380077
 11
-0.5597689396
 21
-11.3916577953
  0
LINE
  5
244
100
AcDbEntity
  8
CURVE
100
AcDbLine
 62
250
  6
CONTINUOUS
 10
0.0122153926
 20
-11.72191438
 11
1.5298751415
 21
-12.5981920983
  0
LWPOLYLINE
  5
245
100
AcDbEntity
  8
CURVE
100
AcDbPolyline
 62
250
  6
CONTINUOUS
 90
29
 70
0
 10
-3.3229810878
 20
-9.8128096154
 10
-3.3376190363
 20
-9.7968559616
 10
-3.3524043603
 20
-9.7812212348
 10
-3.3673290887
 20
-9.7658985558
 10
-3.3823852501
 20
-9.7508810452
 10
-3.3975648732
 20
-9.7361618238
 10
-3.4128599868
 20
-9.7217340123
 10
-3.4282626195
 20
-9.7075907315
 10
-3.4437648
 20
-9.6937251021
 10
-3.459358557
 20
-9.6801302448
 10
-3.4750359193
 20
-9.6667992803
 10
-3.4907889156
 20
-9.6537253294
 10
-3.5066095744
 20
-9.6409015128
 10
-3.5224899246
 20
-9.6283209512
 10
-3.5384219949
 20
-9.6159767653
 10
-3.5543978139
 20
-9.603862076
 10
-3.5704094104
 20
-9.5919700038
 10
-3.586448813
 20
-9.5802936696
 10
-3.6025080505
 20
-9.5688261941
 10
-3.6185791515
 20
-9.5575606979
 10
-3.6346541448
 20
-9.5464903019
 10
-3.650725059
 20
-9.5356081267
 10
-3.6667839229
 20
-9.5249072931
 10
-3.6914172442
 20
-9.5088078002
 10
-3.7160163863
 20
-9.493099105
 10
-3.7405944136
 20
-9.4777603407
 10
-3.7651643904
 20
-9.4627706404
 10
-3.7897393809
 20
-9.4481091375
 10
-3.8143324494
 20
-9.4337549649
  0
LWPOLYLINE
  5
246
100
AcDbEntity
  8
CURVE
100
AcDbPolyline
 62
250
  6
CONTINUOUS
 90
31
 70
0
 10
-4.2377180053
 20
-12.8462422167
 10
-4.2467264732
 20
-12.8278045321
 10
-4.2554615478
 20
-12.8092779128
 10
-4.2639276172
 20
-12.790670098
 10
-4.2721290696
 20
-12.7719888268
 10
-4.2800702931
 20
-12.7532418382
 10
-4.2877556758
 20
-12.7344368714
 10
-4.2951896058
 20
-12.7155816654
 10
-4.3023764711
 20
-12.6966839593
 10
-4.3093206601
 20
-12.6777514923
 10
-4.3160265606
 20
-12.6587920033
 10
-4.322498561
 20
-12.6398132315
 10
-4.3287410492
 20
-12.6208229159
 10
-4.3347584134
 20
-12.6018287957
 10
-4.3405550417
 20
-12.58283861
 10
-4.3461353223
 20
-12.5638600977
 10
-4.3515036431
 20
-12.5449009981
 10
-4.3566643925
 20
-12.5259690501
 10
-4.3616219584
 20
-12.5070719929
 10
-4.366380729
 20
-12.4882175656
 10
-4.3709450924
 20
-12.4694135072
 10
-4.3753194367
 20
-12.4506675569
 10
-4.37950815
 20
-12.4319874537
 10
-4.3835156205
 20
-12.4133809367
 10
-4.3885245063
 20
-12.3889982243
 10
-4.3932397734
 20
-12.364744565
 10
-4.3976745132
 20
-12.3406079735
 10
-4.4018418171
 20
-12.3165764647
 10
-4.4057547766
 20
-12.2926380534
 10
-4.4094264829
 20
-12.2687807544
 10
-4.4128700276
 20
-12.2449925824
  0
LWPOLYLINE
  5
247
100
AcDbEntity
  8
ASSI
100
AcDbPolyline
 62
250
  6
CONTINUOUS
 90
9
 70
0
 10
-9.2555466458
 20
3.3620172538
 10
-9.2546150327
 20
3.3445357686
 10
-9.2487626455
 20
3.3147561376
 10
-9.2376452925
 20
3.2855936515
 10
-9.2213992063
 20
3.2572931363
 10
-9.2001795374
 20
3.2301053564
 10
-9.1741930725
 20
3.204306585
 10
-9.1437255878
 20
3.1801897943
 10
-9.1091000903
 20
3.1580139853
  0
LINE
  5
248
100
AcDbEntity
  8
ASSI
100
AcDbLine
 62
250
  6
CONTINUOUS
 10
-9.1091000903
 20
24.8368448975
 11
-9.1091000903
 21
4.3639035276
  0
LINE
  5
249
100
AcDbEntity
  8
ASSI
100
AcDbLine
 62
250
  6
CONTINUOUS
 10
-9.1091000903
 20
3.1580139853
 11
-9.1091000903
 21
-17.3149273847
  0
LINE
  5
24A
100
AcDbEntity
  8
CURVE
100
AcDbLine
 62
7
  6
CONTINUOUS
 10
-1.4647616748
 20
11.2435703803
 11
-1.0805969245
 21
11.6277351306
  0
LINE
  5
24B
100
AcDbEntity
  8
CURVE
100
AcDbLine
 62
7
  6
CONTINUOUS
 10
-0.7885150954
 20
11.9198169597
 11
-0.5309873507
 21
12.1773447044
  0
LINE
  5
24C
100
AcDbEntity
  8
CURVE
100
AcDbLine
 62
7
  6
CONTINUOUS
 10
-1.4647616748
 20
10.2479640324
 11
-1.0805969245
 21
10.6321287827
  0
LINE
  5
24D
100
AcDbEntity
  8
CURVE
100
AcDbLine
 62
7
  6
CONTINUOUS
 10
-0.5755048409
 20
11.1372208663
 11
-0.3179770962
 21
11.394748611
  0
LINE
  5
24E
100
AcDbEntity
  8
CURVE
100
AcDbLine
 62
7
  6
CONTINUOUS
 10
0.3547244824
 20
12.0674501896
 11
0.6760418756
 21
12.3887675828
  0
LINE
  5
24F
100
AcDbEntity
  8
CURVE
100
AcDbLine
 62
7
  6
CONTINUOUS
 10
-1.267386568
 20
9.4497327913
 11
-1.0805969245
 21
9.6365224348
  0
LINE
  5
250
100
AcDbEntity
  8
CURVE
100
AcDbLine
 62
7
  6
CONTINUOUS
 10
-0.3624945865
 20
10.3546247728
 11
-0.1049668418
 21
10.6121525176
  0
LINE
  5
251
100
AcDbEntity
  8
CURVE
100
AcDbLine
 62
7
  6
CONTINUOUS
 10
0.3547244824
 20
11.0718438417
 11
0.7391331845
 21
11.4562525438
  0
LINE
  5
252
100
AcDbEntity
  8
ASSI
100
AcDbLine
 62
7
  6
CONTINUOUS
 10
-9.0218037531
 20
3.785361846
 11
-8.7242108191
 21
3.9725883106
  0
LINE
  5
253
100
AcDbEntity
  8
ASSI
100
AcDbLine
 62
250
  6
CONTINUOUS
 10
-8.7617170572
 20
3.7667615571
 11
-8.5731733874
 21
3.8853811905
  0
LWPOLYLINE
  5
254
100
AcDbEntity
  8
CURVE
100
AcDbPolyline
 62
250
  6
CONTINUOUS
 90
30
 70
0
 10
-3.4055631957
 20
-10.2258673402
 10
-3.3898079555
 20
-10.2574970339
 10
-3.3747420547
 20
-10.2894002966
 10
-3.3603814581
 20
-10.3215241441
 10
-3.3467421305
 20
-10.353815592
 10
-3.3338400367
 20
-10.386221656
 10
-3.3216911416
 20
-10.4186893517
 10
-3.31031141
 20
-10.451165695
 10
-3.2997168067
 20
-10.4835977014
 10
-3.2890621344
 20
-10.5188636169
 10
-3.2792931672
 20
-10.5540080261
 10
-3.2703428999
 20
-10.5890251628
 10
-3.2621443273
 20
-10.6239092612
 10
-3.2546304441
 20
-10.6586545551
 10
-3.2477342451
 20
-10.6932552787
 10
-3.2413887253
 20
-10.727705666
 10
-3.2355268792
 20
-10.761999951
 10
-3.2272897806
 20
-10.8147192886
 10
-3.2199904163
 20
-10.8670668943
 10
-3.2135700693
 20
-10.9190581397
 10
-3.2079700225
 20
-10.9707083963
 10
-3.2031315589
 20
-11.0220330357
 10
-3.1989959615
 20
-11.0730474294
 10
-3.1955045133
 20
-11.1237669491
 10
-3.1925984972
 20
-11.1742069663
 10
-3.1902191962
 20
-11.2243828526
 10
-3.1883078934
 20
-11.2743099795
 10
-3.1868058716
 20
-11.3240037187
 10
-3.1852245548
 20
-11.3962342266
 10
-3.1842036118
 20
-11.4681193257
  0
LINE
  5
255
100
AcDbEntity
  8
CURVE
100
AcDbLine
 62
7
  6
CONTINUOUS
 10
-0.149484332
 20
9.5720286794
 11
0.1080434127
 21
9.8295564241
  0
LINE
  5
256
100
AcDbEntity
  8
CURVE
100
AcDbLine
 62
7
  6
CONTINUOUS
 10
0.3547244824
 20
10.0762374938
 11
0.7391331845
 21
10.4606461959
  0
LINE
  5
257
100
AcDbEntity
  8
CURVE
100
AcDbLine
 62
7
  6
CONTINUOUS
 10
0.0635259225
 20
8.789432586
 11
0.3210536672
 21
9.0469603307
  0
LINE
  5
258
100
AcDbEntity
  8
CURVE
100
AcDbLine
 62
7
  6
CONTINUOUS
 10
0.3547244824
 20
9.0806311458
 11
0.7391331845
 21
9.4650398479
  0
LWPOLYLINE
  5
259
100
AcDbEntity
  8
CURVE
100
AcDbPolyline
 62
250
  6
CONTINUOUS
 90
10
 70
0
 10
-4.4128700276
 20
-12.2449925824
 10
-4.422044557
 20
-12.1779145164
 10
-4.429949131
 20
-12.1113196011
 10
-4.4365537905
 20
-12.0452705618
 10
-4.4418285765
 20
-11.9798301236
 10
-4.445939224
 20
-11.9119690155
 10
-4.448786159
 20
-11.8447461027
 10
-4.4505979658
 20
-11.7780628587
 10
-4.4516032286
 20
-11.711820757
 10
-4.4520680646
 20
-11.6211127584
  0
LWPOLYLINE
  5
25A
100
AcDbEntity
  8
CURVE
100
AcDbPolyline
 62
250
  6
CONTINUOUS
 90
39
 70
0
 10
-4.2643332054
 20
12.7637789331
 10
-4.2620785091
 20
12.6364323551
 10
-4.2590648473
 20
12.5281394496
 10
-4.2543135985
 20
12.4189483451
 10
-4.2482722924
 20
12.3238530163
 10
-4.2401540557
 20
12.227728667
 10
-4.2317386344
 20
12.1478197335
 10
-4.2214439428
 20
12.0671371689
 10
-4.2089330684
 20
11.9856702269
 10
-4.1938690985
 20
11.9034081615
 10
-4.1784170322
 20
11.8308041622
 10
-4.1610433196
 20
11.7577375144
 10
-4.148779033
 20
11.7099551941
 10
-4.1355977746
 20
11.6620337935
 10
-4.1212747972
 20
11.6139651321
 10
-4.1001938255
 20
11.5499244987
 10
-4.0767225356
 20
11.4858219722
 10
-4.0508806647
 20
11.4218698133
 10
-4.0226879495
 20
11.3582802828
 10
-3.9921641271
 20
11.2952656413
 10
-3.9653376855
 20
11.2440358987
 10
-3.9370037349
 20
11.1935141046
 10
-3.9072178309
 20
11.1438758972
 10
-3.8760355289
 20
11.0952969147
 10
-3.8435123847
 20
11.0479527953
 10
-3.8097039536
 20
11.0020191773
 10
-3.7719640509
 20
10.9543276898
 10
-3.7329860297
 20
10.9085021878
 10
-3.6929562392
 20
10.8645713403
 10
-3.6483878234
 20
10.8189284038
 10
-3.6029607245
 20
10.7755712159
 10
-3.5568419243
 20
10.7345060702
 10
-3.5041297191
 20
10.6908523702
 10
-3.4509169097
 20
10.6498646356
 10
-3.3973719763
 20
10.6112781608
 10
-3.3355099548
 20
10.5695117939
 10
-3.273499737
 20
10.5303155519
 10
-3.2114099804
 20
10.4934282878
 10
-3.1490280527
 20
10.4585556084
  0
LINE
  5
25B
100
AcDbEntity
  8
CURVE
100
AcDbLine
 62
250
  6
CONTINUOUS
 10
-3.8393947142
 20
12.5188469785
 11
-3.838115855
 21
13.3171027717
  0
LINE
  5
25C
100
AcDbEntity
  8
CURVE
100
AcDbLine
 62
250
  6
CONTINUOUS
 10
-4.4520680646
 20
-11.6211127584
 11
-4.4507823185
 21
-10.8231424877
  0
LWPOLYLINE
  5
25D
100
AcDbEntity
  8
CURVE
100
AcDbPolyline
 62
250
  6
CONTINUOUS
 90
25
 70
0
 10
-4.4507823185
 20
-10.8231424877
 10
-4.4502754754
 20
-10.7356887684
 10
-4.4491671782
 20
-10.6485756646
 10
-4.44776722
 20
-10.5849153305
 10
-4.4456862943
 20
-10.5216746298
 10
-4.4427498943
 20
-10.4589873424
 10
-4.4387835135
 20
-10.3969872483
 10
-4.4340005602
 20
-10.3396974684
 10
-4.428117537
 20
-10.2831632658
 10
-4.4210891306
 20
-10.2274213005
 10
-4.4128700276
 20
-10.1725082325
 10
-4.4065620582
 20
-10.1357012492
 10
-4.3995541791
 20
-10.0994426716
 10
-4.3917174225
 20
-10.0638810841
 10
-4.3829228207
 20
-10.0291650709
 10
-4.373041406
 20
-9.9954432164
 10
-4.3619442107
 20
-9.962864105
 10
-4.3495022671
 20
-9.931576321
 10
-4.3369940779
 20
-9.9044901489
 10
-4.3232988071
 20
-9.8786542327
 10
-4.3084365054
 20
-9.8541393854
 10
-4.2924272237
 20
-9.83101642
 10
-4.2752910126
 20
-9.8093561495
 10
-4.2570479229
 20
-9.7892293869
 10
-4.2377180053
 20
-9.7707069451
  0
LWPOLYLINE
  5
25E
100
AcDbEntity
  8
CURVE
100
AcDbPolyline
 62
250
  6
CONTINUOUS
 90
25
 70
0
 10
-3.838115855
 20
13.3171027717
 10
-3.8376090425
 20
13.4045448307
 10
-3.8365005078
 20
13.4916459413
 10
-3.8351007872
 20
13.5552710385
 10
-3.833020093
 20
13.6184765165
 10
-3.8300836901
 20
13.6811286508
 10
-3.8261168431
 20
13.7430937167
 10
-3.8213331438
 20
13.8003489053
 10
-3.8154494591
 20
13.8568483714
 10
-3.8084210948
 20
13.9125551039
 10
-3.8002033572
 20
13.9674320916
 10
-3.7938910241
 20
14.004249382
 10
-3.7868786555
 20
14.0405177185
 10
-3.7790373618
 20
14.0760892956
 10
-3.7702382535
 20
14.1108163079
 10
-3.7603524412
 20
14.1445509501
 10
-3.7492510352
 20
14.1771454166
 10
-3.736805146
 20
14.208451902
 10
-3.7242964972
 20
14.2355501578
 10
-3.7105975972
 20
14.2613950711
 10
-3.6957244004
 20
14.285908734
 10
-3.679692861
 20
14.3090132386
 10
-3.6625189333
 20
14.3306306771
 10
-3.6442185715
 20
14.3506831417
 10
-3.6248077298
 20
14.3690927245
  0
LINE
  5
25F
100
AcDbEntity
  8
CURVE
100
AcDbLine
 62
7
  6
CONTINUOUS
 10
0.6261361752
 20
8.3564364908
 11
0.7391331845
 21
8.4694335
  0
LWPOLYLINE
  5
260
100
AcDbEntity
  8
CURVE
100
AcDbPolyline
 62
250
  6
CONTINUOUS
 90
42
 70
0
 10
-2.1369100161
 20
12.2089006368
 10
-2.1382025634
 20
12.3298021967
 10
-2.1403896565
 20
12.4512262989
 10
-2.1436890991
 20
12.5733070292
 10
-2.1458558598
 20
12.6351207054
 10
-2.1484706512
 20
12.697175229
 10
-2.151643734
 20
12.7595106591
 10
-2.1554853689
 20
12.8221670548
 10
-2.1601058167
 20
12.8851844751
 10
-2.1656153381
 20
12.9486029791
 10
-2.1721241939
 20
13.0124626258
 10
-2.1797426447
 20
13.0768034744
 10
-2.1868432257
 20
13.129569072
 10
-2.1948217129
 20
13.1826732021
 10
-2.2037473158
 20
13.2361088304
 10
-2.2136892444
 20
13.2898689225
 10
-2.2247167082
 20
13.343946444
 10
-2.2368989169
 20
13.3983343605
 10
-2.2503050803
 20
13.4530256377
 10
-2.265004408
 20
13.5080132411
 10
-2.2762211842
 20
13.5470735312
 10
-2.2881529544
 20
13.5862320448
 10
-2.3008331602
 20
13.6254422816
 10
-2.314295243
 20
13.6646577417
 10
-2.3285726441
 20
13.7038319247
 10
-2.3436988051
 20
13.7429183306
 10
-2.3597071674
 20
13.7818704592
 10
-2.3766311724
 20
13.8206418104
 10
-2.3945042615
 20
13.8591858841
 10
-2.4133598761
 20
13.89745618
 10
-2.4337381693
 20
13.9363743974
 10
-2.4551218443
 20
13.9749028748
 10
-2.4774475366
 20
14.0129887883
 10
-2.5006518818
 20
14.0505793142
 10
-2.5246715156
 20
14.0876216287
 10
-2.5494430734
 20
14.1240629079
 10
-2.5749031908
 20
14.159850328
 10
-2.6009885035
 20
14.1949310652
 10
-2.6276356469
 20
14.2292522957
 10
-2.6547812566
 20
14.2627611956
 10
-2.6823619683
 20
14.2954049412
 10
-2.7103144174
 20
14.3271307087
  0
LWPOLYLINE
  5
261
100
AcDbEntity
  8
CURVE
100
AcDbPolyline
 62
250
  6
CONTINUOUS
 90
42
 70
0
 10
-2.7494593501
 20
-11.9314385085
 10
-2.7506639966
 20
-11.8104714674
 10
-2.7527959402
 20
-11.6889676098
 10
-2.7561121645
 20
-11.5667739494
 10
-2.758322958
 20
-11.5049370869
 10
-2.7610017945
 20
-11.4428496567
 10
-2.7642513383
 20
-11.3804747489
 10
-2.7681742539
 20
-11.3177754535
 10
-2.7728732055
 20
-11.2547148604
 10
-2.7784508575
 20
-11.1912560597
 10
-2.7850098743
 20
-11.1273621413
 10
-2.7926529202
 20
-11.0629961952
 10
-2.799748821
 20
-11.0102333357
 10
-2.8077052254
 20
-10.9571389289
 10
-2.8165963628
 20
-10.9037186371
 10
-2.8264964628
 20
-10.8499781225
 10
-2.8374797548
 20
-10.7959230475
 10
-2.8496204685
 20
-10.7415590744
 10
-2.8629928332
 20
-10.6868918654
 10
-2.8776710785
 20
-10.631927083
 10
-2.8888767394
 20
-10.5929020296
 10
-2.9008039942
 20
-10.5537774804
 10
-2.9134847355
 20
-10.5145998203
 10
-2.9269508562
 20
-10.4754154342
 10
-2.9412342492
 20
-10.436270707
 10
-2.9563668072
 20
-10.3972120236
 10
-2.9723804232
 20
-10.3582857688
 10
-2.9893069898
 20
-10.3195383277
 10
-3.0071784
 20
-10.2810160851
 10
-3.0260265466
 20
-10.2427654259
 10
-3.046412918
 20
-10.2038225209
 10
-3.0678001871
 20
-10.1652681046
 10
-3.0901258942
 20
-10.1271554441
 10
-3.1133275794
 20
-10.0895378068
 10
-3.1373427827
 20
-10.0524684599
 10
-3.1621090444
 20
-10.0160006707
 10
-3.1875639046
 20
-9.9801877066
 10
-3.2136449034
 20
-9.9450828347
 10
-3.240289581
 20
-9.9107393223
 10
-3.2674354775
 20
-9.8772104368
 10
-3.2950201331
 20
-9.8445494454
 10
-3.3229810878
 20
-9.8128096154
  0
LINE
  5
262
100
AcDbEntity
  8
CURVE
100
AcDbLine
 62
250
  6
CONTINUOUS
 10
-3.1842036118
 20
-11.4681193257
 11
-3.1822971327
 21
-11.7530059184
  0
LINE
  5
263
100
AcDbEntity
  8
CURVE
100
AcDbLine
 62
250
  6
CONTINUOUS
 10
-2.5714236453
 20
12.6719807958
 11
-2.5690234954
 21
12.2456374573
  0
LINE
  5
264
100
AcDbEntity
  8
CURVE
100
AcDbLine
 62
250
  6
CONTINUOUS
 10
-2.136137343
 20
11.9681288012
 11
-2.1369100161
 21
12.2089006368
  0
LINE
  5
265
100
AcDbEntity
  8
CURVE
100
AcDbLine
 62
250
  6
CONTINUOUS
 10
-2.7488040134
 20
-12.1723740865
 11
-2.7494593501
 21
-11.9314385085
  0
LINE
  5
266
100
AcDbEntity
  8
CURVE
100
AcDbLine
 62
250
  6
CONTINUOUS
 10
-2.0774286885
 20
-14.5768085937
 11
-2.0774286885
 21
-10.515380077
  0
LINE
  5
267
100
AcDbEntity
  8
CURVE
100
AcDbLine
 62
250
  6
CONTINUOUS
 10
-3.1822971327
 20
-11.7530059184
 11
-3.1820364387
 21
-11.9959924163
  0
LINE
  5
268
100
AcDbEntity
  8
CURVE
100
AcDbLine
 62
250
  6
CONTINUOUS
 10
-2.5690234954
 20
12.2456374573
 11
-2.5698782243
 21
11.9412181925
  0
LINE
  5
269
100
AcDbEntity
  8
CURVE
100
AcDbLine
 62
250
  6
CONTINUOUS
 10
-3.1820364387
 20
-11.9959924163
 11
-3.1841262162
 21
-12.4436460988
  0
LINE
  5
26A
100
AcDbEntity
  8
CURVE
100
AcDbLine
 62
250
  6
CONTINUOUS
 10
-2.5698782243
 20
11.9412181925
 11
-2.5714595458
 21
11.6962942253
  0
LWPOLYLINE
  5
26B
100
AcDbEntity
  8
CURVE
100
AcDbPolyline
 62
250
  6
CONTINUOUS
 90
34
 70
0
 10
-3.1841262162
 20
-12.4436460988
 10
-3.1848594072
 20
-12.4905409233
 10
-3.186232203
 20
-12.5370553354
 10
-3.1882498748
 20
-12.583172265
 10
-3.1909176937
 20
-12.6288746424
 10
-3.194240931
 20
-12.6741453974
 10
-3.1982248578
 20
-12.7189674603
 10
-3.2019758986
 20
-12.7552154019
 10
-3.2062016376
 20
-12.791121668
 10
-3.2109328196
 20
-12.8266550766
 10
-3.2162001898
 20
-12.8617844456
 10
-3.2220344931
 20
-12.8964785931
 10
-3.2284664746
 20
-12.930706337
 10
-3.2355268792
 20
-12.9644364954
 10
-3.2408148195
 20
-12.987534014
 10
-3.2464431964
 20
-13.0103456462
 10
-3.2524349342
 20
-13.0328402057
 10
-3.2588129572
 20
-13.0549865061
 10
-3.2656001897
 20
-13.0767533611
 10
-3.2728195561
 20
-13.0981095844
 10
-3.2804939807
 20
-13.1190239896
 10
-3.2886463877
 20
-13.1394653903
 10
-3.2972997015
 20
-13.1594026004
 10
-3.3064768465
 20
-13.1788044333
 10
-3.3151177421
 20
-13.1956265448
 10
-3.3241958997
 20
-13.2119724157
 10
-3.3337138924
 20
-13.227816243
 10
-3.3436742931
 20
-13.2431322234
 10
-3.3540796746
 20
-13.2578945536
 10
-3.3649326099
 20
-13.2720774304
 10
-3.3762356719
 20
-13.2856550507
 10
-3.3879914334
 20
-13.2986016111
 10
-3.4002024674
 20
-13.3108913085
 10
-3.4128713468
 20
-13.3224983396
  0
LWPOLYLINE
  5
26C
100
AcDbEntity
  8
CURVE
100
AcDbPolyline
 62
250
  6
CONTINUOUS
 90
33
 70
0
 10
-2.5714595458
 20
11.6962942253
 10
-2.5722449196
 20
11.6494540582
 10
-2.573654193
 20
11.6029864894
 10
-2.5756918063
 20
11.5569068424
 10
-2.5783621998
 20
11.5112304408
 10
-2.5816698138
 20
11.4659726083
 10
-2.5856190886
 20
11.4211486683
 10
-2.5893271146
 20
11.3848964943
 10
-2.5935013746
 20
11.3489789132
 10
-2.5981775948
 20
11.313431198
 10
-2.6033915015
 20
11.2782886217
 10
-2.609178821
 20
11.2435864573
 10
-2.6155752797
 20
11.2093599778
 10
-2.6226166037
 20
11.175644456
 10
-2.6285217364
 20
11.149977739
 10
-2.6348622788
 20
11.1246782029
 10
-2.641667564
 20
11.0997871186
 10
-2.6489669252
 20
11.0753457572
 10
-2.6567896954
 20
11.0513953896
 10
-2.6651652076
 20
11.0279772868
 10
-2.6741227951
 20
11.0051327198
 10
-2.6836917908
 20
10.9829029596
 10
-2.693901528
 20
10.9613292771
 10
-2.7025752347
 20
10.9445207459
 10
-2.7116827911
 20
10.9281862852
 10
-2.7212265844
 20
10.9123509409
 10
-2.7312090016
 20
10.8970397587
 10
-2.7416324297
 20
10.8822777846
 10
-2.7524992558
 20
10.8680900644
 10
-2.763811867
 20
10.8545016439
 10
-2.7755726503
 20
10.8415375689
 10
-2.7877839928
 20
10.8292228853
 10
-2.8004482814
 20
10.817582639
  0
LWPOLYLINE
  5
26D
100
AcDbEntity
  8
ASSI
100
AcDbPolyline
 62
250
  6
CONTINUOUS
 90
16
 70
0
 10
5.7591140781
 20
-5.426706533
 10
5.7964838552
 20
-5.4462112535
 10
5.8372801466
 20
-5.4635286144
 10
5.8811311921
 20
-5.4784443751
 10
5.9276531269
 20
-5.4907715839
 10
5.9763643225
 20
-5.5003288888
 10
6.0266783327
 20
-5.5069616478
 10
6.0781175585
 20
-5.5105729199
 10
6.1300899509
 20
-5.5110876548
 10
6.1817967987
 20
-5.5084903999
 10
6.2325757237
 20
-5.5028383766
 10
6.2819985686
 20
-5.4942034875
 10
6.3296276047
 20
-5.4826682233
 10
6.3749789453
 20
-5.4683442269
 10
6.4175371607
 20
-5.4513884584
 10
6.4568447565
 20
-5.4319802717
  0
LINE
  5
26E
100
AcDbEntity
  8
ASSI
100
AcDbLine
 62
250
  6
CONTINUOUS
 10
5.7591140781
 20
-5.426706533
 11
-9.1091000903
 21
3.1580139853
  0
LWPOLYLINE
  5
26F
100
AcDbEntity
  8
CURVE
100
AcDbPolyline
 62
250
  6
CONTINUOUS
 90
10
 70
0
 10
-3.8002033572
 20
11.8949477417
 10
-3.809451611
 20
11.962110238
 10
-3.8173876235
 20
12.0287750205
 10
-3.8239939781
 20
12.0948827049
 10
-3.8292532579
 20
12.1603739072
 10
-3.8333352242
 20
12.2281677191
 10
-3.8361558151
 20
12.2953229035
 10
-3.8379459525
 20
12.3619400048
 10
-3.8389365582
 20
12.428119567
 10
-3.8393947142
 20
12.5188469785
  0
LINE
  5
270
100
AcDbEntity
  8
CURVE
100
AcDbLine
 62
250
  6
CONTINUOUS
 10
-1.663787485
 20
-11.136192044
 11
-1.663787485
 21
-12.5291001338
  0
LINE
  5
271
100
AcDbEntity
  8
CURVE
100
AcDbLine
 62
250
  6
CONTINUOUS
 10
-1.663787485
 20
-12.9113617198
 11
-1.663787485
 21
-14.8156398404
  0
LINE
  5
272
100
AcDbEntity
  8
CURVE
100
AcDbLine
 62
250
  6
CONTINUOUS
 10
-1.4647616748
 20
9.5636947043
 11
-1.4647616748
 21
13.6248407222
  0
LINE
  5
273
100
AcDbEntity
  8
CURVE
100
AcDbLine
 62
250
  6
CONTINUOUS
 10
-1.0805969245
 20
12.9929206889
 11
-1.0805969245
 21
9.3418827922
  0
LINE
  5
274
100
AcDbEntity
  8
CURVE
100
AcDbLine
 62
250
  6
CONTINUOUS
 10
-0.6228626634
 20
-13.1301170799
 11
-0.6228626634
 21
-13.5123786659
  0
LINE
  5
275
100
AcDbEntity
  8
CURVE
100
AcDbLine
 62
250
  6
CONTINUOUS
 10
-0.5597689396
 20
-11.3916577953
 11
-0.5597689396
 21
-11.7736385155
  0
LINE
  5
276
100
AcDbEntity
  8
CURVE
100
AcDbLine
 62
250
  6
CONTINUOUS
 10
0.0122153926
 20
-15.7833428967
 11
0.0122153926
 21
-11.72191438
  0
LWPOLYLINE
  5
277
100
AcDbEntity
  8
ASSI
100
AcDbPolyline
 62
250
  6
CONTINUOUS
 90
9
 70
0
 10
-8.7617170572
 20
3.7667615571
 10
-8.7995831327
 20
3.7852932923
 10
-8.8369670162
 20
3.799191689
 10
-8.8734593601
 20
3.8083045618
 10
-8.9086605788
 20
3.8125321262
 10
-8.9421852246
 20
3.8118280911
 10
-8.9736662078
 20
3.8062001656
 10
-9.0027588166
 20
3.7957099745
 10
-9.0218037531
 20
3.785361846
  0
LINE
  5
278
100
AcDbEntity
  8
ASSI
100
AcDbLine
 62
250
  6
CONTINUOUS
 10
6.1064971112
 20
-4.8179589612
 11
-8.7617170572
 21
3.7667615571
  0
LINE
  5
279
100
AcDbEntity
  8
ASSI
100
AcDbLine
 62
7
  6
CONTINUOUS
 10
-9.0055587798
 20
4.135035097
 11
5.8626553886
 21
-4.4496854213
  0
LINE
  5
27A
100
AcDbEntity
  8
ASSI
100
AcDbLine
 62
250
  6
CONTINUOUS
 10
-9.1091000903
 20
4.3639035276
 11
5.7591140781
 21
-4.2208169908
  0
LWPOLYLINE
  5
27B
100
AcDbEntity
  8
ASSI
100
AcDbPolyline
 62
250
  6
CONTINUOUS
 90
9
 70
0
 10
-9.1091000903
 20
4.3639035276
 10
-9.1428810806
 20
4.3854803685
 10
-9.1728736972
 20
4.4090356359
 10
-9.1987068882
 20
4.43435468
 10
-9.2200568647
 20
4.4612158621
 10
-9.2366095359
 20
4.4893410959
 10
-9.2480970712
 20
4.5183917748
 10
-9.2543515751
 20
4.5480921391
 10
-9.2555466997
 20
4.5680408242
  0
LWPOLYLINE
  5
27C
100
AcDbEntity
  8
ASSI
100
AcDbPolyline
 62
250
  6
CONTINUOUS
 90
9
 70
0
 10
-9.0055587798
 20
4.135035097
 10
-9.0202061957
 20
4.1445471287
 10
-9.0430212307
 20
4.1644135817
 10
-9.0627561752
 20
4.1886046208
 10
-9.0791995832
 20
4.2168610559
 10
-9.0921752748
 20
4.2488801388
 10
-9.1015442245
 20
4.2843188073
 10
-9.1072060505
 20
4.3227973605
 10
-9.1091000903
 20
4.3639035276
  0
LINE
  5
27D
100
AcDbEntity
  8
CURVE
100
AcDbLine
 62
250
  6
CONTINUOUS
 10
0.3547244824
 20
8.9232543219
 11
0.3547244824
 21
12.5742922186
  0
LINE
  5
27E
100
AcDbEntity
  8
CURVE
100
AcDbLine
 62
250
  6
CONTINUOUS
 10
0.4258565961
 20
-12.342726347
 11
0.4258565961
 21
-13.7356344368
  0
LINE
  5
27F
100
AcDbEntity
  8
CURVE
100
AcDbLine
 62
250
  6
CONTINUOUS
 10
0.4258565961
 20
-14.1178960228
 11
0.4258565961
 21
-16.0221741435
  0
LINE
  5
280
100
AcDbEntity
  8
CURVE
100
AcDbLine
 62
250
  6
CONTINUOUS
 10
0.7391331845
 20
12.3523394518
 11
0.7391331845
 21
8.2911934339
  0
LINE
  5
281
100
AcDbEntity
  8
CURVE
100
AcDbLine
 62
250
  6
CONTINUOUS
 10
1.4667814176
 20
-14.3366513829
 11
1.4667814176
 21
-14.7189129689
  0
LINE
  5
282
100
AcDbEntity
  8
CURVE
100
AcDbLine
 62
250
  6
CONTINUOUS
 10
1.5298751415
 20
-12.5981920983
 11
1.5298751415
 21
-12.9801728185
  0
LINE
  5
283
100
AcDbEntity
  8
ASSI
100
AcDbLine
 62
7
  6
CONTINUOUS
 10
8.5012272017
 20
-3.4517539629
 11
8.507385024
 21
-3.4553094124
  0
LWPOLYLINE
  5
284
100
AcDbEntity
  8
CURVE
100
AcDbPolyline
 62
250
  6
CONTINUOUS
 90
31
 70
0
 10
-3.6248077298
 20
11.2935574529
 10
-3.6338389964
 20
11.3119971854
 10
-3.6425959112
 20
11.3305270289
 10
-3.651082858
 20
11.3491391612
 10
-3.6593042204
 20
11.3678257603
 10
-3.6672643821
 20
11.3865790043
 10
-3.6749677269
 20
11.4053910709
 10
-3.6824186384
 20
11.4242541383
 10
-3.6896215004
 20
11.4431603843
 10
-3.6965806966
 20
11.4621019869
 10
-3.7033006105
 20
11.4810711241
 10
-3.7097856261
 20
11.5000599738
 10
-3.7160401269
 20
11.519060714
 10
-3.7220684966
 20
11.5380655226
 10
-3.727875119
 20
11.5570665777
 10
-3.7334643778
 20
11.5760560571
 10
-3.7388406566
 20
11.5950261388
 10
-3.7440083392
 20
11.6139690008
 10
-3.7489718092
 20
11.6328768211
 10
-3.7537354504
 20
11.6517417775
 10
-3.7583036464
 20
11.6705560481
 10
-3.762680781
 20
11.6893118108
 10
-3.7668712379
 20
11.7080012436
 10
-3.7708794007
 20
11.7266165245
 10
-3.7758840552
 20
11.7509917206
 10
-3.7805942194
 20
11.7752372122
 10
-3.7850234838
 20
11.799365246
 10
-3.7891854392
 20
11.823388069
 10
-3.7930936762
 20
11.8473179281
 10
-3.7967617853
 20
11.87116707
 10
-3.8002033572
 20
11.8949477417
  0
LINE
  5
285
100
AcDbEntity
  8
CURVE
100
AcDbLine
 62
7
  6
CONTINUOUS
 10
-4.7639845964
 20
-9.5930760451
 11
-4.4387287416
 21
-9.2678201903
  0
LWPOLYLINE
  5
286
100
AcDbEntity
  8
CURVE
100
AcDbPolyline
 62
250
  6
CONTINUOUS
 90
30
 70
0
 10
-2.7931401303
 20
13.9142136383
 10
-2.777315559
 20
13.8826055543
 10
-2.7621982098
 20
13.8507150238
 10
-2.7478006605
 20
13.8185963826
 10
-2.7341354889
 20
13.7863039664
 10
-2.7212152729
 20
13.7538921107
 10
-2.7090525902
 20
13.7214151513
 10
-2.6976600187
 20
13.6889274237
 10
-2.6870501363
 20
13.6564832636
 10
-2.6763763894
 20
13.6212161562
 10
-2.6665822274
 20
13.5860710787
 10
-2.6576020801
 20
13.5510537052
 10
-2.6493703772
 20
13.5161697102
 10
-2.6418215484
 20
13.4814247679
 10
-2.6348900234
 20
13.4468245527
 10
-2.628510232
 20
13.4123747387
 10
-2.6226166037
 20
13.3780810004
 10
-2.6143360767
 20
13.3253516348
 10
-2.6070028031
 20
13.2729944089
 10
-2.6005577879
 20
13.2209944839
 10
-2.5949420364
 20
13.1693370207
 10
-2.5900965538
 20
13.1180071803
 10
-2.5859623453
 20
13.0669901237
 10
-2.5824804161
 20
13.0162710119
 10
-2.5795917713
 20
12.9658350059
 10
-2.5772374163
 20
12.9156672667
 10
-2.5753583562
 20
12.8657529553
 10
-2.5738955961
 20
12.8160772326
 10
-2.5723805688
 20
12.7438555598
 10
-2.5714236453
 20
12.6719807958
  0
LINE
  5
287
100
AcDbEntity
  8
CURVE
100
AcDbLine
 62
250
  6
CONTINUOUS
 10
0.0984520143
 20
8.6611147119
 11
-1.0805969245
 21
12.9929206889
  0
LINE
  5
288
100
AcDbEntity
  8
CURVE
100
AcDbLine
 62
250
  6
CONTINUOUS
 10
-0.8243244565
 20
13.2550602989
 11
0.3547244824
 21
8.9232543219
  0
LWPOLYLINE
  5
289
100
AcDbEntity
  8
ASSI
100
AcDbPolyline
 62
250
  6
CONTINUOUS
 90
9
 70
0
 10
5.7591140781
 20
-4.2208169908
 10
5.7610263488
 20
-4.2621146926
 10
5.766740806
 20
-4.3007492528
 10
5.7761931801
 20
-4.3363048109
 10
5.7892701615
 20
-4.3683814725
 10
5.8058327577
 20
-4.3966573064
 10
5.8257379143
 20
-4.4208687719
 10
5.8488376536
 20
-4.4407720574
 10
5.8625448978
 20
-4.4496215689
  0
LWPOLYLINE
  5
28A
100
AcDbEntity
  8
ASSI
100
AcDbPolyline
 62
250
  6
CONTINUOUS
 90
16
 70
0
 10
5.7591140781
 20
16.2521243792
 10
5.760986915
 20
16.2951692572
 10
5.7665855844
 20
16.3399208073
 10
5.7758507719
 20
16.3859049152
 10
5.7886843187
 20
16.4326344084
 10
5.8049502615
 20
16.4796142176
 10
5.824476273
 20
16.5263466214
 10
5.8470554874
 20
16.5723365196
 10
5.8724486923
 20
16.6170966784
 10
5.9003868628
 20
16.6601528923
 10
5.9305740117
 20
16.7010490082
 10
5.9626903254
 20
16.7393517575
 10
5.9963955516
 20
16.7746553468
 10
6.0313326049
 20
16.8065857569
 10
6.0671313493
 20
16.8348047055
 10
6.1034125198
 20
16.8590132308
  0
LINE
  5
28B
100
AcDbEntity
  8
CURVE
100
AcDbLine
 62
7
  6
CONTINUOUS
 10
-4.8784232701
 20
-10.7031210667
 11
-4.4232674962
 21
-10.2479652929
  0
LINE
  5
28C
100
AcDbEntity
  8
CURVE
100
AcDbLine
 62
7
  6
CONTINUOUS
 10
-3.9326831509
 20
-9.7573809475
 11
-3.6871808321
 21
-9.5118786288
  0
LINE
  5
28D
100
AcDbEntity
  8
CURVE
100
AcDbLine
 62
7
  6
CONTINUOUS
 10
-4.8680121829
 20
-11.6883163274
 11
-4.4516032286
 21
-11.2719073732
  0
LINE
  5
28E
100
AcDbEntity
  8
CURVE
100
AcDbLine
 62
7
  6
CONTINUOUS
 10
-3.4055631957
 20
-10.2258673402
 11
-3.1764235907
 21
-9.9967277352
  0
LINE
  5
28F
100
AcDbEntity
  8
CURVE
100
AcDbLine
 62
7
  6
CONTINUOUS
 10
-4.7275913774
 20
-12.5435018699
 11
-4.4147067351
 21
-12.2306172276
  0
LINE
  5
290
100
AcDbEntity
  8
CURVE
100
AcDbLine
 62
7
  6
CONTINUOUS
 10
-3.2037636285
 20
-11.019674121
 11
-2.8653944584
 21
-10.6813049508
  0
LWPOLYLINE
  5
291
100
AcDbEntity
  8
CURVE
100
AcDbPolyline
 62
250
  6
CONTINUOUS
 90
56
 70
0
 10
-4.2377180053
 20
-9.7707069451
 10
-4.2278532562
 20
-9.7625778127
 10
-4.2174907645
 20
-9.7551697072
 10
-4.206656204
 20
-9.7484804056
 10
-4.1953752484
 20
-9.7425076846
 10
-4.1836735717
 20
-9.737249321
 10
-4.1715768475
 20
-9.7327030915
 10
-4.1591107498
 20
-9.7288667731
 10
-4.1463009523
 20
-9.7257381424
 10
-4.1331731288
 20
-9.7233149763
 10
-4.1197529533
 20
-9.7215950515
 10
-4.1060660993
 20
-9.720576145
 10
-4.0921382409
 20
-9.7202560334
 10
-4.0779950517
 20
-9.7206324935
 10
-4.0636622057
 20
-9.7217033022
 10
-4.0476460107
 20
-9.7236825338
 10
-4.0314483704
 20
-9.7264616985
 10
-4.0150877204
 20
-9.7299970899
 10
-3.9985824962
 20
-9.7342450018
 10
-3.9819511334
 20
-9.7391617277
 10
-3.9652120676
 20
-9.7447035614
 10
-3.9483837342
 20
-9.7508267965
 10
-3.9293988437
 20
-9.7583468473
 10
-3.910337456
 20
-9.7665098341
 10
-3.8912124108
 20
-9.775280524
 10
-3.8720365479
 20
-9.7846236842
 10
-3.8528227068
 20
-9.7945040818
 10
-3.8335837274
 20
-9.804886484
 10
-3.8143324494
 20
-9.8157356581
 10
-3.792340211
 20
-9.8286680952
 10
-3.7703654341
 20
-9.8421828827
 10
-3.7484248738
 20
-9.856299149
 10
-3.7265352855
 20
-9.8710360225
 10
-3.7047134242
 20
-9.8864126314
 10
-3.6829760453
 20
-9.9024481043
 10
-3.6667081365
 20
-9.9149469104
 10
-3.6505104434
 20
-9.9278594221
 10
-3.6343960146
 20
-9.9412164957
 10
-3.6183778989
 20
-9.9550489874
 10
-3.6024691451
 20
-9.9693877537
 10
-3.5866828018
 20
-9.9842636508
 10
-3.5710319177
 20
-9.9997075351
 10
-3.5575693229
 20
-10.0135913327
 10
-3.544246817
 20
-10.0279059825
 10
-3.5310925854
 20
-10.0426310973
 10
-3.5181348137
 20
-10.0577462901
 10
-3.5054016874
 20
-10.0732311736
 10
-3.4929213919
 20
-10.0890653609
 10
-3.4807221127
 20
-10.1052284648
 10
-3.4688320353
 20
-10.1217000982
 10
-3.4572793452
 20
-10.138459874
 10
-3.4460922278
 20
-10.155487405
 10
-3.4352988687
 20
-10.1727623043
 10
-3.4249274533
 20
-10.1902641847
 10
-3.4150061672
 20
-10.207972659
 10
-3.4055631957
 20
-10.2258673402
  0
LWPOLYLINE
  5
292
100
AcDbEntity
  8
ASSI
100
AcDbPolyline
 62
250
  6
CONTINUOUS
 90
16
 70
0
 10
6.4568447565
 20
-5.4319802717
 10
6.4542771646
 20
-5.3883219768
 10
6.4479340162
 20
-5.3428432767
 10
6.4378884796
 20
-5.2960481304
 10
6.4242636533
 20
-5.2484827786
 10
6.4072077818
 20
-5.200644735
 10
6.3868725715
 20
-5.1529768397
 10
6.3634157702
 20
-5.1059096238
 10
6.3371253416
 20
-5.0600738769
 10
6.3084203033
 20
-5.0161854959
 10
6.2776693697
 20
-4.9747487291
 10
6.2452050501
 20
-4.9361565021
 10
6.2114644716
 20
-4.9008691106
 10
6.1768550011
 20
-4.8692382086
 10
6.1417392554
 20
-4.841523477
 10
6.1064971112
 20
-4.8179589612
  0
LINE
  5
293
100
AcDbEntity
  8
ASSI
100
AcDbLine
 62
250
  6
CONTINUOUS
 10
5.7591140781
 20
-25.899647903
 11
5.7591140781
 21
-5.426706533
  0
LINE
  5
294
100
AcDbEntity
  8
ASSI
100
AcDbLine
 62
250
  6
CONTINUOUS
 10
5.7591140781
 20
-4.2208169908
 11
5.7591140781
 21
16.2521243792
  0
LINE
  5
295
100
AcDbEntity
  8
ASSI
100
AcDbLine
 62
250
  6
CONTINUOUS
 10
6.4568447565
 20
-25.9049216417
 11
6.4568447565
 21
-5.4319802717
  0
LINE
  5
296
100
AcDbEntity
  8
ASSI
100
AcDbLine
 62
250
  6
CONTINUOUS
 10
6.4568447565
 20
-4.2260907295
 11
6.4568447565
 21
16.2468506405
  0
LINE
  5
297
100
AcDbEntity
  8
CURVE
100
AcDbLine
 62
7
  6
CONTINUOUS
 10
-4.3783720603
 20
-13.1898889007
 11
-4.1598509343
 21
-12.9713677746
  0
LINE
  5
298
100
AcDbEntity
  8
CURVE
100
AcDbLine
 62
7
  6
CONTINUOUS
 10
-3.1822609244
 20
-11.9937777647
 11
-2.7560952216
 21
-11.567612062
  0
LINE
  5
299
100
AcDbEntity
  8
CURVE
100
AcDbLine
 62
7
  6
CONTINUOUS
 10
-2.0774286885
 20
-10.8889455289
 11
-1.8406032669
 21
-10.6521201073
  0
LINE
  5
29A
100
AcDbEntity
  8
CURVE
100
AcDbLine
 62
7
  6
CONTINUOUS
 10
-3.8336169388
 20
-13.6407401271
 11
-3.5574090539
 21
-13.3645322422
  0
LINE
  5
29B
100
AcDbEntity
  8
CURVE
100
AcDbLine
 62
7
  6
CONTINUOUS
 10
-3.2648219614
 20
-13.0719451497
 11
-2.7526206578
 21
-12.5597438461
  0
LINE
  5
29C
100
AcDbEntity
  8
CURVE
100
AcDbLine
 62
7
  6
CONTINUOUS
 10
-2.0774286885
 20
-11.8845518768
 11
-1.663787485
 21
-11.4709106732
  0
LINE
  5
29D
100
AcDbEntity
  8
CURVE
100
AcDbLine
 62
7
  6
CONTINUOUS
 10
-1.4515893813
 20
-11.2587125696
 11
-1.2094290192
 21
-11.0165522075
  0
LWPOLYLINE
  5
29E
100
AcDbEntity
  8
ASSI
100
AcDbPolyline
 62
250
  6
CONTINUOUS
 90
16
 70
0
 10
6.1064971112
 20
-4.8179589612
 10
6.0699884898
 20
-4.8419617142
 10
6.0339371442
 20
-4.8700424131
 10
5.9987293394
 20
-4.9019001925
 10
5.9647423027
 20
-4.9371937185
 10
5.9323401817
 20
-4.9755448454
 10
5.9018701425
 20
-5.0165426675
 10
5.8736586507
 20
-5.0597479214
 10
5.8480079726
 20
-5.1046976929
 10
5.8251929377
 20
-5.1509103764
 10
5.8054579931
 20
-5.1978908348
 10
5.7890145852
 20
-5.2451357052
 10
5.7760388936
 20
-5.2921387916
 10
5.7666699438
 20
-5.3383964883
 10
5.7610081178
 20
-5.3834131764
 10
5.7591140781
 20
-5.426706533
  0
LWPOLYLINE
  5
29F
100
AcDbEntity
  8
ASSI
100
AcDbPolyline
 62
250
  6
CONTINUOUS
 90
9
 70
0
 10
6.3462203604
 20
-4.4587804143
 10
6.3642571471
 20
-4.4477080048
 10
6.3874313758
 20
-4.4280143446
 10
6.4075969828
 20
-4.4038166346
 10
6.4245331579
 20
-4.3753798359
 10
6.4380544527
 20
-4.343015327
 10
6.4480128111
 20
-4.3070774941
 10
6.4542991907
 20
-4.2679598509
 10
6.4568447565
 20
-4.2260907295
  0
LINE
  5
2A0
100
AcDbEntity
  8
ASSI
100
AcDbLine
 62
250
  6
CONTINUOUS
 10
8.507385024
 20
-3.4553094124
 11
6.1064971112
 21
-4.8179589612
  0
LINE
  5
2A1
100
AcDbEntity
  8
ASSI
100
AcDbLine
 62
250
  6
CONTINUOUS
 10
6.4568447565
 20
-4.2260907295
 11
8.8608980336
 21
-2.9560778814
  0
LINE
  5
2A2
100
AcDbEntity
  8
ASSI
100
AcDbLine
 62
7
  6
CONTINUOUS
 10
6.3462203604
 20
-4.4587804143
 11
8.7519158559
 21
-3.1879000153
  0
LWPOLYLINE
  5
2A3
100
AcDbEntity
  8
ASSI
100
AcDbPolyline
 62
250
  6
CONTINUOUS
 90
16
 70
0
 10
6.4568447565
 20
-4.2260907295
 10
6.4186082603
 20
-4.2450218248
 10
6.3770443193
 20
-4.2617158067
 10
6.3325337829
 20
-4.2759638303
 10
6.2854680574
 20
-4.2875845507
 10
6.2363369605
 20
-4.2964034276
 10
6.1857349653
 20
-4.3022742017
 10
6.134143508
 20
-4.3051070019
 10
6.0821584701
 20
-4.3048354948
 10
6.0305819593
 20
-4.3014563997
 10
5.9800743057
 20
-4.2950373794
 10
5.9310595335
 20
-4.2856570929
 10
5.8839719513
 20
-4.273405122
 10
5.8392900471
 20
-4.2584008628
 10
5.7975212314
 20
-4.240809319
 10
5.7591140781
 20
-4.2208169908
  0
LINE
  5
2A4
100
AcDbEntity
  8
CURVE
100
AcDbLine
 62
250
  6
CONTINUOUS
 10
0.7391331845
 20
8.2911934339
 11
0.0984520143
 21
8.6611147119
  0
LINE
  5
2A5
100
AcDbEntity
  8
CURVE
100
AcDbLine
 62
250
  6
CONTINUOUS
 10
-1.0805969245
 20
9.3418827922
 11
-1.4647616748
 21
9.5636947043
  0
LINE
  5
2A6
100
AcDbEntity
  8
ASSI
100
AcDbLine
 62
7
  6
CONTINUOUS
 10
8.8608980336
 20
-21.7469950586
 11
8.8608980336
 21
-4.0675341866
  0
LINE
  5
2A7
100
AcDbEntity
  8
ASSI
100
AcDbLine
 62
7
  6
CONTINUOUS
 10
8.8608980336
 20
-2.9560778814
 11
8.8608980336
 21
14.7233829906
  0
LINE
  5
2A8
100
AcDbEntity
  8
CURVE
100
AcDbLine
 62
7
  6
CONTINUOUS
 10
-2.0774286885
 20
-12.8801582247
 11
-1.663787485
 21
-12.4665170212
  0
LINE
  5
2A9
100
AcDbEntity
  8
CURVE
100
AcDbLine
 62
7
  6
CONTINUOUS
 10
-0.8204151335
 20
-11.6231446697
 11
-0.5782547715
 21
-11.3809843076
  0
LINE
  5
2AA
100
AcDbEntity
  8
CURVE
100
AcDbLine
 62
7
  6
CONTINUOUS
 10
-2.0774286885
 20
-13.8757645726
 11
-1.663787485
 21
-13.4621233691
  0
LINE
  5
2AB
100
AcDbEntity
  8
CURVE
100
AcDbLine
 62
7
  6
CONTINUOUS
 10
-1.3146268248
 20
-13.1129627089
 11
-1.0722884052
 21
-12.8706242893
  0
LINE
  5
2AC
100
AcDbEntity
  8
CURVE
100
AcDbLine
 62
7
  6
CONTINUOUS
 10
0.0122153926
 20
-11.7861204915
 11
0.0529194763
 21
-11.7454164078
  0
LINE
  5
2AD
100
AcDbEntity
  8
CURVE
100
AcDbLine
 62
7
  6
CONTINUOUS
 10
-1.8906880601
 20
-14.6846302921
 11
-1.663787485
 21
-14.457729717
  0
LINE
  5
2AE
100
AcDbEntity
  8
CURVE
100
AcDbLine
 62
7
  6
CONTINUOUS
 10
-0.6834525771
 20
-13.4773948091
 11
-0.6228626634
 21
-13.4168048955
  0
LINE
  5
2AF
100
AcDbEntity
  8
CURVE
100
AcDbLine
 62
7
  6
CONTINUOUS
 10
0.0122153926
 20
-12.7817268394
 11
0.4258565961
 21
-12.3680856359
  0
LINE
  5
2B0
100
AcDbEntity
  8
CURVE
100
AcDbLine
 62
7
  6
CONTINUOUS
 10
0.4419333619
 20
-12.3520088701
 11
0.684093724
 21
-12.109848508
  0
LWPOLYLINE
  5
2B1
100
AcDbEntity
  8
CURVE
100
AcDbPolyline
 62
250
  6
CONTINUOUS
 90
57
 70
0
 10
-3.4128713468
 20
-13.3224983396
 10
-3.4220363282
 20
-13.3298855148
 10
-3.4316855022
 20
-13.3365542543
 10
-3.4417916238
 20
-13.3425126969
 10
-3.4523274481
 20
-13.3477689815
 10
-3.4632657302
 20
-13.3523312468
 10
-3.4745792252
 20
-13.3562076317
 10
-3.4862406881
 20
-13.3594062751
 10
-3.498222874
 20
-13.3619353158
 10
-3.510498538
 20
-13.3638028926
 10
-3.5230404351
 20
-13.3650171445
 10
-3.5358213204
 20
-13.3655862101
 10
-3.5488139491
 20
-13.3655182284
 10
-3.5619910761
 20
-13.3648213382
 10
-3.5753254565
 20
-13.3635036784
 10
-3.5906473977
 20
-13.3612671491
 10
-3.6061220534
 20
-13.3582836244
 10
-3.621734063
 20
-13.3545981197
 10
-3.6374680655
 20
-13.3502556505
 10
-3.6533087004
 20
-13.3453012324
 10
-3.6692406066
 20
-13.3397798809
 10
-3.6852484236
 20
-13.3337366113
 10
-3.7035433234
 20
-13.326274951
 10
-3.7219054595
 20
-13.3182295352
 10
-3.7403236252
 20
-13.3096344406
 10
-3.7587866137
 20
-13.3005237437
 10
-3.7772832184
 20
-13.2909315211
 10
-3.7958022325
 20
-13.2808918493
 10
-3.8143324494
 20
-13.2704388048
 10
-3.8373711629
 20
-13.2569028587
 10
-3.860392208
 20
-13.2427611517
 10
-3.8833779223
 20
-13.2279942734
 10
-3.9063106436
 20
-13.2125828137
 10
-3.9291727095
 20
-13.1965073623
 10
-3.9519464578
 20
-13.1797485089
 10
-3.9688664572
 20
-13.1667853373
 10
-3.9857143461
 20
-13.1533954871
 10
-4.0024769922
 20
-13.1395433967
 10
-4.0191412634
 20
-13.1251935042
 10
-4.0356940273
 20
-13.1103102479
 10
-4.0521221516
 20
-13.0948580661
 10
-4.0684125039
 20
-13.0788013971
 10
-4.0813227597
 20
-13.0655142754
 10
-4.0941111988
 20
-13.0518355119
 10
-4.10675242
 20
-13.0377824034
 10
-4.1192210219
 20
-13.0233722465
 10
-4.1314916033
 20
-13.0086223382
 10
-4.1435387629
 20
-12.9935499752
 10
-4.1553370994
 20
-12.9781724542
 10
-4.1668612116
 20
-12.9625070721
 10
-4.178085698
 20
-12.9465711257
 10
-4.1889851575
 20
-12.9303819118
 10
-4.1995341887
 20
-12.9139567271
 10
-4.2097073904
 20
-12.8973128685
 10
-4.2194793612
 20
-12.8804676327
 10
-4.2288247
 20
-12.8634383165
 10
-4.2377180053
 20
-12.8462422167
  0
LINE
  5
2B2
100
AcDbEntity
  8
ASSI
100
AcDbLine
 62
250
  6
CONTINUOUS
 10
8.8608980336
 20
-4.0675341866
 11
6.4568447565
 21
-5.4319802717
  0
LWPOLYLINE
  5
2B3
100
AcDbEntity
  8
CURVE
100
AcDbPolyline
 62
250
  6
CONTINUOUS
 90
52
 70
0
 10
-3.1490280527
 20
10.4585556084
 10
-3.1074827117
 20
10.4366889977
 10
-3.0660055576
 20
10.416091414
 10
-3.0246258176
 20
10.3969030458
 10
-2.9840710585
 20
10.3795457871
 10
-2.9437031481
 20
10.3638121697
 10
-2.9035865159
 20
10.3498280816
 10
-2.8637855913
 20
10.3377194113
 10
-2.8282580005
 20
10.3285222187
 10
-2.7931154199
 20
10.3210492127
 10
-2.7584343413
 20
10.3154003233
 10
-2.7242912564
 20
10.3116754806
 10
-2.6931321201
 20
10.3100262541
 10
-2.6625810739
 20
10.3102002648
 10
-2.6327161576
 20
10.3122748825
 10
-2.6036154108
 20
10.3163274771
 10
-2.5772248423
 20
10.3219410536
 10
-2.5516031047
 20
10.3293002936
 10
-2.5267862947
 20
10.338362678
 10
-2.5028105084
 20
10.3490856877
 10
-2.4797118426
 20
10.3614268036
 10
-2.4575263935
 20
10.3753435067
 10
-2.4362902577
 20
10.3907932778
 10
-2.4160395316
 20
10.4077335979
 10
-2.3967262615
 20
10.4261866717
 10
-2.3784015152
 20
10.4460080829
 10
-2.3610245215
 20
10.4671070987
 10
-2.3445545096
 20
10.4893929861
 10
-2.3289507086
 20
10.5127750124
 10
-2.3141723475
 20
10.5371624445
 10
-2.3001786554
 20
10.5624645498
 10
-2.2869288614
 20
10.5885905954
 10
-2.2712554337
 20
10.622534233
 10
-2.2566853351
 20
10.6575954038
 10
-2.2432075968
 20
10.6937296722
 10
-2.2308112499
 20
10.7308926029
 10
-2.2194853254
 20
10.7690397603
 10
-2.2092188543
 20
10.8081267092
 10
-2.1987561884
 20
10.8538646707
 10
-2.1895466427
 20
10.9006509765
 10
-2.1814749289
 20
10.9483654153
 10
-2.1744257589
 20
10.9968877755
 10
-2.1682838444
 20
11.0460978458
 10
-2.1629338971
 20
11.0958754146
 10
-2.1562992631
 20
11.1698558448
 10
-2.1509579009
 20
11.2446841366
 10
-2.1467414105
 20
11.3202419811
 10
-2.1434813915
 20
11.3964110698
 10
-2.1410094437
 20
11.4730730937
 10
-2.1383358592
 20
11.5959688398
 10
-2.1368735544
 20
11.7195921585
 10
-2.136137343
 20
11.9681288012
  0
LWPOLYLINE
  5
2B4
100
AcDbEntity
  8
CURVE
100
AcDbPolyline
 62
250
  6
CONTINUOUS
 90
29
 70
0
 10
-2.7103144174
 20
14.3271307087
 10
-2.7249498364
 20
14.3430827836
 10
-2.7397321479
 20
14.3587177202
 10
-2.7546534227
 20
14.3740422675
 10
-2.7697057312
 20
14.3890631748
 10
-2.7848811439
 20
14.4037871911
 10
-2.8001717315
 20
14.4182210655
 10
-2.8155695644
 20
14.4323715471
 10
-2.8310667133
 20
14.4462453851
 10
-2.8466552487
 20
14.4598493284
 10
-2.8623272412
 20
14.4731901262
 10
-2.8780747612
 20
14.4862745276
 10
-2.8938898794
 20
14.4991092818
 10
-2.9097646663
 20
14.5117011377
 10
-2.9256911925
 20
14.5240568445
 10
-2.9416615284
 20
14.5361831514
 10
-2.9576677448
 20
14.5480868073
 10
-2.973701912
 20
14.5597745615
 10
-2.9897561008
 20
14.571253163
 10
-3.0058223816
 20
14.5825293608
 10
-3.0218928249
 20
14.5936099042
 10
-3.0379595014
 20
14.6045015422
 10
-3.0540144816
 20
14.6152110239
 10
-3.0786231662
 20
14.6313094265
 10
-3.1031984467
 20
14.6470152494
 10
-3.1277531554
 20
14.6623491547
 10
-3.1523001247
 20
14.6773318045
 10
-3.1768521868
 20
14.6919838611
 10
-3.2014221739
 20
14.7063259865
  0
LINE
  5
2B5
100
AcDbEntity
  8
CURVE
100
AcDbLine
 62
7
  6
CONTINUOUS
 10
0.0122153926
 20
-13.7773331873
 11
0.4258565961
 21
-13.3636919838
  0
LINE
  5
2B6
100
AcDbEntity
  8
CURVE
100
AcDbLine
 62
7
  6
CONTINUOUS
 10
1.0731076097
 20
-12.7164409703
 11
1.3152679718
 21
-12.4742806082
  0
LINE
  5
2B7
100
AcDbEntity
  8
CURVE
100
AcDbLine
 62
7
  6
CONTINUOUS
 10
0.0122153926
 20
-14.7729395353
 11
0.4258565961
 21
-14.3592983317
  0
LINE
  5
2B8
100
AcDbEntity
  8
CURVE
100
AcDbLine
 62
7
  6
CONTINUOUS
 10
0.5788959184
 20
-14.2062590094
 11
0.8212343381
 21
-13.9639205898
  0
LWPOLYLINE
  5
2B9
100
AcDbEntity
  8
CURVE
100
AcDbPolyline
 62
250
  6
CONTINUOUS
 90
46
 70
0
 10
-3.2014221739
 20
14.7063259865
 10
-3.2502701828
 20
14.7336841815
 10
-3.2992555388
 20
14.7593555765
 10
-3.3482511918
 20
14.7831557602
 10
-3.3971300921
 20
14.8049003214
 10
-3.4457651896
 20
14.8244048487
 10
-3.4940294344
 20
14.841484931
 10
-3.5417957766
 20
14.8559561569
 10
-3.5889371663
 20
14.8676341152
 10
-3.6353265536
 20
14.8763343947
 10
-3.6808368886
 20
14.8818725839
 10
-3.7189916594
 20
14.8839610315
 10
-3.7562646402
 20
14.8834753539
 10
-3.7925113689
 20
14.8802939292
 10
-3.8275873835
 20
14.8742951352
 10
-3.8613482217
 20
14.8653573499
 10
-3.891699259
 20
14.854232623
 10
-3.9207268678
 20
14.8405317848
 10
-3.9483913635
 20
14.8243705174
 10
-3.9746530618
 20
14.8058645023
 10
-3.9994722782
 20
14.7851294216
 10
-4.0220871723
 20
14.763066311
 10
-4.0433747579
 20
14.7391736481
 10
-4.0633946939
 20
14.7135995227
 10
-4.0822066392
 20
14.6864920245
 10
-4.10531315
 20
14.6484835723
 10
-4.1263835335
 20
14.6081515337
 10
-4.1453916959
 20
14.5655971137
 10
-4.1631221304
 20
14.5186915192
 10
-4.1787110465
 20
14.4697142122
 10
-4.1923161164
 20
14.41892885
 10
-4.2052189437
 20
14.3611493771
 10
-4.2161951369
 20
14.3017887529
 10
-4.2255377534
 20
14.2411430219
 10
-4.234326538
 20
14.1724821906
 10
-4.2416053141
 20
14.1027368064
 10
-4.2475231081
 20
14.0320463858
 10
-4.2527287298
 20
13.9519219452
 10
-4.2566798972
 20
13.8709782093
 10
-4.2596424587
 20
13.7894063437
 10
-4.2630573644
 20
13.6502609503
 10
-4.2651235721
 20
13.5103047771
 10
-4.2664938504
 20
13.3563558049
 10
-4.2669506099
 20
13.19280804
 10
-4.2666346846
 20
13.0356440106
 10
-4.2643332054
 20
12.7637789331
  0
LINE
  5
2BA
100
AcDbEntity
  8
CURVE
100
AcDbLine
 62
250
  6
CONTINUOUS
 10
-1.4647616748
 20
13.6248407222
 11
-0.8243244565
 21
13.2550602989
  0
LINE
  5
2BB
100
AcDbEntity
  8
CURVE
100
AcDbLine
 62
250
  6
CONTINUOUS
 10
0.3547244824
 20
12.5742922186
 11
0.7391331845
 21
12.3523394518
  0
LINE
  5
2BC
100
AcDbEntity
  8
CURVE
100
AcDbLine
 62
7
  6
CONTINUOUS
 10
0.0122153926
 20
-15.7685458832
 11
0.4258565961
 21
-15.3549046796
  0
LINE
  5
2BD
100
AcDbEntity
  8
CURVE
100
AcDbLine
 62
7
  6
CONTINUOUS
 10
1.2100701661
 20
-14.5706911096
 11
1.4524085858
 21
-14.32835269
  0
LINE
  5
2BE
100
AcDbEntity
  8
ASSI
100
AcDbLine
 62
7
  6
CONTINUOUS
 10
8.8485355311
 20
14.8222683538
 11
8.1851010859
 21
17.2447192635
  0
LINE
  5
2BF
100
AcDbEntity
  8
ASSI
100
AcDbLine
 62
7
  6
CONTINUOUS
 10
8.8485355311
 20
-21.8594277527
 11
8.1851010859
 21
-25.0088969932
  0
LINE
  5
2C0
100
AcDbEntity
  8
ASSI
100
AcDbLine
 62
250
  6
CONTINUOUS
 10
5.7591140781
 20
16.2521243792
 11
-9.1091000903
 21
24.8368448975
  0
LWPOLYLINE
  5
2C1
100
AcDbEntity
  8
ASSI
100
AcDbPolyline
 62
250
  6
CONTINUOUS
 90
9
 70
0
 10
-9.1091000903
 20
24.8368448975
 10
-9.1431376324
 20
24.8586033524
 10
-9.1732848955
 20
24.8823373832
 10
-9.1991804113
 20
24.9078206583
 10
-9.2205254125
 20
24.9348389711
 10
-9.2370032357
 20
24.9630892138
 10
-9.2483477109
 20
24.9921693393
 10
-9.2544334177
 20
25.0217278792
 10
-9.255546699
 20
25.0409670266
  0
LWPOLYLINE
  5
2C2
100
AcDbEntity
  8
ASSI
100
AcDbPolyline
 62
250
  6
CONTINUOUS
 90
16
 70
0
 10
5.7591140781
 20
16.2521243792
 10
5.7964967557
 20
16.2326135787
 10
5.8373044311
 20
16.2152930458
 10
5.8811642756
 20
16.2003765579
 10
5.9276911785
 20
16.1880505785
 10
5.976403173
 20
16.1784956686
 10
6.0267145412
 20
16.1718656154
 10
6.078146303
 20
16.1682568432
 10
6.1301077657
 20
16.1677436163
 10
6.1818054963
 20
16.1703412135
 10
6.2325791625
 20
16.1759930261
 10
6.2819988003
 20
16.1846274729
 10
6.329626076
 20
16.1961622639
 10
6.3749768305
 20
16.2104859329
 10
6.4175356401
 20
16.2274417784
 10
6.4568447565
 20
16.2468506405
  0
LINE
  5
2C3
100
AcDbEntity
  8
ASSI
100
AcDbLine
 62
250
  6
CONTINUOUS
 10
6.1034125198
 20
16.8590132308
 11
-8.7648016485
 21
25.4437337491
  0
LWPOLYLINE
  5
2C4
100
AcDbEntity
  8
ASSI
100
AcDbPolyline
 62
250
  6
CONTINUOUS
 90
16
 70
0
 10
6.1034125198
 20
16.8590132308
 10
6.1389389001
 20
16.8352542616
 10
6.1743222669
 20
16.8073415643
 10
6.20917721
 20
16.7755290897
 10
6.243159764
 20
16.7400709289
 10
6.2758381991
 20
16.7013555901
 10
6.3067183681
 20
16.6599408647
 10
6.3354211974
 20
16.6163462666
 10
6.3616765493
 20
16.5709940314
 10
6.385204483
 20
16.5243646948
 10
6.4057479473
 20
16.4769581029
 10
6.4230714125
 20
16.4293067687
 10
6.4369761922
 20
16.3819523764
 10
6.4473081461
 20
16.3354219472
 10
6.4539553926
 20
16.2902221411
 10
6.4568447565
 20
16.2468506405
  0
LWPOLYLINE
  5
2C5
100
AcDbEntity
  8
ASSI
100
AcDbPolyline
 62
250
  6
CONTINUOUS
 90
9
 70
0
 10
-8.7648016485
 20
25.4437337491
 10
-8.801862429
 20
25.4619250242
 10
-8.8386205268
 20
25.4757560172
 10
-8.8746758056
 20
25.4850115515
 10
-8.9096476346
 20
25.4895231069
 10
-8.9431116053
 20
25.4891621342
 10
-8.974616165
 20
25.4838743665
 10
-9.003818417
 20
25.4736621894
 10
-9.0249206498
 20
25.4622157102
  0
LINE
  5
2C6
100
AcDbEntity
  8
ASSI
100
AcDbLine
 62
7
  6
CONTINUOUS
 10
7.7351642351
 20
17.8011615739
 11
-7.2163270891
 21
26.4339652782
  0
LWPOLYLINE
  5
2C7
100
AcDbEntity
  8
ASSI
100
AcDbPolyline
 62
250
  6
CONTINUOUS
 90
9
 70
0
 10
6.342902184
 20
-26.1393483598
 10
6.3613261905
 20
-26.1282166732
 10
6.3850308413
 20
-26.1083612043
 10
6.4056365912
 20
-26.0840061303
 10
6.4229820286
 20
-26.0554035996
 10
6.4369122956
 20
-26.0228259832
 10
6.4472757825
 20
-25.9866067223
 10
6.453945597
 20
-25.9471608688
 10
6.4568447565
 20
-25.9049216417
  0
LINE
  5
2C8
100
AcDbEntity
  8
ASSI
100
AcDbLine
 62
250
  6
CONTINUOUS
 10
8.1851010859
 20
-25.0088969932
 11
6.4568447565
 21
-25.9049216417
  0
LINE
  5
2C9
100
AcDbEntity
  8
ASSI
100
AcDbLine
 62
7
  6
CONTINUOUS
 10
8.0049831082
 20
-25.2776327802
 11
6.3428041361
 21
-26.1393992346
  0
ARC
  5
2CA
100
AcDbEntity
  8
ASSI
100
AcDbCircle
 62
7
  6
CONTINUOUS
 10
-8.7555466997
 20
3.3621512819
 40
0.5
100
AcDbArc
 50
122.1754807991
 51
180.015358494
  0
ARC
  5
2CB
100
AcDbEntity
  8
ASSI
100
AcDbCircle
 62
7
  6
CONTINUOUS
 10
-8.7555466997
 20
-17.110790088
 40
0.5
100
AcDbArc
 50
179.9900082978
 51
239.9984015652
  0
ARC
  5
2CC
100
AcDbEntity
  8
ASSI
100
AcDbCircle
 62
7
  6
CONTINUOUS
 10
6.1126674686
 20
-25.6955106063
 40
0.5
100
AcDbArc
 50
239.9984015652
 51
297.4174046156
  0
ARC
  5
2CD
100
AcDbEntity
  8
ASSI
100
AcDbCircle
 62
7
  6
CONTINUOUS
 10
6.1126674686
 20
-4.0166796941
 40
0.5
100
AcDbArc
 50
239.9837780751
 51
297.8465900872
  0
ARC
  5
2CE
100
AcDbEntity
  8
ASSI
100
AcDbCircle
 62
7
  6
CONTINUOUS
 10
-8.7555466997
 20
4.5680408242
 40
0.5
100
AcDbArc
 50
179.9841296142
 51
239.9984015652
  0
ARC
  5
2CF
100
AcDbEntity
  8
ASSI
100
AcDbCircle
 62
7
  6
CONTINUOUS
 10
-8.7555466997
 20
25.0409821942
 40
0.5
100
AcDbArc
 50
122.5989151677
 51
180.0017380816
  0
ELLIPSE
  5
2D0
100
AcDbEntity
  8
ASSI
100
AcDbEllipse
 62
7
  6
CONTINUOUS
 10
8.5072234475
 20
-3.8635134442
 30
0.0
 11
-0.2500883296
 21
0.432972707
 31
0.0
 40
0.5775954524
 41
-2.3562050126
 42
-0.7858655366
  0
ELLIPSE
  5
2D1
100
AcDbEntity
  8
ASSI
100
AcDbEllipse
 62
7
  6
CONTINUOUS
 10
8.1476738111
 20
-3.6630170304
 30
0.0
 11
0.499979581
 21
0.0076930498
 31
0.0
 40
0.5873737521
 41
7.0595459565
 42
7.4069329008
  0
ELLIPSE
  5
2D2
100
AcDbEntity
  8
ASSI
100
AcDbEllipse
 62
7
  6
CONTINUOUS
 10
8.4980865216
 20
-21.945786832
 30
0.0
 11
0.2600728777
 21
0.4271418247
 31
0.0
 40
0.5922410672
 41
-1.033355665
 42
-0.7715562772
  0
ELLIPSE
  5
2D3
100
AcDbEntity
  8
ASSI
100
AcDbEllipse
 62
7
  6
CONTINUOUS
 10
7.8314926733
 20
-24.8043755798
 30
0.0
 11
-0.1121548712
 21
0.4957473682
 31
0.0
 40
0.7039445592
 41
-2.9595186474
 42
-2.1483506142
  0
ELLIPSE
  5
2D4
100
AcDbEntity
  8
ASSI
100
AcDbEllipse
 62
7
  6
CONTINUOUS
 10
-7.1244424841
 20
26.0840544305
 30
0.0
 11
-0.3297163127
 21
0.381589989
 31
0.0
 40
0.4128243551
 41
-0.8709070521
 42
-0.0596421506
  0
ELLIPSE
  5
2D5
100
AcDbEntity
  8
ASSI
100
AcDbEllipse
 62
7
  6
CONTINUOUS
 10
8.5072234475
 20
-2.7516840771
 30
0.0
 11
-0.2502024451
 21
0.4331706506
 31
0.0
 40
0.5770679437
 41
-3.1633994611
 42
-2.3566614272
  0
ELLIPSE
  5
2D6
100
AcDbEntity
  8
ASSI
100
AcDbEllipse
 62
7
  6
CONTINUOUS
 10
8.4980865216
 20
14.5245912171
 30
0.0
 11
0.2600728777
 21
0.4271418247
 31
0.0
 40
0.5922410672
 41
-0.7715562772
 42
-0.5097568894
  0
ELLIPSE
  5
2D7
100
AcDbEntity
  8
ASSI
100
AcDbEllipse
 62
7
  6
CONTINUOUS
 10
7.8314926733
 20
17.4486849125
 30
0.0
 11
-0.3313794069
 21
0.3842968449
 31
0.0
 40
0.4077379513
 41
-2.4333010859
 42
-0.8631899918
  0
ENDSEC
  0
SECTION
  2
OBJECTS
  0
DICTIONARY
  5
C
100
AcDbDictionary
280
0
281
1
  3
ACAD_GROUP
350
D
  3
ACAD_MLINESTYLE
350
17
  3
ACAD_LAYOUT
350
1A
  3
ACAD_PLOTSETTINGS
350
19
  3
ACAD_PLOTSTYLENAME
350
E
  0
DICTIONARY
  5
D
102
{ACAD_REACTORS
330
C
102
}
100
AcDbDictionary
280
0
281
1
  0
ACDBDICTIONARYWDFLT
  5
E
102
{ACAD_REACTORS
330
C
102
}
100
AcDbDictionary
281
1
  3
Normal
350
F
100
AcDbDictionaryWithDefault
340
F
  0
DICTIONARY
  5
17
102
{ACAD_REACTORS
330
C
102
}
100
AcDbDictionary
280
0
281
1
  3
Standard
350
18
  0
DICTIONARY
  5
19
102
{ACAD_REACTORS
330
C
102
}
100
AcDbDictionary
281
1
  0
DICTIONARY
  5
1A
102
{ACAD_REACTORS
330
C
102
}
100
AcDbDictionary
281
1
  3
Model
350
2D8
  3
Layout1
350
2D9
  0
ACDBPLACEHOLDER
  5
F
102
{ACAD_REACTORS
330
E
102
}
  0
MLINESTYLE
  5
18
102
{ACAD_REACTORS
330
17
102
}
100
AcDbMlineStyle
  2
STANDARD
 70
0
  3

 62
256
 51
90.0
 52
90.0
 71
2
 49
0.5
 62
256
  6
BYLAYER
 49
-0.5
 62
256
  6
BYLAYER
  0
LAYOUT
  5
2D8
102
{ACAD_REACTORS
330
1A
102
}
100
AcDbPlotSettings
  1

  2
none_device
  4

  6

 40
0.0
 41
0.0
 42
0.0
 43
0.0
 44
210.0
 45
297.0
 46
0.0
 47
0.0
 48
0.0
 49
0.0
140
0.0
141
0.0
142
1.0
143
1.0
 70
1024
 72
1
 73
0
 74
0
  7

 75
0
147
1.0
148
0.0
149
0.0
100
AcDbLayout
  1
Model
 70
0
 71
0
 10
0.0
 20
0.0
 11
210.0
 21
297.0
 12
0.0
 22
0.0
 32
0.0
 14
0.0
 24
0.0
 34
0.0
 15
0.0
 25
0.0
 35
0.0
146
0.0
 13
0.0
 23
0.0
 33
0.0
 16
1.0
 26
0.0
 36
0.0
 17
0.0
 27
1.0
 37
0.0
 76
0
330
214
345
0
346
0
  0
LAYOUT
  5
2D9
102
{ACAD_REACTORS
330
1A
102
}
100
AcDbPlotSettings
  1

  2
none_device
  4

  6

 40
0.0
 41
0.0
 42
0.0
 43
0.0
 44
210.0
 45
297.0
 46
0.0
 47
0.0
 48
0.0
 49
0.0
140
0.0
141
0.0
142
1.0
143
1.0
 70
0
 72
1
 73
0
 74
0
  7

 75
0
147
1.0
148
0.0
149
0.0
100
AcDbLayout
  1
Layout1
 70
0
 71
1
 10
0.0
 20
0.0
 11
210.0
 21
297.0
 12
0.0
 22
0.0
 32
0.0
 14
0.0
 24
0.0
 34
0.0
 15
0.0
 25
0.0
 35
0.0
146
0.0
 13
0.0
 23
0.0
 33
0.0
 16
1.0
 26
0.0
 36
0.0
 17
0.0
 27
1.0
 37
0.0
 76
0
330
215
345
0
346
0
  0
ENDSEC
  0
EOF
