  0
SECTION
  2
HEADER
  9
$ACADVER
  1
AC1024
  9
$DWGCODEPAGE
  3
ANSI_1252
  9
$EXTMAX
 10
210.0
 20
297.0
 30
0.0
  9
$EXTMIN
 10
0.0
 20
0.0
 30
0.0
  9
$LIMMIN
 10
0.0
 20
0.0
  9
$LIMMAX
 10
210.0
 20
297.0
  9
$VIEWCTR
 10
105.0
 20
148.5
  9
$VIEWSIZE
 40
297.0
  9
$CLAYER
  8
0
  9
$LTSCALE
 40
19.36
  9
$CELTYPE
  6
BYLAYER
  9
$DIMSCALE
 40
1.0
  9
$DIMASZ
 40
3.0
  9
$DIMEXO
 40
0.5
  9
$DIMDLI
 40
13.376
  9
$DIMEXE
 40
1.5
  9
$DIMCEN
 40
3.168
  9
$DIMLFAC
 40
1.0
  9
$DIMBLK
  1
_FILLED
  9
$DIMALT
 70
0
  9
$DIMALTF
 40
0.0393700787
  9
$DIMTXT
 40
3.0
  9
$DIMTOL
 70
1
  9
$DIMLIM
 70
0
  9
$DIMTFAC
 40
1.0
  9
$DIMTP
 40
0.01
  9
$DIMTM
 40
0.01
  9
$DIMGAP
 40
0.625
  9
$DIMDSEP
 70
44
  9
$AUNITS
 70
0
  9
$PDMODE
 70
3
  9
$PDSIZE
 40
3.0
  9
$HANDSEED
  5
28C
  9
$TILEMODE
 70
1
  9
$MEASUREMENT
 70
1
  9
$INSUNITS
 70
4
  0
ENDSEC
  0
SECTION
  2
CLASSES
  0
CLASS
  1
ACDBDICTIONARYWDFLT
  2
AcDbDictionaryWithDefault
  3
AutoCAD 2000
 90
0
 91
1
280
0
281
0
  0
CLASS
  1
ACDBPLACEHOLDER
  2
AcDbPlaceHolder
  3
AutoCAD 2000
 90
0
 91
1
280
0
281
0
  0
CLASS
  1
LAYOUT
  2
AcDbLayout
  3
AutoCAD 2000
 90
0
 91
0
280
0
281
0
  0
ENDSEC
  0
SECTION
  2
TABLES
  0
TABLE
  2
VPORT
  5
8
100
AcDbSymbolTable
 70
2
  0
VPORT
  5
1F4
100
AcDbSymbolTableRecord
100
AcDbViewportTableRecord
  2
*ACTIVE
 70
0
 10
0.0
 20
0.0
 11
1.0
 21
1.0
 12
105.0
 22
148.5
 13
0.0
 23
0.0
 14
1.0
 24
1.0
 15
0.0
 25
0.0
 16
0.0
 26
0.0
 36
1.0
 17
0.0
 27
0.0
 37
0.0
 40
297.0
 41
0.7070707071
 42
50.0
 43
0.0
 44
0.0
 50
0.0
 51
0.0
 71
0
 72
100
 73
1
 74
1
 75
0
 76
0
 77
0
 78
0
  0
ENDTAB
  0
TABLE
  2
LTYPE
  5
5
100
AcDbSymbolTable
 70
6
  0
LTYPE
  5
14
100
AcDbSymbolTableRecord
100
AcDbLinetypeTableRecord
  2
BYBLOCK
 70
0
  3

 72
65
 73
0
 40
0.0
  0
LTYPE
  5
15
100
AcDbSymbolTableRecord
100
AcDbLinetypeTableRecord
  2
BYLAYER
 70
0
  3

 72
65
 73
0
 40
0.0
  0
LTYPE
  5
16
100
AcDbSymbolTableRecord
100
AcDbLinetypeTableRecord
  2
CONTINUOUS
 70
64
  3
Solid line
 72
65
 73
0
 40
0.0
  0
LTYPE
  5
1F5
100
AcDbSymbolTableRecord
100
AcDbLinetypeTableRecord
  2
CENTER
 70
64
  3
____ _ ____ _ ____ _ ____ _ ____ _ ____ _ ____
 72
65
 73
4
 40
0.6
 49
0.375
 74
0
 49
-0.075
 74
0
 49
0.075
 74
0
 49
-0.075
 74
0
  0
LTYPE
  5
1F6
100
AcDbSymbolTableRecord
100
AcDbLinetypeTableRecord
  2
HIDDEN
 70
64
  3
- - - - - - - - - - - - - - - - - - - -
 72
65
 73
2
 40
0.2
 49
0.1
 74
0
 49
-0.1
 74
0
  0
LTYPE
  5
1F7
100
AcDbSymbolTableRecord
100
AcDbLinetypeTableRecord
  2
PHANTOM
 70
64
  3
_____ _ _ _____ _ _ _____ _ _ _____
 72
65
 73
6
 40
0.8
 49
0.45
 74
0
 49
-0.05
 74
0
 49
0.1
 74
0
 49
-0.05
 74
0
 49
0.1
 74
0
 49
-0.05
 74
0
  0
LTYPE
  5
1F8
100
AcDbSymbolTableRecord
100
AcDbLinetypeTableRecord
  2
DOT
 70
64
  3
. . . . . . . . . . . . . . . . . . . .
 72
65
 73
2
 40
0.2
 49
0.1
 74
0
 49
-0.1
 74
0
  0
LTYPE
  5
1F9
100
AcDbSymbolTableRecord
100
AcDbLinetypeTableRecord
  2
DASHED
 70
64
  3
- - - - - - - - - - - - - - - - - - - -
 72
65
 73
2
 40
0.2
 49
0.1
 74
0
 49
-0.1
 74
0
  0
ENDTAB
  0
TABLE
  2
LAYER
  5
2
100
AcDbSymbolTable
 70
36
  0
LAYER
  5
10
100
AcDbSymbolTableRecord
100
AcDbLayerTableRecord
  2
0
 70
0
 62
7
  6
CONTINUOUS
370
-3
390
F
  0
LAYER
  5
1FA
100
AcDbSymbolTableRecord
100
AcDbLayerTableRecord
  2
DEFAULT_1
 70
0
 62
7
  6
CENTER
370
-3
390
F
  0
LAYER
  5
1FB
100
AcDbSymbolTableRecord
100
AcDbLayerTableRecord
  2
DEFAULT_2
 70
0
 62
7
  6
HIDDEN
370
-3
390
F
  0
LAYER
  5
1FC
100
AcDbSymbolTableRecord
100
AcDbLayerTableRecord
  2
DEFAULT_3
 70
0
 62
7
  6
PHANTOM
370
-3
390
F
  0
LAYER
  5
1FD
100
AcDbSymbolTableRecord
100
AcDbLayerTableRecord
  2
ASSI
 70
0
 62
7
  6
CONTINUOUS
370
-3
390
F
  0
LAYER
  5
1FE
100
AcDbSymbolTableRecord
100
AcDbLayerTableRecord
  2
COORDINATE
 70
0
 62
7
  6
CONTINUOUS
370
-3
390
F
  0
LAYER
  5
1FF
100
AcDbSymbolTableRecord
100
AcDbLayerTableRecord
  2
COPY_PUBLISH
 70
0
 62
7
  6
CONTINUOUS
370
-3
390
F
  0
LAYER
  5
200
100
AcDbSymbolTableRecord
100
AcDbLayerTableRecord
  2
COSMETICI
 70
0
 62
7
  6
CONTINUOUS
370
-3
390
F
  0
LAYER
  5
201
100
AcDbSymbolTableRecord
100
AcDbLayerTableRecord
  2
CURVE
 70
0
 62
7
  6
CONTINUOUS
370
-3
390
F
  0
LAYER
  5
202
100
AcDbSymbolTableRecord
100
AcDbLayerTableRecord
  2
DRAFT
 70
0
 62
7
  6
CONTINUOUS
370
-3
390
F
  0
LAYER
  5
203
100
AcDbSymbolTableRecord
100
AcDbLayerTableRecord
  2
IMPORT_IGES
 70
0
 62
7
  6
CONTINUOUS
370
-3
390
F
  0
LAYER
  5
204
100
AcDbSymbolTableRecord
100
AcDbLayerTableRecord
  2
NOTE
 70
0
 62
7
  6
CONTINUOUS
370
-3
390
F
  0
LAYER
  5
205
100
AcDbSymbolTableRecord
100
AcDbLayerTableRecord
  2
PIANI
 70
0
 62
7
  6
CONTINUOUS
370
-3
390
F
  0
LAYER
  5
206
100
AcDbSymbolTableRecord
100
AcDbLayerTableRecord
  2
PUNTI
 70
0
 62
7
  6
CONTINUOUS
370
-3
390
F
  0
LAYER
  5
207
100
AcDbSymbolTableRecord
100
AcDbLayerTableRecord
  2
RACCORDO
 70
0
 62
7
  6
CONTINUOUS
370
-3
390
F
  0
LAYER
  5
208
100
AcDbSymbolTableRecord
100
AcDbLayerTableRecord
  2
SIMBOLI
 70
0
 62
7
  6
CONTINUOUS
370
-3
390
F
  0
LAYER
  5
209
100
AcDbSymbolTableRecord
100
AcDbLayerTableRecord
  2
SMUSSO
 70
0
 62
7
  6
CONTINUOUS
370
-3
390
F
  0
LAYER
  5
20A
100
AcDbSymbolTableRecord
100
AcDbLayerTableRecord
  2
SNAPLINE
 70
0
 62
7
  6
CONTINUOUS
370
-3
390
F
  0
LAYER
  5
20B
100
AcDbSymbolTableRecord
100
AcDbLayerTableRecord
  2
SUPERFICI
 70
0
 62
7
  6
CONTINUOUS
370
-3
390
F
  0
LAYER
  5
20C
100
AcDbSymbolTableRecord
100
AcDbLayerTableRecord
  2
TRASH
 70
0
 62
7
  6
CONTINUOUS
370
-3
390
F
  0
ENDTAB
  0
TABLE
  2
STYLE
  5
3
100
AcDbSymbolTable
 70
1
  0
STYLE
  5
11
100
AcDbSymbolTableRecord
100
AcDbTextStyleTableRecord
  2
STANDARD
 70
0
 40
0.0
 41
0.8
 50
0.0
 71
0
 42
0.2
  3
txt
  4

  0
STYLE
  5
20D
100
AcDbSymbolTableRecord
100
AcDbTextStyleTableRecord
  2
TEXTSTYLE_1
 70
0
 40
0.0
 41
0.8
 50
0.0
 71
0
 42
0.2
  3
gdt
  4

  0
ENDTAB
  0
TABLE
  2
VIEW
  5
6
100
AcDbSymbolTable
 70
0
  0
ENDTAB
  0
TABLE
  2
UCS
  5
7
100
AcDbSymbolTable
 70
0
  0
ENDTAB
  0
TABLE
  2
APPID
  5
9
100
AcDbSymbolTable
 70
1
  0
APPID
  5
20E
100
AcDbSymbolTableRecord
100
AcDbRegAppTableRecord
  2
ACAD
 70
0
  0
ENDTAB
  0
TABLE
  2
BLOCK_RECORD
  5
1
100
AcDbSymbolTable
 70
0
  0
BLOCK_RECORD
  5
20F
100
AcDbSymbolTableRecord
100
AcDbBlockTableRecord
  2
*Model_Space
  0
BLOCK_RECORD
  5
210
100
AcDbSymbolTableRecord
100
AcDbBlockTableRecord
  2
*Paper_Space
  0
BLOCK_RECORD
  5
211
100
AcDbSymbolTableRecord
100
AcDbBlockTableRecord
  2
_FILLED
  0
ENDTAB
  0
TABLE
  2
DIMSTYLE
  5
A
100
AcDbSymbolTable
 70
1
100
AcDbDimStyleTable
 71
0
  0
DIMSTYLE
105
212
100
AcDbSymbolTableRecord
100
AcDbDimStyleTableRecord
  2
STANDARD
 70
0
  3

  4

 40
1.0
 41
3.0
 42
0.5
 43
0.38
 44
1.5
 45
0.0
 46
0.0
 47
0.01
 48
0.01
140
3.0
141
0.09
142
0.0
143
25.4
144
1.0
145
0.0
146
1.0
147
0.625
 71
1
 72
0
 73
0
 74
0
 75
0
 76
0
 77
1
 78
8
 79
2
170
0
171
1
172
0
173
0
174
0
175
0
176
0
177
0
178
0
270
2
179
2
271
2
272
2
273
2
274
2
275
0
280
0
281
0
282
0
283
1
284
8
285
0
286
0
287
3
288
0
340
11
278
44
341
211
342
211
343
211
344
211
  0
ENDTAB
  0
ENDSEC
  0
SECTION
  2
BLOCKS
  0
BLOCK
  5
20
100
AcDbEntity
  8
0
100
AcDbBlockBegin
  2
*Model_Space
 70
0
 10
0.0
 20
0.0
 30
0.0
  3
*Model_Space
  1

  0
ENDBLK
  5
21
100
AcDbEntity
  8
0
100
AcDbBlockEnd
  0
BLOCK
  5
1C
100
AcDbEntity
  8
0
100
AcDbBlockBegin
  2
*Paper_Space
 70
0
 10
0.0
 20
0.0
 30
0.0
  3
*Paper_Space
  1

  0
ENDBLK
  5
1D
100
AcDbEntity
  8
0
100
AcDbBlockEnd
  0
BLOCK
  5
213
100
AcDbEntity
  8
0
100
AcDbBlockBegin
  2
_FILLED
 70
64
 10
0.0
 20
0.0
  3
_FILLED
  1

  0
SOLID
  5
214
100
AcDbEntity
  8
0
  6
BYBLOCK
 62
0
100
AcDbTrace
 10
0.0
 20
0.0
 11
-1.0
 21
0.3166666667
 12
-1.0
 22
-0.3166666667
 13
-1.0
 23
-0.3166666667
  0
ENDBLK
  5
215
100
AcDbEntity
  8
0
  6
BYBLOCK
 62
0
100
AcDbBlockEnd
  0
ENDSEC
  0
SECTION
  2
ENTITIES
  0
LINE
  5
216
100
AcDbEntity
  8
RACCORDO
100
AcDbLine
 62
7
  6
CONTINUOUS
 10
-7.9543715305
 20
26.5804198441
 11
-10.2237000784
 21
25.1292105464
  0
LINE
  5
217
100
AcDbEntity
  8
RACCORDO
100
AcDbLine
 62
250
  6
CONTINUOUS
 10
-7.7265159792
 20
26.5413057808
 11
-9.9635810771
 21
25.1107285853
  0
LWPOLYLINE
  5
218
100
AcDbEntity
  8
RACCORDO
100
AcDbPolyline
 62
250
  6
CONTINUOUS
 90
16
 70
0
 10
-9.9635810771
 20
25.1107285853
 10
-9.9998622477
 20
25.08652006
 10
-10.0356609921
 20
25.0583011114
 10
-10.0705980453
 20
25.0263707013
 10
-10.1043032716
 20
24.991067112
 10
-10.1364195852
 20
24.9527643627
 10
-10.1666067341
 20
24.9118682468
 10
-10.1945449046
 20
24.8688120328
 10
-10.2199381095
 20
24.824051874
 10
-10.242517324
 20
24.7780619759
 10
-10.2620433354
 20
24.7313295721
 10
-10.2783092783
 20
24.6843497629
 10
-10.2911428251
 20
24.6376202697
 10
-10.3004080125
 20
24.5916361618
 10
-10.3060066819
 20
24.5468846117
 10
-10.3078795189
 20
24.5038397337
  0
LWPOLYLINE
  5
219
100
AcDbEntity
  8
RACCORDO
100
AcDbPolyline
 62
250
  6
CONTINUOUS
 90
16
 70
0
 10
4.523302164
 20
-26.1685109206
 10
4.5609864854
 20
-26.1881637708
 10
4.6020923842
 20
-26.2055704227
 10
4.6462278679
 20
-26.220522169
 10
4.6930219434
 20
-26.2328465052
 10
4.7419496468
 20
-26.2423605938
 10
4.7923146568
 20
-26.2489107516
 10
4.8435082514
 20
-26.2524245624
 10
4.895055329
 20
-26.252876045
 10
4.9464265101
 20
-26.2502590753
 10
4.997086671
 20
-26.244596649
 10
5.0464830109
 20
-26.2359462255
 10
5.0940714168
 20
-26.2244014459
 10
5.1393396505
 20
-26.2100871675
 10
5.181810969
 20
-26.1931547616
 10
5.2210328425
 20
-26.1737846593
  0
LINE
  5
21A
100
AcDbEntity
  8
RACCORDO
100
AcDbLine
 62
7
  6
CONTINUOUS
 10
-10.2043382084
 20
-17.8340409258
 11
4.6268434746
 21
-26.3973793512
  0
LINE
  5
21B
100
AcDbEntity
  8
RACCORDO
100
AcDbLine
 62
250
  6
CONTINUOUS
 10
-10.3078795189
 20
-17.6051724953
 11
4.523302164
 21
-26.1685109206
  0
LWPOLYLINE
  5
21C
100
AcDbEntity
  8
RACCORDO
100
AcDbPolyline
 62
250
  6
CONTINUOUS
 90
9
 70
0
 10
-10.3078795189
 20
-17.6051724953
 10
-10.3416710396
 20
-17.5835882057
 10
-10.3716691498
 20
-17.5600263654
 10
-10.3975036002
 20
-17.5347022408
 10
-10.4188514474
 20
-17.5078381903
 10
-10.4353999706
 20
-17.4797124951
 10
-10.4468828197
 20
-17.4506633417
 10
-10.4531329938
 20
-17.420967287
 10
-10.4543261283
 20
-17.4010351986
  0
LWPOLYLINE
  5
21D
100
AcDbEntity
  8
RACCORDO
100
AcDbPolyline
 62
250
  6
CONTINUOUS
 90
9
 70
0
 10
4.6268434746
 20
-26.3973793512
 10
4.6112435734
 20
-26.3871705258
 10
4.588664359
 20
-26.3672545385
 10
4.5691383475
 20
-26.3430702833
 10
4.5528724047
 20
-26.3148739772
 10
4.5400388579
 20
-26.2829643421
 10
4.5307736704
 20
-26.2476794405
 10
4.525175001
 20
-26.2093930935
 10
4.523302164
 20
-26.1685109206
  0
LINE
  5
21E
100
AcDbEntity
  8
RACCORDO
100
AcDbLine
 62
250
  6
CONTINUOUS
 10
4.8676006058
 20
16.5473901599
 11
7.2249753449
 21
17.9085020765
  0
LINE
  5
21F
100
AcDbEntity
  8
RACCORDO
100
AcDbLine
 62
7
  6
CONTINUOUS
 10
7.6250861195
 20
-16.3278727921
 11
7.6462002064
 21
-16.3376408556
  0
LWPOLYLINE
  5
220
100
AcDbEntity
  8
RACCORDO
100
AcDbPolyline
 62
250
  6
CONTINUOUS
 90
9
 70
0
 10
-10.4543260744
 20
3.0503921166
 10
-10.4533944613
 20
3.0329106314
 10
-10.4475420741
 20
3.0031310004
 10
-10.4364247211
 20
2.9739685143
 10
-10.4201786349
 20
2.9456679991
 10
-10.398958966
 20
2.9184802192
 10
-10.372972501
 20
2.8926814478
 10
-10.3425050164
 20
2.8685646571
 10
-10.3078795189
 20
2.8463888481
  0
LWPOLYLINE
  5
221
100
AcDbEntity
  8
RACCORDO
100
AcDbPolyline
 62
250
  6
CONTINUOUS
 90
9
 70
0
 10
-10.3078795189
 20
-17.6051724953
 10
-10.3060066819
 20
-17.6460546681
 10
-10.3004080125
 20
-17.6843410151
 10
-10.2911428251
 20
-17.7196259168
 10
-10.2783092783
 20
-17.7515355518
 10
-10.2620433354
 20
-17.779731858
 10
-10.242517324
 20
-17.8039161131
 10
-10.2199381095
 20
-17.8238321004
 10
-10.2043382084
 20
-17.8340409258
  0
LINE
  5
222
100
AcDbEntity
  8
RACCORDO
100
AcDbLine
 62
7
  6
CONTINUOUS
 10
-10.4543261283
 20
24.7079770303
 11
-10.4543261283
 21
4.256415687
  0
LINE
  5
223
100
AcDbEntity
  8
RACCORDO
100
AcDbLine
 62
7
  6
CONTINUOUS
 10
-10.4543261283
 20
3.0505261447
 11
-10.4543261283
 21
-17.4010351986
  0
LINE
  5
224
100
AcDbEntity
  8
RACCORDO
100
AcDbLine
 62
250
  6
CONTINUOUS
 10
-10.3078795189
 20
24.5038397337
 11
-10.3078795189
 21
4.0522783903
  0
LINE
  5
225
100
AcDbEntity
  8
RACCORDO
100
AcDbLine
 62
250
  6
CONTINUOUS
 10
-10.3078795189
 20
2.8463888481
 11
-10.3078795189
 21
-17.6051724953
  0
LWPOLYLINE
  5
226
100
AcDbEntity
  8
RACCORDO
100
AcDbPolyline
 62
250
  6
CONTINUOUS
 90
16
 70
0
 10
-10.3078795189
 20
2.8463888481
 10
-10.3059672481
 20
2.8898947923
 10
-10.300252791
 20
2.9351282644
 10
-10.2908004169
 20
2.9815991871
 10
-10.2777234354
 20
3.0287768191
 10
-10.2611608393
 20
3.0761787239
 10
-10.2412556826
 20
3.1233761654
 10
-10.2181559433
 20
3.1699544508
 10
-10.1921388171
 20
3.2152993235
 10
-10.1636149326
 20
3.2587101624
 10
-10.1329460751
 20
3.2996978602
 10
-10.1004574831
 20
3.3378845198
 10
-10.0665808193
 20
3.372823464
 10
-10.0317192832
 20
3.4041745581
 10
-9.9962319599
 20
3.4316876334
 10
-9.9604964858
 20
3.4551364199
  0
LINE
  5
227
100
AcDbEntity
  8
RACCORDO
100
AcDbLine
 62
250
  6
CONTINUOUS
 10
5.2210328425
 20
15.9352275696
 11
7.6749121958
 21
17.3520597661
  0
LINE
  5
228
100
AcDbEntity
  8
RACCORDO
100
AcDbLine
 62
250
  6
CONTINUOUS
 10
7.6250861195
 20
-16.4605442347
 11
8.0195187383
 21
-16.6882846854
  0
LINE
  5
229
100
AcDbEntity
  8
RACCORDO
100
AcDbLine
 62
7
  6
CONTINUOUS
 10
7.6461270689
 20
-16.3375986022
 11
8.2444565083
 21
-16.6830665217
  0
LINE
  5
22A
100
AcDbEntity
  8
RACCORDO
100
AcDbLine
 62
7
  6
CONTINUOUS
 10
-10.2205831817
 20
3.4737367088
 11
-9.9229902477
 21
3.6609631734
  0
LINE
  5
22B
100
AcDbEntity
  8
RACCORDO
100
AcDbLine
 62
250
  6
CONTINUOUS
 10
-9.9604964858
 20
3.4551364199
 11
-9.7719528159
 21
3.5737560533
  0
LINE
  5
22C
100
AcDbEntity
  8
RACCORDO
100
AcDbLine
 62
7
  6
CONTINUOUS
 10
8.0195187383
 20
9.516421765
 11
7.6250861195
 21
9.2614753504
  0
LINE
  5
22D
100
AcDbEntity
  8
RACCORDO
100
AcDbLine
 62
7
  6
CONTINUOUS
 10
8.5690115353
 20
7.0221438682
 11
8.3294470433
 21
6.8886506891
  0
LWPOLYLINE
  5
22E
100
AcDbEntity
  8
RACCORDO
100
AcDbPolyline
 62
7
  6
CONTINUOUS
 90
7
 70
0
 10
8.5690115353
 20
7.0221438682
 10
8.5927067956
 20
7.0343558331
 10
8.6159406851
 20
7.044621209
 10
8.6387132036
 20
7.0529399958
 10
8.6610243513
 20
7.0593121936
 10
8.6828741281
 20
7.0637378024
 10
8.704262534
 20
7.0662168222
  0
LINE
  5
22F
100
AcDbEntity
  8
RACCORDO
100
AcDbLine
 62
7
  6
CONTINUOUS
 10
8.0195187383
 20
6.9893533416
 11
7.6250861195
 21
6.81206452
  0
LWPOLYLINE
  5
230
100
AcDbEntity
  8
RACCORDO
100
AcDbPolyline
 62
250
  6
CONTINUOUS
 90
16
 70
0
 10
4.523302164
 20
-5.7169495773
 10
4.5606719412
 20
-5.7364542977
 10
4.6014682326
 20
-5.7537716587
 10
4.6453192781
 20
-5.7686874194
 10
4.6918412129
 20
-5.7810146282
 10
4.7405524085
 20
-5.7905719331
 10
4.7908664186
 20
-5.797204692
 10
4.8423056445
 20
-5.8008159642
 10
4.8942780369
 20
-5.8013306991
 10
4.9459848847
 20
-5.7987334442
 10
4.9967638097
 20
-5.7930814209
 10
5.0461866546
 20
-5.7844465317
 10
5.0938156907
 20
-5.7729112675
 10
5.1391670313
 20
-5.7585872712
 10
5.1817252467
 20
-5.7416315027
 10
5.2210328425
 20
-5.722223316
  0
LINE
  5
231
100
AcDbEntity
  8
DRAFT
100
AcDbLine
 62
7
  6
CONTINUOUS
 10
8.6868039574
 20
-8.1504828171
 11
8.3507091434
 21
-7.9564258838
  0
LINE
  5
232
100
AcDbEntity
  8
RACCORDO
100
AcDbLine
 62
250
  6
CONTINUOUS
 10
4.523302164
 20
-5.7169495773
 11
-10.3078795189
 21
2.8463888481
  0
LINE
  5
233
100
AcDbEntity
  8
RACCORDO
100
AcDbLine
 62
250
  6
CONTINUOUS
 10
9.7115619604
 20
-8.3340154101
 11
8.5690115353
 21
-7.6743211141
  0
LINE
  5
234
100
AcDbEntity
  8
RACCORDO
100
AcDbLine
 62
7
  6
CONTINUOUS
 10
9.9511474099
 20
-8.3102878133
 11
8.9214439817
 21
-7.7157499591
  0
LINE
  5
235
100
AcDbEntity
  8
RACCORDO
100
AcDbLine
 62
250
  6
CONTINUOUS
 10
4.8706851972
 20
-5.1082020055
 11
-9.9604964858
 21
3.4551364199
  0
LINE
  5
236
100
AcDbEntity
  8
RACCORDO
100
AcDbLine
 62
7
  6
CONTINUOUS
 10
-10.2043382084
 20
3.8234099598
 11
4.6268434746
 21
-4.7399284656
  0
LWPOLYLINE
  5
237
100
AcDbEntity
  8
RACCORDO
100
AcDbPolyline
 62
250
  6
CONTINUOUS
 90
9
 70
0
 10
-10.3078795189
 20
4.0522783903
 10
-10.3416605092
 20
4.0738552313
 10
-10.3716531258
 20
4.0974104987
 10
-10.3974863168
 20
4.1227295428
 10
-10.4188362933
 20
4.1495907249
 10
-10.4353889645
 20
4.1777159587
 10
-10.4468764998
 20
4.2067666376
 10
-10.4531310037
 20
4.2364670019
 10
-10.4543261283
 20
4.256415687
  0
LWPOLYLINE
  5
238
100
AcDbEntity
  8
RACCORDO
100
AcDbPolyline
 62
250
  6
CONTINUOUS
 90
9
 70
0
 10
-10.2043382084
 20
3.8234099598
 10
-10.2189856243
 20
3.8329219915
 10
-10.2418006593
 20
3.8527884445
 10
-10.2615356038
 20
3.8769794836
 10
-10.2779790118
 20
3.9052359187
 10
-10.2909547034
 20
3.9372550016
 10
-10.3003236531
 20
3.9726936701
 10
-10.3059854791
 20
4.0111722233
 10
-10.3078795189
 20
4.0522783903
  0
LINE
  5
239
100
AcDbEntity
  8
RACCORDO
100
AcDbLine
 62
7
  6
CONTINUOUS
 10
8.3507091434
 20
5.5767075133
 11
9.7115619604
 21
6.3624495722
  0
LINE
  5
23A
100
AcDbEntity
  8
RACCORDO
100
AcDbLine
 62
7
  6
CONTINUOUS
 10
8.6868039574
 20
6.5459821652
 11
8.3507091434
 21
6.3652412507
  0
LWPOLYLINE
  5
23B
100
AcDbEntity
  8
RACCORDO
100
AcDbPolyline
 62
250
  6
CONTINUOUS
 90
9
 70
0
 10
-9.9604964858
 20
3.4551364199
 10
-9.9983625613
 20
3.4736681551
 10
-10.0357464448
 20
3.4875665517
 10
-10.0722387886
 20
3.4966794246
 10
-10.1074400074
 20
3.500906989
 10
-10.1409646531
 20
3.5002029539
 10
-10.1724456364
 20
3.4945750284
 10
-10.2015382452
 20
3.4840848372
 10
-10.2205831817
 20
3.4737367088
  0
LINE
  5
23C
100
AcDbEntity
  8
RACCORDO
100
AcDbLine
 62
250
  6
CONTINUOUS
 10
-10.3078795189
 20
4.0522783903
 11
4.523302164
 21
-4.511060035
  0
LINE
  5
23D
100
AcDbEntity
  8
RACCORDO
100
AcDbLine
 62
7
  6
CONTINUOUS
 10
7.9910383116
 20
-3.3301619186
 11
7.9971961339
 21
-3.3337173681
  0
LWPOLYLINE
  5
23E
100
AcDbEntity
  8
RACCORDO
100
AcDbPolyline
 62
250
  6
CONTINUOUS
 90
16
 70
0
 10
4.523302164
 20
15.9405013083
 10
4.525175001
 20
15.9835461864
 10
4.5307736704
 20
16.0282977365
 10
4.5400388579
 20
16.0742818443
 10
4.5528724047
 20
16.1210113375
 10
4.5691383475
 20
16.1679911467
 10
4.588664359
 20
16.2147235505
 10
4.6112435734
 20
16.2607134487
 10
4.6366367783
 20
16.3054736075
 10
4.6645749488
 20
16.3485298214
 10
4.6947620977
 20
16.3894259373
 10
4.7268784114
 20
16.4277286866
 10
4.7605836376
 20
16.4630322759
 10
4.7955206908
 20
16.494962686
 10
4.8313194353
 20
16.5231816346
 10
4.8676006058
 20
16.5473901599
  0
LINE
  5
23F
100
AcDbEntity
  8
RACCORDO
100
AcDbLine
 62
7
  6
CONTINUOUS
 10
8.3507091434
 20
2.3108264061
 11
9.7115619604
 21
3.1523982014
  0
LWPOLYLINE
  5
240
100
AcDbEntity
  8
RACCORDO
100
AcDbPolyline
 62
250
  6
CONTINUOUS
 90
16
 70
0
 10
5.2210328425
 20
-5.722223316
 10
5.2184652506
 20
-5.6785650211
 10
5.2121221022
 20
-5.633086321
 10
5.2020765656
 20
-5.5862911747
 10
5.1884517393
 20
-5.5387258228
 10
5.1713958678
 20
-5.4908877793
 10
5.1510606575
 20
-5.443219884
 10
5.1276038562
 20
-5.3961526681
 10
5.1013134276
 20
-5.3503169211
 10
5.0726083893
 20
-5.3064285401
 10
5.0418574557
 20
-5.2649917734
 10
5.0093931361
 20
-5.2263995463
 10
4.9756525576
 20
-5.1911121549
 10
4.9410430871
 20
-5.1594812528
 10
4.9059273414
 20
-5.1317665213
 10
4.8706851972
 20
-5.1082020055
  0
LWPOLYLINE
  5
241
100
AcDbEntity
  8
RACCORDO
100
AcDbPolyline
 62
250
  6
CONTINUOUS
 90
9
 70
0
 10
4.523302164
 20
-4.511060035
 10
4.5252144348
 20
-4.5523577369
 10
4.530928892
 20
-4.5909922971
 10
4.5403812661
 20
-4.6265478552
 10
4.5534582475
 20
-4.6586245167
 10
4.5700208437
 20
-4.6869003507
 10
4.5899260003
 20
-4.7111118162
 10
4.6130257396
 20
-4.7310151017
 10
4.6267329838
 20
-4.7398646132
  0
LINE
  5
242
100
AcDbEntity
  8
RACCORDO
100
AcDbLine
 62
250
  6
CONTINUOUS
 10
4.523302164
 20
-26.1685109206
 11
4.523302164
 21
-5.7169495773
  0
LINE
  5
243
100
AcDbEntity
  8
RACCORDO
100
AcDbLine
 62
250
  6
CONTINUOUS
 10
4.523302164
 20
-4.511060035
 11
4.523302164
 21
15.9405013083
  0
LINE
  5
244
100
AcDbEntity
  8
RACCORDO
100
AcDbLine
 62
250
  6
CONTINUOUS
 10
5.2210328425
 20
-26.1737846593
 11
5.2210328425
 21
-5.722223316
  0
LINE
  5
245
100
AcDbEntity
  8
RACCORDO
100
AcDbLine
 62
250
  6
CONTINUOUS
 10
5.2210328425
 20
-4.5163337737
 11
5.2210328425
 21
15.9352275696
  0
LINE
  5
246
100
AcDbEntity
  8
DRAFT
100
AcDbLine
 62
7
  6
CONTINUOUS
 10
7.6250861195
 20
-16.865573507
 11
7.6250861195
 21
-14.4161626766
  0
LINE
  5
247
100
AcDbEntity
  8
DRAFT
100
AcDbLine
 62
7
  6
CONTINUOUS
 10
7.6250861195
 20
9.2614753504
 11
7.6250861195
 21
6.81206452
  0
LWPOLYLINE
  5
248
100
AcDbEntity
  8
RACCORDO
100
AcDbPolyline
 62
250
  6
CONTINUOUS
 90
16
 70
0
 10
4.8706851972
 20
-5.1082020055
 10
4.8341765758
 20
-5.1322047585
 10
4.7981252302
 20
-5.1602854573
 10
4.7629174254
 20
-5.1921432367
 10
4.7289303887
 20
-5.2274367627
 10
4.6965282677
 20
-5.2657878897
 10
4.6660582285
 20
-5.3067857117
 10
4.6378467367
 20
-5.3499909657
 10
4.6121960586
 20
-5.3949407372
 10
4.5893810237
 20
-5.4411534206
 10
4.5696460791
 20
-5.4881338791
 10
4.5532026711
 20
-5.5353787495
 10
4.5402269795
 20
-5.5823818358
 10
4.5308580298
 20
-5.6286395326
 10
4.5251962038
 20
-5.6736562206
 10
4.523302164
 20
-5.7169495773
  0
LWPOLYLINE
  5
249
100
AcDbEntity
  8
RACCORDO
100
AcDbPolyline
 62
250
  6
CONTINUOUS
 90
9
 70
0
 10
5.1104084464
 20
-4.7490234585
 10
5.1284452331
 20
-4.737951049
 10
5.1516194618
 20
-4.7182573889
 10
5.1717850688
 20
-4.6940596789
 10
5.1887212439
 20
-4.6656228802
 10
5.2022425387
 20
-4.6332583713
 10
5.2122008971
 20
-4.5973205384
 10
5.2184872766
 20
-4.5582028952
 10
5.2210328425
 20
-4.5163337737
  0
LINE
  5
24A
100
AcDbEntity
  8
RACCORDO
100
AcDbLine
 62
250
  6
CONTINUOUS
 10
7.9971961339
 20
-3.3337173681
 11
4.8706851972
 21
-5.1082020055
  0
LINE
  5
24B
100
AcDbEntity
  8
RACCORDO
100
AcDbLine
 62
250
  6
CONTINUOUS
 10
8.3507091434
 20
-3.9459421424
 11
5.2210328425
 21
-5.722223316
  0
LINE
  5
24C
100
AcDbEntity
  8
RACCORDO
100
AcDbLine
 62
250
  6
CONTINUOUS
 10
5.2210328425
 20
-4.5163337737
 11
8.3507091434
 21
-2.8629889205
  0
LINE
  5
24D
100
AcDbEntity
  8
RACCORDO
100
AcDbLine
 62
7
  6
CONTINUOUS
 10
5.1104084464
 20
-4.7490234585
 11
8.2417269658
 21
-3.0948110544
  0
LWPOLYLINE
  5
24E
100
AcDbEntity
  8
RACCORDO
100
AcDbPolyline
 62
250
  6
CONTINUOUS
 90
16
 70
0
 10
5.2210328425
 20
-4.5163337737
 10
5.1827963463
 20
-4.535264869
 10
5.1412324053
 20
-4.5519588509
 10
5.0967218689
 20
-4.5662068746
 10
5.0496561434
 20
-4.577827595
 10
5.0005250465
 20
-4.5866464719
 10
4.9499230513
 20
-4.5925172459
 10
4.898331594
 20
-4.5953500461
 10
4.8463465561
 20
-4.595078539
 10
4.7947700453
 20
-4.591699444
 10
4.7442623917
 20
-4.5852804237
 10
4.6952476195
 20
-4.5759001371
 10
4.6481600373
 20
-4.5636481663
 10
4.6034781331
 20
-4.5486439071
 10
4.5617093174
 20
-4.5310523633
 10
4.523302164
 20
-4.511060035
  0
LINE
  5
24F
100
AcDbEntity
  8
RACCORDO
100
AcDbLine
 62
7
  6
CONTINUOUS
 10
8.3507091434
 20
-21.639654556
 11
8.3507091434
 21
-16.9135004371
  0
LINE
  5
250
100
AcDbEntity
  8
RACCORDO
100
AcDbLine
 62
7
  6
CONTINUOUS
 10
8.3507091434
 20
-13.5730686528
 11
8.3507091434
 21
-12.3856385762
  0
LINE
  5
251
100
AcDbEntity
  8
DRAFT
100
AcDbLine
 62
7
  6
CONTINUOUS
 10
8.3507091434
 20
-12.3856385762
 11
8.3507091434
 21
-9.119757469
  0
LINE
  5
252
100
AcDbEntity
  8
RACCORDO
100
AcDbLine
 62
7
  6
CONTINUOUS
 10
8.3507091434
 20
-9.119757469
 11
8.3507091434
 21
-3.9459421424
  0
LINE
  5
253
100
AcDbEntity
  8
RACCORDO
100
AcDbLine
 62
7
  6
CONTINUOUS
 10
8.3507091434
 20
-2.8629889205
 11
8.3507091434
 21
2.3108264061
  0
LINE
  5
254
100
AcDbEntity
  8
DRAFT
100
AcDbLine
 62
7
  6
CONTINUOUS
 10
8.3507091434
 20
2.3108264061
 11
8.3507091434
 21
5.5767075133
  0
LINE
  5
255
100
AcDbEntity
  8
RACCORDO
100
AcDbLine
 62
7
  6
CONTINUOUS
 10
8.3507091434
 20
5.5767075133
 11
8.3507091434
 21
6.7641375899
  0
LINE
  5
256
100
AcDbEntity
  8
RACCORDO
100
AcDbLine
 62
7
  6
CONTINUOUS
 10
8.3507091434
 20
10.1045693742
 11
8.3507091434
 21
14.8307234931
  0
LINE
  5
257
100
AcDbEntity
  8
RACCORDO
100
AcDbLine
 62
7
  6
CONTINUOUS
 10
10.0528814001
 20
3.764646816
 11
10.0528814001
 21
6.1583522624
  0
LINE
  5
258
100
AcDbEntity
  8
RACCORDO
100
AcDbLine
 62
7
  6
CONTINUOUS
 10
10.0528814001
 20
-8.5381127198
 11
10.0528814001
 21
-10.9318181663
  0
LINE
  5
259
100
AcDbEntity
  8
RACCORDO
100
AcDbLine
 62
7
  6
CONTINUOUS
 10
8.3507091434
 20
-7.7959663548
 11
8.5690115353
 21
-7.6743211141
  0
LINE
  5
25A
100
AcDbEntity
  8
RACCORDO
100
AcDbLine
 62
7
  6
CONTINUOUS
 10
8.3507091434
 20
-8.3312237316
 11
8.6868039574
 21
-8.1504828171
  0
LWPOLYLINE
  5
25B
100
AcDbEntity
  8
RACCORDO
100
AcDbPolyline
 62
7
  6
CONTINUOUS
 90
7
 70
0
 10
8.5690115353
 20
-7.6743211141
 10
8.5927067956
 20
-7.6621091492
 10
8.6159406851
 20
-7.6518437733
 10
8.6387132036
 20
-7.6435249865
 10
8.6610243513
 20
-7.6371527886
 10
8.6828741281
 20
-7.6327271799
 10
8.704262534
 20
-7.6302481601
  0
LINE
  5
25C
100
AcDbEntity
  8
RACCORDO
100
AcDbLine
 62
7
  6
CONTINUOUS
 10
7.6250861195
 20
7.3497652349
 11
7.6462002064
 21
7.3399971714
  0
LINE
  5
25D
100
AcDbEntity
  8
DRAFT
100
AcDbLine
 62
7
  6
CONTINUOUS
 10
8.3507091434
 20
6.7400390985
 11
8.6868039574
 21
6.5459821652
  0
LINE
  5
25E
100
AcDbEntity
  8
RACCORDO
100
AcDbLine
 62
250
  6
CONTINUOUS
 10
7.6250861195
 20
7.2170937923
 11
8.0195187383
 21
6.9893533416
  0
LINE
  5
25F
100
AcDbEntity
  8
RACCORDO
100
AcDbLine
 62
7
  6
CONTINUOUS
 10
7.6461270689
 20
7.3400394248
 11
8.2444565083
 21
6.9945715053
  0
LINE
  5
260
100
AcDbEntity
  8
RACCORDO
100
AcDbLine
 62
250
  6
CONTINUOUS
 10
9.7115619604
 20
6.3624495722
 11
8.5690115353
 21
7.0221438682
  0
LINE
  5
261
100
AcDbEntity
  8
RACCORDO
100
AcDbLine
 62
7
  6
CONTINUOUS
 10
9.9511474099
 20
6.3861771689
 11
8.9214439817
 21
6.9807150232
  0
LINE
  5
262
100
AcDbEntity
  8
RACCORDO
100
AcDbLine
 62
7
  6
CONTINUOUS
 10
8.338346641
 20
-21.7520872501
 11
7.6749121958
 21
-24.9015564906
  0
LINE
  5
263
100
AcDbEntity
  8
RACCORDO
100
AcDbLine
 62
7
  6
CONTINUOUS
 10
9.7115619604
 20
-8.3340154101
 11
8.3507091434
 21
-9.119757469
  0
LINE
  5
264
100
AcDbEntity
  8
RACCORDO
100
AcDbLine
 62
7
  6
CONTINUOUS
 10
8.338346641
 20
14.9296088564
 11
7.6749121958
 21
17.3520597661
  0
LINE
  5
265
100
AcDbEntity
  8
RACCORDO
100
AcDbLine
 62
7
  6
CONTINUOUS
 10
9.7115619604
 20
-11.5440667809
 11
8.3507091434
 21
-12.3856385762
  0
LWPOLYLINE
  5
266
100
AcDbEntity
  8
RACCORDO
100
AcDbPolyline
 62
250
  6
CONTINUOUS
 90
9
 70
0
 10
-10.3078795189
 20
24.5038397337
 10
-10.3419170609
 20
24.5255981885
 10
-10.372064324
 20
24.5493322193
 10
-10.3979598399
 20
24.5748154945
 10
-10.4193048411
 20
24.6018338072
 10
-10.4357826643
 20
24.6300840499
 10
-10.4471271394
 20
24.6591641755
 10
-10.4532128463
 20
24.6887227154
 10
-10.4543261276
 20
24.7079618627
  0
LINE
  5
267
100
AcDbEntity
  8
RACCORDO
100
AcDbLine
 62
7
  6
CONTINUOUS
 10
8.0195187383
 20
-14.161216262
 11
7.6250861195
 21
-14.4161626766
  0
LWPOLYLINE
  5
268
100
AcDbEntity
  8
RACCORDO
100
AcDbPolyline
 62
250
  6
CONTINUOUS
 90
16
 70
0
 10
4.523302164
 20
15.9405013083
 10
4.5606848417
 20
15.9209905078
 10
4.6014925171
 20
15.9036699749
 10
4.6453523616
 20
15.888753487
 10
4.6918792645
 20
15.8764275076
 10
4.740591259
 20
15.8668725977
 10
4.7909026272
 20
15.8602425445
 10
4.842334389
 20
15.8566337723
 10
4.8942958517
 20
15.8561205454
 10
4.9459935823
 20
15.8587181426
 10
4.9967672485
 20
15.8643699552
 10
5.0461868863
 20
15.8730044021
 10
5.093814162
 20
15.884539193
 10
5.1391649165
 20
15.898862862
 10
5.1817237261
 20
15.9158187075
 10
5.2210328425
 20
15.9352275696
  0
LINE
  5
269
100
AcDbEntity
  8
RACCORDO
100
AcDbLine
 62
250
  6
CONTINUOUS
 10
4.523302164
 20
15.9405013083
 11
-10.3078795189
 21
24.5038397337
  0
LINE
  5
26A
100
AcDbEntity
  8
RACCORDO
100
AcDbLine
 62
250
  6
CONTINUOUS
 10
4.8676006058
 20
16.5473901599
 11
-9.9635810771
 21
25.1107285853
  0
LWPOLYLINE
  5
26B
100
AcDbEntity
  8
RACCORDO
100
AcDbPolyline
 62
250
  6
CONTINUOUS
 90
16
 70
0
 10
4.8676006058
 20
16.5473901599
 10
4.9031269861
 20
16.5236311908
 10
4.9385103529
 20
16.4957184934
 10
4.973365296
 20
16.4639060189
 10
5.00734785
 20
16.428447858
 10
5.0400262851
 20
16.3897325193
 10
5.0709064541
 20
16.3483177938
 10
5.0996092834
 20
16.3047231958
 10
5.1258646353
 20
16.2593709606
 10
5.149392569
 20
16.2127416239
 10
5.1699360333
 20
16.165335032
 10
5.1872594985
 20
16.1176836979
 10
5.2011642782
 20
16.0703293055
 10
5.2114962321
 20
16.0237988763
 10
5.2181434786
 20
15.9785990702
 10
5.2210328425
 20
15.9352275696
  0
LINE
  5
26C
100
AcDbEntity
  8
RACCORDO
100
AcDbLine
 62
7
  6
CONTINUOUS
 10
8.0195187383
 20
-16.6882846854
 11
7.6250861195
 21
-16.865573507
  0
LWPOLYLINE
  5
26D
100
AcDbEntity
  8
RACCORDO
100
AcDbPolyline
 62
250
  6
CONTINUOUS
 90
9
 70
0
 10
-9.9635810771
 20
25.1107285853
 10
-10.0006418576
 20
25.1289198603
 10
-10.0373999554
 20
25.1427508534
 10
-10.0734552342
 20
25.1520063876
 10
-10.1084270632
 20
25.156517943
 10
-10.1418910339
 20
25.1561569704
 10
-10.1733955936
 20
25.1508692027
 10
-10.2025978456
 20
25.1406570256
 10
-10.2237000784
 20
25.1292105464
  0
LINE
  5
26E
100
AcDbEntity
  8
RACCORDO
100
AcDbLine
 62
7
  6
CONTINUOUS
 10
7.2249753449
 20
17.9085020765
 11
-7.7265159792
 21
26.5413057808
  0
LWPOLYLINE
  5
26F
100
AcDbEntity
  8
RACCORDO
100
AcDbPolyline
 62
250
  6
CONTINUOUS
 90
9
 70
0
 10
5.10709027
 20
-26.4082113774
 10
5.1255142765
 20
-26.3970796908
 10
5.1492189273
 20
-26.3772242219
 10
5.1698246772
 20
-26.352869148
 10
5.1871701146
 20
-26.3242666172
 10
5.2011003816
 20
-26.2916890008
 10
5.2114638685
 20
-26.2554697399
 10
5.218133683
 20
-26.2160238864
 10
5.2210328425
 20
-26.1737846593
  0
LINE
  5
270
100
AcDbEntity
  8
RACCORDO
100
AcDbLine
 62
250
  6
CONTINUOUS
 10
7.6749121958
 20
-24.9015564906
 11
5.2210328425
 21
-26.1737846593
  0
LINE
  5
271
100
AcDbEntity
  8
RACCORDO
100
AcDbLine
 62
7
  6
CONTINUOUS
 10
7.4947942181
 20
-25.1702922776
 11
5.1069922221
 21
-26.4082622522
  0
ARC
  5
272
100
AcDbEntity
  8
RACCORDO
100
AcDbCircle
 62
7
  6
CONTINUOUS
 10
-9.9543261283
 20
3.0505261447
 40
0.5
100
AcDbArc
 50
122.1754807991
 51
180.015358494
  0
ARC
  5
273
100
AcDbEntity
  8
RACCORDO
100
AcDbCircle
 62
7
  6
CONTINUOUS
 10
-9.9543261283
 20
-17.4010351986
 40
0.5
100
AcDbArc
 50
179.9900082978
 51
239.9984015652
  0
ARC
  5
274
100
AcDbEntity
  8
RACCORDO
100
AcDbCircle
 62
7
  6
CONTINUOUS
 10
4.8768555546
 20
-25.964373624
 40
0.5
100
AcDbArc
 50
239.9984015652
 51
297.4174046156
  0
ARC
  5
275
100
AcDbEntity
  8
RACCORDO
100
AcDbCircle
 62
7
  6
CONTINUOUS
 10
4.8768555546
 20
-4.3069227383
 40
0.5
100
AcDbArc
 50
239.9837780751
 51
297.8465900872
  0
ARC
  5
276
100
AcDbEntity
  8
RACCORDO
100
AcDbCircle
 62
7
  6
CONTINUOUS
 10
-9.9543261283
 20
4.256415687
 40
0.5
100
AcDbArc
 50
179.9841296142
 51
239.9984015652
  0
ARC
  5
277
100
AcDbEntity
  8
RACCORDO
100
AcDbCircle
 62
7
  6
CONTINUOUS
 10
-9.9543261283
 20
24.7079770303
 40
0.5
100
AcDbArc
 50
122.5989151739
 51
180.00173808
  0
ELLIPSE
  5
278
100
AcDbEntity
  8
RACCORDO
100
AcDbEllipse
 62
7
  6
CONTINUOUS
 10
9.7054993069
 20
-11.1395186927
 30
0.0
 11
0.2435694555
 21
0.4367051162
 31
0.0
 40
0.5671693725
 41
-2.347120172
 42
-0.7937771377
  0
ELLIPSE
  5
279
100
AcDbEntity
  8
RACCORDO
100
AcDbEllipse
 62
7
  6
CONTINUOUS
 10
7.9970345574
 20
-3.7419213999
 30
0.0
 11
-0.2500883296
 21
0.432972707
 31
0.0
 40
0.5775954524
 41
-2.3562050126
 42
-0.7858655366
  0
ELLIPSE
  5
27A
100
AcDbEntity
  8
RACCORDO
100
AcDbEllipse
 62
7
  6
CONTINUOUS
 10
7.3213037832
 20
-24.6970350772
 30
0.0
 11
-0.1121548712
 21
0.4957473682
 31
0.0
 40
0.7039445592
 41
-2.9595186474
 42
-2.1483506142
  0
ELLIPSE
  5
27B
100
AcDbEntity
  8
RACCORDO
100
AcDbEllipse
 62
7
  6
CONTINUOUS
 10
7.637484921
 20
-3.5414249862
 30
0.0
 11
0.499979581
 21
0.0076930498
 31
0.0
 40
0.5873737521
 41
7.0595459565
 42
7.3287405707
  0
ELLIPSE
  5
27C
100
AcDbEntity
  8
RACCORDO
100
AcDbEllipse
 62
7
  6
CONTINUOUS
 10
7.9878976315
 20
-21.8384463294
 30
0.0
 11
0.2600728777
 21
0.4271418247
 31
0.0
 40
0.5922410672
 41
-1.033355665
 42
-0.7715562772
  0
ELLIPSE
  5
27D
100
AcDbEntity
  8
RACCORDO
100
AcDbEllipse
 62
7
  6
CONTINUOUS
 10
7.9878976315
 20
-13.7718604262
 30
0.0
 11
0.2600728777
 21
0.4271418247
 31
0.0
 40
0.5922410672
 41
-2.2550861414
 42
-0.7715562772
  0
ELLIPSE
  5
27E
100
AcDbEntity
  8
RACCORDO
100
AcDbEllipse
 62
7
  6
CONTINUOUS
 10
8.4214198216
 20
-8.0044018447
 30
0.0
 11
0.7071067812
 21
-0.0
 31
0.0
 40
0.5773316694
 41
0.7853497718
 42
1.1592794807
  0
ELLIPSE
  5
27F
100
AcDbEntity
  8
RACCORDO
100
AcDbEllipse
 62
7
  6
CONTINUOUS
 10
9.7054993069
 20
-8.7458132463
 30
0.0
 11
0.2435694555
 21
0.4367051162
 31
0.0
 40
0.5671693725
 41
5.4894081695
 42
7.0427512038
  0
ELLIPSE
  5
280
100
AcDbEntity
  8
RACCORDO
100
AcDbEllipse
 62
7
  6
CONTINUOUS
 10
7.9878976315
 20
-17.1122922105
 30
0.0
 11
0.2600728777
 21
0.4271418247
 31
0.0
 40
0.5922410672
 41
5.51162903
 42
6.9951588942
  0
ELLIPSE
  5
281
100
AcDbEntity
  8
RACCORDO
100
AcDbEllipse
 62
7
  6
CONTINUOUS
 10
9.7054993069
 20
3.5569462896
 30
0.0
 11
0.2435694555
 21
0.4367051162
 31
0.0
 40
0.5671693725
 41
-2.347120172
 42
-0.7937771377
  0
ELLIPSE
  5
282
100
AcDbEntity
  8
RACCORDO
100
AcDbEllipse
 62
7
  6
CONTINUOUS
 10
7.9970345574
 20
-2.6585951162
 30
0.0
 11
-0.2502024451
 21
0.4331706506
 31
0.0
 40
0.5770679437
 41
-3.1633994611
 42
-2.3566614272
  0
ELLIPSE
  5
283
100
AcDbEntity
  8
RACCORDO
100
AcDbEllipse
 62
7
  6
CONTINUOUS
 10
-7.6346313742
 20
26.1913949331
 30
0.0
 11
-0.3297163127
 21
0.381589989
 31
0.0
 40
0.4128243551
 41
-0.8709070521
 42
-0.0596421506
  0
ELLIPSE
  5
284
100
AcDbEntity
  8
RACCORDO
100
AcDbEllipse
 62
7
  6
CONTINUOUS
 10
7.3213037832
 20
17.5560254151
 30
0.0
 11
-0.3313794069
 21
0.3842968449
 31
0.0
 40
0.4077379513
 41
-2.4333010859
 42
-0.8631899918
  0
ELLIPSE
  5
285
100
AcDbEntity
  8
RACCORDO
100
AcDbEllipse
 62
7
  6
CONTINUOUS
 10
7.9878976315
 20
9.9057776008
 30
0.0
 11
0.2600728777
 21
0.4271418247
 31
0.0
 40
0.5922410672
 41
-2.2550861414
 42
-0.7715562772
  0
ELLIPSE
  5
286
100
AcDbEntity
  8
RACCORDO
100
AcDbEllipse
 62
7
  6
CONTINUOUS
 10
7.9878976315
 20
14.6319317197
 30
0.0
 11
0.2600728777
 21
0.4271418247
 31
0.0
 40
0.5922410672
 41
-0.7715562772
 42
-0.5097568894
  0
ELLIPSE
  5
287
100
AcDbEntity
  8
RACCORDO
100
AcDbEllipse
 62
7
  6
CONTINUOUS
 10
8.4214198216
 20
6.6920631376
 30
0.0
 11
0.7071067812
 21
0.0
 31
0.0
 40
0.5773316694
 41
0.7853497718
 42
1.1592794807
  0
ELLIPSE
  5
288
100
AcDbEntity
  8
RACCORDO
100
AcDbEllipse
 62
7
  6
CONTINUOUS
 10
9.7054993069
 20
5.950651736
 30
0.0
 11
0.2435694555
 21
0.4367051162
 31
0.0
 40
0.5671693725
 41
5.4894081695
 42
7.0427512038
  0
ELLIPSE
  5
289
100
AcDbEntity
  8
RACCORDO
100
AcDbEllipse
 62
7
  6
CONTINUOUS
 10
7.9878976315
 20
6.5653458165
 30
0.0
 11
0.2600728777
 21
0.4271418247
 31
0.0
 40
0.5922410672
 41
5.51162903
 42
6.9951588942
  0
ENDSEC
  0
SECTION
  2
OBJECTS
  0
DICTIONARY
  5
C
100
AcDbDictionary
280
0
281
1
  3
ACAD_GROUP
350
D
  3
ACAD_MLINESTYLE
350
17
  3
ACAD_LAYOUT
350
1A
  3
ACAD_PLOTSETTINGS
350
19
  3
ACAD_PLOTSTYLENAME
350
E
  0
DICTIONARY
  5
D
102
{ACAD_REACTORS
330
C
102
}
100
AcDbDictionary
280
0
281
1
  0
ACDBDICTIONARYWDFLT
  5
E
102
{ACAD_REACTORS
330
C
102
}
100
AcDbDictionary
281
1
  3
Normal
350
F
100
AcDbDictionaryWithDefault
340
F
  0
DICTIONARY
  5
17
102
{ACAD_REACTORS
330
C
102
}
100
AcDbDictionary
280
0
281
1
  3
Standard
350
18
  0
DICTIONARY
  5
19
102
{ACAD_REACTORS
330
C
102
}
100
AcDbDictionary
281
1
  0
DICTIONARY
  5
1A
102
{ACAD_REACTORS
330
C
102
}
100
AcDbDictionary
281
1
  3
Model
350
28A
  3
Layout1
350
28B
  0
ACDBPLACEHOLDER
  5
F
102
{ACAD_REACTORS
330
E
102
}
  0
MLINESTYLE
  5
18
102
{ACAD_REACTORS
330
17
102
}
100
AcDbMlineStyle
  2
STANDARD
 70
0
  3

 62
256
 51
90.0
 52
90.0
 71
2
 49
0.5
 62
256
  6
BYLAYER
 49
-0.5
 62
256
  6
BYLAYER
  0
LAYOUT
  5
28A
102
{ACAD_REACTORS
330
1A
102
}
100
AcDbPlotSettings
  1

  2
none_device
  4

  6

 40
0.0
 41
0.0
 42
0.0
 43
0.0
 44
210.0
 45
297.0
 46
0.0
 47
0.0
 48
0.0
 49
0.0
140
0.0
141
0.0
142
1.0
143
1.0
 70
1024
 72
1
 73
0
 74
0
  7

 75
0
147
1.0
148
0.0
149
0.0
100
AcDbLayout
  1
Model
 70
0
 71
0
 10
0.0
 20
0.0
 11
210.0
 21
297.0
 12
0.0
 22
0.0
 32
0.0
 14
0.0
 24
0.0
 34
0.0
 15
0.0
 25
0.0
 35
0.0
146
0.0
 13
0.0
 23
0.0
 33
0.0
 16
1.0
 26
0.0
 36
0.0
 17
0.0
 27
1.0
 37
0.0
 76
0
330
20F
345
0
346
0
  0
LAYOUT
  5
28B
102
{ACAD_REACTORS
330
1A
102
}
100
AcDbPlotSettings
  1

  2
none_device
  4

  6

 40
0.0
 41
0.0
 42
0.0
 43
0.0
 44
210.0
 45
297.0
 46
0.0
 47
0.0
 48
0.0
 49
0.0
140
0.0
141
0.0
142
1.0
143
1.0
 70
0
 72
1
 73
0
 74
0
  7

 75
0
147
1.0
148
0.0
149
0.0
100
AcDbLayout
  1
Layout1
 70
0
 71
1
 10
0.0
 20
0.0
 11
210.0
 21
297.0
 12
0.0
 22
0.0
 32
0.0
 14
0.0
 24
0.0
 34
0.0
 15
0.0
 25
0.0
 35
0.0
146
0.0
 13
0.0
 23
0.0
 33
0.0
 16
1.0
 26
0.0
 36
0.0
 17
0.0
 27
1.0
 37
0.0
 76
0
330
210
345
0
346
0
  0
ENDSEC
  0
EOF
