  0
SECTION
  2
HEADER
  9
$ACADVER
  1
AC1024
  9
$DWGCODEPAGE
  3
ANSI_1252
  9
$EXTMAX
 10
297.0
 20
210.0
 30
0.0
  9
$EXTMIN
 10
0.0
 20
0.0
 30
0.0
  9
$LIMMIN
 10
0.0
 20
0.0
  9
$LIMMAX
 10
297.0
 20
210.0
  9
$VIEWCTR
 10
148.5
 20
105.0
  9
$VIEWSIZE
 40
210.0
  9
$CLAYER
  8
0
  9
$LTSCALE
 40
16.335
  9
$CELTYPE
  6
BYLAYER
  9
$DIMSCALE
 40
1.0
  9
$DIMASZ
 40
3.0
  9
$DIMEXO
 40
0.5
  9
$DIMDLI
 40
11.286
  9
$DIMEXE
 40
1.5
  9
$DIMCEN
 40
2.673
  9
$DIMLFAC
 40
1.0
  9
$DIMBLK
  1
_FILLED
  9
$DIMALT
 70
0
  9
$DIMALTF
 40
0.0393700787
  9
$DIMTXT
 40
3.0
  9
$DIMTOL
 70
1
  9
$DIMLIM
 70
0
  9
$DIMTFAC
 40
1.0
  9
$DIMTP
 40
0.01
  9
$DIMTM
 40
0.01
  9
$DIMGAP
 40
0.625
  9
$DIMDSEP
 70
44
  9
$AUNITS
 70
0
  9
$PDMODE
 70
3
  9
$PDSIZE
 40
3.0
  9
$HANDSEED
  5
296
  9
$TILEMODE
 70
1
  9
$MEASUREMENT
 70
1
  9
$INSUNITS
 70
4
  0
ENDSEC
  0
SECTION
  2
CLASSES
  0
CLASS
  1
ACDBDICTIONARYWDFLT
  2
AcDbDictionaryWithDefault
  3
AutoCAD 2000
 90
0
 91
1
280
0
281
0
  0
CLASS
  1
ACDBPLACEHOLDER
  2
AcDbPlaceHolder
  3
AutoCAD 2000
 90
0
 91
1
280
0
281
0
  0
CLASS
  1
LAYOUT
  2
AcDbLayout
  3
AutoCAD 2000
 90
0
 91
0
280
0
281
0
  0
ENDSEC
  0
SECTION
  2
TABLES
  0
TABLE
  2
VPORT
  5
8
100
AcDbSymbolTable
 70
2
  0
VPORT
  5
1F4
100
AcDbSymbolTableRecord
100
AcDbViewportTableRecord
  2
*ACTIVE
 70
0
 10
0.0
 20
0.0
 11
1.0
 21
1.0
 12
148.5
 22
105.0
 13
0.0
 23
0.0
 14
1.0
 24
1.0
 15
0.0
 25
0.0
 16
0.0
 26
0.0
 36
1.0
 17
0.0
 27
0.0
 37
0.0
 40
210.0
 41
1.4142857143
 42
50.0
 43
0.0
 44
0.0
 50
0.0
 51
0.0
 71
0
 72
100
 73
1
 74
1
 75
0
 76
0
 77
0
 78
0
  0
ENDTAB
  0
TABLE
  2
LTYPE
  5
5
100
AcDbSymbolTable
 70
6
  0
LTYPE
  5
14
100
AcDbSymbolTableRecord
100
AcDbLinetypeTableRecord
  2
BYBLOCK
 70
0
  3

 72
65
 73
0
 40
0.0
  0
LTYPE
  5
15
100
AcDbSymbolTableRecord
100
AcDbLinetypeTableRecord
  2
BYLAYER
 70
0
  3

 72
65
 73
0
 40
0.0
  0
LTYPE
  5
16
100
AcDbSymbolTableRecord
100
AcDbLinetypeTableRecord
  2
CONTINUOUS
 70
64
  3
Solid line
 72
65
 73
0
 40
0.0
  0
LTYPE
  5
1F5
100
AcDbSymbolTableRecord
100
AcDbLinetypeTableRecord
  2
CENTER
 70
64
  3
____ _ ____ _ ____ _ ____ _ ____ _ ____ _ ____
 72
65
 73
4
 40
0.6
 49
0.375
 74
0
 49
-0.075
 74
0
 49
0.075
 74
0
 49
-0.075
 74
0
  0
LTYPE
  5
1F6
100
AcDbSymbolTableRecord
100
AcDbLinetypeTableRecord
  2
HIDDEN
 70
64
  3
- - - - - - - - - - - - - - - - - - - -
 72
65
 73
2
 40
0.2
 49
0.1
 74
0
 49
-0.1
 74
0
  0
LTYPE
  5
1F7
100
AcDbSymbolTableRecord
100
AcDbLinetypeTableRecord
  2
PHANTOM
 70
64
  3
_____ _ _ _____ _ _ _____ _ _ _____
 72
65
 73
6
 40
0.8
 49
0.45
 74
0
 49
-0.05
 74
0
 49
0.1
 74
0
 49
-0.05
 74
0
 49
0.1
 74
0
 49
-0.05
 74
0
  0
LTYPE
  5
1F8
100
AcDbSymbolTableRecord
100
AcDbLinetypeTableRecord
  2
DOT
 70
64
  3
. . . . . . . . . . . . . . . . . . . .
 72
65
 73
2
 40
0.2
 49
0.1
 74
0
 49
-0.1
 74
0
  0
LTYPE
  5
1F9
100
AcDbSymbolTableRecord
100
AcDbLinetypeTableRecord
  2
DASHED
 70
64
  3
- - - - - - - - - - - - - - - - - - - -
 72
65
 73
2
 40
0.2
 49
0.1
 74
0
 49
-0.1
 74
0
  0
ENDTAB
  0
TABLE
  2
LAYER
  5
2
100
AcDbSymbolTable
 70
36
  0
LAYER
  5
10
100
AcDbSymbolTableRecord
100
AcDbLayerTableRecord
  2
0
 70
0
 62
7
  6
CONTINUOUS
370
-3
390
F
  0
LAYER
  5
1FA
100
AcDbSymbolTableRecord
100
AcDbLayerTableRecord
  2
DEFAULT_1
 70
0
 62
7
  6
CENTER
370
-3
390
F
  0
LAYER
  5
1FB
100
AcDbSymbolTableRecord
100
AcDbLayerTableRecord
  2
DEFAULT_2
 70
0
 62
7
  6
HIDDEN
370
-3
390
F
  0
LAYER
  5
1FC
100
AcDbSymbolTableRecord
100
AcDbLayerTableRecord
  2
DEFAULT_3
 70
0
 62
7
  6
PHANTOM
370
-3
390
F
  0
LAYER
  5
1FD
100
AcDbSymbolTableRecord
100
AcDbLayerTableRecord
  2
ASSI
 70
0
 62
7
  6
CONTINUOUS
370
-3
390
F
  0
LAYER
  5
1FE
100
AcDbSymbolTableRecord
100
AcDbLayerTableRecord
  2
COLOR17
 70
0
 62
7
  6
CONTINUOUS
370
-3
390
F
  0
LAYER
  5
1FF
100
AcDbSymbolTableRecord
100
AcDbLayerTableRecord
  2
COLOR5
 70
0
 62
7
  6
CONTINUOUS
370
-3
390
F
  0
LAYER
  5
200
100
AcDbSymbolTableRecord
100
AcDbLayerTableRecord
  2
COORDINATE
 70
0
 62
7
  6
CONTINUOUS
370
-3
390
F
  0
LAYER
  5
201
100
AcDbSymbolTableRecord
100
AcDbLayerTableRecord
  2
COPY_PUBLISH
 70
0
 62
7
  6
CONTINUOUS
370
-3
390
F
  0
LAYER
  5
202
100
AcDbSymbolTableRecord
100
AcDbLayerTableRecord
  2
COSMETICI
 70
0
 62
7
  6
CONTINUOUS
370
-3
390
F
  0
LAYER
  5
203
100
AcDbSymbolTableRecord
100
AcDbLayerTableRecord
  2
CURVE
 70
0
 62
7
  6
CONTINUOUS
370
-3
390
F
  0
LAYER
  5
204
100
AcDbSymbolTableRecord
100
AcDbLayerTableRecord
  2
DRAFT
 70
0
 62
7
  6
CONTINUOUS
370
-3
390
F
  0
LAYER
  5
205
100
AcDbSymbolTableRecord
100
AcDbLayerTableRecord
  2
IMPORT_IGES
 70
0
 62
7
  6
CONTINUOUS
370
-3
390
F
  0
LAYER
  5
206
100
AcDbSymbolTableRecord
100
AcDbLayerTableRecord
  2
INTF_1
 70
0
 62
7
  6
CONTINUOUS
370
-3
390
F
  0
LAYER
  5
207
100
AcDbSymbolTableRecord
100
AcDbLayerTableRecord
  2
INTF_10
 70
0
 62
7
  6
CONTINUOUS
370
-3
390
F
  0
LAYER
  5
208
100
AcDbSymbolTableRecord
100
AcDbLayerTableRecord
  2
INTF_11
 70
0
 62
7
  6
CONTINUOUS
370
-3
390
F
  0
LAYER
  5
209
100
AcDbSymbolTableRecord
100
AcDbLayerTableRecord
  2
INTF_12
 70
0
 62
7
  6
CONTINUOUS
370
-3
390
F
  0
LAYER
  5
20A
100
AcDbSymbolTableRecord
100
AcDbLayerTableRecord
  2
INTF_2
 70
0
 62
7
  6
CONTINUOUS
370
-3
390
F
  0
LAYER
  5
20B
100
AcDbSymbolTableRecord
100
AcDbLayerTableRecord
  2
INTF_3
 70
0
 62
7
  6
CONTINUOUS
370
-3
390
F
  0
LAYER
  5
20C
100
AcDbSymbolTableRecord
100
AcDbLayerTableRecord
  2
INTF_4
 70
0
 62
7
  6
CONTINUOUS
370
-3
390
F
  0
LAYER
  5
20D
100
AcDbSymbolTableRecord
100
AcDbLayerTableRecord
  2
INTF_5
 70
0
 62
7
  6
CONTINUOUS
370
-3
390
F
  0
LAYER
  5
20E
100
AcDbSymbolTableRecord
100
AcDbLayerTableRecord
  2
INTF_6
 70
0
 62
7
  6
CONTINUOUS
370
-3
390
F
  0
LAYER
  5
20F
100
AcDbSymbolTableRecord
100
AcDbLayerTableRecord
  2
INTF_7
 70
0
 62
7
  6
CONTINUOUS
370
-3
390
F
  0
LAYER
  5
210
100
AcDbSymbolTableRecord
100
AcDbLayerTableRecord
  2
INTF_9
 70
0
 62
7
  6
CONTINUOUS
370
-3
390
F
  0
LAYER
  5
211
100
AcDbSymbolTableRecord
100
AcDbLayerTableRecord
  2
INTF_BLANK
 70
0
 62
7
  6
CONTINUOUS
370
-3
390
F
  0
LAYER
  5
212
100
AcDbSymbolTableRecord
100
AcDbLayerTableRecord
  2
INTF_RED
 70
0
 62
7
  6
CONTINUOUS
370
-3
390
F
  0
LAYER
  5
213
100
AcDbSymbolTableRecord
100
AcDbLayerTableRecord
  2
NOTE
 70
0
 62
7
  6
CONTINUOUS
370
-3
390
F
  0
LAYER
  5
214
100
AcDbSymbolTableRecord
100
AcDbLayerTableRecord
  2
PIANI
 70
0
 62
7
  6
CONTINUOUS
370
-3
390
F
  0
LAYER
  5
215
100
AcDbSymbolTableRecord
100
AcDbLayerTableRecord
  2
PUNTI
 70
0
 62
7
  6
CONTINUOUS
370
-3
390
F
  0
LAYER
  5
216
100
AcDbSymbolTableRecord
100
AcDbLayerTableRecord
  2
RACCORDO
 70
0
 62
7
  6
CONTINUOUS
370
-3
390
F
  0
LAYER
  5
217
100
AcDbSymbolTableRecord
100
AcDbLayerTableRecord
  2
RGB____0____0____0__
 70
0
 62
7
  6
CONTINUOUS
370
-3
390
F
  0
LAYER
  5
218
100
AcDbSymbolTableRecord
100
AcDbLayerTableRecord
  2
SIMBOLI
 70
0
 62
7
  6
CONTINUOUS
370
-3
390
F
  0
LAYER
  5
219
100
AcDbSymbolTableRecord
100
AcDbLayerTableRecord
  2
SMUSSO
 70
0
 62
7
  6
CONTINUOUS
370
-3
390
F
  0
LAYER
  5
21A
100
AcDbSymbolTableRecord
100
AcDbLayerTableRecord
  2
SNAPLINE
 70
0
 62
7
  6
CONTINUOUS
370
-3
390
F
  0
LAYER
  5
21B
100
AcDbSymbolTableRecord
100
AcDbLayerTableRecord
  2
SUPERFICI
 70
0
 62
7
  6
CONTINUOUS
370
-3
390
F
  0
LAYER
  5
21C
100
AcDbSymbolTableRecord
100
AcDbLayerTableRecord
  2
TRASH
 70
0
 62
7
  6
CONTINUOUS
370
-3
390
F
  0
LAYER
  5
21D
100
AcDbSymbolTableRecord
100
AcDbLayerTableRecord
  2
___SHELL
 70
0
 62
7
  6
CONTINUOUS
370
-3
390
F
  0
ENDTAB
  0
TABLE
  2
STYLE
  5
3
100
AcDbSymbolTable
 70
1
  0
STYLE
  5
11
100
AcDbSymbolTableRecord
100
AcDbTextStyleTableRecord
  2
STANDARD
 70
0
 40
0.0
 41
0.8
 50
0.0
 71
0
 42
0.2
  3
txt
  4

  0
STYLE
  5
21E
100
AcDbSymbolTableRecord
100
AcDbTextStyleTableRecord
  2
TEXTSTYLE_1
 70
0
 40
0.0
 41
0.8
 50
0.0
 71
0
 42
0.2
  3
gdt
  4

  0
ENDTAB
  0
TABLE
  2
VIEW
  5
6
100
AcDbSymbolTable
 70
0
  0
ENDTAB
  0
TABLE
  2
UCS
  5
7
100
AcDbSymbolTable
 70
0
  0
ENDTAB
  0
TABLE
  2
APPID
  5
9
100
AcDbSymbolTable
 70
1
  0
APPID
  5
21F
100
AcDbSymbolTableRecord
100
AcDbRegAppTableRecord
  2
ACAD
 70
0
  0
ENDTAB
  0
TABLE
  2
BLOCK_RECORD
  5
1
100
AcDbSymbolTable
 70
0
  0
BLOCK_RECORD
  5
220
100
AcDbSymbolTableRecord
100
AcDbBlockTableRecord
  2
*Model_Space
  0
BLOCK_RECORD
  5
221
100
AcDbSymbolTableRecord
100
AcDbBlockTableRecord
  2
*Paper_Space
  0
BLOCK_RECORD
  5
222
100
AcDbSymbolTableRecord
100
AcDbBlockTableRecord
  2
_FILLED
  0
ENDTAB
  0
TABLE
  2
DIMSTYLE
  5
A
100
AcDbSymbolTable
 70
1
100
AcDbDimStyleTable
 71
0
  0
DIMSTYLE
105
223
100
AcDbSymbolTableRecord
100
AcDbDimStyleTableRecord
  2
STANDARD
 70
0
  3

  4

 40
1.0
 41
3.0
 42
0.5
 43
0.38
 44
1.5
 45
0.0
 46
0.0
 47
0.01
 48
0.01
140
3.0
141
0.09
142
0.0
143
25.4
144
1.0
145
0.0
146
1.0
147
0.625
 71
1
 72
0
 73
0
 74
0
 75
0
 76
0
 77
1
 78
8
 79
2
170
0
171
1
172
0
173
0
174
0
175
0
176
0
177
0
178
0
270
2
179
2
271
2
272
2
273
2
274
2
275
0
280
0
281
0
282
0
283
1
284
8
285
0
286
0
287
3
288
0
340
11
278
44
341
222
342
222
343
222
344
222
  0
ENDTAB
  0
ENDSEC
  0
SECTION
  2
BLOCKS
  0
BLOCK
  5
20
100
AcDbEntity
  8
0
100
AcDbBlockBegin
  2
*Model_Space
 70
0
 10
0.0
 20
0.0
 30
0.0
  3
*Model_Space
  1

  0
ENDBLK
  5
21
100
AcDbEntity
  8
0
100
AcDbBlockEnd
  0
BLOCK
  5
1C
100
AcDbEntity
  8
0
100
AcDbBlockBegin
  2
*Paper_Space
 70
0
 10
0.0
 20
0.0
 30
0.0
  3
*Paper_Space
  1

  0
ENDBLK
  5
1D
100
AcDbEntity
  8
0
100
AcDbBlockEnd
  0
BLOCK
  5
224
100
AcDbEntity
  8
0
100
AcDbBlockBegin
  2
_FILLED
 70
64
 10
0.0
 20
0.0
  3
_FILLED
  1

  0
SOLID
  5
225
100
AcDbEntity
  8
0
  6
BYBLOCK
 62
0
100
AcDbTrace
 10
0.0
 20
0.0
 11
-1.0
 21
0.3166666667
 12
-1.0
 22
-0.3166666667
 13
-1.0
 23
-0.3166666667
  0
ENDBLK
  5
226
100
AcDbEntity
  8
0
  6
BYBLOCK
 62
0
100
AcDbBlockEnd
  0
ENDSEC
  0
SECTION
  2
ENTITIES
  0
LINE
  5
227
100
AcDbEntity
  8
ASSI
100
AcDbLine
 62
7
  6
CONTINUOUS
 10
-9.7213850216
 20
24.2698829357
 11
-7.4362992448
 21
25.7311687987
  0
LINE
  5
228
100
AcDbEntity
  8
ASSI
100
AcDbLine
 62
250
  6
CONTINUOUS
 10
-9.4612660204
 20
24.2514009746
 11
-7.179904644
 21
25.7103051267
  0
LINE
  5
229
100
AcDbEntity
  8
ASSI
100
AcDbLine
 62
7
  6
CONTINUOUS
 10
3.2289607419
 20
-27.8850719153
 11
-11.54038604
 21
-19.3574361869
  0
LINE
  5
22A
100
AcDbEntity
  8
ASSI
100
AcDbLine
 62
250
  6
CONTINUOUS
 10
3.1273562339
 20
-27.6124130076
 11
-11.641990548
 21
-19.0847772791
  0
LINE
  5
22B
100
AcDbEntity
  8
ASSI
100
AcDbLine
 62
7
  6
CONTINUOUS
 10
-0.6743651638
 20
22.4479674538
 11
-0.90900298
 21
22.3239177397
  0
LINE
  5
22C
100
AcDbEntity
  8
ASSI
100
AcDbLine
 62
7
  6
CONTINUOUS
 10
2.1683605307
 20
20.8066132655
 11
1.9495572273
 21
20.6734209022
  0
LINE
  5
22D
100
AcDbEntity
  8
CURVE
100
AcDbLine
 62
250
  6
CONTINUOUS
 10
-4.2126009547
 20
-15.1153424531
 11
-2.9414698667
 21
-15.8492776123
  0
LINE
  5
22E
100
AcDbEntity
  8
CURVE
100
AcDbLine
 62
250
  6
CONTINUOUS
 10
-2.7930183315
 20
-14.1326916426
 11
-4.0641494195
 21
-13.3987564834
  0
LINE
  5
22F
100
AcDbEntity
  8
ASSI
100
AcDbLine
 62
7
  6
CONTINUOUS
 10
-9.9520110716
 20
11.5393211466
 11
-9.9520110716
 21
23.8486494197
  0
LWPOLYLINE
  5
230
100
AcDbEntity
  8
ASSI
100
AcDbPolyline
 62
7
  6
CONTINUOUS
 90
10
 70
0
 10
-9.9520110714
 20
11.5393272654
 10
-9.9565385654
 20
9.6580113442
 10
-9.9735370992
 20
7.7136975107
 10
-10.008480259
 20
5.763711523
 10
-10.0664299465
 20
3.8053150846
 10
-10.1518831624
 20
1.8362941854
 10
-10.2644747813
 20
-0.1431703397
 10
-10.3993364263
 20
-2.1300709736
 10
-10.5512384115
 20
-4.1214835908
 10
-10.7089369576
 20
-6.0454378433
  0
LINE
  5
231
100
AcDbEntity
  8
ASSI
100
AcDbLine
 62
7
  6
CONTINUOUS
 10
-11.7886148266
 20
-18.8825253439
 11
-10.7089369762
 21
-6.0454380637
  0
LINE
  5
232
100
AcDbEntity
  8
ASSI
100
AcDbLine
 62
250
  6
CONTINUOUS
 10
-11.641990548
 20
-19.0847772791
 11
-10.5623126753
 21
-6.2476897343
  0
LINE
  5
233
100
AcDbEntity
  8
ASSI
100
AcDbLine
 62
250
  6
CONTINUOUS
 10
7.811001425
 20
17.0547438427
 11
5.406948148
 21
15.6666804563
  0
LINE
  5
234
100
AcDbEntity
  8
ASSI
100
AcDbLine
 62
250
  6
CONTINUOUS
 10
8.1644336617
 20
16.4425812524
 11
5.7603803846
 21
15.054517866
  0
LINE
  5
235
100
AcDbEntity
  8
ASSI
100
AcDbLine
 62
250
  6
CONTINUOUS
 10
-10.5623126753
 20
-6.2476897343
 11
4.2650993179
 21
-14.8088515881
  0
LINE
  5
236
100
AcDbEntity
  8
ASSI
100
AcDbLine
 62
250
  6
CONTINUOUS
 10
-9.8055644621
 20
11.33518385
 11
-9.8055644621
 21
23.644512123
  0
LINE
  5
237
100
AcDbEntity
  8
ASSI
100
AcDbLine
 62
7
  6
CONTINUOUS
 10
8.8628784282
 20
11.257805073
 11
8.3381995725
 21
11.057292208
  0
LINE
  5
238
100
AcDbEntity
  8
CURVE
100
AcDbLine
 62
250
  6
CONTINUOUS
 10
-4.1422200176
 20
-13.4438255846
 11
-4.2758212785
 21
-14.9886937443
  0
LINE
  5
239
100
AcDbEntity
  8
CURVE
100
AcDbLine
 62
250
  6
CONTINUOUS
 10
-2.8633992685
 20
-15.8042085111
 11
-2.7297980076
 21
-14.2593403514
  0
LINE
  5
23A
100
AcDbEntity
  8
ASSI
100
AcDbLine
 62
7
  6
CONTINUOUS
 10
8.3381995725
 20
7.5439346101
 11
8.6699795899
 21
7.8070177411
  0
LINE
  5
23B
100
AcDbEntity
  8
ASSI
100
AcDbLine
 62
7
  6
CONTINUOUS
 10
10.4239271542
 20
5.3974713103
 11
8.3582160075
 21
4.3731269779
  0
LINE
  5
23C
100
AcDbEntity
  8
ASSI
100
AcDbLine
 62
7
  6
CONTINUOUS
 10
9.7254227668
 20
5.8007789892
 11
8.1644336617
 21
5.0837149663
  0
LINE
  5
23D
100
AcDbEntity
  8
ASSI
100
AcDbLine
 62
250
  6
CONTINUOUS
 10
1.9495572273
 20
20.6734209022
 11
1.9495572273
 21
20.4395503006
  0
LINE
  5
23E
100
AcDbEntity
  8
ASSI
100
AcDbLine
 62
250
  6
CONTINUOUS
 10
2.1683605307
 20
20.3127339762
 11
2.1683605307
 21
20.8066132655
  0
LINE
  5
23F
100
AcDbEntity
  8
ASSI
100
AcDbLine
 62
7
  6
CONTINUOUS
 10
2.2489544202
 20
20.2662000744
 11
2.2489544202
 21
20.9233095681
  0
LINE
  5
240
100
AcDbEntity
  8
ASSI
100
AcDbLine
 62
7
  6
CONTINUOUS
 10
8.3582160075
 20
1.1427754772
 11
10.4239271542
 21
2.5458638271
  0
LINE
  5
241
100
AcDbEntity
  8
ASSI
100
AcDbLine
 62
250
  6
CONTINUOUS
 10
5.0626497062
 20
15.0597916047
 11
5.0626497062
 21
2.7504633317
  0
LINE
  5
242
100
AcDbEntity
  8
ASSI
100
AcDbLine
 62
250
  6
CONTINUOUS
 10
5.7603803846
 20
15.054517866
 11
5.7603803846
 21
2.745189593
  0
LINE
  5
243
100
AcDbEntity
  8
ASSI
100
AcDbLine
 62
250
  6
CONTINUOUS
 10
5.0601010055
 20
1.3688429244
 11
5.0589199374
 21
1.0762838465
  0
LINE
  5
244
100
AcDbEntity
  8
ASSI
100
AcDbLine
 62
250
  6
CONTINUOUS
 10
5.0472480114
 20
-0.471971597
 11
5.0470459475
 21
-0.4922950361
  0
LINE
  5
245
100
AcDbEntity
  8
ASSI
100
AcDbLine
 62
250
  6
CONTINUOUS
 10
4.2650993179
 20
-14.8088515881
 11
3.1273562339
 21
-27.6124130076
  0
LINE
  5
246
100
AcDbEntity
  8
ASSI
100
AcDbLine
 62
250
  6
CONTINUOUS
 10
4.9608931938
 20
-14.8579158039
 11
3.8231501098
 21
-27.6614772235
  0
LINE
  5
247
100
AcDbEntity
  8
ASSI
100
AcDbLine
 62
250
  6
CONTINUOUS
 10
-9.8055644621
 20
11.33518385
 11
5.0626497062
 21
2.7504633317
  0
LINE
  5
248
100
AcDbEntity
  8
ASSI
100
AcDbLine
 62
7
  6
CONTINUOUS
 10
7.293686033
 20
-26.3023030937
 11
7.293686033
 21
-23.5839038035
  0
LINE
  5
249
100
AcDbEntity
  8
ASSI
100
AcDbLine
 62
7
  6
CONTINUOUS
 10
7.8741844522
 20
-20.5365035091
 11
7.8741844522
 21
-22.3091093308
  0
LINE
  5
24A
100
AcDbEntity
  8
ASSI
100
AcDbLine
 62
7
  6
CONTINUOUS
 10
8.1644336617
 20
-15.9069826457
 11
8.1644336617
 21
16.4425812524
  0
LINE
  5
24B
100
AcDbEntity
  8
ASSI
100
AcDbLine
 62
7
  6
CONTINUOUS
 10
8.8430972752
 20
8.1307357089
 11
9.0359961135
 21
11.0990832856
  0
LINE
  5
24C
100
AcDbEntity
  8
ASSI
100
AcDbLine
 62
250
  6
CONTINUOUS
 10
8.1653193651
 20
4.4845030817
 11
8.3582160075
 21
4.3731269779
  0
LINE
  5
24D
100
AcDbEntity
  8
ASSI
100
AcDbLine
 62
7
  6
CONTINUOUS
 10
8.1532493936
 20
-16.2334083307
 11
7.8853687202
 21
-20.2100778241
  0
LINE
  5
24E
100
AcDbEntity
  8
ASSI
100
AcDbLine
 62
250
  6
CONTINUOUS
 10
10.4239271542
 20
5.3974713103
 11
9.7254227668
 21
5.8007789892
  0
LINE
  5
24F
100
AcDbEntity
  8
ASSI
100
AcDbLine
 62
7
  6
CONTINUOUS
 10
10.5561268685
 20
5.4041508687
 11
9.862278575
 21
5.8047701774
  0
LINE
  5
250
100
AcDbEntity
  8
ASSI
100
AcDbLine
 62
7
  6
CONTINUOUS
 10
10.6177095
 20
2.9039073834
 11
10.6177095
 21
5.2671428438
  0
LINE
  5
251
100
AcDbEntity
  8
ASSI
100
AcDbLine
 62
250
  6
CONTINUOUS
 10
8.168141679
 20
11.1554815044
 11
8.3381995725
 21
11.057292208
  0
LINE
  5
252
100
AcDbEntity
  8
ASSI
100
AcDbLine
 62
250
  6
CONTINUOUS
 10
8.8628784282
 20
11.257805073
 11
8.1644336617
 21
11.6610783276
  0
LINE
  5
253
100
AcDbEntity
  8
ASSI
100
AcDbLine
 62
7
  6
CONTINUOUS
 10
8.9750617075
 20
11.2556900338
 11
8.2255280603
 21
11.6884613678
  0
LINE
  5
254
100
AcDbEntity
  8
ASSI
100
AcDbLine
 62
250
  6
CONTINUOUS
 10
5.0626497062
 20
15.0597916047
 11
-9.8055644621
 21
23.644512123
  0
LINE
  5
255
100
AcDbEntity
  8
ASSI
100
AcDbLine
 62
250
  6
CONTINUOUS
 10
5.406948148
 20
15.6666804563
 11
-9.4612660204
 21
24.2514009746
  0
LINE
  5
256
100
AcDbEntity
  8
ASSI
100
AcDbLine
 62
7
  6
CONTINUOUS
 10
7.8232553906
 20
-22.4944594881
 11
7.3446150946
 21
-23.3985536462
  0
LINE
  5
257
100
AcDbEntity
  8
ASSI
100
AcDbLine
 62
7
  6
CONTINUOUS
 10
7.811001425
 20
17.0547438427
 11
-7.179904644
 21
25.7103051267
  0
LINE
  5
258
100
AcDbEntity
  8
ASSI
100
AcDbLine
 62
7
  6
CONTINUOUS
 10
-0.2576336215
 20
22.441704525
 11
2.1610864546
 21
21.0451658668
  0
LINE
  5
259
100
AcDbEntity
  8
ASSI
100
AcDbLine
 62
250
  6
CONTINUOUS
 10
5.9581140681
 20
-26.9947382263
 11
7.293686033
 21
-26.3023030937
  0
LINE
  5
25A
100
AcDbEntity
  8
ASSI
100
AcDbLine
 62
7
  6
CONTINUOUS
 10
5.8440734477
 20
-27.2292158191
 11
7.1835701457
 21
-26.5347458857
  0
LWPOLYLINE
  5
25B
100
AcDbEntity
  8
ASSI
100
AcDbPolyline
 62
7
  6
CONTINUOUS
 90
6
 70
0
 10
5.6989369952
 20
-27.2893534146
 10
5.7285153953
 20
-27.2794873905
 10
5.7581310609
 20
-27.2684038691
 10
5.78774511
 20
-27.2560957291
 10
5.817332714
 20
-27.2425516982
 10
5.8440599705
 20
-27.2292228057
  0
LINE
  5
25C
100
AcDbEntity
  8
ASSI
100
AcDbLine
 62
250
  6
CONTINUOUS
 10
3.8231501098
 20
-27.6614772235
 11
5.8922626718
 21
-27.0220586072
  0
LINE
  5
25D
100
AcDbEntity
  8
ASSI
100
AcDbLine
 62
7
  6
CONTINUOUS
 10
3.6265995582
 20
-27.9297756676
 11
5.6989369952
 21
-27.2893534146
  0
ARC
  5
25E
100
AcDbEntity
  8
ASSI
100
AcDbCircle
 62
250
  6
CONTINUOUS
 10
-370.049585794
 20
2.7373479628
 40
375.1122357295
100
AcDbArc
 50
359.7909743033
 51
0.0020032812
  0
ARC
  5
25F
100
AcDbEntity
  8
ASSI
100
AcDbCircle
 62
250
  6
CONTINUOUS
 10
-259.1394295739
 20
2.2914304336
 40
264.2011461666
100
AcDbArc
 50
359.400707962
 51
359.7364775042
  0
ARC
  5
260
100
AcDbEntity
  8
ASSI
100
AcDbCircle
 62
7
  6
CONTINUOUS
 10
-11.2903739599
 20
-18.9244304596
 40
0.5
100
AcDbArc
 50
175.1827163516
 51
239.9984015651
  0
ARC
  5
261
100
AcDbEntity
  8
ASSI
100
AcDbCircle
 62
7
  6
CONTINUOUS
 10
-9.4520110716
 20
23.8486494197
 40
0.5
100
AcDbArc
 50
122.5992954198
 51
180.0013071437
  0
ARC
  5
262
100
AcDbEntity
  8
ASSI
100
AcDbCircle
 62
7
  6
CONTINUOUS
 10
3.478972822
 20
-27.4520661881
 40
0.5
100
AcDbArc
 50
239.9984015652
 51
287.1696386884
  0
ARC
  5
263
100
AcDbEntity
  8
ASSI
100
AcDbCircle
 62
250
  6
CONTINUOUS
 10
-11.4574734514
 20
-19.2139136141
 40
0.1657513213
100
AcDbArc
 50
238.0316780968
 51
239.9850939848
  0
SPLINE
  5
264
100
AcDbEntity
  8
ASSI
100
AcDbSpline
 62
250
  6
CONTINUOUS
 70
0
 71
3
 72
11
 73
7
 74
0
 42
0.0000001
 43
0.0000001
 44
0.0000000001
 40
0.0
 40
0.0
 40
0.0
 40
0.0
 40
0.2055455823
 40
0.4332006762
 40
0.6969604983
 40
1.0
 40
1.0
 40
1.0
 40
1.0
 10
-10.7089200954
 20
-6.045439481
 30
0.0
 10
-10.7104161626
 20
-6.0633560923
 30
0.0
 10
-10.7054363904
 20
-6.1021062348
 30
0.0
 10
-10.6756472677
 20
-6.1564558464
 30
0.0
 10
-10.6266073432
 20
-6.2065462644
 30
0.0
 10
-10.585302299
 20
-6.2344956932
 30
0.0
 10
-10.5623126753
 20
-6.2476897343
 30
0.0
  0
SPLINE
  5
265
100
AcDbEntity
  8
ASSI
100
AcDbSpline
 62
250
  6
CONTINUOUS
 70
0
 71
3
 72
11
 73
7
 74
0
 42
0.0000001
 43
0.0000001
 44
0.0000000001
 40
0.0
 40
0.0
 40
0.0
 40
0.0
 40
0.2055523913
 40
0.4332181016
 40
0.6969666007
 40
1.0
 40
1.0
 40
1.0
 40
1.0
 10
-11.7885983146
 20
-18.88252673
 30
0.0
 10
-11.7900943043
 20
-18.9004439567
 30
0.0
 10
-11.7851135855
 20
-18.9391957626
 30
0.0
 10
-11.7553222695
 20
-18.9935445723
 30
0.0
 10
-11.7062848566
 20
-19.0436365371
 30
0.0
 10
-11.6649797036
 20
-19.0715834611
 30
0.0
 10
-11.641990548
 20
-19.0847772791
 30
0.0
  0
SPLINE
  5
266
100
AcDbEntity
  8
ASSI
100
AcDbSpline
 62
250
  6
CONTINUOUS
 70
0
 71
3
 72
11
 73
7
 74
0
 42
0.0000001
 43
0.0000001
 44
0.0000000001
 40
0.0
 40
0.0
 40
0.0
 40
0.0
 40
0.2177607939
 40
0.4509013734
 40
0.7104500082
 40
1.0
 40
1.0
 40
1.0
 40
1.0
 10
-9.9519895745
 20
11.5393211476
 30
0.0
 10
-9.9519870569
 20
11.5202780742
 30
0.0
 10
-9.9449951771
 20
11.4805766248
 30
0.0
 10
-9.9148780854
 20
11.4252549385
 30
0.0
 10
-9.8672854079
 20
11.375279732
 30
0.0
 10
-9.8274927411
 20
11.3478449634
 30
0.0
 10
-9.8055644621
 20
11.33518385
 30
0.0
  0
SPLINE
  5
267
100
AcDbEntity
  8
ASSI
100
AcDbSpline
 62
250
  6
CONTINUOUS
 70
0
 71
3
 72
11
 73
7
 74
0
 42
0.0000001
 43
0.0000001
 44
0.0000000001
 40
0.0
 40
0.0
 40
0.0
 40
0.0
 40
0.2177708055
 40
0.4509238442
 40
0.7104577977
 40
1.0
 40
1.0
 40
1.0
 40
1.0
 10
-9.9519898493
 20
23.8486380142
 30
0.0
 10
-9.951985708
 20
23.8295948817
 30
0.0
 10
-9.9449911121
 20
23.7898935715
 30
0.0
 10
-9.9148704989
 20
23.7345764797
 30
0.0
 10
-9.8672824139
 20
23.6846024705
 30
0.0
 10
-9.8274912115
 20
23.6571723533
 30
0.0
 10
-9.8055644621
 20
23.644512123
 30
0.0
  0
SPLINE
  5
268
100
AcDbEntity
  8
ASSI
100
AcDbSpline
 62
250
  6
CONTINUOUS
 70
0
 71
3
 72
13
 73
9
 74
0
 42
0.0000001
 43
0.0000001
 44
0.0000000001
 40
0.0
 40
0.0
 40
0.0
 40
0.0
 40
0.2453859487
 40
0.3692512003
 40
0.4940391602
 40
0.6196597053
 40
0.745964271
 40
1.0
 40
1.0
 40
1.0
 40
1.0
 10
5.0470459177
 20
-0.492294778
 30
0.0
 10
5.0343842722
 20
-1.6653493384
 30
0.0
 10
5.0009573721
 20
-3.4304859563
 30
0.0
 10
4.9128131314
 20
-5.7907716717
 30
0.0
 10
4.820574575
 20
-7.577750186
 30
0.0
 10
4.7057617838
 20
-9.3750847224
 30
0.0
 10
4.5273546371
 20
-11.7873865717
 30
0.0
 10
4.3725970128
 20
-13.5991433347
 30
0.0
 10
4.2650993179
 20
-14.8088515881
 30
0.0
  0
SPLINE
  5
269
100
AcDbEntity
  8
ASSI
100
AcDbSpline
 62
250
  6
CONTINUOUS
 70
0
 71
3
 72
11
 73
7
 74
0
 42
0.0000001
 43
0.0000001
 44
0.0000000001
 40
0.0
 40
0.0
 40
0.0
 40
0.0
 40
0.2162922663
 40
0.448822321
 40
0.7089294576
 40
1.0
 40
1.0
 40
1.0
 40
1.0
 10
-9.7213732843
 20
24.2698645776
 30
0.0
 10
-9.7048016307
 20
24.2804553027
 30
0.0
 10
-9.6661315641
 20
24.2962783929
 30
0.0
 10
-9.6008332787
 20
24.2998401906
 30
0.0
 10
-9.5305419151
 20
24.2846939562
 30
0.0
 10
-9.4844837981
 20
24.2641050203
 30
0.0
 10
-9.4612660204
 20
24.2514009746
 30
0.0
  0
SPLINE
  5
26A
100
AcDbEntity
  8
ASSI
100
AcDbSpline
 62
250
  6
CONTINUOUS
 70
0
 71
3
 72
11
 73
7
 74
0
 42
0.0000001
 43
0.0000001
 44
0.0000000001
 40
0.0
 40
0.0
 40
0.0
 40
0.0
 40
0.255342839
 40
0.5075883528
 40
0.7554088682
 40
1.0
 40
1.0
 40
1.0
 40
1.0
 10
-10.5623126753
 20
-6.2476897343
 30
0.0
 10
-10.4367260115
 20
-4.7544653979
 30
0.0
 10
-10.1986233172
 20
-1.7851188947
 30
0.0
 10
-9.9335371954
 20
2.6407545884
 30
0.0
 10
-9.8182247453
 20
7.0099729185
 30
0.0
 10
-9.8055667125
 20
9.8997847278
 30
0.0
 10
-9.8055644621
 20
11.33518385
 30
0.0
  0
SPLINE
  5
26B
100
AcDbEntity
  8
ASSI
100
AcDbSpline
 62
250
  6
CONTINUOUS
 70
0
 71
3
 72
11
 73
7
 74
0
 42
0.0000001
 43
0.0000001
 44
0.0000000001
 40
0.0
 40
0.0
 40
0.0
 40
0.0
 40
0.2121760363
 40
0.4436556043
 40
0.7054948877
 40
1.0
 40
1.0
 40
1.0
 40
1.0
 10
-11.5452305396
 20
-19.3545272478
 30
0.0
 10
-11.5632491161
 20
-19.3432819092
 30
0.0
 10
-11.5965022585
 20
-19.3120828839
 30
0.0
 10
-11.6289944517
 20
-19.2481833118
 30
0.0
 10
-11.6448963841
 20
-19.1702073367
 30
0.0
 10
-11.6445306253
 20
-19.1141488929
 30
0.0
 10
-11.641990548
 20
-19.0847772791
 30
0.0
  0
SPLINE
  5
26C
100
AcDbEntity
  8
ASSI
100
AcDbSpline
 62
250
  6
CONTINUOUS
 70
0
 71
3
 72
9
 73
5
 74
0
 42
0.0000001
 43
0.0000001
 44
0.0000000001
 40
0.0
 40
0.0
 40
0.0
 40
0.0
 40
0.2411684882
 40
1.0
 40
1.0
 40
1.0
 40
1.0
 10
5.8922626718
 20
-27.0220586072
 30
0.0
 10
5.8977426177
 20
-27.0203651348
 30
0.0
 10
5.9202892901
 20
-27.0127785551
 30
0.0
 10
5.9420922656
 20
-27.0030448159
 30
0.0
 10
5.9581140681
 20
-26.9947382263
 30
0.0
  0
SPLINE
  5
26D
100
AcDbEntity
  8
ASSI
100
AcDbSpline
 62
250
  6
CONTINUOUS
 70
0
 71
3
 72
13
 73
9
 74
0
 42
0.0000001
 43
0.0000001
 44
0.0000000001
 40
0.0
 40
0.0
 40
0.0
 40
0.0
 40
0.1221513619
 40
0.244835251
 40
0.4927452339
 40
0.7448838925
 40
0.8721898066
 40
1.0
 40
1.0
 40
1.0
 40
1.0
 10
5.7603803846
 20
2.745189593
 30
0.0
 10
5.7603817887
 20
2.0274027285
 30
0.0
 10
5.7567926605
 20
0.5886877126
 30
0.0
 10
5.7271696694
 20
-2.3066373404
 30
0.0
 10
5.6250203577
 20
-5.9651609489
 30
0.0
 10
5.3927108575
 20
-9.6449119648
 30
0.0
 10
5.1567069639
 20
-12.6162824896
 30
0.0
 10
5.0273673893
 20
-14.1098240526
 30
0.0
 10
4.9608931938
 20
-14.8579158039
 30
0.0
  0
SPLINE
  5
26E
100
AcDbEntity
  8
ASSI
100
AcDbSpline
 62
250
  6
CONTINUOUS
 70
0
 71
3
 72
11
 73
7
 74
0
 42
0.0000001
 43
0.0000001
 44
0.0000000001
 40
0.0
 40
0.0
 40
0.0
 40
0.0
 40
0.2365048227
 40
0.5000055582
 40
0.7635092084
 40
1.0
 40
1.0
 40
1.0
 40
1.0
 10
5.7603803846
 20
15.054517866
 30
0.0
 10
5.7590249906
 20
15.1120559127
 30
0.0
 10
5.7351488694
 20
15.2332399392
 30
0.0
 10
5.6586275006
 20
15.403884552
 30
0.0
 10
5.5491039005
 20
15.5554708324
 30
0.0
 10
5.4560961085
 20
15.6367380356
 30
0.0
 10
5.4069481432
 20
15.6666804535
 30
0.0
  0
SPLINE
  5
26F
100
AcDbEntity
  8
ASSI
100
AcDbSpline
 62
250
  6
CONTINUOUS
 70
0
 71
3
 72
11
 73
7
 74
0
 42
0.0000001
 43
0.0000001
 44
0.0000000001
 40
0.0
 40
0.0
 40
0.0
 40
0.0
 40
0.2388600828
 40
0.5016396571
 40
0.7635358149
 40
1.0
 40
1.0
 40
1.0
 40
1.0
 10
5.7603803846
 20
15.054517866
 30
0.0
 10
5.7099464507
 20
15.0268840924
 30
0.0
 10
5.594059941
 20
14.9868164917
 30
0.0
 10
5.4098142642
 20
14.9685177902
 30
0.0
 10
5.2264334154
 20
14.989462522
 30
0.0
 10
5.111953022
 20
15.0313244881
 30
0.0
 10
5.0626497062
 20
15.0597916047
 30
0.0
  0
SPLINE
  5
270
100
AcDbEntity
  8
ASSI
100
AcDbSpline
 62
250
  6
CONTINUOUS
 70
0
 71
3
 72
11
 73
7
 74
0
 42
0.0000001
 43
0.0000001
 44
0.0000000001
 40
0.0
 40
0.0
 40
0.0
 40
0.0
 40
0.2388540429
 40
0.5016286996
 40
0.7635201961
 40
1.0
 40
1.0
 40
1.0
 40
1.0
 10
5.7603803846
 20
2.745189593
 30
0.0
 10
5.7099477007
 20
2.7175565681
 30
0.0
 10
5.5940639359
 20
2.6774893609
 30
0.0
 10
5.4098222054
 20
2.6591903729
 30
0.0
 10
5.226439608
 20
2.6801318166
 30
0.0
 10
5.1119563046
 20
2.7219943836
 30
0.0
 10
5.0626497062
 20
2.7504633317
 30
0.0
  0
SPLINE
  5
271
100
AcDbEntity
  8
ASSI
100
AcDbSpline
 62
250
  6
CONTINUOUS
 70
0
 71
3
 72
11
 73
7
 74
0
 42
0.0000001
 43
0.0000001
 44
0.0000000001
 40
0.0
 40
0.0
 40
0.0
 40
0.0
 40
0.2326322454
 40
0.4950735891
 40
0.7601640312
 40
1.0
 40
1.0
 40
1.0
 40
1.0
 10
4.9608931938
 20
-14.8579158039
 30
0.0
 10
4.9097920685
 20
-14.8798676198
 30
0.0
 10
4.7931620796
 20
-14.9081918234
 30
0.0
 10
4.6104664492
 20
-14.9125577543
 30
0.0
 10
4.42850679
 20
-14.8821176569
 30
0.0
 10
4.3146806435
 20
-14.8376514989
 30
0.0
 10
4.2650993179
 20
-14.8088515881
 30
0.0
  0
SPLINE
  5
272
100
AcDbEntity
  8
ASSI
100
AcDbSpline
 62
250
  6
CONTINUOUS
 70
0
 71
3
 72
11
 73
7
 74
0
 42
0.0000001
 43
0.0000001
 44
0.0000000001
 40
0.0
 40
0.0
 40
0.0
 40
0.0
 40
0.232637229
 40
0.4950829069
 40
0.7601775568
 40
1.0
 40
1.0
 40
1.0
 40
1.0
 10
3.8231501098
 20
-27.6614772235
 30
0.0
 10
3.7720478938
 20
-27.6834295079
 30
0.0
 10
3.6554155764
 20
-27.7117537799
 30
0.0
 10
3.4727166377
 20
-27.7161192169
 30
0.0
 10
3.2907585337
 20
-27.6856768076
 30
0.0
 10
3.1769347594
 20
-27.641211292
 30
0.0
 10
3.1273562339
 20
-27.6124130076
 30
0.0
  0
SPLINE
  5
273
100
AcDbEntity
  8
ASSI
100
AcDbSpline
 62
250
  6
CONTINUOUS
 70
0
 71
3
 72
11
 73
7
 74
0
 42
0.0000001
 43
0.0000001
 44
0.0000000001
 40
0.0
 40
0.0
 40
0.0
 40
0.0
 40
0.2829551011
 40
0.5413298558
 40
0.7772887034
 40
1.0
 40
1.0
 40
1.0
 40
1.0
 10
3.8231501098
 20
-27.6614772235
 30
0.0
 10
3.8176052288
 20
-27.6939223831
 30
0.0
 10
3.8012136976
 20
-27.7552612303
 30
0.0
 10
3.7584325739
 20
-27.8359735227
 30
0.0
 10
3.699853538
 20
-27.8970807095
 30
0.0
 10
3.6513475308
 20
-27.9221116038
 30
0.0
 10
3.6265987991
 20
-27.9297732131
 30
0.0
  0
SPLINE
  5
274
100
AcDbEntity
  8
ASSI
100
AcDbSpline
 62
250
  6
CONTINUOUS
 70
0
 71
3
 72
9
 73
5
 74
0
 42
0.0000001
 43
0.0000001
 44
0.0000000001
 40
0.0
 40
0.0
 40
0.0
 40
0.0
 40
0.260845425
 40
1.0
 40
1.0
 40
1.0
 40
1.0
 10
5.8922626718
 20
-27.0220586072
 30
0.0
 10
5.8903296885
 20
-27.0333692109
 30
0.0
 10
5.881503251
 20
-27.0764592959
 30
0.0
 10
5.8668922537
 20
-27.1184975794
 30
0.0
 10
5.8523423656
 20
-27.1475759612
 30
0.0
  0
SPLINE
  5
275
100
AcDbEntity
  8
ASSI
100
AcDbSpline
 62
250
  6
CONTINUOUS
 70
0
 71
3
 72
9
 73
5
 74
0
 42
0.0000001
 43
0.0000001
 44
0.0000000001
 40
0.0
 40
0.0
 40
0.0
 40
0.0
 40
0.2583786141
 40
1.0
 40
1.0
 40
1.0
 40
1.0
 10
5.8523423656
 20
-27.1475759612
 30
0.0
 10
5.8492865541
 20
-27.1536830909
 30
0.0
 10
5.8368106759
 20
-27.1769842403
 30
0.0
 10
5.8216539571
 20
-27.198887838
 30
0.0
 10
5.808932822
 20
-27.2138001872
 30
0.0
  0
SPLINE
  5
276
100
AcDbEntity
  8
ASSI
100
AcDbSpline
 62
250
  6
CONTINUOUS
 70
0
 71
3
 72
9
 73
5
 74
0
 42
0.0000001
 43
0.0000001
 44
0.0000000001
 40
0.0
 40
0.0
 40
0.0
 40
0.0
 40
0.5112125396
 40
1.0
 40
1.0
 40
1.0
 40
1.0
 10
5.808932822
 20
-27.2138001872
 30
0.0
 10
5.7936639918
 20
-27.2316990715
 30
0.0
 10
5.7592907186
 20
-27.2632399499
 30
0.0
 10
5.7172015831
 20
-27.2837019147
 30
0.0
 10
5.6957130597
 20
-27.2903543497
 30
0.0
  0
SPLINE
  5
277
100
AcDbEntity
  8
ASSI
100
AcDbSpline
 62
250
  6
CONTINUOUS
 70
0
 71
3
 72
11
 73
7
 74
0
 42
0.0000001
 43
0.0000001
 44
0.0000000001
 40
0.0
 40
0.0
 40
0.0
 40
0.0
 40
0.2910717088
 40
0.5511917664
 40
0.783711995
 40
1.0
 40
1.0
 40
1.0
 40
1.0
 10
5.9581140681
 20
-26.9947382263
 30
0.0
 10
5.9575065514
 20
-27.0211937556
 30
0.0
 10
5.9523043147
 20
-27.0713691342
 30
0.0
 10
5.9302809778
 20
-27.1398078004
 30
0.0
 10
5.8945493319
 20
-27.1945670954
 30
0.0
 10
5.8615177247
 20
-27.2201408192
 30
0.0
 10
5.8440632426
 20
-27.2291961397
 30
0.0
  0
SPLINE
  5
278
100
AcDbEntity
  8
ASSI
100
AcDbSpline
 62
250
  6
CONTINUOUS
 70
0
 71
3
 72
11
 73
7
 74
0
 42
0.0000001
 43
0.0000001
 44
0.0000000001
 40
0.0
 40
0.0
 40
0.0
 40
0.0
 40
0.236473979
 40
0.4983651083
 40
0.7611427488
 40
1.0
 40
1.0
 40
1.0
 40
1.0
 10
-9.8055644621
 20
23.644512123
 30
0.0
 10
-9.8055644623
 20
23.7014455862
 30
0.0
 10
-9.7845739208
 20
23.8215193432
 30
0.0
 10
-9.711017373
 20
23.9908011115
 30
0.0
 10
-9.6030504808
 20
24.1412105063
 30
0.0
 10
-9.5104120283
 20
24.2215387103
 30
0.0
 10
-9.4612660204
 20
24.2514009746
 30
0.0
  0
SPLINE
  5
279
100
AcDbEntity
  8
ASSI
100
AcDbSpline
 62
250
  6
CONTINUOUS
 70
0
 71
3
 72
11
 73
7
 74
0
 42
0.0000001
 43
0.0000001
 44
0.0000000001
 40
0.0
 40
0.0
 40
0.0
 40
0.0
 40
0.2388572512
 40
0.5016348917
 40
0.763526021
 40
1.0
 40
1.0
 40
1.0
 40
1.0
 10
5.406948148
 20
15.6666804563
 30
0.0
 10
5.3578021401
 20
15.636818192
 30
0.0
 10
5.2651636876
 20
15.556489988
 30
0.0
 10
5.1571967953
 20
15.4060805932
 30
0.0
 10
5.0836402475
 20
15.2367988249
 30
0.0
 10
5.0626497061
 20
15.1167250679
 30
0.0
 10
5.0626497062
 20
15.0597916047
 30
0.0
  0
SPLINE
  5
27A
100
AcDbEntity
  8
ASSI
100
AcDbSpline
 62
250
  6
CONTINUOUS
 70
0
 71
3
 72
11
 73
7
 74
0
 42
0.0000001
 43
0.0000001
 44
0.0000000001
 40
0.0
 40
0.0
 40
0.0
 40
0.0
 40
0.295265547
 40
0.5569705843
 40
0.7878667688
 40
1.0
 40
1.0
 40
1.0
 40
1.0
 10
3.1273562339
 20
-27.6124130076
 30
0.0
 10
3.1247623458
 20
-27.6424068508
 30
0.0
 10
3.1244800793
 20
-27.6995881711
 30
0.0
 10
3.14126315
 20
-27.7789404263
 30
0.0
 10
3.1754373291
 20
-27.843471608
 30
0.0
 10
3.2102314081
 20
-27.8742531191
 30
0.0
 10
3.2289603282
 20
-27.8850726318
 30
0.0
  0
SPLINE
  5
27B
100
AcDbEntity
  8
CURVE
100
AcDbSpline
 62
250
  6
CONTINUOUS
 70
0
 71
3
 72
17
 73
13
 74
0
 42
0.0000001
 43
0.0000001
 44
0.0000000001
 40
0.0
 40
0.0
 40
0.0
 40
0.0
 40
0.1
 40
0.2
 40
0.3
 40
0.4
 40
0.5
 40
0.6
 40
0.7
 40
0.8
 40
0.9
 40
1.0
 40
1.0
 40
1.0
 40
1.0
 10
-4.0641494195
 20
-13.3987564834
 30
0.0
 10
-4.0676239507
 20
-13.3967503326
 30
0.0
 10
-4.0744862934
 20
-13.3937964881
 30
0.0
 10
-4.0849358412
 20
-13.3917684107
 30
0.0
 10
-4.0955509507
 20
-13.3920513132
 30
0.0
 10
-4.1057272835
 20
-13.3945391098
 30
0.0
 10
-4.1151220568
 20
-13.3989594827
 30
0.0
 10
-4.1235543838
 20
-13.4051512196
 30
0.0
 10
-4.1306540035
 20
-13.4127800276
 30
0.0
 10
-4.1363652045
 20
-13.4218071244
 30
0.0
 10
-4.1404091901
 20
-13.4320697962
 30
0.0
 10
-4.1418623917
 20
-13.4396902576
 30
0.0
 10
-4.1422200176
 20
-13.4438255846
 30
0.0
  0
SPLINE
  5
27C
100
AcDbEntity
  8
CURVE
100
AcDbSpline
 62
250
  6
CONTINUOUS
 70
0
 71
3
 72
17
 73
13
 74
0
 42
0.0000001
 43
0.0000001
 44
0.0000000001
 40
0.0
 40
0.0
 40
0.0
 40
0.0
 40
0.1
 40
0.2
 40
0.3
 40
0.4
 40
0.5
 40
0.6
 40
0.7
 40
0.8
 40
0.9
 40
1.0
 40
1.0
 40
1.0
 40
1.0
 10
-4.2758212785
 20
-14.9886937443
 30
0.0
 10
-4.2761877269
 20
-14.9929310872
 30
0.0
 10
-4.2761067315
 20
-15.0016550774
 30
0.0
 10
-4.2740186645
 20
-15.0157979917
 30
0.0
 10
-4.2700408436
 20
-15.0309733429
 30
0.0
 10
-4.2644732228
 20
-15.0462924058
 30
0.0
 10
-4.2576526472
 20
-15.0611765167
 30
0.0
 10
-4.2497724367
 20
-15.0753111046
 30
0.0
 10
-4.2412282716
 20
-15.0880555335
 30
0.0
 10
-4.2320719273
 20
-15.0993177841
 30
0.0
 10
-4.2225299408
 20
-15.1086493119
 30
0.0
 10
-4.215994962
 20
-15.1133827958
 30
0.0
 10
-4.2126009547
 20
-15.1153424531
 30
0.0
  0
SPLINE
  5
27D
100
AcDbEntity
  8
CURVE
100
AcDbSpline
 62
250
  6
CONTINUOUS
 70
0
 71
3
 72
17
 73
13
 74
0
 42
0.0000001
 43
0.0000001
 44
0.0000000001
 40
0.0
 40
0.0
 40
0.0
 40
0.0
 40
0.1
 40
0.2
 40
0.3
 40
0.4
 40
0.5
 40
0.6
 40
0.7
 40
0.8
 40
0.9
 40
1.0
 40
1.0
 40
1.0
 40
1.0
 10
-2.9414698667
 20
-15.8492776123
 30
0.0
 10
-2.9379953355
 20
-15.8512837631
 30
0.0
 10
-2.9311329928
 20
-15.8542376076
 30
0.0
 10
-2.920683445
 20
-15.856265685
 30
0.0
 10
-2.9100683355
 20
-15.8559827825
 30
0.0
 10
-2.8998920026
 20
-15.8534949859
 30
0.0
 10
-2.8904972294
 20
-15.8490746131
 30
0.0
 10
-2.8820649024
 20
-15.8428828762
 30
0.0
 10
-2.8749652827
 20
-15.8352540681
 30
0.0
 10
-2.8692540816
 20
-15.8262269713
 30
0.0
 10
-2.8652100961
 20
-15.8159642996
 30
0.0
 10
-2.8637568945
 20
-15.8083438381
 30
0.0
 10
-2.8633992685
 20
-15.8042085111
 30
0.0
  0
SPLINE
  5
27E
100
AcDbEntity
  8
CURVE
100
AcDbSpline
 62
250
  6
CONTINUOUS
 70
0
 71
3
 72
17
 73
13
 74
0
 42
0.0000001
 43
0.0000001
 44
0.0000000001
 40
0.0
 40
0.0
 40
0.0
 40
0.0
 40
0.1
 40
0.2
 40
0.3
 40
0.4
 40
0.5
 40
0.6
 40
0.7
 40
0.8
 40
0.9
 40
1.0
 40
1.0
 40
1.0
 40
1.0
 10
-2.7297980076
 20
-14.2593403514
 30
0.0
 10
-2.7294315593
 20
-14.2551030085
 30
0.0
 10
-2.7295125546
 20
-14.2463790183
 30
0.0
 10
-2.7316006217
 20
-14.232236104
 30
0.0
 10
-2.7355784426
 20
-14.2170607528
 30
0.0
 10
-2.7411460634
 20
-14.2017416899
 30
0.0
 10
-2.747966639
 20
-14.186857579
 30
0.0
 10
-2.7558468495
 20
-14.1727229912
 30
0.0
 10
-2.7643910146
 20
-14.1599785622
 30
0.0
 10
-2.7735473589
 20
-14.1487163116
 30
0.0
 10
-2.7830893454
 20
-14.1393847838
 30
0.0
 10
-2.7896243241
 20
-14.1346512999
 30
0.0
 10
-2.7930183315
 20
-14.1326916426
 30
0.0
  0
ELLIPSE
  5
27F
100
AcDbEntity
  8
ASSI
100
AcDbEllipse
 62
7
  6
CONTINUOUS
 10
8.6334647145
 20
8.0267831666
 30
0.0
 11
0.1480592584
 21
0.2609249966
 31
0.0
 40
0.5722717666
 41
-2.1859010765
 42
-0.8681774913
  0
ELLIPSE
  5
280
100
AcDbEntity
  8
ASSI
100
AcDbEllipse
 62
7
  6
CONTINUOUS
 10
10.4074287138
 20
2.7803561179
 30
0.0
 11
0.1480592584
 21
0.2609249966
 31
0.0
 40
0.5722717666
 41
-2.2818941854
 42
-0.7896376749
  0
ELLIPSE
  5
281
100
AcDbEntity
  8
ASSI
100
AcDbEllipse
 62
7
  6
CONTINUOUS
 10
-0.4697656558
 20
22.3213597154
 30
0.0
 11
0.2999972416
 21
-0.0022477848
 31
0.0
 40
0.5723275643
 41
0.7896864073
 42
2.325576149
  0
ELLIPSE
  5
282
100
AcDbEntity
  8
ASSI
100
AcDbEllipse
 62
7
  6
CONTINUOUS
 10
4.5363185422
 20
-17.89490038
 30
0.0
 11
2.600728777
 21
4.2714182473
 31
0.0
 40
0.5922410672
 41
-0.8500960936
 42
-0.7715562772
  0
ELLIPSE
  5
283
100
AcDbEntity
  8
ASSI
100
AcDbEllipse
 62
7
  6
CONTINUOUS
 10
11.5022995717
 20
-18.5485857748
 30
0.0
 11
2.600728777
 21
4.2714182473
 31
0.0
 40
0.5922410672
 41
-3.9916887471
 42
-3.9131489308
  0
ELLIPSE
  5
284
100
AcDbEntity
  8
ASSI
100
AcDbEllipse
 62
7
  6
CONTINUOUS
 10
7.656497545
 20
-22.4283843949
 30
0.0
 11
0.1560437266
 21
0.2562850948
 31
0.0
 40
0.5922410672
 41
-1.469687978
 42
-0.7715562772
  0
ELLIPSE
  5
285
100
AcDbEntity
  8
ASSI
100
AcDbEllipse
 62
7
  6
CONTINUOUS
 10
7.8107590757
 20
16.6465086938
 30
0.0
 11
-0.2500121049
 21
0.4330057129
 31
0.0
 40
0.5777274115
 41
-2.3559002616
 42
-0.7857891675
  0
ELLIPSE
  5
286
100
AcDbEntity
  8
ASSI
100
AcDbEllipse
 62
7
  6
CONTINUOUS
 10
8.0715927343
 20
11.4309259545
 30
0.0
 11
0.1560437266
 21
0.2562850948
 31
0.0
 40
0.5922410672
 41
0.0137935779
 42
0.3581596552
  0
ELLIPSE
  5
287
100
AcDbEntity
  8
ASSI
100
AcDbEllipse
 62
7
  6
CONTINUOUS
 10
9.7083432489
 20
5.5472347641
 30
0.0
 11
0.1560437266
 21
0.2562850948
 31
0.0
 40
0.5922410672
 41
0.0137937578
 42
0.7207002332
  0
ELLIPSE
  5
288
100
AcDbEntity
  8
ASSI
100
AcDbEllipse
 62
7
  6
CONTINUOUS
 10
-7.1796622946
 20
25.3017901189
 30
0.0
 11
-0.2501834304
 21
0.4333025529
 31
0.0
 40
0.5769361983
 41
-0.7851038024
 42
0.0261609458
  0
ELLIPSE
  5
289
100
AcDbEntity
  8
ASSI
100
AcDbEllipse
 62
7
  6
CONTINUOUS
 10
6.940011447
 20
-26.0978159884
 30
0.0
 11
-0.2501834304
 21
0.4333025529
 31
0.0
 40
0.5769361983
 41
-3.1677535987
 42
-2.3565853618
  0
ELLIPSE
  5
28A
100
AcDbEntity
  8
ASSI
100
AcDbEllipse
 62
7
  6
CONTINUOUS
 10
8.3747144478
 20
0.9082831863
 30
0.0
 11
0.1480592584
 21
0.2609249966
 31
0.0
 40
0.5722717666
 41
0.8596984682
 42
2.3519549787
  0
ELLIPSE
  5
28B
100
AcDbEntity
  8
ASSI
100
AcDbEllipse
 62
7
  6
CONTINUOUS
 10
-1.113602488
 20
22.4505254781
 30
0.0
 11
0.2999972416
 21
-0.0022477848
 31
0.0
 40
0.5723275643
 41
-2.3519062463
 42
-0.8160165046
  0
ELLIPSE
  5
28C
100
AcDbEntity
  8
ASSI
100
AcDbEllipse
 62
7
  6
CONTINUOUS
 10
8.3747144478
 20
7.3241691846
 30
0.0
 11
0.1480592584
 21
0.2609249966
 31
0.0
 40
0.5722717666
 41
0.9556915771
 42
2.3519549787
  0
ELLIPSE
  5
28D
100
AcDbEntity
  8
ASSI
100
AcDbEllipse
 62
7
  6
CONTINUOUS
 10
7.5113729402
 20
-23.4646287395
 30
0.0
 11
0.1560437266
 21
0.2562850948
 31
0.0
 40
0.5922410672
 41
-4.6112806316
 42
-3.9131489308
  0
ELLIPSE
  5
28E
100
AcDbEntity
  8
ASSI
100
AcDbEllipse
 62
7
  6
CONTINUOUS
 10
2.1689633378
 20
20.5552131104
 30
0.0
 11
0.2999972416
 21
-0.0022477848
 31
0.0
 40
0.5723275643
 41
2.3953893191
 42
3.9312790609
  0
ELLIPSE
  5
28F
100
AcDbEntity
  8
ASSI
100
AcDbEllipse
 62
7
  6
CONTINUOUS
 10
8.8263635529
 20
10.9951307433
 30
0.0
 11
0.1480592584
 21
0.2609249966
 31
0.0
 40
0.5722717666
 41
5.4150078159
 42
6.8898110339
  0
ELLIPSE
  5
290
100
AcDbEntity
  8
ASSI
100
AcDbEllipse
 62
7
  6
CONTINUOUS
 10
10.4074287138
 20
5.1435915783
 30
0.0
 11
0.1480592584
 21
0.2609249966
 31
0.0
 40
0.5722717666
 41
5.4935476323
 42
6.9858041427
  0
ELLIPSE
  5
291
100
AcDbEntity
  8
ASSI
100
AcDbEllipse
 62
7
  6
CONTINUOUS
 10
1.9489544202
 20
20.9248210572
 30
0.0
 11
0.2999972416
 21
-0.0022477848
 31
0.0
 40
0.5723275643
 41
-0.7462033345
 42
0.7896864073
  0
ELLIPSE
  5
292
100
AcDbEntity
  8
ASSI
100
AcDbEllipse
 62
7
  6
CONTINUOUS
 10
8.3747144478
 20
4.6270067099
 30
0.0
 11
0.1480592584
 21
0.2609249966
 31
0.0
 40
0.5722717666
 41
2.3519549787
 42
3.8442114891
  0
ELLIPSE
  5
293
100
AcDbEntity
  8
ASSI
100
AcDbEllipse
 62
7
  6
CONTINUOUS
 10
8.3747144478
 20
11.3199665377
 30
0.0
 11
0.1480592584
 21
0.2609249966
 31
0.0
 40
0.5722717666
 41
2.3519549787
 42
3.7482183803
  0
ENDSEC
  0
SECTION
  2
OBJECTS
  0
DICTIONARY
  5
C
100
AcDbDictionary
280
0
281
1
  3
ACAD_GROUP
350
D
  3
ACAD_MLINESTYLE
350
17
  3
ACAD_LAYOUT
350
1A
  3
ACAD_PLOTSETTINGS
350
19
  3
ACAD_PLOTSTYLENAME
350
E
  0
DICTIONARY
  5
D
102
{ACAD_REACTORS
330
C
102
}
100
AcDbDictionary
280
0
281
1
  0
ACDBDICTIONARYWDFLT
  5
E
102
{ACAD_REACTORS
330
C
102
}
100
AcDbDictionary
281
1
  3
Normal
350
F
100
AcDbDictionaryWithDefault
340
F
  0
DICTIONARY
  5
17
102
{ACAD_REACTORS
330
C
102
}
100
AcDbDictionary
280
0
281
1
  3
Standard
350
18
  0
DICTIONARY
  5
19
102
{ACAD_REACTORS
330
C
102
}
100
AcDbDictionary
281
1
  0
DICTIONARY
  5
1A
102
{ACAD_REACTORS
330
C
102
}
100
AcDbDictionary
281
1
  3
Model
350
294
  3
Layout1
350
295
  0
ACDBPLACEHOLDER
  5
F
102
{ACAD_REACTORS
330
E
102
}
  0
MLINESTYLE
  5
18
102
{ACAD_REACTORS
330
17
102
}
100
AcDbMlineStyle
  2
STANDARD
 70
0
  3

 62
256
 51
90.0
 52
90.0
 71
2
 49
0.5
 62
256
  6
BYLAYER
 49
-0.5
 62
256
  6
BYLAYER
  0
LAYOUT
  5
294
102
{ACAD_REACTORS
330
1A
102
}
100
AcDbPlotSettings
  1

  2
none_device
  4
ISO_A4_(297.00_x_210.00_MM)
  6

 40
0.0
 41
0.0
 42
0.0
 43
0.0
 44
297.0
 45
210.0
 46
0.0
 47
0.0
 48
0.0
 49
0.0
140
0.0
141
0.0
142
1.0
143
1.0
 70
1024
 72
1
 73
0
 74
0
  7

 75
0
147
1.0
148
0.0
149
0.0
100
AcDbLayout
  1
Model
 70
0
 71
0
 10
0.0
 20
0.0
 11
297.0
 21
210.0
 12
0.0
 22
0.0
 32
0.0
 14
0.0
 24
0.0
 34
0.0
 15
0.0
 25
0.0
 35
0.0
146
0.0
 13
0.0
 23
0.0
 33
0.0
 16
1.0
 26
0.0
 36
0.0
 17
0.0
 27
1.0
 37
0.0
 76
0
330
220
345
0
346
0
  0
LAYOUT
  5
295
102
{ACAD_REACTORS
330
1A
102
}
100
AcDbPlotSettings
  1

  2
none_device
  4
ISO_A4_(297.00_x_210.00_MM)
  6

 40
0.0
 41
0.0
 42
0.0
 43
0.0
 44
297.0
 45
210.0
 46
0.0
 47
0.0
 48
0.0
 49
0.0
140
0.0
141
0.0
142
1.0
143
1.0
 70
0
 72
1
 73
0
 74
0
  7

 75
0
147
1.0
148
0.0
149
0.0
100
AcDbLayout
  1
Layout1
 70
0
 71
1
 10
0.0
 20
0.0
 11
297.0
 21
210.0
 12
0.0
 22
0.0
 32
0.0
 14
0.0
 24
0.0
 34
0.0
 15
0.0
 25
0.0
 35
0.0
146
0.0
 13
0.0
 23
0.0
 33
0.0
 16
1.0
 26
0.0
 36
0.0
 17
0.0
 27
1.0
 37
0.0
 76
0
330
221
345
0
346
0
  0
ENDSEC
  0
EOF
