  0
SECTION
  2
HEADER
  9
$ACADVER
  1
AC1024
  9
$DWGCODEPAGE
  3
ANSI_1252
  9
$EXTMAX
 10
297.0
 20
210.0
 30
0.0
  9
$EXTMIN
 10
0.0
 20
0.0
 30
0.0
  9
$LIMMIN
 10
0.0
 20
0.0
  9
$LIMMAX
 10
297.0
 20
210.0
  9
$VIEWCTR
 10
148.5
 20
105.0
  9
$VIEWSIZE
 40
210.0
  9
$CLAYER
  8
0
  9
$LTSCALE
 40
16.335
  9
$CELTYPE
  6
BYLAYER
  9
$DIMSCALE
 40
1.0
  9
$DIMASZ
 40
3.0
  9
$DIMEXO
 40
0.5
  9
$DIMDLI
 40
11.286
  9
$DIMEXE
 40
1.5
  9
$DIMCEN
 40
2.673
  9
$DIMLFAC
 40
1.0
  9
$DIMBLK
  1
_FILLED
  9
$DIMALT
 70
0
  9
$DIMALTF
 40
0.0393700787
  9
$DIMTXT
 40
3.0
  9
$DIMTOL
 70
1
  9
$DIMLIM
 70
0
  9
$DIMTFAC
 40
1.0
  9
$DIMTP
 40
0.01
  9
$DIMTM
 40
0.01
  9
$DIMGAP
 40
0.625
  9
$DIMDSEP
 70
44
  9
$AUNITS
 70
0
  9
$PDMODE
 70
3
  9
$PDSIZE
 40
3.0
  9
$HANDSEED
  5
28E
  9
$TILEMODE
 70
1
  9
$MEASUREMENT
 70
1
  9
$INSUNITS
 70
4
  0
ENDSEC
  0
SECTION
  2
CLASSES
  0
CLASS
  1
ACDBDICTIONARYWDFLT
  2
AcDbDictionaryWithDefault
  3
AutoCAD 2000
 90
0
 91
1
280
0
281
0
  0
CLASS
  1
ACDBPLACEHOLDER
  2
AcDbPlaceHolder
  3
AutoCAD 2000
 90
0
 91
1
280
0
281
0
  0
CLASS
  1
LAYOUT
  2
AcDbLayout
  3
AutoCAD 2000
 90
0
 91
0
280
0
281
0
  0
ENDSEC
  0
SECTION
  2
TABLES
  0
TABLE
  2
VPORT
  5
8
100
AcDbSymbolTable
 70
2
  0
VPORT
  5
1F4
100
AcDbSymbolTableRecord
100
AcDbViewportTableRecord
  2
*ACTIVE
 70
0
 10
0.0
 20
0.0
 11
1.0
 21
1.0
 12
148.5
 22
105.0
 13
0.0
 23
0.0
 14
1.0
 24
1.0
 15
0.0
 25
0.0
 16
0.0
 26
0.0
 36
1.0
 17
0.0
 27
0.0
 37
0.0
 40
210.0
 41
1.4142857143
 42
50.0
 43
0.0
 44
0.0
 50
0.0
 51
0.0
 71
0
 72
100
 73
1
 74
1
 75
0
 76
0
 77
0
 78
0
  0
ENDTAB
  0
TABLE
  2
LTYPE
  5
5
100
AcDbSymbolTable
 70
6
  0
LTYPE
  5
14
100
AcDbSymbolTableRecord
100
AcDbLinetypeTableRecord
  2
BYBLOCK
 70
0
  3

 72
65
 73
0
 40
0.0
  0
LTYPE
  5
15
100
AcDbSymbolTableRecord
100
AcDbLinetypeTableRecord
  2
BYLAYER
 70
0
  3

 72
65
 73
0
 40
0.0
  0
LTYPE
  5
16
100
AcDbSymbolTableRecord
100
AcDbLinetypeTableRecord
  2
CONTINUOUS
 70
64
  3
Solid line
 72
65
 73
0
 40
0.0
  0
LTYPE
  5
1F5
100
AcDbSymbolTableRecord
100
AcDbLinetypeTableRecord
  2
CENTER
 70
64
  3
____ _ ____ _ ____ _ ____ _ ____ _ ____ _ ____
 72
65
 73
4
 40
0.6
 49
0.375
 74
0
 49
-0.075
 74
0
 49
0.075
 74
0
 49
-0.075
 74
0
  0
LTYPE
  5
1F6
100
AcDbSymbolTableRecord
100
AcDbLinetypeTableRecord
  2
HIDDEN
 70
64
  3
- - - - - - - - - - - - - - - - - - - -
 72
65
 73
2
 40
0.2
 49
0.1
 74
0
 49
-0.1
 74
0
  0
LTYPE
  5
1F7
100
AcDbSymbolTableRecord
100
AcDbLinetypeTableRecord
  2
PHANTOM
 70
64
  3
_____ _ _ _____ _ _ _____ _ _ _____
 72
65
 73
6
 40
0.8
 49
0.45
 74
0
 49
-0.05
 74
0
 49
0.1
 74
0
 49
-0.05
 74
0
 49
0.1
 74
0
 49
-0.05
 74
0
  0
LTYPE
  5
1F8
100
AcDbSymbolTableRecord
100
AcDbLinetypeTableRecord
  2
DOT
 70
64
  3
. . . . . . . . . . . . . . . . . . . .
 72
65
 73
2
 40
0.2
 49
0.1
 74
0
 49
-0.1
 74
0
  0
LTYPE
  5
1F9
100
AcDbSymbolTableRecord
100
AcDbLinetypeTableRecord
  2
DASHED
 70
64
  3
- - - - - - - - - - - - - - - - - - - -
 72
65
 73
2
 40
0.2
 49
0.1
 74
0
 49
-0.1
 74
0
  0
ENDTAB
  0
TABLE
  2
LAYER
  5
2
100
AcDbSymbolTable
 70
36
  0
LAYER
  5
10
100
AcDbSymbolTableRecord
100
AcDbLayerTableRecord
  2
0
 70
0
 62
7
  6
CONTINUOUS
370
-3
390
F
  0
LAYER
  5
1FA
100
AcDbSymbolTableRecord
100
AcDbLayerTableRecord
  2
DEFAULT_1
 70
0
 62
7
  6
CENTER
370
-3
390
F
  0
LAYER
  5
1FB
100
AcDbSymbolTableRecord
100
AcDbLayerTableRecord
  2
DEFAULT_2
 70
0
 62
7
  6
HIDDEN
370
-3
390
F
  0
LAYER
  5
1FC
100
AcDbSymbolTableRecord
100
AcDbLayerTableRecord
  2
DEFAULT_3
 70
0
 62
7
  6
PHANTOM
370
-3
390
F
  0
LAYER
  5
1FD
100
AcDbSymbolTableRecord
100
AcDbLayerTableRecord
  2
ASSI
 70
0
 62
7
  6
CONTINUOUS
370
-3
390
F
  0
LAYER
  5
1FE
100
AcDbSymbolTableRecord
100
AcDbLayerTableRecord
  2
COLOR17
 70
0
 62
7
  6
CONTINUOUS
370
-3
390
F
  0
LAYER
  5
1FF
100
AcDbSymbolTableRecord
100
AcDbLayerTableRecord
  2
COLOR5
 70
0
 62
7
  6
CONTINUOUS
370
-3
390
F
  0
LAYER
  5
200
100
AcDbSymbolTableRecord
100
AcDbLayerTableRecord
  2
COORDINATE
 70
0
 62
7
  6
CONTINUOUS
370
-3
390
F
  0
LAYER
  5
201
100
AcDbSymbolTableRecord
100
AcDbLayerTableRecord
  2
COPY_PUBLISH
 70
0
 62
7
  6
CONTINUOUS
370
-3
390
F
  0
LAYER
  5
202
100
AcDbSymbolTableRecord
100
AcDbLayerTableRecord
  2
COSMETICI
 70
0
 62
7
  6
CONTINUOUS
370
-3
390
F
  0
LAYER
  5
203
100
AcDbSymbolTableRecord
100
AcDbLayerTableRecord
  2
CURVE
 70
0
 62
7
  6
CONTINUOUS
370
-3
390
F
  0
LAYER
  5
204
100
AcDbSymbolTableRecord
100
AcDbLayerTableRecord
  2
DRAFT
 70
0
 62
7
  6
CONTINUOUS
370
-3
390
F
  0
LAYER
  5
205
100
AcDbSymbolTableRecord
100
AcDbLayerTableRecord
  2
IMPORT_IGES
 70
0
 62
7
  6
CONTINUOUS
370
-3
390
F
  0
LAYER
  5
206
100
AcDbSymbolTableRecord
100
AcDbLayerTableRecord
  2
INTF_1
 70
0
 62
7
  6
CONTINUOUS
370
-3
390
F
  0
LAYER
  5
207
100
AcDbSymbolTableRecord
100
AcDbLayerTableRecord
  2
INTF_10
 70
0
 62
7
  6
CONTINUOUS
370
-3
390
F
  0
LAYER
  5
208
100
AcDbSymbolTableRecord
100
AcDbLayerTableRecord
  2
INTF_11
 70
0
 62
7
  6
CONTINUOUS
370
-3
390
F
  0
LAYER
  5
209
100
AcDbSymbolTableRecord
100
AcDbLayerTableRecord
  2
INTF_12
 70
0
 62
7
  6
CONTINUOUS
370
-3
390
F
  0
LAYER
  5
20A
100
AcDbSymbolTableRecord
100
AcDbLayerTableRecord
  2
INTF_2
 70
0
 62
7
  6
CONTINUOUS
370
-3
390
F
  0
LAYER
  5
20B
100
AcDbSymbolTableRecord
100
AcDbLayerTableRecord
  2
INTF_3
 70
0
 62
7
  6
CONTINUOUS
370
-3
390
F
  0
LAYER
  5
20C
100
AcDbSymbolTableRecord
100
AcDbLayerTableRecord
  2
INTF_4
 70
0
 62
7
  6
CONTINUOUS
370
-3
390
F
  0
LAYER
  5
20D
100
AcDbSymbolTableRecord
100
AcDbLayerTableRecord
  2
INTF_5
 70
0
 62
7
  6
CONTINUOUS
370
-3
390
F
  0
LAYER
  5
20E
100
AcDbSymbolTableRecord
100
AcDbLayerTableRecord
  2
INTF_6
 70
0
 62
7
  6
CONTINUOUS
370
-3
390
F
  0
LAYER
  5
20F
100
AcDbSymbolTableRecord
100
AcDbLayerTableRecord
  2
INTF_7
 70
0
 62
7
  6
CONTINUOUS
370
-3
390
F
  0
LAYER
  5
210
100
AcDbSymbolTableRecord
100
AcDbLayerTableRecord
  2
INTF_9
 70
0
 62
7
  6
CONTINUOUS
370
-3
390
F
  0
LAYER
  5
211
100
AcDbSymbolTableRecord
100
AcDbLayerTableRecord
  2
INTF_BLANK
 70
0
 62
7
  6
CONTINUOUS
370
-3
390
F
  0
LAYER
  5
212
100
AcDbSymbolTableRecord
100
AcDbLayerTableRecord
  2
INTF_RED
 70
0
 62
7
  6
CONTINUOUS
370
-3
390
F
  0
LAYER
  5
213
100
AcDbSymbolTableRecord
100
AcDbLayerTableRecord
  2
NOTE
 70
0
 62
7
  6
CONTINUOUS
370
-3
390
F
  0
LAYER
  5
214
100
AcDbSymbolTableRecord
100
AcDbLayerTableRecord
  2
PIANI
 70
0
 62
7
  6
CONTINUOUS
370
-3
390
F
  0
LAYER
  5
215
100
AcDbSymbolTableRecord
100
AcDbLayerTableRecord
  2
PUNTI
 70
0
 62
7
  6
CONTINUOUS
370
-3
390
F
  0
LAYER
  5
216
100
AcDbSymbolTableRecord
100
AcDbLayerTableRecord
  2
RACCORDO
 70
0
 62
7
  6
CONTINUOUS
370
-3
390
F
  0
LAYER
  5
217
100
AcDbSymbolTableRecord
100
AcDbLayerTableRecord
  2
RGB____0____0____0__
 70
0
 62
7
  6
CONTINUOUS
370
-3
390
F
  0
LAYER
  5
218
100
AcDbSymbolTableRecord
100
AcDbLayerTableRecord
  2
SIMBOLI
 70
0
 62
7
  6
CONTINUOUS
370
-3
390
F
  0
LAYER
  5
219
100
AcDbSymbolTableRecord
100
AcDbLayerTableRecord
  2
SMUSSO
 70
0
 62
7
  6
CONTINUOUS
370
-3
390
F
  0
LAYER
  5
21A
100
AcDbSymbolTableRecord
100
AcDbLayerTableRecord
  2
SNAPLINE
 70
0
 62
7
  6
CONTINUOUS
370
-3
390
F
  0
LAYER
  5
21B
100
AcDbSymbolTableRecord
100
AcDbLayerTableRecord
  2
SUPERFICI
 70
0
 62
7
  6
CONTINUOUS
370
-3
390
F
  0
LAYER
  5
21C
100
AcDbSymbolTableRecord
100
AcDbLayerTableRecord
  2
TRASH
 70
0
 62
7
  6
CONTINUOUS
370
-3
390
F
  0
LAYER
  5
21D
100
AcDbSymbolTableRecord
100
AcDbLayerTableRecord
  2
___SHELL
 70
0
 62
7
  6
CONTINUOUS
370
-3
390
F
  0
ENDTAB
  0
TABLE
  2
STYLE
  5
3
100
AcDbSymbolTable
 70
1
  0
STYLE
  5
11
100
AcDbSymbolTableRecord
100
AcDbTextStyleTableRecord
  2
STANDARD
 70
0
 40
0.0
 41
0.8
 50
0.0
 71
0
 42
0.2
  3
txt
  4

  0
STYLE
  5
21E
100
AcDbSymbolTableRecord
100
AcDbTextStyleTableRecord
  2
TEXTSTYLE_1
 70
0
 40
0.0
 41
0.8
 50
0.0
 71
0
 42
0.2
  3
gdt
  4

  0
ENDTAB
  0
TABLE
  2
VIEW
  5
6
100
AcDbSymbolTable
 70
0
  0
ENDTAB
  0
TABLE
  2
UCS
  5
7
100
AcDbSymbolTable
 70
0
  0
ENDTAB
  0
TABLE
  2
APPID
  5
9
100
AcDbSymbolTable
 70
1
  0
APPID
  5
21F
100
AcDbSymbolTableRecord
100
AcDbRegAppTableRecord
  2
ACAD
 70
0
  0
ENDTAB
  0
TABLE
  2
BLOCK_RECORD
  5
1
100
AcDbSymbolTable
 70
0
  0
BLOCK_RECORD
  5
220
100
AcDbSymbolTableRecord
100
AcDbBlockTableRecord
  2
*Model_Space
  0
BLOCK_RECORD
  5
221
100
AcDbSymbolTableRecord
100
AcDbBlockTableRecord
  2
*Paper_Space
  0
BLOCK_RECORD
  5
222
100
AcDbSymbolTableRecord
100
AcDbBlockTableRecord
  2
_FILLED
  0
ENDTAB
  0
TABLE
  2
DIMSTYLE
  5
A
100
AcDbSymbolTable
 70
1
100
AcDbDimStyleTable
 71
0
  0
DIMSTYLE
105
223
100
AcDbSymbolTableRecord
100
AcDbDimStyleTableRecord
  2
STANDARD
 70
0
  3

  4

 40
1.0
 41
3.0
 42
0.5
 43
0.38
 44
1.5
 45
0.0
 46
0.0
 47
0.01
 48
0.01
140
3.0
141
0.09
142
0.0
143
25.4
144
1.0
145
0.0
146
1.0
147
0.625
 71
1
 72
0
 73
0
 74
0
 75
0
 76
0
 77
1
 78
8
 79
2
170
0
171
1
172
0
173
0
174
0
175
0
176
0
177
0
178
0
270
2
179
2
271
2
272
2
273
2
274
2
275
0
280
0
281
0
282
0
283
1
284
8
285
0
286
0
287
3
288
0
340
11
278
44
341
222
342
222
343
222
344
222
  0
ENDTAB
  0
ENDSEC
  0
SECTION
  2
BLOCKS
  0
BLOCK
  5
20
100
AcDbEntity
  8
0
100
AcDbBlockBegin
  2
*Model_Space
 70
0
 10
0.0
 20
0.0
 30
0.0
  3
*Model_Space
  1

  0
ENDBLK
  5
21
100
AcDbEntity
  8
0
100
AcDbBlockEnd
  0
BLOCK
  5
1C
100
AcDbEntity
  8
0
100
AcDbBlockBegin
  2
*Paper_Space
 70
0
 10
0.0
 20
0.0
 30
0.0
  3
*Paper_Space
  1

  0
ENDBLK
  5
1D
100
AcDbEntity
  8
0
100
AcDbBlockEnd
  0
BLOCK
  5
224
100
AcDbEntity
  8
0
100
AcDbBlockBegin
  2
_FILLED
 70
64
 10
0.0
 20
0.0
  3
_FILLED
  1

  0
SOLID
  5
225
100
AcDbEntity
  8
0
  6
BYBLOCK
 62
0
100
AcDbTrace
 10
0.0
 20
0.0
 11
-1.0
 21
0.3166666667
 12
-1.0
 22
-0.3166666667
 13
-1.0
 23
-0.3166666667
  0
ENDBLK
  5
226
100
AcDbEntity
  8
0
  6
BYBLOCK
 62
0
100
AcDbBlockEnd
  0
ENDSEC
  0
SECTION
  2
ENTITIES
  0
LINE
  5
227
100
AcDbEntity
  8
RACCORDO
100
AcDbLine
 62
7
  6
CONTINUOUS
 10
-9.7213850216
 20
24.9368359239
 11
-7.4362992448
 21
26.3981217869
  0
LINE
  5
228
100
AcDbEntity
  8
RACCORDO
100
AcDbLine
 62
250
  6
CONTINUOUS
 10
-9.4612660204
 20
24.9183539628
 11
-7.179904644
 21
26.3772581149
  0
LINE
  5
229
100
AcDbEntity
  8
RACCORDO
100
AcDbLine
 62
7
  6
CONTINUOUS
 10
-0.6743651638
 20
23.114920442
 11
-0.90900298
 21
22.990870728
  0
LINE
  5
22A
100
AcDbEntity
  8
RACCORDO
100
AcDbLine
 62
7
  6
CONTINUOUS
 10
3.2289607419
 20
-27.2181189271
 11
-11.54038604
 21
-18.6904831986
  0
LINE
  5
22B
100
AcDbEntity
  8
RACCORDO
100
AcDbLine
 62
250
  6
CONTINUOUS
 10
3.1273562339
 20
-26.9454600194
 11
-11.641990548
 21
-18.4178242909
  0
LINE
  5
22C
100
AcDbEntity
  8
RACCORDO
100
AcDbLine
 62
7
  6
CONTINUOUS
 10
2.1683605307
 20
21.4735662537
 11
1.9495572273
 21
21.3403738904
  0
LINE
  5
22D
100
AcDbEntity
  8
RACCORDO
100
AcDbLine
 62
7
  6
CONTINUOUS
 10
-11.7886148266
 20
-18.2155723557
 11
-10.7089369762
 21
-5.3784850755
  0
LINE
  5
22E
100
AcDbEntity
  8
RACCORDO
100
AcDbLine
 62
250
  6
CONTINUOUS
 10
-11.641990548
 20
-18.4178242909
 11
-10.5623126753
 21
-5.5807367461
  0
LINE
  5
22F
100
AcDbEntity
  8
RACCORDO
100
AcDbLine
 62
250
  6
CONTINUOUS
 10
7.811001425
 20
17.7216968309
 11
5.406948148
 21
16.3336334445
  0
LINE
  5
230
100
AcDbEntity
  8
RACCORDO
100
AcDbLine
 62
250
  6
CONTINUOUS
 10
8.1644336617
 20
17.1095342406
 11
5.7603803846
 21
15.7214708542
  0
LINE
  5
231
100
AcDbEntity
  8
RACCORDO
100
AcDbLine
 62
250
  6
CONTINUOUS
 10
-10.5623126753
 20
-5.5807367461
 11
4.2650993179
 21
-14.1418985999
  0
LINE
  5
232
100
AcDbEntity
  8
RACCORDO
100
AcDbLine
 62
7
  6
CONTINUOUS
 10
-9.9520110716
 20
12.2062741349
 11
-9.9520110716
 21
24.5156024079
  0
LINE
  5
233
100
AcDbEntity
  8
RACCORDO
100
AcDbLine
 62
250
  6
CONTINUOUS
 10
-9.8055644621
 20
12.0021368382
 11
-9.8055644621
 21
24.3114651112
  0
LWPOLYLINE
  5
234
100
AcDbEntity
  8
RACCORDO
100
AcDbPolyline
 62
7
  6
CONTINUOUS
 90
10
 70
0
 10
-9.9520110714
 20
12.2062802536
 10
-9.9565385654
 20
10.3249643324
 10
-9.9735370992
 20
8.380650499
 10
-10.008480259
 20
6.4306645112
 10
-10.0664299465
 20
4.4722680728
 10
-10.1518831624
 20
2.5032471736
 10
-10.2644747813
 20
0.5237826485
 10
-10.3993364263
 20
-1.4631179854
 10
-10.5512384115
 20
-3.4545306026
 10
-10.7089369576
 20
-5.3784848551
  0
LINE
  5
235
100
AcDbEntity
  8
RACCORDO
100
AcDbLine
 62
7
  6
CONTINUOUS
 10
8.8628784282
 20
11.9247580612
 11
8.3381995725
 21
11.7242451962
  0
LINE
  5
236
100
AcDbEntity
  8
RACCORDO
100
AcDbLine
 62
7
  6
CONTINUOUS
 10
9.7254227668
 20
6.4677319774
 11
8.1644336617
 21
5.7506679545
  0
LINE
  5
237
100
AcDbEntity
  8
RACCORDO
100
AcDbLine
 62
7
  6
CONTINUOUS
 10
8.3381995725
 20
8.2108875983
 11
8.6699795899
 21
8.4739707293
  0
LINE
  5
238
100
AcDbEntity
  8
RACCORDO
100
AcDbLine
 62
7
  6
CONTINUOUS
 10
10.4239271542
 20
6.0644242985
 11
8.3582160075
 21
5.0400799661
  0
LINE
  5
239
100
AcDbEntity
  8
RACCORDO
100
AcDbLine
 62
250
  6
CONTINUOUS
 10
1.9495572273
 20
21.3403738904
 11
1.9495572273
 21
21.1065032888
  0
LINE
  5
23A
100
AcDbEntity
  8
RACCORDO
100
AcDbLine
 62
250
  6
CONTINUOUS
 10
2.1683605307
 20
20.9796869644
 11
2.1683605307
 21
21.4735662537
  0
LINE
  5
23B
100
AcDbEntity
  8
RACCORDO
100
AcDbLine
 62
7
  6
CONTINUOUS
 10
2.2489544202
 20
20.9331530626
 11
2.2489544202
 21
21.5902625563
  0
LINE
  5
23C
100
AcDbEntity
  8
RACCORDO
100
AcDbLine
 62
7
  6
CONTINUOUS
 10
8.3582160075
 20
1.8097284654
 11
10.4239271542
 21
3.2128168153
  0
LINE
  5
23D
100
AcDbEntity
  8
RACCORDO
100
AcDbLine
 62
250
  6
CONTINUOUS
 10
5.0626497062
 20
15.7267445929
 11
5.0626497062
 21
3.4174163199
  0
LINE
  5
23E
100
AcDbEntity
  8
RACCORDO
100
AcDbLine
 62
250
  6
CONTINUOUS
 10
5.7603803846
 20
15.7214708542
 11
5.7603803846
 21
3.4121425812
  0
LINE
  5
23F
100
AcDbEntity
  8
RACCORDO
100
AcDbLine
 62
250
  6
CONTINUOUS
 10
5.0601010055
 20
2.0357959126
 11
5.0589199374
 21
1.7432368347
  0
LINE
  5
240
100
AcDbEntity
  8
RACCORDO
100
AcDbLine
 62
250
  6
CONTINUOUS
 10
5.0472480114
 20
0.1949813912
 11
5.0470459475
 21
0.1746579521
  0
LINE
  5
241
100
AcDbEntity
  8
RACCORDO
100
AcDbLine
 62
250
  6
CONTINUOUS
 10
4.2650993179
 20
-14.1418985999
 11
3.1273562339
 21
-26.9454600194
  0
LINE
  5
242
100
AcDbEntity
  8
RACCORDO
100
AcDbLine
 62
250
  6
CONTINUOUS
 10
4.9608931938
 20
-14.1909628157
 11
3.8231501098
 21
-26.9945242353
  0
LINE
  5
243
100
AcDbEntity
  8
RACCORDO
100
AcDbLine
 62
250
  6
CONTINUOUS
 10
-9.8055644621
 20
12.0021368382
 11
5.0626497062
 21
3.4174163199
  0
LINE
  5
244
100
AcDbEntity
  8
RACCORDO
100
AcDbLine
 62
7
  6
CONTINUOUS
 10
7.293686033
 20
-25.6353501055
 11
7.293686033
 21
-22.9169508153
  0
LINE
  5
245
100
AcDbEntity
  8
RACCORDO
100
AcDbLine
 62
7
  6
CONTINUOUS
 10
7.8741844522
 20
-19.8695505209
 11
7.8741844522
 21
-21.6421563426
  0
LINE
  5
246
100
AcDbEntity
  8
RACCORDO
100
AcDbLine
 62
7
  6
CONTINUOUS
 10
8.1644336617
 20
-15.2400296575
 11
8.1644336617
 21
17.1095342406
  0
LINE
  5
247
100
AcDbEntity
  8
RACCORDO
100
AcDbLine
 62
7
  6
CONTINUOUS
 10
8.8430972752
 20
8.7976886971
 11
9.0359961135
 21
11.7660362738
  0
LINE
  5
248
100
AcDbEntity
  8
RACCORDO
100
AcDbLine
 62
7
  6
CONTINUOUS
 10
8.1532493936
 20
-15.5664553425
 11
7.8853687202
 21
-19.5431248359
  0
LINE
  5
249
100
AcDbEntity
  8
RACCORDO
100
AcDbLine
 62
250
  6
CONTINUOUS
 10
8.1653193651
 20
5.1514560699
 11
8.3582160075
 21
5.0400799661
  0
LINE
  5
24A
100
AcDbEntity
  8
RACCORDO
100
AcDbLine
 62
250
  6
CONTINUOUS
 10
10.4239271542
 20
6.0644242985
 11
9.7254227668
 21
6.4677319774
  0
LINE
  5
24B
100
AcDbEntity
  8
RACCORDO
100
AcDbLine
 62
7
  6
CONTINUOUS
 10
10.5561268685
 20
6.0711038569
 11
9.862278575
 21
6.4717231656
  0
LINE
  5
24C
100
AcDbEntity
  8
RACCORDO
100
AcDbLine
 62
7
  6
CONTINUOUS
 10
10.6177095
 20
3.5708603717
 11
10.6177095
 21
5.934095832
  0
LINE
  5
24D
100
AcDbEntity
  8
RACCORDO
100
AcDbLine
 62
250
  6
CONTINUOUS
 10
8.168141679
 20
11.8224344926
 11
8.3381995725
 21
11.7242451962
  0
LINE
  5
24E
100
AcDbEntity
  8
RACCORDO
100
AcDbLine
 62
250
  6
CONTINUOUS
 10
8.8628784282
 20
11.9247580612
 11
8.1644336617
 21
12.3280313158
  0
LINE
  5
24F
100
AcDbEntity
  8
RACCORDO
100
AcDbLine
 62
7
  6
CONTINUOUS
 10
8.9750617075
 20
11.922643022
 11
8.2255280603
 21
12.355414356
  0
LINE
  5
250
100
AcDbEntity
  8
RACCORDO
100
AcDbLine
 62
250
  6
CONTINUOUS
 10
5.0626497062
 20
15.7267445929
 11
-9.8055644621
 21
24.3114651112
  0
LINE
  5
251
100
AcDbEntity
  8
RACCORDO
100
AcDbLine
 62
7
  6
CONTINUOUS
 10
7.8232553906
 20
-21.8275064999
 11
7.3446150946
 21
-22.731600658
  0
LINE
  5
252
100
AcDbEntity
  8
RACCORDO
100
AcDbLine
 62
250
  6
CONTINUOUS
 10
5.406948148
 20
16.3336334445
 11
-9.4612660204
 21
24.9183539628
  0
LINE
  5
253
100
AcDbEntity
  8
RACCORDO
100
AcDbLine
 62
7
  6
CONTINUOUS
 10
7.811001425
 20
17.7216968309
 11
-7.179904644
 21
26.3772581149
  0
LINE
  5
254
100
AcDbEntity
  8
RACCORDO
100
AcDbLine
 62
7
  6
CONTINUOUS
 10
-0.2576336215
 20
23.1086575132
 11
2.1610864546
 21
21.712118855
  0
LINE
  5
255
100
AcDbEntity
  8
RACCORDO
100
AcDbLine
 62
250
  6
CONTINUOUS
 10
5.9581140681
 20
-26.327785238
 11
7.293686033
 21
-25.6353501055
  0
LINE
  5
256
100
AcDbEntity
  8
RACCORDO
100
AcDbLine
 62
7
  6
CONTINUOUS
 10
5.8440734477
 20
-26.5622628309
 11
7.1835701457
 21
-25.8677928975
  0
LWPOLYLINE
  5
257
100
AcDbEntity
  8
RACCORDO
100
AcDbPolyline
 62
7
  6
CONTINUOUS
 90
6
 70
0
 10
5.6989369952
 20
-26.6224004264
 10
5.7285153953
 20
-26.6125344023
 10
5.7581310609
 20
-26.6014508809
 10
5.78774511
 20
-26.5891427409
 10
5.817332714
 20
-26.57559871
 10
5.8440599705
 20
-26.5622698175
  0
LINE
  5
258
100
AcDbEntity
  8
RACCORDO
100
AcDbLine
 62
250
  6
CONTINUOUS
 10
3.8231501098
 20
-26.9945242353
 11
5.8922626718
 21
-26.355105619
  0
LINE
  5
259
100
AcDbEntity
  8
RACCORDO
100
AcDbLine
 62
7
  6
CONTINUOUS
 10
3.6265995582
 20
-27.2628226793
 11
5.6989369952
 21
-26.6224004264
  0
ARC
  5
25A
100
AcDbEntity
  8
RACCORDO
100
AcDbCircle
 62
250
  6
CONTINUOUS
 10
-370.0495857938
 20
3.404300951
 40
375.1122357293
100
AcDbArc
 50
359.7909743033
 51
0.0020032812
  0
ARC
  5
25B
100
AcDbEntity
  8
RACCORDO
100
AcDbCircle
 62
250
  6
CONTINUOUS
 10
-259.1394295743
 20
2.9583834218
 40
264.201146167
100
AcDbArc
 50
359.400707962
 51
359.7364775042
  0
ARC
  5
25C
100
AcDbEntity
  8
RACCORDO
100
AcDbCircle
 62
7
  6
CONTINUOUS
 10
-11.2903739599
 20
-18.2574774714
 40
0.5
100
AcDbArc
 50
175.1827163516
 51
239.9984015651
  0
ARC
  5
25D
100
AcDbEntity
  8
RACCORDO
100
AcDbCircle
 62
7
  6
CONTINUOUS
 10
-9.4520110716
 20
24.5156024079
 40
0.5
100
AcDbArc
 50
122.5992954193
 51
180.0013071464
  0
ARC
  5
25E
100
AcDbEntity
  8
RACCORDO
100
AcDbCircle
 62
7
  6
CONTINUOUS
 10
3.478972822
 20
-26.7851131999
 40
0.5
100
AcDbArc
 50
239.9984015652
 51
287.1696386884
  0
ARC
  5
25F
100
AcDbEntity
  8
RACCORDO
100
AcDbCircle
 62
250
  6
CONTINUOUS
 10
-11.4574734514
 20
-18.5469606259
 40
0.1657513213
100
AcDbArc
 50
238.0316780968
 51
239.9850939849
  0
SPLINE
  5
260
100
AcDbEntity
  8
RACCORDO
100
AcDbSpline
 62
250
  6
CONTINUOUS
 70
0
 71
3
 72
13
 73
9
 74
0
 42
0.0000001
 43
0.0000001
 44
0.0000000001
 40
0.0
 40
0.0
 40
0.0
 40
0.0
 40
0.2453859487
 40
0.3692512003
 40
0.4940391602
 40
0.6196597053
 40
0.745964271
 40
1.0
 40
1.0
 40
1.0
 40
1.0
 10
5.0470459177
 20
0.1746582102
 30
0.0
 10
5.0343842722
 20
-0.9983963502
 30
0.0
 10
5.0009573721
 20
-2.7635329681
 30
0.0
 10
4.9128131314
 20
-5.1238186835
 30
0.0
 10
4.820574575
 20
-6.9107971978
 30
0.0
 10
4.7057617838
 20
-8.7081317342
 30
0.0
 10
4.5273546371
 20
-11.1204335835
 30
0.0
 10
4.3725970128
 20
-12.9321903465
 30
0.0
 10
4.2650993179
 20
-14.1418985999
 30
0.0
  0
SPLINE
  5
261
100
AcDbEntity
  8
RACCORDO
100
AcDbSpline
 62
250
  6
CONTINUOUS
 70
0
 71
3
 72
11
 73
7
 74
0
 42
0.0000001
 43
0.0000001
 44
0.0000000001
 40
0.0
 40
0.0
 40
0.0
 40
0.0
 40
0.255342839
 40
0.5075883528
 40
0.7554088682
 40
1.0
 40
1.0
 40
1.0
 40
1.0
 10
-10.5623126753
 20
-5.5807367461
 30
0.0
 10
-10.4367260115
 20
-4.0875124097
 30
0.0
 10
-10.1986233172
 20
-1.1181659065
 30
0.0
 10
-9.9335371954
 20
3.3077075766
 30
0.0
 10
-9.8182247453
 20
7.6769259067
 30
0.0
 10
-9.8055667125
 20
10.566737716
 30
0.0
 10
-9.8055644621
 20
12.0021368382
 30
0.0
  0
SPLINE
  5
262
100
AcDbEntity
  8
RACCORDO
100
AcDbSpline
 62
250
  6
CONTINUOUS
 70
0
 71
3
 72
11
 73
7
 74
0
 42
0.0000001
 43
0.0000001
 44
0.0000000001
 40
0.0
 40
0.0
 40
0.0
 40
0.0
 40
0.2055455823
 40
0.4332006762
 40
0.6969604983
 40
1.0
 40
1.0
 40
1.0
 40
1.0
 10
-10.7089200954
 20
-5.3784864928
 30
0.0
 10
-10.7104161626
 20
-5.3964031041
 30
0.0
 10
-10.7054363904
 20
-5.4351532466
 30
0.0
 10
-10.6756472677
 20
-5.4895028582
 30
0.0
 10
-10.6266073432
 20
-5.5395932762
 30
0.0
 10
-10.585302299
 20
-5.567542705
 30
0.0
 10
-10.5623126753
 20
-5.5807367461
 30
0.0
  0
SPLINE
  5
263
100
AcDbEntity
  8
RACCORDO
100
AcDbSpline
 62
250
  6
CONTINUOUS
 70
0
 71
3
 72
11
 73
7
 74
0
 42
0.0000001
 43
0.0000001
 44
0.0000000001
 40
0.0
 40
0.0
 40
0.0
 40
0.0
 40
0.2055523913
 40
0.4332181016
 40
0.6969666007
 40
1.0
 40
1.0
 40
1.0
 40
1.0
 10
-11.7885983146
 20
-18.2155737418
 30
0.0
 10
-11.7900943043
 20
-18.2334909685
 30
0.0
 10
-11.7851135855
 20
-18.2722427744
 30
0.0
 10
-11.7553222695
 20
-18.3265915841
 30
0.0
 10
-11.7062848566
 20
-18.3766835489
 30
0.0
 10
-11.6649797036
 20
-18.4046304729
 30
0.0
 10
-11.641990548
 20
-18.4178242909
 30
0.0
  0
SPLINE
  5
264
100
AcDbEntity
  8
RACCORDO
100
AcDbSpline
 62
250
  6
CONTINUOUS
 70
0
 71
3
 72
9
 73
5
 74
0
 42
0.0000001
 43
0.0000001
 44
0.0000000001
 40
0.0
 40
0.0
 40
0.0
 40
0.0
 40
0.2411684882
 40
1.0
 40
1.0
 40
1.0
 40
1.0
 10
5.8922626718
 20
-26.355105619
 30
0.0
 10
5.8977426177
 20
-26.3534121466
 30
0.0
 10
5.9202892901
 20
-26.3458255669
 30
0.0
 10
5.9420922656
 20
-26.3360918277
 30
0.0
 10
5.9581140681
 20
-26.327785238
 30
0.0
  0
SPLINE
  5
265
100
AcDbEntity
  8
RACCORDO
100
AcDbSpline
 62
250
  6
CONTINUOUS
 70
0
 71
3
 72
11
 73
7
 74
0
 42
0.0000001
 43
0.0000001
 44
0.0000000001
 40
0.0
 40
0.0
 40
0.0
 40
0.0
 40
0.2177607939
 40
0.4509013734
 40
0.7104500082
 40
1.0
 40
1.0
 40
1.0
 40
1.0
 10
-9.9519895745
 20
12.2062741358
 30
0.0
 10
-9.9519870569
 20
12.1872310624
 30
0.0
 10
-9.9449951771
 20
12.147529613
 30
0.0
 10
-9.9148780854
 20
12.0922079267
 30
0.0
 10
-9.8672854079
 20
12.0422327202
 30
0.0
 10
-9.8274927411
 20
12.0147979516
 30
0.0
 10
-9.8055644621
 20
12.0021368382
 30
0.0
  0
SPLINE
  5
266
100
AcDbEntity
  8
RACCORDO
100
AcDbSpline
 62
250
  6
CONTINUOUS
 70
0
 71
3
 72
11
 73
7
 74
0
 42
0.0000001
 43
0.0000001
 44
0.0000000001
 40
0.0
 40
0.0
 40
0.0
 40
0.0
 40
0.2177708055
 40
0.4509238442
 40
0.7104577977
 40
1.0
 40
1.0
 40
1.0
 40
1.0
 10
-9.9519898493
 20
24.5155910024
 30
0.0
 10
-9.951985708
 20
24.4965478699
 30
0.0
 10
-9.9449911121
 20
24.4568465597
 30
0.0
 10
-9.9148704989
 20
24.4015294679
 30
0.0
 10
-9.8672824139
 20
24.3515554587
 30
0.0
 10
-9.8274912115
 20
24.3241253415
 30
0.0
 10
-9.8055644621
 20
24.3114651112
 30
0.0
  0
SPLINE
  5
267
100
AcDbEntity
  8
RACCORDO
100
AcDbSpline
 62
250
  6
CONTINUOUS
 70
0
 71
3
 72
11
 73
7
 74
0
 42
0.0000001
 43
0.0000001
 44
0.0000000001
 40
0.0
 40
0.0
 40
0.0
 40
0.0
 40
0.2162922663
 40
0.448822321
 40
0.7089294576
 40
1.0
 40
1.0
 40
1.0
 40
1.0
 10
-9.7213732843
 20
24.9368175658
 30
0.0
 10
-9.7048016307
 20
24.9474082909
 30
0.0
 10
-9.6661315641
 20
24.9632313811
 30
0.0
 10
-9.6008332787
 20
24.9667931788
 30
0.0
 10
-9.5305419151
 20
24.9516469444
 30
0.0
 10
-9.4844837981
 20
24.9310580085
 30
0.0
 10
-9.4612660204
 20
24.9183539628
 30
0.0
  0
SPLINE
  5
268
100
AcDbEntity
  8
RACCORDO
100
AcDbSpline
 62
250
  6
CONTINUOUS
 70
0
 71
3
 72
11
 73
7
 74
0
 42
0.0000001
 43
0.0000001
 44
0.0000000001
 40
0.0
 40
0.0
 40
0.0
 40
0.0
 40
0.2121760363
 40
0.4436556043
 40
0.7054948877
 40
1.0
 40
1.0
 40
1.0
 40
1.0
 10
-11.5452305396
 20
-18.6875742596
 30
0.0
 10
-11.5632491161
 20
-18.676328921
 30
0.0
 10
-11.5965022585
 20
-18.6451298957
 30
0.0
 10
-11.6289944517
 20
-18.5812303236
 30
0.0
 10
-11.6448963841
 20
-18.5032543485
 30
0.0
 10
-11.6445306253
 20
-18.4471959047
 30
0.0
 10
-11.641990548
 20
-18.4178242909
 30
0.0
  0
SPLINE
  5
269
100
AcDbEntity
  8
RACCORDO
100
AcDbSpline
 62
250
  6
CONTINUOUS
 70
0
 71
3
 72
13
 73
9
 74
0
 42
0.0000001
 43
0.0000001
 44
0.0000000001
 40
0.0
 40
0.0
 40
0.0
 40
0.0
 40
0.1221513619
 40
0.244835251
 40
0.4927452339
 40
0.7448838925
 40
0.8721898066
 40
1.0
 40
1.0
 40
1.0
 40
1.0
 10
5.7603803846
 20
3.4121425812
 30
0.0
 10
5.7603817887
 20
2.6943557167
 30
0.0
 10
5.7567926605
 20
1.2556407008
 30
0.0
 10
5.7271696694
 20
-1.6396843522
 30
0.0
 10
5.6250203577
 20
-5.2982079606
 30
0.0
 10
5.3927108575
 20
-8.9779589766
 30
0.0
 10
5.1567069639
 20
-11.9493295014
 30
0.0
 10
5.0273673893
 20
-13.4428710644
 30
0.0
 10
4.9608931938
 20
-14.1909628157
 30
0.0
  0
SPLINE
  5
26A
100
AcDbEntity
  8
RACCORDO
100
AcDbSpline
 62
250
  6
CONTINUOUS
 70
0
 71
3
 72
11
 73
7
 74
0
 42
0.0000001
 43
0.0000001
 44
0.0000000001
 40
0.0
 40
0.0
 40
0.0
 40
0.0
 40
0.2365048227
 40
0.5000055582
 40
0.7635092084
 40
1.0
 40
1.0
 40
1.0
 40
1.0
 10
5.7603803846
 20
15.7214708542
 30
0.0
 10
5.7590249906
 20
15.7790089009
 30
0.0
 10
5.7351488694
 20
15.9001929274
 30
0.0
 10
5.6586275006
 20
16.0708375402
 30
0.0
 10
5.5491039005
 20
16.2224238206
 30
0.0
 10
5.4560961085
 20
16.3036910238
 30
0.0
 10
5.4069481432
 20
16.3336334417
 30
0.0
  0
SPLINE
  5
26B
100
AcDbEntity
  8
RACCORDO
100
AcDbSpline
 62
250
  6
CONTINUOUS
 70
0
 71
3
 72
11
 73
7
 74
0
 42
0.0000001
 43
0.0000001
 44
0.0000000001
 40
0.0
 40
0.0
 40
0.0
 40
0.0
 40
0.2388600828
 40
0.5016396571
 40
0.7635358149
 40
1.0
 40
1.0
 40
1.0
 40
1.0
 10
5.7603803846
 20
15.7214708542
 30
0.0
 10
5.7099464507
 20
15.6938370806
 30
0.0
 10
5.594059941
 20
15.6537694799
 30
0.0
 10
5.4098142642
 20
15.6354707784
 30
0.0
 10
5.2264334154
 20
15.6564155102
 30
0.0
 10
5.111953022
 20
15.6982774763
 30
0.0
 10
5.0626497062
 20
15.7267445929
 30
0.0
  0
SPLINE
  5
26C
100
AcDbEntity
  8
RACCORDO
100
AcDbSpline
 62
250
  6
CONTINUOUS
 70
0
 71
3
 72
11
 73
7
 74
0
 42
0.0000001
 43
0.0000001
 44
0.0000000001
 40
0.0
 40
0.0
 40
0.0
 40
0.0
 40
0.2388540429
 40
0.5016286996
 40
0.7635201961
 40
1.0
 40
1.0
 40
1.0
 40
1.0
 10
5.7603803846
 20
3.4121425812
 30
0.0
 10
5.7099477007
 20
3.3845095563
 30
0.0
 10
5.5940639359
 20
3.3444423491
 30
0.0
 10
5.4098222054
 20
3.3261433611
 30
0.0
 10
5.226439608
 20
3.3470848048
 30
0.0
 10
5.1119563046
 20
3.3889473719
 30
0.0
 10
5.0626497062
 20
3.4174163199
 30
0.0
  0
SPLINE
  5
26D
100
AcDbEntity
  8
RACCORDO
100
AcDbSpline
 62
250
  6
CONTINUOUS
 70
0
 71
3
 72
11
 73
7
 74
0
 42
0.0000001
 43
0.0000001
 44
0.0000000001
 40
0.0
 40
0.0
 40
0.0
 40
0.0
 40
0.2326322454
 40
0.4950735891
 40
0.7601640312
 40
1.0
 40
1.0
 40
1.0
 40
1.0
 10
4.9608931938
 20
-14.1909628157
 30
0.0
 10
4.9097920685
 20
-14.2129146316
 30
0.0
 10
4.7931620796
 20
-14.2412388351
 30
0.0
 10
4.6104664492
 20
-14.2456047661
 30
0.0
 10
4.42850679
 20
-14.2151646687
 30
0.0
 10
4.3146806435
 20
-14.1706985107
 30
0.0
 10
4.2650993179
 20
-14.1418985999
 30
0.0
  0
SPLINE
  5
26E
100
AcDbEntity
  8
RACCORDO
100
AcDbSpline
 62
250
  6
CONTINUOUS
 70
0
 71
3
 72
11
 73
7
 74
0
 42
0.0000001
 43
0.0000001
 44
0.0000000001
 40
0.0
 40
0.0
 40
0.0
 40
0.0
 40
0.232637229
 40
0.4950829069
 40
0.7601775568
 40
1.0
 40
1.0
 40
1.0
 40
1.0
 10
3.8231501098
 20
-26.9945242353
 30
0.0
 10
3.7720478938
 20
-27.0164765196
 30
0.0
 10
3.6554155764
 20
-27.0448007917
 30
0.0
 10
3.4727166377
 20
-27.0491662287
 30
0.0
 10
3.2907585337
 20
-27.0187238194
 30
0.0
 10
3.1769347594
 20
-26.9742583038
 30
0.0
 10
3.1273562339
 20
-26.9454600194
 30
0.0
  0
SPLINE
  5
26F
100
AcDbEntity
  8
RACCORDO
100
AcDbSpline
 62
250
  6
CONTINUOUS
 70
0
 71
3
 72
11
 73
7
 74
0
 42
0.0000001
 43
0.0000001
 44
0.0000000001
 40
0.0
 40
0.0
 40
0.0
 40
0.0
 40
0.2829551011
 40
0.5413298558
 40
0.7772887034
 40
1.0
 40
1.0
 40
1.0
 40
1.0
 10
3.8231501098
 20
-26.9945242353
 30
0.0
 10
3.8176052288
 20
-27.0269693949
 30
0.0
 10
3.8012136976
 20
-27.0883082421
 30
0.0
 10
3.7584325739
 20
-27.1690205345
 30
0.0
 10
3.699853538
 20
-27.2301277213
 30
0.0
 10
3.6513475308
 20
-27.2551586156
 30
0.0
 10
3.6265987991
 20
-27.2628202249
 30
0.0
  0
SPLINE
  5
270
100
AcDbEntity
  8
RACCORDO
100
AcDbSpline
 62
250
  6
CONTINUOUS
 70
0
 71
3
 72
9
 73
5
 74
0
 42
0.0000001
 43
0.0000001
 44
0.0000000001
 40
0.0
 40
0.0
 40
0.0
 40
0.0
 40
0.260845425
 40
1.0
 40
1.0
 40
1.0
 40
1.0
 10
5.8922626718
 20
-26.355105619
 30
0.0
 10
5.8903296885
 20
-26.3664162227
 30
0.0
 10
5.881503251
 20
-26.4095063076
 30
0.0
 10
5.8668922537
 20
-26.4515445912
 30
0.0
 10
5.8523423656
 20
-26.480622973
 30
0.0
  0
SPLINE
  5
271
100
AcDbEntity
  8
RACCORDO
100
AcDbSpline
 62
250
  6
CONTINUOUS
 70
0
 71
3
 72
9
 73
5
 74
0
 42
0.0000001
 43
0.0000001
 44
0.0000000001
 40
0.0
 40
0.0
 40
0.0
 40
0.0
 40
0.2583786141
 40
1.0
 40
1.0
 40
1.0
 40
1.0
 10
5.8523423656
 20
-26.480622973
 30
0.0
 10
5.8492865541
 20
-26.4867301027
 30
0.0
 10
5.8368106759
 20
-26.5100312521
 30
0.0
 10
5.8216539571
 20
-26.5319348498
 30
0.0
 10
5.808932822
 20
-26.546847199
 30
0.0
  0
SPLINE
  5
272
100
AcDbEntity
  8
RACCORDO
100
AcDbSpline
 62
250
  6
CONTINUOUS
 70
0
 71
3
 72
9
 73
5
 74
0
 42
0.0000001
 43
0.0000001
 44
0.0000000001
 40
0.0
 40
0.0
 40
0.0
 40
0.0
 40
0.5112125396
 40
1.0
 40
1.0
 40
1.0
 40
1.0
 10
5.808932822
 20
-26.546847199
 30
0.0
 10
5.7936639918
 20
-26.5647460833
 30
0.0
 10
5.7592907186
 20
-26.5962869617
 30
0.0
 10
5.7172015831
 20
-26.6167489265
 30
0.0
 10
5.6957130597
 20
-26.6234013615
 30
0.0
  0
SPLINE
  5
273
100
AcDbEntity
  8
RACCORDO
100
AcDbSpline
 62
250
  6
CONTINUOUS
 70
0
 71
3
 72
11
 73
7
 74
0
 42
0.0000001
 43
0.0000001
 44
0.0000000001
 40
0.0
 40
0.0
 40
0.0
 40
0.0
 40
0.2910717088
 40
0.5511917664
 40
0.783711995
 40
1.0
 40
1.0
 40
1.0
 40
1.0
 10
5.9581140681
 20
-26.327785238
 30
0.0
 10
5.9575065514
 20
-26.3542407674
 30
0.0
 10
5.9523043147
 20
-26.404416146
 30
0.0
 10
5.9302809778
 20
-26.4728548121
 30
0.0
 10
5.8945493319
 20
-26.5276141072
 30
0.0
 10
5.8615177247
 20
-26.553187831
 30
0.0
 10
5.8440632426
 20
-26.5622431515
 30
0.0
  0
SPLINE
  5
274
100
AcDbEntity
  8
RACCORDO
100
AcDbSpline
 62
250
  6
CONTINUOUS
 70
0
 71
3
 72
11
 73
7
 74
0
 42
0.0000001
 43
0.0000001
 44
0.0000000001
 40
0.0
 40
0.0
 40
0.0
 40
0.0
 40
0.236473979
 40
0.4983651083
 40
0.7611427488
 40
1.0
 40
1.0
 40
1.0
 40
1.0
 10
-9.8055644621
 20
24.3114651112
 30
0.0
 10
-9.8055644623
 20
24.3683985744
 30
0.0
 10
-9.7845739208
 20
24.4884723314
 30
0.0
 10
-9.711017373
 20
24.6577540997
 30
0.0
 10
-9.6030504808
 20
24.8081634945
 30
0.0
 10
-9.5104120283
 20
24.8884916985
 30
0.0
 10
-9.4612660204
 20
24.9183539628
 30
0.0
  0
SPLINE
  5
275
100
AcDbEntity
  8
RACCORDO
100
AcDbSpline
 62
250
  6
CONTINUOUS
 70
0
 71
3
 72
11
 73
7
 74
0
 42
0.0000001
 43
0.0000001
 44
0.0000000001
 40
0.0
 40
0.0
 40
0.0
 40
0.0
 40
0.2388572512
 40
0.5016348917
 40
0.763526021
 40
1.0
 40
1.0
 40
1.0
 40
1.0
 10
5.406948148
 20
16.3336334445
 30
0.0
 10
5.3578021401
 20
16.3037711802
 30
0.0
 10
5.2651636876
 20
16.2234429762
 30
0.0
 10
5.1571967953
 20
16.0730335814
 30
0.0
 10
5.0836402475
 20
15.9037518131
 30
0.0
 10
5.0626497061
 20
15.7836780561
 30
0.0
 10
5.0626497062
 20
15.7267445929
 30
0.0
  0
SPLINE
  5
276
100
AcDbEntity
  8
RACCORDO
100
AcDbSpline
 62
250
  6
CONTINUOUS
 70
0
 71
3
 72
11
 73
7
 74
0
 42
0.0000001
 43
0.0000001
 44
0.0000000001
 40
0.0
 40
0.0
 40
0.0
 40
0.0
 40
0.295265547
 40
0.5569705843
 40
0.7878667688
 40
1.0
 40
1.0
 40
1.0
 40
1.0
 10
3.1273562339
 20
-26.9454600194
 30
0.0
 10
3.1247623458
 20
-26.9754538626
 30
0.0
 10
3.1244800793
 20
-27.0326351829
 30
0.0
 10
3.14126315
 20
-27.1119874381
 30
0.0
 10
3.1754373291
 20
-27.1765186198
 30
0.0
 10
3.2102314081
 20
-27.2073001309
 30
0.0
 10
3.2289603282
 20
-27.2181196436
 30
0.0
  0
ELLIPSE
  5
277
100
AcDbEntity
  8
RACCORDO
100
AcDbEllipse
 62
7
  6
CONTINUOUS
 10
8.6334647145
 20
8.6937361548
 30
0.0
 11
0.1480592584
 21
0.2609249966
 31
0.0
 40
0.5722717666
 41
-2.1859010765
 42
-0.8681774913
  0
ELLIPSE
  5
278
100
AcDbEntity
  8
RACCORDO
100
AcDbEllipse
 62
7
  6
CONTINUOUS
 10
10.4074287138
 20
3.4473091061
 30
0.0
 11
0.1480592584
 21
0.2609249966
 31
0.0
 40
0.5722717666
 41
-2.2818941854
 42
-0.7896376749
  0
ELLIPSE
  5
279
100
AcDbEntity
  8
RACCORDO
100
AcDbEllipse
 62
7
  6
CONTINUOUS
 10
4.5363185422
 20
-17.2279473918
 30
0.0
 11
2.600728777
 21
4.2714182473
 31
0.0
 40
0.5922410672
 41
-0.8500960936
 42
-0.7715562772
  0
ELLIPSE
  5
27A
100
AcDbEntity
  8
RACCORDO
100
AcDbEllipse
 62
7
  6
CONTINUOUS
 10
11.5022995717
 20
-17.8816327866
 30
0.0
 11
2.600728777
 21
4.2714182473
 31
0.0
 40
0.5922410672
 41
-3.9916887471
 42
-3.9131489308
  0
ELLIPSE
  5
27B
100
AcDbEntity
  8
RACCORDO
100
AcDbEllipse
 62
7
  6
CONTINUOUS
 10
7.656497545
 20
-21.7614314067
 30
0.0
 11
0.1560437266
 21
0.2562850948
 31
0.0
 40
0.5922410672
 41
-1.469687978
 42
-0.7715562772
  0
ELLIPSE
  5
27C
100
AcDbEntity
  8
RACCORDO
100
AcDbEllipse
 62
7
  6
CONTINUOUS
 10
-0.4697656558
 20
22.9883127036
 30
0.0
 11
0.2999972416
 21
-0.0022477848
 31
0.0
 40
0.5723275643
 41
0.7896864073
 42
2.325576149
  0
ELLIPSE
  5
27D
100
AcDbEntity
  8
RACCORDO
100
AcDbEllipse
 62
7
  6
CONTINUOUS
 10
7.8107590757
 20
17.313461682
 30
0.0
 11
-0.2500121049
 21
0.4330057129
 31
0.0
 40
0.5777274115
 41
-2.3559002616
 42
-0.7857891675
  0
ELLIPSE
  5
27E
100
AcDbEntity
  8
RACCORDO
100
AcDbEllipse
 62
7
  6
CONTINUOUS
 10
8.0715927343
 20
12.0978789427
 30
0.0
 11
0.1560437266
 21
0.2562850948
 31
0.0
 40
0.5922410672
 41
0.0137935779
 42
0.3581596552
  0
ELLIPSE
  5
27F
100
AcDbEntity
  8
RACCORDO
100
AcDbEllipse
 62
7
  6
CONTINUOUS
 10
9.7083432489
 20
6.2141877523
 30
0.0
 11
0.1560437266
 21
0.2562850948
 31
0.0
 40
0.5922410672
 41
0.0137937578
 42
0.7207002332
  0
ELLIPSE
  5
280
100
AcDbEntity
  8
RACCORDO
100
AcDbEllipse
 62
7
  6
CONTINUOUS
 10
-7.1796622946
 20
25.9687431071
 30
0.0
 11
-0.2501834304
 21
0.4333025529
 31
0.0
 40
0.5769361983
 41
-0.7851038024
 42
0.0261609458
  0
ELLIPSE
  5
281
100
AcDbEntity
  8
RACCORDO
100
AcDbEllipse
 62
7
  6
CONTINUOUS
 10
6.940011447
 20
-25.4308630002
 30
0.0
 11
-0.2501834304
 21
0.4333025529
 31
0.0
 40
0.5769361983
 41
-3.1677535987
 42
-2.3565853618
  0
ELLIPSE
  5
282
100
AcDbEntity
  8
RACCORDO
100
AcDbEllipse
 62
7
  6
CONTINUOUS
 10
8.3747144478
 20
1.5752361745
 30
0.0
 11
0.1480592584
 21
0.2609249966
 31
0.0
 40
0.5722717666
 41
0.8596984682
 42
2.3519549787
  0
ELLIPSE
  5
283
100
AcDbEntity
  8
RACCORDO
100
AcDbEllipse
 62
7
  6
CONTINUOUS
 10
-1.113602488
 20
23.1174784663
 30
0.0
 11
0.2999972416
 21
-0.0022477848
 31
0.0
 40
0.5723275643
 41
-2.3519062463
 42
-0.8160165046
  0
ELLIPSE
  5
284
100
AcDbEntity
  8
RACCORDO
100
AcDbEllipse
 62
7
  6
CONTINUOUS
 10
8.3747144478
 20
7.9911221728
 30
0.0
 11
0.1480592584
 21
0.2609249966
 31
0.0
 40
0.5722717666
 41
0.9556915771
 42
2.3519549787
  0
ELLIPSE
  5
285
100
AcDbEntity
  8
RACCORDO
100
AcDbEllipse
 62
7
  6
CONTINUOUS
 10
7.5113729402
 20
-22.7976757513
 30
0.0
 11
0.1560437266
 21
0.2562850948
 31
0.0
 40
0.5922410672
 41
-4.6112806316
 42
-3.9131489308
  0
ELLIPSE
  5
286
100
AcDbEntity
  8
RACCORDO
100
AcDbEllipse
 62
7
  6
CONTINUOUS
 10
8.8263635529
 20
11.6620837315
 30
0.0
 11
0.1480592584
 21
0.2609249966
 31
0.0
 40
0.5722717666
 41
5.4150078159
 42
6.8898110339
  0
ELLIPSE
  5
287
100
AcDbEntity
  8
RACCORDO
100
AcDbEllipse
 62
7
  6
CONTINUOUS
 10
10.4074287138
 20
5.8105445665
 30
0.0
 11
0.1480592584
 21
0.2609249966
 31
0.0
 40
0.5722717666
 41
5.4935476323
 42
6.9858041427
  0
ELLIPSE
  5
288
100
AcDbEntity
  8
RACCORDO
100
AcDbEllipse
 62
7
  6
CONTINUOUS
 10
2.1689633378
 20
21.2221660986
 30
0.0
 11
0.2999972416
 21
-0.0022477848
 31
0.0
 40
0.5723275643
 41
2.3953893191
 42
3.9312790609
  0
ELLIPSE
  5
289
100
AcDbEntity
  8
RACCORDO
100
AcDbEllipse
 62
7
  6
CONTINUOUS
 10
8.3747144478
 20
5.2939596981
 30
0.0
 11
0.1480592584
 21
0.2609249966
 31
0.0
 40
0.5722717666
 41
2.3519549787
 42
3.8442114891
  0
ELLIPSE
  5
28A
100
AcDbEntity
  8
RACCORDO
100
AcDbEllipse
 62
7
  6
CONTINUOUS
 10
8.3747144478
 20
11.9869195259
 30
0.0
 11
0.1480592584
 21
0.2609249966
 31
0.0
 40
0.5722717666
 41
2.3519549787
 42
3.7482183803
  0
ELLIPSE
  5
28B
100
AcDbEntity
  8
RACCORDO
100
AcDbEllipse
 62
7
  6
CONTINUOUS
 10
1.9489544202
 20
21.5917740454
 30
0.0
 11
0.2999972416
 21
-0.0022477848
 31
0.0
 40
0.5723275643
 41
-0.7462033345
 42
0.7896864073
  0
ENDSEC
  0
SECTION
  2
OBJECTS
  0
DICTIONARY
  5
C
100
AcDbDictionary
280
0
281
1
  3
ACAD_GROUP
350
D
  3
ACAD_MLINESTYLE
350
17
  3
ACAD_LAYOUT
350
1A
  3
ACAD_PLOTSETTINGS
350
19
  3
ACAD_PLOTSTYLENAME
350
E
  0
DICTIONARY
  5
D
102
{ACAD_REACTORS
330
C
102
}
100
AcDbDictionary
280
0
281
1
  0
ACDBDICTIONARYWDFLT
  5
E
102
{ACAD_REACTORS
330
C
102
}
100
AcDbDictionary
281
1
  3
Normal
350
F
100
AcDbDictionaryWithDefault
340
F
  0
DICTIONARY
  5
17
102
{ACAD_REACTORS
330
C
102
}
100
AcDbDictionary
280
0
281
1
  3
Standard
350
18
  0
DICTIONARY
  5
19
102
{ACAD_REACTORS
330
C
102
}
100
AcDbDictionary
281
1
  0
DICTIONARY
  5
1A
102
{ACAD_REACTORS
330
C
102
}
100
AcDbDictionary
281
1
  3
Model
350
28C
  3
Layout1
350
28D
  0
ACDBPLACEHOLDER
  5
F
102
{ACAD_REACTORS
330
E
102
}
  0
MLINESTYLE
  5
18
102
{ACAD_REACTORS
330
17
102
}
100
AcDbMlineStyle
  2
STANDARD
 70
0
  3

 62
256
 51
90.0
 52
90.0
 71
2
 49
0.5
 62
256
  6
BYLAYER
 49
-0.5
 62
256
  6
BYLAYER
  0
LAYOUT
  5
28C
102
{ACAD_REACTORS
330
1A
102
}
100
AcDbPlotSettings
  1

  2
none_device
  4
ISO_A4_(297.00_x_210.00_MM)
  6

 40
0.0
 41
0.0
 42
0.0
 43
0.0
 44
297.0
 45
210.0
 46
0.0
 47
0.0
 48
0.0
 49
0.0
140
0.0
141
0.0
142
1.0
143
1.0
 70
1024
 72
1
 73
0
 74
0
  7

 75
0
147
1.0
148
0.0
149
0.0
100
AcDbLayout
  1
Model
 70
0
 71
0
 10
0.0
 20
0.0
 11
297.0
 21
210.0
 12
0.0
 22
0.0
 32
0.0
 14
0.0
 24
0.0
 34
0.0
 15
0.0
 25
0.0
 35
0.0
146
0.0
 13
0.0
 23
0.0
 33
0.0
 16
1.0
 26
0.0
 36
0.0
 17
0.0
 27
1.0
 37
0.0
 76
0
330
220
345
0
346
0
  0
LAYOUT
  5
28D
102
{ACAD_REACTORS
330
1A
102
}
100
AcDbPlotSettings
  1

  2
none_device
  4
ISO_A4_(297.00_x_210.00_MM)
  6

 40
0.0
 41
0.0
 42
0.0
 43
0.0
 44
297.0
 45
210.0
 46
0.0
 47
0.0
 48
0.0
 49
0.0
140
0.0
141
0.0
142
1.0
143
1.0
 70
0
 72
1
 73
0
 74
0
  7

 75
0
147
1.0
148
0.0
149
0.0
100
AcDbLayout
  1
Layout1
 70
0
 71
1
 10
0.0
 20
0.0
 11
297.0
 21
210.0
 12
0.0
 22
0.0
 32
0.0
 14
0.0
 24
0.0
 34
0.0
 15
0.0
 25
0.0
 35
0.0
146
0.0
 13
0.0
 23
0.0
 33
0.0
 16
1.0
 26
0.0
 36
0.0
 17
0.0
 27
1.0
 37
0.0
 76
0
330
221
345
0
346
0
  0
ENDSEC
  0
EOF
