  0
SECTION
  2
HEADER
  9
$ACADVER
  1
AC1024
  9
$DWGCODEPAGE
  3
ANSI_1252
  9
$EXTMAX
 10
297.0
 20
210.0
 30
0.0
  9
$EXTMIN
 10
0.0
 20
0.0
 30
0.0
  9
$LIMMIN
 10
0.0
 20
0.0
  9
$LIMMAX
 10
297.0
 20
210.0
  9
$VIEWCTR
 10
148.5
 20
105.0
  9
$VIEWSIZE
 40
210.0
  9
$CLAYER
  8
0
  9
$LTSCALE
 40
16.335
  9
$CELTYPE
  6
BYLAYER
  9
$DIMSCALE
 40
1.0
  9
$DIMASZ
 40
3.0
  9
$DIMEXO
 40
0.5
  9
$DIMDLI
 40
11.286
  9
$DIMEXE
 40
1.5
  9
$DIMCEN
 40
2.673
  9
$DIMLFAC
 40
1.0
  9
$DIMBLK
  1
_FILLED
  9
$DIMALT
 70
0
  9
$DIMALTF
 40
0.0393700787
  9
$DIMTXT
 40
3.0
  9
$DIMTOL
 70
1
  9
$DIMLIM
 70
0
  9
$DIMTFAC
 40
1.0
  9
$DIMTP
 40
0.01
  9
$DIMTM
 40
0.01
  9
$DIMGAP
 40
0.625
  9
$DIMDSEP
 70
44
  9
$AUNITS
 70
0
  9
$PDMODE
 70
3
  9
$PDSIZE
 40
3.0
  9
$HANDSEED
  5
28E
  9
$TILEMODE
 70
1
  9
$MEASUREMENT
 70
1
  9
$INSUNITS
 70
4
  0
ENDSEC
  0
SECTION
  2
CLASSES
  0
CLASS
  1
ACDBDICTIONARYWDFLT
  2
AcDbDictionaryWithDefault
  3
AutoCAD 2000
 90
0
 91
1
280
0
281
0
  0
CLASS
  1
ACDBPLACEHOLDER
  2
AcDbPlaceHolder
  3
AutoCAD 2000
 90
0
 91
1
280
0
281
0
  0
CLASS
  1
LAYOUT
  2
AcDbLayout
  3
AutoCAD 2000
 90
0
 91
0
280
0
281
0
  0
ENDSEC
  0
SECTION
  2
TABLES
  0
TABLE
  2
VPORT
  5
8
100
AcDbSymbolTable
 70
2
  0
VPORT
  5
1F4
100
AcDbSymbolTableRecord
100
AcDbViewportTableRecord
  2
*ACTIVE
 70
0
 10
0.0
 20
0.0
 11
1.0
 21
1.0
 12
148.5
 22
105.0
 13
0.0
 23
0.0
 14
1.0
 24
1.0
 15
0.0
 25
0.0
 16
0.0
 26
0.0
 36
1.0
 17
0.0
 27
0.0
 37
0.0
 40
210.0
 41
1.4142857143
 42
50.0
 43
0.0
 44
0.0
 50
0.0
 51
0.0
 71
0
 72
100
 73
1
 74
1
 75
0
 76
0
 77
0
 78
0
  0
ENDTAB
  0
TABLE
  2
LTYPE
  5
5
100
AcDbSymbolTable
 70
6
  0
LTYPE
  5
14
100
AcDbSymbolTableRecord
100
AcDbLinetypeTableRecord
  2
BYBLOCK
 70
0
  3

 72
65
 73
0
 40
0.0
  0
LTYPE
  5
15
100
AcDbSymbolTableRecord
100
AcDbLinetypeTableRecord
  2
BYLAYER
 70
0
  3

 72
65
 73
0
 40
0.0
  0
LTYPE
  5
16
100
AcDbSymbolTableRecord
100
AcDbLinetypeTableRecord
  2
CONTINUOUS
 70
64
  3
Solid line
 72
65
 73
0
 40
0.0
  0
LTYPE
  5
1F5
100
AcDbSymbolTableRecord
100
AcDbLinetypeTableRecord
  2
CENTER
 70
64
  3
____ _ ____ _ ____ _ ____ _ ____ _ ____ _ ____
 72
65
 73
4
 40
0.6
 49
0.375
 74
0
 49
-0.075
 74
0
 49
0.075
 74
0
 49
-0.075
 74
0
  0
LTYPE
  5
1F6
100
AcDbSymbolTableRecord
100
AcDbLinetypeTableRecord
  2
HIDDEN
 70
64
  3
- - - - - - - - - - - - - - - - - - - -
 72
65
 73
2
 40
0.2
 49
0.1
 74
0
 49
-0.1
 74
0
  0
LTYPE
  5
1F7
100
AcDbSymbolTableRecord
100
AcDbLinetypeTableRecord
  2
PHANTOM
 70
64
  3
_____ _ _ _____ _ _ _____ _ _ _____
 72
65
 73
6
 40
0.8
 49
0.45
 74
0
 49
-0.05
 74
0
 49
0.1
 74
0
 49
-0.05
 74
0
 49
0.1
 74
0
 49
-0.05
 74
0
  0
LTYPE
  5
1F8
100
AcDbSymbolTableRecord
100
AcDbLinetypeTableRecord
  2
DOT
 70
64
  3
. . . . . . . . . . . . . . . . . . . .
 72
65
 73
2
 40
0.2
 49
0.1
 74
0
 49
-0.1
 74
0
  0
LTYPE
  5
1F9
100
AcDbSymbolTableRecord
100
AcDbLinetypeTableRecord
  2
DASHED
 70
64
  3
- - - - - - - - - - - - - - - - - - - -
 72
65
 73
2
 40
0.2
 49
0.1
 74
0
 49
-0.1
 74
0
  0
ENDTAB
  0
TABLE
  2
LAYER
  5
2
100
AcDbSymbolTable
 70
36
  0
LAYER
  5
10
100
AcDbSymbolTableRecord
100
AcDbLayerTableRecord
  2
0
 70
0
 62
7
  6
CONTINUOUS
370
-3
390
F
  0
LAYER
  5
1FA
100
AcDbSymbolTableRecord
100
AcDbLayerTableRecord
  2
DEFAULT_1
 70
0
 62
7
  6
CENTER
370
-3
390
F
  0
LAYER
  5
1FB
100
AcDbSymbolTableRecord
100
AcDbLayerTableRecord
  2
DEFAULT_2
 70
0
 62
7
  6
HIDDEN
370
-3
390
F
  0
LAYER
  5
1FC
100
AcDbSymbolTableRecord
100
AcDbLayerTableRecord
  2
DEFAULT_3
 70
0
 62
7
  6
PHANTOM
370
-3
390
F
  0
LAYER
  5
1FD
100
AcDbSymbolTableRecord
100
AcDbLayerTableRecord
  2
ASSI
 70
0
 62
7
  6
CONTINUOUS
370
-3
390
F
  0
LAYER
  5
1FE
100
AcDbSymbolTableRecord
100
AcDbLayerTableRecord
  2
COORDINATE
 70
0
 62
7
  6
CONTINUOUS
370
-3
390
F
  0
LAYER
  5
1FF
100
AcDbSymbolTableRecord
100
AcDbLayerTableRecord
  2
COPY_PUBLISH
 70
0
 62
7
  6
CONTINUOUS
370
-3
390
F
  0
LAYER
  5
200
100
AcDbSymbolTableRecord
100
AcDbLayerTableRecord
  2
COSMETIC
 70
0
 62
7
  6
CONTINUOUS
370
-3
390
F
  0
LAYER
  5
201
100
AcDbSymbolTableRecord
100
AcDbLayerTableRecord
  2
COSMETICI
 70
0
 62
7
  6
CONTINUOUS
370
-3
390
F
  0
LAYER
  5
202
100
AcDbSymbolTableRecord
100
AcDbLayerTableRecord
  2
CURVE
 70
0
 62
7
  6
CONTINUOUS
370
-3
390
F
  0
LAYER
  5
203
100
AcDbSymbolTableRecord
100
AcDbLayerTableRecord
  2
DRAFT
 70
0
 62
7
  6
CONTINUOUS
370
-3
390
F
  0
LAYER
  5
204
100
AcDbSymbolTableRecord
100
AcDbLayerTableRecord
  2
IMPORT_IGES
 70
0
 62
7
  6
CONTINUOUS
370
-3
390
F
  0
LAYER
  5
205
100
AcDbSymbolTableRecord
100
AcDbLayerTableRecord
  2
INTFCLR_11
 70
0
 62
7
  6
CONTINUOUS
370
-3
390
F
  0
LAYER
  5
206
100
AcDbSymbolTableRecord
100
AcDbLayerTableRecord
  2
INTF_1
 70
0
 62
7
  6
CONTINUOUS
370
-3
390
F
  0
LAYER
  5
207
100
AcDbSymbolTableRecord
100
AcDbLayerTableRecord
  2
INTF_3
 70
0
 62
7
  6
CONTINUOUS
370
-3
390
F
  0
LAYER
  5
208
100
AcDbSymbolTableRecord
100
AcDbLayerTableRecord
  2
INTF_9
 70
0
 62
7
  6
CONTINUOUS
370
-3
390
F
  0
LAYER
  5
209
100
AcDbSymbolTableRecord
100
AcDbLayerTableRecord
  2
NOTE
 70
0
 62
7
  6
CONTINUOUS
370
-3
390
F
  0
LAYER
  5
20A
100
AcDbSymbolTableRecord
100
AcDbLayerTableRecord
  2
PIANI
 70
0
 62
7
  6
CONTINUOUS
370
-3
390
F
  0
LAYER
  5
20B
100
AcDbSymbolTableRecord
100
AcDbLayerTableRecord
  2
PIANI_RIFERIMENTO
 70
0
 62
7
  6
CONTINUOUS
370
-3
390
F
  0
LAYER
  5
20C
100
AcDbSymbolTableRecord
100
AcDbLayerTableRecord
  2
PUNTI
 70
0
 62
7
  6
CONTINUOUS
370
-3
390
F
  0
LAYER
  5
20D
100
AcDbSymbolTableRecord
100
AcDbLayerTableRecord
  2
RACCORDO
 70
0
 62
7
  6
CONTINUOUS
370
-3
390
F
  0
LAYER
  5
20E
100
AcDbSymbolTableRecord
100
AcDbLayerTableRecord
  2
SIMBOLI
 70
0
 62
7
  6
CONTINUOUS
370
-3
390
F
  0
LAYER
  5
20F
100
AcDbSymbolTableRecord
100
AcDbLayerTableRecord
  2
SMUSSO
 70
0
 62
7
  6
CONTINUOUS
370
-3
390
F
  0
LAYER
  5
210
100
AcDbSymbolTableRecord
100
AcDbLayerTableRecord
  2
SNAPLINE
 70
0
 62
7
  6
CONTINUOUS
370
-3
390
F
  0
LAYER
  5
211
100
AcDbSymbolTableRecord
100
AcDbLayerTableRecord
  2
SUPERFICI
 70
0
 62
7
  6
CONTINUOUS
370
-3
390
F
  0
LAYER
  5
212
100
AcDbSymbolTableRecord
100
AcDbLayerTableRecord
  2
TRASH
 70
0
 62
7
  6
CONTINUOUS
370
-3
390
F
  0
LAYER
  5
213
100
AcDbSymbolTableRecord
100
AcDbLayerTableRecord
  2
___SHELL
 70
0
 62
7
  6
CONTINUOUS
370
-3
390
F
  0
ENDTAB
  0
TABLE
  2
STYLE
  5
3
100
AcDbSymbolTable
 70
1
  0
STYLE
  5
11
100
AcDbSymbolTableRecord
100
AcDbTextStyleTableRecord
  2
STANDARD
 70
0
 40
0.0
 41
0.8
 50
0.0
 71
0
 42
0.2
  3
txt
  4

  0
STYLE
  5
214
100
AcDbSymbolTableRecord
100
AcDbTextStyleTableRecord
  2
TEXTSTYLE_1
 70
0
 40
0.0
 41
0.8
 50
0.0
 71
0
 42
0.2
  3
gdt
  4

  0
ENDTAB
  0
TABLE
  2
VIEW
  5
6
100
AcDbSymbolTable
 70
0
  0
ENDTAB
  0
TABLE
  2
UCS
  5
7
100
AcDbSymbolTable
 70
0
  0
ENDTAB
  0
TABLE
  2
APPID
  5
9
100
AcDbSymbolTable
 70
1
  0
APPID
  5
215
100
AcDbSymbolTableRecord
100
AcDbRegAppTableRecord
  2
ACAD
 70
0
  0
ENDTAB
  0
TABLE
  2
BLOCK_RECORD
  5
1
100
AcDbSymbolTable
 70
0
  0
BLOCK_RECORD
  5
216
100
AcDbSymbolTableRecord
100
AcDbBlockTableRecord
  2
*Model_Space
  0
BLOCK_RECORD
  5
217
100
AcDbSymbolTableRecord
100
AcDbBlockTableRecord
  2
*Paper_Space
  0
BLOCK_RECORD
  5
218
100
AcDbSymbolTableRecord
100
AcDbBlockTableRecord
  2
_FILLED
  0
ENDTAB
  0
TABLE
  2
DIMSTYLE
  5
A
100
AcDbSymbolTable
 70
1
100
AcDbDimStyleTable
 71
0
  0
DIMSTYLE
105
219
100
AcDbSymbolTableRecord
100
AcDbDimStyleTableRecord
  2
STANDARD
 70
0
  3

  4

 40
1.0
 41
3.0
 42
0.5
 43
0.38
 44
1.5
 45
0.0
 46
0.0
 47
0.01
 48
0.01
140
3.0
141
0.09
142
0.0
143
25.4
144
1.0
145
0.0
146
1.0
147
0.625
 71
1
 72
0
 73
0
 74
0
 75
0
 76
0
 77
1
 78
8
 79
2
170
0
171
1
172
0
173
0
174
0
175
0
176
0
177
0
178
0
270
2
179
2
271
2
272
2
273
2
274
2
275
0
280
0
281
0
282
0
283
1
284
8
285
0
286
0
287
3
288
0
340
11
278
44
341
218
342
218
343
218
344
218
  0
ENDTAB
  0
ENDSEC
  0
SECTION
  2
BLOCKS
  0
BLOCK
  5
20
100
AcDbEntity
  8
0
100
AcDbBlockBegin
  2
*Model_Space
 70
0
 10
0.0
 20
0.0
 30
0.0
  3
*Model_Space
  1

  0
ENDBLK
  5
21
100
AcDbEntity
  8
0
100
AcDbBlockEnd
  0
BLOCK
  5
1C
100
AcDbEntity
  8
0
100
AcDbBlockBegin
  2
*Paper_Space
 70
0
 10
0.0
 20
0.0
 30
0.0
  3
*Paper_Space
  1

  0
ENDBLK
  5
1D
100
AcDbEntity
  8
0
100
AcDbBlockEnd
  0
BLOCK
  5
21A
100
AcDbEntity
  8
0
100
AcDbBlockBegin
  2
_FILLED
 70
64
 10
0.0
 20
0.0
  3
_FILLED
  1

  0
SOLID
  5
21B
100
AcDbEntity
  8
0
  6
BYBLOCK
 62
0
100
AcDbTrace
 10
0.0
 20
0.0
 11
-1.0
 21
0.3166666667
 12
-1.0
 22
-0.3166666667
 13
-1.0
 23
-0.3166666667
  0
ENDBLK
  5
21C
100
AcDbEntity
  8
0
  6
BYBLOCK
 62
0
100
AcDbBlockEnd
  0
ENDSEC
  0
SECTION
  2
ENTITIES
  0
LINE
  5
21D
100
AcDbEntity
  8
0
100
AcDbLine
 62
7
  6
CONTINUOUS
 10
-17.4743189315
 20
29.2593147682
 11
-16.9107095008
 21
29.6197364651
  0
LINE
  5
21E
100
AcDbEntity
  8
0
100
AcDbLine
 62
250
  6
CONTINUOUS
 10
-16.6543149
 20
29.5988727931
 11
-17.2141999302
 21
29.2408328071
  0
LINE
  5
21F
100
AcDbEntity
  8
0
100
AcDbLine
 62
7
  6
CONTINUOUS
 10
-17.4549570614
 20
-13.7466967573
 11
13.3231596836
 21
-31.5175956255
  0
LINE
  5
220
100
AcDbEntity
  8
0
100
AcDbLine
 62
250
  6
CONTINUOUS
 10
-17.558498372
 20
-13.5178283268
 11
13.2196183731
 21
-31.2887271949
  0
LINE
  5
221
100
AcDbEntity
  8
0
100
AcDbLine
 62
7
  6
CONTINUOUS
 10
-17.7049449814
 20
-13.3136910301
 11
-17.7049449814
 21
28.8380812521
  0
LINE
  5
222
100
AcDbEntity
  8
0
100
AcDbLine
 62
250
  6
CONTINUOUS
 10
-17.558498372
 20
-13.5178283268
 11
-17.558498372
 21
28.6339439555
  0
LINE
  5
223
100
AcDbEntity
  8
0
100
AcDbLine
 62
7
  6
CONTINUOUS
 10
15.9284950462
 20
-14.4541665066
 11
15.929180777
 21
-14.4545565879
  0
LINE
  5
224
100
AcDbEntity
  8
0
100
AcDbLine
 62
7
  6
CONTINUOUS
 10
15.9285221786
 20
-14.4541832486
 11
15.9287027861
 21
-14.4542877333
  0
LINE
  5
225
100
AcDbEntity
  8
0
100
AcDbLine
 62
250
  6
CONTINUOUS
 10
13.5639168149
 20
11.4699339389
 11
14.1539125322
 21
11.8105883916
  0
LINE
  5
226
100
AcDbEntity
  8
0
100
AcDbLine
 62
250
  6
CONTINUOUS
 10
13.9173490515
 20
10.8577713486
 11
14.5073447688
 21
11.1984258013
  0
LINE
  5
227
100
AcDbEntity
  8
0
100
AcDbLine
 62
250
  6
CONTINUOUS
 10
15.9077006723
 20
-14.3180617452
 11
16.1113716516
 21
-14.4356588161
  0
LINE
  5
228
100
AcDbEntity
  8
0
100
AcDbLine
 62
250
  6
CONTINUOUS
 10
16.1305968222
 20
-14.4247575013
 11
15.9077006723
 21
-14.2960600579
  0
LINE
  5
229
100
AcDbEntity
  8
0
100
AcDbLine
 62
7
  6
CONTINUOUS
 10
16.3182457188
 20
-14.4090039916
 11
15.9077006723
 21
-14.1719604271
  0
LWPOLYLINE
  5
22A
100
AcDbEntity
  8
0
100
AcDbPolyline
 62
7
  6
CONTINUOUS
 90
9
 70
0
 10
15.9295357074
 20
-14.4547586268
 10
15.9280957726
 20
-14.4529922083
 10
15.9249365876
 20
-14.4479784191
 10
15.9209595048
 20
-14.4396003675
 10
15.9167538816
 20
-14.4276358643
 10
15.9128477986
 20
-14.4118624016
 10
15.9098040913
 20
-14.3925948632
 10
15.9080509281
 20
-14.3706791777
 10
15.9077005636
 20
-14.3548461615
  0
LINE
  5
22B
100
AcDbEntity
  8
0
100
AcDbLine
 62
250
  6
CONTINUOUS
 10
15.9855266075
 20
0.8457236714
 11
15.8814387595
 21
0.7856246524
  0
LINE
  5
22C
100
AcDbEntity
  8
0
100
AcDbLine
 62
250
  6
CONTINUOUS
 10
15.9855266075
 20
-3.3182747403
 11
15.8814387595
 21
-3.3783737592
  0
LINE
  5
22D
100
AcDbEntity
  8
0
100
AcDbLine
 62
7
  6
CONTINUOUS
 10
15.9074611922
 20
-3.4309827229
 11
15.9441100833
 21
-3.4098221125
  0
LINE
  5
22E
100
AcDbEntity
  8
0
100
AcDbLine
 62
250
  6
CONTINUOUS
 10
13.2196183731
 20
10.8630450873
 11
13.2196183731
 21
-31.2887271949
  0
LINE
  5
22F
100
AcDbEntity
  8
0
100
AcDbLine
 62
250
  6
CONTINUOUS
 10
13.9173490515
 20
10.8577713486
 11
13.9173490515
 21
-31.2940009337
  0
LINE
  5
230
100
AcDbEntity
  8
0
100
AcDbLine
 62
7
  6
CONTINUOUS
 10
14.5073447688
 20
-30.9881141874
 11
14.5073447688
 21
11.1984258013
  0
LWPOLYLINE
  5
231
100
AcDbEntity
  8
0
100
AcDbPolyline
 62
7
  6
CONTINUOUS
 90
11
 70
0
 10
16.4585730926
 20
-14.6731650739
 10
16.4584958289
 20
-14.6653864598
 10
16.4558927105
 20
-14.6281091648
 10
16.4495941415
 20
-14.5921295586
 10
16.4395717853
 20
-14.5576901101
 10
16.4258545164
 20
-14.5251138181
 10
16.4084996227
 20
-14.4947135254
 10
16.387676566
 20
-14.4669143682
 10
16.36384755
 20
-14.4423102002
 10
16.3375112456
 20
-14.4212733938
 10
16.3182586736
 20
-14.4090169367
  0
LWPOLYLINE
  5
232
100
AcDbEntity
  8
0
100
AcDbPolyline
 62
7
  6
CONTINUOUS
 90
10
 70
0
 10
15.90770067
 20
5.1472969756
 10
15.9075266356
 20
5.1790190279
 10
15.9049936285
 20
5.2712416296
 10
15.8994317931
 20
5.3618218846
 10
15.8908112668
 20
5.4507283543
 10
15.8791226423
 20
5.5377275135
 10
15.8644126355
 20
5.6224069373
 10
15.8467269199
 20
5.7045825533
 10
15.8260787981
 20
5.7842591259
 10
15.8201453129
 20
5.8048357692
  0
LINE
  5
233
100
AcDbEntity
  8
0
100
AcDbLine
 62
250
  6
CONTINUOUS
 10
15.8527755465
 20
5.0678252356
 11
15.8527755465
 21
-14.4342152005
  0
LINE
  5
234
100
AcDbEntity
  8
0
100
AcDbLine
 62
250
  6
CONTINUOUS
 10
15.8527755465
 20
-18.3308612527
 11
15.8527755465
 21
-23.1364367064
  0
LINE
  5
235
100
AcDbEntity
  8
0
100
AcDbLine
 62
7
  6
CONTINUOUS
 10
15.8814387595
 20
0.7856246524
 11
15.8814387595
 21
-3.3783737592
  0
LINE
  5
236
100
AcDbEntity
  8
0
100
AcDbLine
 62
7
  6
CONTINUOUS
 10
15.9077006723
 20
5.1473146966
 11
15.9077006723
 21
0.9521943088
  0
LINE
  5
237
100
AcDbEntity
  8
0
100
AcDbLine
 62
7
  6
CONTINUOUS
 10
15.9077006723
 20
-3.4305386263
 11
15.9077006723
 21
-14.3547257409
  0
LINE
  5
238
100
AcDbEntity
  8
0
100
AcDbLine
 62
7
  6
CONTINUOUS
 10
15.9077006417
 20
-18.2513078704
 11
15.9077006723
 21
-23.0569472458
  0
LINE
  5
239
100
AcDbEntity
  8
0
100
AcDbLine
 62
7
  6
CONTINUOUS
 10
15.9855266075
 20
0.8457236714
 11
15.9855266075
 21
-3.3182747403
  0
LINE
  5
23A
100
AcDbEntity
  8
0
100
AcDbLine
 62
7
  6
CONTINUOUS
 10
16.0375395525
 20
-15.2903561866
 11
16.0375395525
 21
-17.2498848509
  0
LINE
  5
23B
100
AcDbEntity
  8
0
100
AcDbLine
 62
250
  6
CONTINUOUS
 10
16.4036479773
 20
-14.7526170499
 11
16.4036479773
 21
-15.0077414939
  0
LINE
  5
23C
100
AcDbEntity
  8
0
100
AcDbLine
 62
250
  6
CONTINUOUS
 10
16.4036479773
 20
-17.0869899356
 11
16.4036479773
 21
-17.3421143795
  0
LINE
  5
23D
100
AcDbEntity
  8
0
100
AcDbLine
 62
7
  6
CONTINUOUS
 10
16.4585731031
 20
-14.6731275889
 11
16.4585731031
 21
-14.862347522
  0
LINE
  5
23E
100
AcDbEntity
  8
0
100
AcDbLine
 62
7
  6
CONTINUOUS
 10
16.4585731031
 20
-17.0734049855
 11
16.4585731031
 21
-17.2626248763
  0
LINE
  5
23F
100
AcDbEntity
  8
0
100
AcDbLine
 62
7
  6
CONTINUOUS
 10
16.5512120325
 20
-14.9937681345
 11
16.5512120325
 21
-16.9532967988
  0
LWPOLYLINE
  5
240
100
AcDbEntity
  8
0
100
AcDbPolyline
 62
7
  6
CONTINUOUS
 90
20
 70
0
 10
15.9077006417
 20
-18.2513078704
 10
15.90834395
 20
-18.2287085804
 10
15.9108645445
 20
-18.1996321903
 10
15.915558928
 20
-18.167708067
 10
15.9225629158
 20
-18.1336740844
 10
15.9319767555
 20
-18.0979146915
 10
15.9438665037
 20
-18.060788278
 10
15.9581126237
 20
-18.0230421442
 10
15.9746200758
 20
-17.9851235076
 10
15.993267661
 20
-17.9474455842
 10
16.0137449253
 20
-17.9106812474
 10
16.0358034449
 20
-17.8752427381
 10
16.0591882709
 20
-17.8414810313
 10
16.083471473
 20
-17.8099077732
 10
16.1083370808
 20
-17.7807840331
 10
16.1334487503
 20
-17.7543394696
 10
16.1582690863
 20
-17.7309295876
 10
16.1823558071
 20
-17.7106983176
 10
16.2054107995
 20
-17.6936011606
 10
16.2153627448
 20
-17.686916534
  0
LINE
  5
241
100
AcDbEntity
  8
0
100
AcDbLine
 62
250
  6
CONTINUOUS
 10
13.2196183731
 20
10.8630450873
 11
-17.558498372
 21
28.6339439555
  0
LINE
  5
242
100
AcDbEntity
  8
0
100
AcDbLine
 62
250
  6
CONTINUOUS
 10
13.5639168149
 20
11.4699339389
 11
-17.2141999302
 21
29.2408328071
  0
LINE
  5
243
100
AcDbEntity
  8
0
100
AcDbLine
 62
250
  6
CONTINUOUS
 10
14.5073447688
 20
9.9663049697
 11
15.7733777919
 21
5.6688087543
  0
LINE
  5
244
100
AcDbEntity
  8
0
100
AcDbLine
 62
7
  6
CONTINUOUS
 10
14.5073447688
 20
10.2610823883
 11
15.8201510622
 21
5.8048162605
  0
LINE
  5
245
100
AcDbEntity
  8
0
100
AcDbLine
 62
7
  6
CONTINUOUS
 10
14.1539125322
 20
11.8105883916
 11
-16.6543149
 21
29.5988727931
  0
LWPOLYLINE
  5
246
100
AcDbEntity
  8
0
100
AcDbPolyline
 62
7
  6
CONTINUOUS
 90
9
 70
0
 10
15.8300212344
 20
-23.7675402702
 10
15.8488488315
 20
-23.6717402812
 10
15.8651314539
 20
-23.5764984476
 10
15.8788291367
 20
-23.4819543294
 10
15.8899087549
 20
-23.3882235674
 10
15.8983439582
 20
-23.2953931675
 10
15.9041062979
 20
-23.2035606612
 10
15.9071690508
 20
-23.1128533285
 10
15.9077006717
 20
-23.0569385016
  0
LINE
  5
247
100
AcDbEntity
  8
0
100
AcDbLine
 62
250
  6
CONTINUOUS
 10
15.7733777919
 20
-23.8340376755
 11
14.5073447688
 21
-29.6721427313
  0
LINE
  5
248
100
AcDbEntity
  8
0
100
AcDbLine
 62
7
  6
CONTINUOUS
 10
15.8300212344
 20
-23.7675402702
 11
14.5073447688
 21
-29.8673680967
  0
LINE
  5
249
100
AcDbEntity
  8
0
100
AcDbLine
 62
250
  6
CONTINUOUS
 10
16.5512120325
 20
-14.9937681345
 11
16.0375395525
 21
-15.2903561866
  0
LINE
  5
24A
100
AcDbEntity
  8
0
100
AcDbLine
 62
250
  6
CONTINUOUS
 10
16.1113716516
 20
-14.4356588161
 11
16.1305968222
 21
-14.4247575013
  0
LINE
  5
24B
100
AcDbEntity
  8
0
100
AcDbLine
 62
250
  6
CONTINUOUS
 10
16.2515109917
 20
-14.6811925737
 11
16.2707361622
 21
-14.6702912588
  0
LWPOLYLINE
  5
24C
100
AcDbEntity
  8
0
100
AcDbPolyline
 62
7
  6
CONTINUOUS
 90
14
 70
0
 10
16.2738802773
 20
-17.6454367533
 10
16.2990296772
 20
-17.6229341091
 10
16.3227938436
 20
-17.5983729826
 10
16.3451055829
 20
-17.5719003323
 10
16.365720383
 20
-17.5438810806
 10
16.3846162111
 20
-17.5144142797
 10
16.4017178978
 20
-17.4835980228
 10
16.4167534153
 20
-17.4519369474
 10
16.4296622225
 20
-17.4195478462
 10
16.4403786262
 20
-17.386495919
 10
16.4487117752
 20
-17.3531902608
 10
16.4545666532
 20
-17.3197859314
 10
16.4578690195
 20
-17.286268122
 10
16.4585730536
 20
-17.2625436134
  0
LINE
  5
24D
100
AcDbEntity
  8
0
100
AcDbLine
 62
7
  6
CONTINUOUS
 10
16.247284201
 20
-17.6658235616
 11
16.2738802773
 21
-17.6454367533
  0
LINE
  5
24E
100
AcDbEntity
  8
0
100
AcDbLine
 62
7
  6
CONTINUOUS
 10
16.2345333032
 20
-17.674458521
 11
16.247284201
 21
-17.6658235616
  0
LINE
  5
24F
100
AcDbEntity
  8
0
100
AcDbLine
 62
250
  6
CONTINUOUS
 10
16.2707361622
 20
-17.5861777505
 11
16.2515109917
 21
-17.5986711397
  0
LINE
  5
250
100
AcDbEntity
  8
0
100
AcDbLine
 62
7
  6
CONTINUOUS
 10
16.2346407343
 20
-17.6743888569
 11
16.2154155622
 21
-17.686882247
  0
LINE
  5
251
100
AcDbEntity
  8
0
100
AcDbLine
 62
250
  6
CONTINUOUS
 10
16.5512120325
 20
-16.9532967988
 11
16.0375395525
 21
-17.2498848509
  0
LINE
  5
252
100
AcDbEntity
  8
0
100
AcDbLine
 62
7
  6
CONTINUOUS
 10
16.4575017552
 20
-17.0750379286
 11
16.5097955083
 21
-17.044844171
  0
LINE
  5
253
100
AcDbEntity
  8
0
100
AcDbLine
 62
250
  6
CONTINUOUS
 10
13.8034220907
 20
-31.5284195435
 11
13.8033084311
 21
-31.5284785265
  0
LINE
  5
254
100
AcDbEntity
  8
0
100
AcDbLine
 62
250
  6
CONTINUOUS
 10
14.5073447688
 20
-30.9881141874
 11
13.9173490515
 21
-31.2940009337
  0
LINE
  5
255
100
AcDbEntity
  8
0
100
AcDbLine
 62
7
  6
CONTINUOUS
 10
13.8033084311
 20
-31.5284785265
 11
14.3972288815
 21
-31.2205569794
  0
ARC
  5
256
100
AcDbEntity
  8
0
100
AcDbCircle
 62
250
  6
CONTINUOUS
 10
12.0189147546
 20
-23.019600013
 40
3.8417836228
100
AcDbArc
 50
347.7607291629
 51
349.1195363973
  0
ARC
  5
257
100
AcDbEntity
  8
0
100
AcDbCircle
 62
250
  6
CONTINUOUS
 10
16.400349491
 20
-14.4343768319
 40
0.5475739683
100
AcDbArc
 50
179.9830875839
 51
184.2578235027
  0
ARC
  5
258
100
AcDbEntity
  8
0
100
AcDbCircle
 62
7
  6
CONTINUOUS
 10
13.5731717637
 20
-31.0845898983
 40
0.5
100
AcDbArc
 50
239.9984015652
 51
297.4194204712
  0
ARC
  5
259
100
AcDbEntity
  8
0
100
AcDbCircle
 62
7
  6
CONTINUOUS
 10
-17.2049449814
 20
-13.3136910301
 40
0.5
100
AcDbArc
 50
179.9840060023
 51
239.9984015651
  0
ARC
  5
25A
100
AcDbEntity
  8
0
100
AcDbCircle
 62
7
  6
CONTINUOUS
 10
-17.2049449814
 20
28.8380812521
 40
0.5
100
AcDbArc
 50
122.5992953901
 51
180.0013072947
  0
SPLINE
  5
25B
100
AcDbEntity
  8
0
100
AcDbSpline
 62
7
  6
CONTINUOUS
 70
0
 71
3
 72
10
 73
6
 74
0
 42
0.0000001
 43
0.0000001
 44
0.0000000001
 40
0.0
 40
0.0
 40
0.0
 40
0.0
 40
0.547714885
 40
0.7816741304
 40
1.0
 40
1.0
 40
1.0
 40
1.0
 10
15.9855266075
 20
-3.3182747403
 30
0.0
 10
15.9855266075
 20
-3.3373805751
 30
0.0
 10
15.9814665314
 20
-3.3655291318
 30
0.0
 10
15.9630245175
 20
-3.3956584366
 30
0.0
 10
15.9506723318
 20
-3.4060403973
 30
0.0
 10
15.9440736755
 20
-3.4098428243
 30
0.0
  0
SPLINE
  5
25C
100
AcDbEntity
  8
0
100
AcDbSpline
 62
7
  6
CONTINUOUS
 70
0
 71
3
 72
9
 73
5
 74
0
 42
0.0000001
 43
0.0000001
 44
0.0000000001
 40
0.0
 40
0.0
 40
0.0
 40
0.0
 40
0.521317392
 40
1.0
 40
1.0
 40
1.0
 40
1.0
 10
15.9078359621
 20
1.0363559324
 30
0.0
 10
15.9315217414
 20
1.0088708348
 30
0.0
 10
15.9682628833
 20
0.9484710508
 30
0.0
 10
15.9855266075
 20
0.8790392285
 30
0.0
 10
15.9855266075
 20
0.8457236714
 30
0.0
  0
SPLINE
  5
25D
100
AcDbEntity
  8
0
100
AcDbSpline
 62
7
  6
CONTINUOUS
 70
0
 71
3
 72
10
 73
6
 74
0
 42
0.0000001
 43
0.0000001
 44
0.0000000001
 40
0.0
 40
0.0
 40
0.0
 40
0.0
 40
0.5476832107
 40
0.7816726995
 40
1.0
 40
1.0
 40
1.0
 40
1.0
 10
16.5512120325
 20
-16.9532967988
 30
0.0
 10
16.5512120325
 20
-16.9723940095
 30
0.0
 10
16.5471542595
 20
-17.0005294576
 30
0.0
 10
16.5287312777
 20
-17.0306539797
 30
0.0
 10
16.5163883403
 20
-17.0410375459
 30
0.0
 10
16.5097955083
 20
-17.044844171
 30
0.0
  0
SPLINE
  5
25E
100
AcDbEntity
  8
0
100
AcDbSpline
 62
7
  6
CONTINUOUS
 70
0
 71
3
 72
9
 73
5
 74
0
 42
0.0000001
 43
0.0000001
 44
0.0000000001
 40
0.0
 40
0.0
 40
0.0
 40
0.0
 40
0.5178088539
 40
1.0
 40
1.0
 40
1.0
 40
1.0
 10
16.4586614431
 20
-14.7871020009
 30
0.0
 10
16.4867504347
 20
-14.8152285546
 30
0.0
 10
16.5302990936
 20
-14.8803034891
 30
0.0
 10
16.5512120325
 20
-14.956751981
 30
0.0
 10
16.5512120325
 20
-14.9937681345
 30
0.0
  0
SPLINE
  5
25F
100
AcDbEntity
  8
0
100
AcDbSpline
 62
250
  6
CONTINUOUS
 70
0
 71
3
 72
11
 73
7
 74
0
 42
0.0000001
 43
0.0000001
 44
0.0000000001
 40
0.0
 40
0.0
 40
0.0
 40
0.0
 40
0.289555546
 40
0.5491054959
 40
0.78224375
 40
1.0
 40
1.0
 40
1.0
 40
1.0
 10
13.2196183731
 20
-31.2887271949
 30
0.0
 10
13.2196183731
 20
-31.3140452498
 30
0.0
 10
13.2234791566
 20
-31.3622182576
 30
0.0
 10
13.2429573307
 20
-31.4284145155
 30
0.0
 10
13.2758017481
 20
-31.4821512458
 30
0.0
 10
13.3066827496
 20
-31.5080543288
 30
0.0
 10
13.3231704344
 20
-31.5175770077
 30
0.0
  0
SPLINE
  5
260
100
AcDbEntity
  8
0
100
AcDbSpline
 62
250
  6
CONTINUOUS
 70
0
 71
3
 72
11
 73
7
 74
0
 42
0.0000001
 43
0.0000001
 44
0.0000000001
 40
0.0
 40
0.0
 40
0.0
 40
0.0
 40
0.2372490965
 40
0.4997268228
 40
0.7622683144
 40
1.0
 40
1.0
 40
1.0
 40
1.0
 10
16.4036479773
 20
-17.3421143795
 30
0.0
 10
16.4036444247
 20
-17.3648160443
 30
0.0
 10
16.3955483739
 20
-17.4126630696
 30
0.0
 10
16.3672227004
 20
-17.4804095175
 30
0.0
 10
16.3256145249
 20
-17.5409678126
 30
0.0
 10
16.2898094925
 20
-17.5737812827
 30
0.0
 10
16.2707361622
 20
-17.5861777505
 30
0.0
  0
SPLINE
  5
261
100
AcDbEntity
  8
0
100
AcDbSpline
 62
250
  6
CONTINUOUS
 70
0
 71
3
 72
9
 73
5
 74
0
 42
0.0000001
 43
0.0000001
 44
0.0000000001
 40
0.0
 40
0.0
 40
0.0
 40
0.0
 40
0.236760601
 40
1.0
 40
1.0
 40
1.0
 40
1.0
 10
16.2515109917
 20
-17.5986711397
 30
0.0
 10
16.2396965852
 20
-17.6063499409
 30
0.0
 10
16.1909730119
 20
-17.6405834234
 30
0.0
 10
16.1468612802
 20
-17.6811706009
 30
0.0
 10
16.1158579133
 20
-17.7143681811
 30
0.0
  0
SPLINE
  5
262
100
AcDbEntity
  8
0
100
AcDbSpline
 62
250
  6
CONTINUOUS
 70
0
 71
3
 72
9
 73
5
 74
0
 42
0.0000001
 43
0.0000001
 44
0.0000000001
 40
0.0
 40
0.0
 40
0.0
 40
0.0
 40
0.5031787196
 40
1.0
 40
1.0
 40
1.0
 40
1.0
 10
16.1158579133
 20
-17.7143681811
 30
0.0
 10
16.0534779991
 20
-17.7811629329
 30
0.0
 10
15.9491348231
 20
-17.9326860971
 30
0.0
 10
15.8849528888
 20
-18.1053259269
 30
0.0
 10
15.8671940084
 20
-18.1938001066
 30
0.0
  0
SPLINE
  5
263
100
AcDbEntity
  8
0
100
AcDbSpline
 62
250
  6
CONTINUOUS
 70
0
 71
3
 72
9
 73
5
 74
0
 42
0.0000001
 43
0.0000001
 44
0.0000000001
 40
0.0
 40
0.0
 40
0.0
 40
0.0
 40
0.2608672934
 40
1.0
 40
1.0
 40
1.0
 40
1.0
 10
15.8671940084
 20
-18.1938001066
 30
0.0
 10
15.8648334899
 20
-18.2055601354
 30
0.0
 10
15.8567883413
 20
-18.2508280411
 30
0.0
 10
15.8527786246
 20
-18.2968761648
 30
0.0
 10
15.8527755465
 20
-18.3308612527
 30
0.0
  0
SPLINE
  5
264
100
AcDbEntity
  8
0
100
AcDbSpline
 62
250
  6
CONTINUOUS
 70
0
 71
3
 72
9
 73
5
 74
0
 42
0.0000001
 43
0.0000001
 44
0.0000000001
 40
0.0
 40
0.0
 40
0.0
 40
0.0
 40
0.239554752
 40
1.0
 40
1.0
 40
1.0
 40
1.0
 10
15.8527755465
 20
-23.1364367064
 30
0.0
 10
15.852775587
 20
-23.1853004731
 30
0.0
 10
15.8472545628
 20
-23.3892666339
 30
0.0
 10
15.8209042174
 20
-23.5924502331
 30
0.0
 10
15.7916351416
 20
-23.7447774299
 30
0.0
  0
SPLINE
  5
265
100
AcDbEntity
  8
0
100
AcDbSpline
 62
250
  6
CONTINUOUS
 70
0
 71
3
 72
9
 73
5
 74
0
 42
0.0000001
 43
0.0000001
 44
0.0000000001
 40
0.0
 40
0.0
 40
0.0
 40
0.0
 40
0.2346957391
 40
1.0
 40
1.0
 40
1.0
 40
1.0
 10
15.7733777919
 20
5.6688087543
 30
0.0
 10
15.7868061931
 20
5.6232267943
 30
0.0
 10
15.8356226969
 20
5.4265418611
 30
0.0
 10
15.8527752902
 20
5.2227762618
 30
0.0
 10
15.8527755465
 20
5.0678252356
 30
0.0
  0
SPLINE
  5
266
100
AcDbEntity
  8
0
100
AcDbSpline
 62
250
  6
CONTINUOUS
 70
0
 71
3
 72
15
 73
11
 74
0
 42
0.0000001
 43
0.0000001
 44
0.0000000001
 40
0.0
 40
0.0
 40
0.0
 40
0.0
 40
0.1432274019
 40
0.2714983041
 40
0.3875959481
 40
0.496955234
 40
0.6068515453
 40
0.7244122976
 40
0.8547842353
 40
1.0
 40
1.0
 40
1.0
 40
1.0
 10
15.8542867958
 20
-14.475031275
 30
0.0
 10
15.8563107236
 20
-14.5017871996
 30
0.0
 10
15.8641157034
 20
-14.5523816507
 30
0.0
 10
15.889830002
 20
-14.6209512568
 30
0.0
 10
15.9286422025
 20
-14.6757704696
 30
0.0
 10
15.9797567292
 20
-14.7141925845
 30
0.0
 10
16.0408550884
 20
-14.7339041513
 30
0.0
 10
16.1087524993
 20
-14.7344642983
 30
0.0
 10
16.1808359239
 20
-14.7167043402
 30
0.0
 10
16.2278441907
 20
-14.6946085077
 30
0.0
 10
16.2515109917
 20
-14.6811925737
 30
0.0
  0
SPLINE
  5
267
100
AcDbEntity
  8
0
100
AcDbSpline
 62
250
  6
CONTINUOUS
 70
0
 71
3
 72
13
 73
9
 74
0
 42
0.0000001
 43
0.0000001
 44
0.0000000001
 40
0.0
 40
0.0
 40
0.0
 40
0.0
 40
0.2698110396
 40
0.3847580952
 40
0.4928514961
 40
0.602230543
 40
0.7205671624
 40
1.0
 40
1.0
 40
1.0
 40
1.0
 10
16.2707361622
 20
-14.6702912588
 30
0.0
 10
16.2864068074
 20
-14.6614087867
 30
0.0
 10
16.3114173295
 20
-14.6516604044
 30
0.0
 10
16.3447558656
 20
-14.6532683224
 30
0.0
 10
16.3657876721
 20
-14.6616675243
 30
0.0
 10
16.3827824115
 20
-14.6769457238
 30
0.0
 10
16.3999348738
 20
-14.7066239139
 30
0.0
 10
16.4036467117
 20
-14.7339617051
 30
0.0
 10
16.4036479773
 20
-14.7526170499
 30
0.0
  0
SPLINE
  5
268
100
AcDbEntity
  8
0
100
AcDbSpline
 62
250
  6
CONTINUOUS
 70
0
 71
3
 72
10
 73
6
 74
0
 42
0.0000001
 43
0.0000001
 44
0.0000000001
 40
0.0
 40
0.0
 40
0.0
 40
0.0
 40
0.2284508283
 40
0.4678472012
 40
1.0
 40
1.0
 40
1.0
 40
1.0
 10
15.8201455159
 20
5.8048146268
 30
0.0
 10
15.8233783422
 20
5.7938380331
 30
0.0
 10
15.8262233289
 20
5.7700716417
 30
0.0
 10
15.8162503937
 20
5.7203397678
 30
0.0
 10
15.7926071023
 20
5.6872670512
 30
0.0
 10
15.7733777919
 20
5.6688087543
 30
0.0
  0
SPLINE
  5
269
100
AcDbEntity
  8
0
100
AcDbSpline
 62
250
  6
CONTINUOUS
 70
0
 71
3
 72
9
 73
5
 74
0
 42
0.0000001
 43
0.0000001
 44
0.0000000001
 40
0.0
 40
0.0
 40
0.0
 40
0.0
 40
0.4514976566
 40
1.0
 40
1.0
 40
1.0
 40
1.0
 10
15.9077005323
 20
5.1472969756
 30
0.0
 10
15.9076939414
 20
5.1322662146
 30
0.0
 10
15.8951283413
 20
5.0988503238
 30
0.0
 10
15.8683751029
 20
5.0773166209
 30
0.0
 10
15.8527755465
 20
5.0678252356
 30
0.0
  0
SPLINE
  5
26A
100
AcDbEntity
  8
0
100
AcDbSpline
 62
7
  6
CONTINUOUS
 70
0
 71
3
 72
12
 73
8
 74
0
 42
0.0000001
 43
0.0000001
 44
0.0000000001
 40
0.0
 40
0.0
 40
0.0
 40
0.0
 40
0.2484984586
 40
0.5019207723
 40
0.7577524783
 40
0.8842228341
 40
1.0
 40
1.0
 40
1.0
 40
1.0
 10
15.9077015175
 20
0.9521945831
 30
0.0
 10
15.9077027999
 20
0.9381970925
 30
0.0
 10
15.9056897436
 20
0.9099116047
 30
0.0
 10
15.8983092399
 20
0.8678230151
 30
0.0
 10
15.8894526617
 20
0.8331027339
 30
0.0
 10
15.8833000803
 20
0.8057532032
 30
0.0
 10
15.8814387595
 20
0.792146181
 30
0.0
 10
15.8814387595
 20
0.7856246524
 30
0.0
  0
SPLINE
  5
26B
100
AcDbEntity
  8
0
100
AcDbSpline
 62
250
  6
CONTINUOUS
 70
0
 71
3
 72
9
 73
5
 74
0
 42
0.0000001
 43
0.0000001
 44
0.0000000001
 40
0.0
 40
0.0
 40
0.0
 40
0.0
 40
0.4515246729
 40
1.0
 40
1.0
 40
1.0
 40
1.0
 10
15.9077004073
 20
-14.3548461614
 30
0.0
 10
15.9076705391
 20
-14.3698630068
 30
0.0
 10
15.8950844167
 20
-14.4032255603
 30
0.0
 10
15.8683589901
 20
-14.4247336193
 30
0.0
 10
15.8527755465
 20
-14.4342152005
 30
0.0
  0
SPLINE
  5
26C
100
AcDbEntity
  8
0
100
AcDbSpline
 62
250
  6
CONTINUOUS
 70
0
 71
3
 72
11
 73
7
 74
0
 42
0.0000001
 43
0.0000001
 44
0.0000000001
 40
0.0
 40
0.0
 40
0.0
 40
0.0
 40
0.2912136774
 40
0.5511560704
 40
0.7836866647
 40
1.0
 40
1.0
 40
1.0
 40
1.0
 10
13.9173490515
 20
-31.2940009337
 30
0.0
 10
13.9167415131
 20
-31.3204574076
 30
0.0
 10
13.9115670122
 20
-31.3706098064
 30
0.0
 10
13.8895330976
 20
-31.4390132469
 30
0.0
 10
13.8538359186
 20
-31.4937278992
 30
0.0
 10
13.8208677038
 20
-31.5193614234
 30
0.0
 10
13.803421724
 20
-31.5284188365
 30
0.0
  0
SPLINE
  5
26D
100
AcDbEntity
  8
0
100
AcDbSpline
 62
250
  6
CONTINUOUS
 70
0
 71
3
 72
11
 73
7
 74
0
 42
0.0000001
 43
0.0000001
 44
0.0000000001
 40
0.0
 40
0.0
 40
0.0
 40
0.0
 40
0.2388602044
 40
0.501639921
 40
0.7635361167
 40
1.0
 40
1.0
 40
1.0
 40
1.0
 10
13.9173490515
 20
-31.2940009337
 30
0.0
 10
13.866915092
 20
-31.3216347213
 30
0.0
 10
13.7510285182
 20
-31.3617023392
 30
0.0
 10
13.5667827633
 20
-31.3800010056
 30
0.0
 10
13.3834019482
 20
-31.3590562356
 30
0.0
 10
13.2689216259
 20
-31.3171942752
 30
0.0
 10
13.2196183731
 20
-31.2887271949
 30
0.0
  0
SPLINE
  5
26E
100
AcDbEntity
  8
0
100
AcDbSpline
 62
250
  6
CONTINUOUS
 70
0
 71
3
 72
9
 73
5
 74
0
 42
0.0000001
 43
0.0000001
 44
0.0000000001
 40
0.0
 40
0.0
 40
0.0
 40
0.0
 40
0.4515028503
 40
1.0
 40
1.0
 40
1.0
 40
1.0
 10
16.4585729514
 20
-14.6731650739
 30
0.0
 10
16.4585618778
 20
-14.6881931599
 30
0.0
 10
16.4459923184
 20
-14.7215987846
 30
0.0
 10
16.419244433
 20
-14.7431275512
 30
0.0
 10
16.4036479773
 20
-14.7526170499
 30
0.0
  0
SPLINE
  5
26F
100
AcDbEntity
  8
0
100
AcDbSpline
 62
250
  6
CONTINUOUS
 70
0
 71
3
 72
9
 73
5
 74
0
 42
0.0000001
 43
0.0000001
 44
0.0000000001
 40
0.0
 40
0.0
 40
0.0
 40
0.0
 40
0.4514930155
 40
1.0
 40
1.0
 40
1.0
 40
1.0
 10
16.4585729688
 20
-17.2626248762
 30
0.0
 10
16.4585704016
 20
-17.2776580399
 30
0.0
 10
16.4460083493
 20
-17.311083147
 30
0.0
 10
16.4192503129
 20
-17.3326212909
 30
0.0
 10
16.4036479773
 20
-17.3421143795
 30
0.0
  0
SPLINE
  5
270
100
AcDbEntity
  8
0
100
AcDbSpline
 62
7
  6
CONTINUOUS
 70
0
 71
3
 72
10
 73
6
 74
0
 42
0.0000001
 43
0.0000001
 44
0.0000000001
 40
0.0
 40
0.0
 40
0.0
 40
0.0
 40
0.5041103603
 40
0.7588654602
 40
1.0
 40
1.0
 40
1.0
 40
1.0
 10
16.4585724006
 20
-14.8623475482
 30
0.0
 10
16.4585745428
 20
-14.8891381251
 30
0.0
 10
16.4515329541
 20
-14.9298546943
 30
0.0
 10
16.4308510341
 20
-14.978727971
 30
0.0
 10
16.4142092751
 20
-15.0004833164
 30
0.0
 10
16.4036479773
 20
-15.0077414939
 30
0.0
  0
SPLINE
  5
271
100
AcDbEntity
  8
0
100
AcDbSpline
 62
250
  6
CONTINUOUS
 70
0
 71
3
 72
11
 73
7
 74
0
 42
0.0000001
 43
0.0000001
 44
0.0000000001
 40
0.0
 40
0.0
 40
0.0
 40
0.0
 40
0.2388600828
 40
0.5016396571
 40
0.7635358149
 40
1.0
 40
1.0
 40
1.0
 40
1.0
 10
13.9173490515
 20
10.8577713486
 30
0.0
 10
13.8669151175
 20
10.830137575
 30
0.0
 10
13.7510286079
 20
10.7900699743
 30
0.0
 10
13.5667829311
 20
10.7717712728
 30
0.0
 10
13.3834020823
 20
10.7927160046
 30
0.0
 10
13.2689216889
 20
10.8345779706
 30
0.0
 10
13.2196183731
 20
10.8630450873
 30
0.0
  0
SPLINE
  5
272
100
AcDbEntity
  8
0
100
AcDbSpline
 62
250
  6
CONTINUOUS
 70
0
 71
3
 72
11
 73
7
 74
0
 42
0.0000001
 43
0.0000001
 44
0.0000000001
 40
0.0
 40
0.0
 40
0.0
 40
0.0
 40
0.2364935839
 40
0.5000019197
 40
0.7635140865
 40
1.0
 40
1.0
 40
1.0
 40
1.0
 10
13.9173490515
 20
10.8577713486
 30
0.0
 10
13.9159937188
 20
10.915306792
 30
0.0
 10
13.8921090308
 20
11.0364866054
 30
0.0
 10
13.8156187528
 20
11.2071482412
 30
0.0
 10
13.7060652172
 20
11.3587183958
 30
0.0
 10
13.6130638767
 20
11.4399920696
 30
0.0
 10
13.5639168134
 20
11.469933938
 30
0.0
  0
SPLINE
  5
273
100
AcDbEntity
  8
0
100
AcDbSpline
 62
250
  6
CONTINUOUS
 70
0
 71
3
 72
9
 73
5
 74
0
 42
0.0000001
 43
0.0000001
 44
0.0000000001
 40
0.0
 40
0.0
 40
0.0
 40
0.0
 40
0.4736131025
 40
1.0
 40
1.0
 40
1.0
 40
1.0
 10
16.2154151959
 20
-17.6868816834
 30
0.0
 10
16.2233856046
 20
-17.6816981808
 30
0.0
 10
16.2378302093
 20
-17.6667843736
 30
0.0
 10
16.2452925952
 20
-17.6476773644
 30
0.0
 10
16.2477988582
 20
-17.637411768
 30
0.0
  0
SPLINE
  5
274
100
AcDbEntity
  8
0
100
AcDbSpline
 62
250
  6
CONTINUOUS
 70
0
 71
3
 72
8
 73
4
 74
0
 42
0.0000001
 43
0.0000001
 44
0.0000000001
 40
0.0
 40
0.0
 40
0.0
 40
0.0
 40
1.0
 40
1.0
 40
1.0
 40
1.0
 10
16.2477988582
 20
-17.637411768
 30
0.0
 10
16.2492832851
 20
-17.6313315888
 30
0.0
 10
16.2502835765
 20
-17.6251205058
 30
0.0
 10
16.2508830592
 20
-17.6188905199
 30
0.0
  0
SPLINE
  5
275
100
AcDbEntity
  8
0
100
AcDbSpline
 62
250
  6
CONTINUOUS
 70
0
 71
3
 72
8
 73
4
 74
0
 42
0.0000001
 43
0.0000001
 44
0.0000000001
 40
0.0
 40
0.0
 40
0.0
 40
0.0
 40
1.0
 40
1.0
 40
1.0
 40
1.0
 10
16.2508830592
 20
-17.6188905199
 30
0.0
 10
16.2515289277
 20
-17.61217848
 30
0.0
 10
16.2517129746
 20
-17.6054111567
 30
0.0
 10
16.2515109917
 20
-17.5986711397
 30
0.0
  0
SPLINE
  5
276
100
AcDbEntity
  8
0
100
AcDbSpline
 62
250
  6
CONTINUOUS
 70
0
 71
3
 72
9
 73
5
 74
0
 42
0.0000001
 43
0.0000001
 44
0.0000000001
 40
0.0
 40
0.0
 40
0.0
 40
0.0
 40
0.2415947438
 40
1.0
 40
1.0
 40
1.0
 40
1.0
 10
16.2346403683
 20
-17.6743882939
 30
0.0
 10
16.2375366598
 20
-17.6725047103
 30
0.0
 10
16.2489136
 20
-17.6637626341
 30
0.0
 10
16.2572340963
 20
-17.6513866174
 30
0.0
 10
16.2615426867
 20
-17.6414336604
 30
0.0
  0
SPLINE
  5
277
100
AcDbEntity
  8
0
100
AcDbSpline
 62
250
  6
CONTINUOUS
 70
0
 71
3
 72
9
 73
5
 74
0
 42
0.0000001
 43
0.0000001
 44
0.0000000001
 40
0.0
 40
0.0
 40
0.0
 40
0.0
 40
0.2303153099
 40
1.0
 40
1.0
 40
1.0
 40
1.0
 10
16.2615426867
 20
-17.6414336604
 30
0.0
 10
16.2632590916
 20
-17.63746872
 30
0.0
 10
16.2694808171
 20
-17.6197202025
 30
0.0
 10
16.2711686604
 20
-17.6006098672
 30
0.0
 10
16.2707361622
 20
-17.5861777505
 30
0.0
  0
SPLINE
  5
278
100
AcDbEntity
  8
0
100
AcDbSpline
 62
250
  6
CONTINUOUS
 70
0
 71
3
 72
9
 73
5
 74
0
 42
0.0000001
 43
0.0000001
 44
0.0000000001
 40
0.0
 40
0.0
 40
0.0
 40
0.0
 40
0.4514930095
 40
1.0
 40
1.0
 40
1.0
 40
1.0
 10
15.9077005377
 20
-23.0569472458
 30
0.0
 10
15.9076979678
 20
-23.0719804043
 30
0.0
 10
15.8951359214
 20
-23.105405501
 30
0.0
 10
15.8683778827
 20
-23.1269436299
 30
0.0
 10
15.8527755465
 20
-23.1364367064
 30
0.0
  0
SPLINE
  5
279
100
AcDbEntity
  8
0
100
AcDbSpline
 62
250
  6
CONTINUOUS
 70
0
 71
3
 72
9
 73
5
 74
0
 42
0.0000001
 43
0.0000001
 44
0.0000000001
 40
0.0
 40
0.0
 40
0.0
 40
0.0
 40
0.4514930052
 40
1.0
 40
1.0
 40
1.0
 40
1.0
 10
15.9077005377
 20
-18.2513717917
 30
0.0
 10
15.9076979676
 20
-18.2664049501
 30
0.0
 10
15.8951359214
 20
-18.2998300467
 30
0.0
 10
15.8683778828
 20
-18.321368176
 30
0.0
 10
15.8527755465
 20
-18.3308612527
 30
0.0
  0
SPLINE
  5
27A
100
AcDbEntity
  8
0
100
AcDbSpline
 62
250
  6
CONTINUOUS
 70
0
 71
3
 72
10
 73
6
 74
0
 42
0.0000001
 43
0.0000001
 44
0.0000000001
 40
0.0
 40
0.0
 40
0.0
 40
0.0
 40
0.4149631464
 40
0.683338929
 40
1.0
 40
1.0
 40
1.0
 40
1.0
 10
15.8237536463
 20
-23.7969396181
 30
0.0
 10
15.8218415907
 20
-23.8057270876
 30
0.0
 10
15.8112935415
 20
-23.8183429127
 30
0.0
 10
15.7921605942
 20
-23.8283266555
 30
0.0
 10
15.78002452
 20
-23.8323296351
 30
0.0
 10
15.7733777919
 20
-23.8340376755
 30
0.0
  0
SPLINE
  5
27B
100
AcDbEntity
  8
0
100
AcDbSpline
 62
250
  6
CONTINUOUS
 70
0
 71
3
 72
11
 73
7
 74
0
 42
0.0000001
 43
0.0000001
 44
0.0000000001
 40
0.0
 40
0.0
 40
0.0
 40
0.0
 40
0.2179743749
 40
0.4504720584
 40
0.7094777788
 40
1.0
 40
1.0
 40
1.0
 40
1.0
 10
15.9287019496
 20
-14.4542860669
 30
0.0
 10
15.9407760536
 20
-14.4612536051
 30
0.0
 10
15.9684492992
 20
-14.47134692
 30
0.0
 10
16.0144488393
 20
-14.4724316899
 30
0.0
 10
16.0634493158
 20
-14.4603646976
 30
0.0
 10
16.0953165213
 20
-14.4450104205
 30
0.0
 10
16.1113714046
 20
-14.4356586735
 30
0.0
  0
SPLINE
  5
27C
100
AcDbEntity
  8
0
100
AcDbSpline
 62
250
  6
CONTINUOUS
 70
0
 71
3
 72
11
 73
7
 74
0
 42
0.0000001
 43
0.0000001
 44
0.0000000001
 40
0.0
 40
0.0
 40
0.0
 40
0.0
 40
0.2177706871
 40
0.4509225472
 40
0.7104564026
 40
1.0
 40
1.0
 40
1.0
 40
1.0
 10
-17.7049237676
 20
-13.313691029
 30
0.0
 10
-17.7049209314
 20
-13.33273497
 30
0.0
 10
-17.6979284106
 20
-13.3724384
 30
0.0
 10
-17.6678084991
 20
-13.4277589727
 30
0.0
 10
-17.6202190821
 20
-13.4777359392
 30
0.0
 10
-17.5804261694
 20
-13.5051674913
 30
0.0
 10
-17.558498372
 20
-13.5178283268
 30
0.0
  0
SPLINE
  5
27D
100
AcDbEntity
  8
0
100
AcDbSpline
 62
250
  6
CONTINUOUS
 70
0
 71
3
 72
11
 73
7
 74
0
 42
0.0000001
 43
0.0000001
 44
0.0000000001
 40
0.0
 40
0.0
 40
0.0
 40
0.0
 40
0.2177708052
 40
0.4509238438
 40
0.7104577978
 40
1.0
 40
1.0
 40
1.0
 40
1.0
 10
-17.7049237591
 20
28.8380698454
 30
0.0
 10
-17.7049196176
 20
28.819026713
 30
0.0
 10
-17.6979250215
 20
28.7793254031
 30
0.0
 10
-17.6678044083
 20
28.7240083116
 30
0.0
 10
-17.6202163235
 20
28.6740343028
 30
0.0
 10
-17.5804251212
 20
28.6466041857
 30
0.0
 10
-17.558498372
 20
28.6339439555
 30
0.0
  0
SPLINE
  5
27E
100
AcDbEntity
  8
0
100
AcDbSpline
 62
250
  6
CONTINUOUS
 70
0
 71
3
 72
11
 73
7
 74
0
 42
0.0000001
 43
0.0000001
 44
0.0000000001
 40
0.0
 40
0.0
 40
0.0
 40
0.0
 40
0.2163115499
 40
0.4488333056
 40
0.7087690594
 40
1.0
 40
1.0
 40
1.0
 40
1.0
 10
-17.474318368
 20
29.2593138873
 30
0.0
 10
-17.4577505216
 20
29.269914252
 30
0.0
 10
-17.4190539159
 20
29.2856857756
 30
0.0
 10
-17.3537827554
 20
29.2892693265
 30
0.0
 10
-17.2834803171
 20
29.2741524935
 30
0.0
 10
-17.2374307767
 20
29.2535440035
 30
0.0
 10
-17.2141999302
 20
29.2408328071
 30
0.0
  0
SPLINE
  5
27F
100
AcDbEntity
  8
0
100
AcDbSpline
 62
250
  6
CONTINUOUS
 70
0
 71
3
 72
11
 73
7
 74
0
 42
0.0000001
 43
0.0000001
 44
0.0000000001
 40
0.0
 40
0.0
 40
0.0
 40
0.0
 40
0.21775625
 40
0.4508945041
 40
0.710444454
 40
1.0
 40
1.0
 40
1.0
 40
1.0
 10
-17.4549463106
 20
-13.7466781395
 30
0.0
 10
-17.4714339954
 20
-13.7371554606
 30
0.0
 10
-17.502314997
 20
-13.7112523776
 30
0.0
 10
-17.5351594143
 20
-13.6575156473
 30
0.0
 10
-17.5546375885
 20
-13.5913193894
 30
0.0
 10
-17.5584983719
 20
-13.5431463816
 30
0.0
 10
-17.558498372
 20
-13.5178283268
 30
0.0
  0
SPLINE
  5
280
100
AcDbEntity
  8
0
100
AcDbSpline
 62
250
  6
CONTINUOUS
 70
0
 71
3
 72
11
 73
7
 74
0
 42
0.0000001
 43
0.0000001
 44
0.0000000001
 40
0.0
 40
0.0
 40
0.0
 40
0.0
 40
0.2388572513
 40
0.5016348916
 40
0.763526021
 40
1.0
 40
1.0
 40
1.0
 40
1.0
 10
13.5639168149
 20
11.4699339389
 30
0.0
 10
13.5147708068
 20
11.4400716747
 30
0.0
 10
13.4221323545
 20
11.3597434705
 30
0.0
 10
13.3141654622
 20
11.2093340758
 30
0.0
 10
13.2406089143
 20
11.0400523075
 30
0.0
 10
13.2196183731
 20
10.9199785505
 30
0.0
 10
13.2196183731
 20
10.8630450873
 30
0.0
  0
SPLINE
  5
281
100
AcDbEntity
  8
0
100
AcDbSpline
 62
250
  6
CONTINUOUS
 70
0
 71
3
 72
11
 73
7
 74
0
 42
0.0000001
 43
0.0000001
 44
0.0000000001
 40
0.0
 40
0.0
 40
0.0
 40
0.0
 40
0.236473979
 40
0.4983651084
 40
0.7611427487
 40
1.0
 40
1.0
 40
1.0
 40
1.0
 10
-17.558498372
 20
28.6339439555
 30
0.0
 10
-17.5584983719
 20
28.6908774187
 30
0.0
 10
-17.5375078307
 20
28.8109511757
 30
0.0
 10
-17.4639512828
 20
28.980232944
 30
0.0
 10
-17.3559843905
 20
29.1306423387
 30
0.0
 10
-17.2633459382
 20
29.2109705429
 30
0.0
 10
-17.2141999302
 20
29.2408328071
 30
0.0
  0
SPLINE
  5
282
100
AcDbEntity
  8
0
100
AcDbSpline
 62
7
  6
CONTINUOUS
 70
0
 71
3
 72
11
 73
7
 74
0
 42
0.0000001
 43
0.0000001
 44
0.0000000001
 40
0.0
 40
0.0
 40
0.0
 40
0.0
 40
0.4292082647
 40
0.7067820545
 40
0.8962335093
 40
1.0
 40
1.0
 40
1.0
 40
1.0
 10
15.8814387595
 20
-3.3783737592
 30
0.0
 10
15.8814387595
 20
-3.3867888457
 30
0.0
 10
15.8845224286
 20
-3.4010337818
 30
0.0
 10
15.8951642181
 20
-3.415233922
 30
0.0
 10
15.9024405625
 20
-3.423636953
 30
0.0
 10
15.9064797886
 20
-3.4278632287
 30
0.0
 10
15.9074193954
 20
-3.4296677058
 30
0.0
  0
SPLINE
  5
283
100
AcDbEntity
  8
0
100
AcDbSpline
 62
250
  6
CONTINUOUS
 70
0
 71
3
 72
11
 73
7
 74
0
 42
0.0000001
 43
0.0000001
 44
0.0000000001
 40
0.0
 40
0.0
 40
0.0
 40
0.0
 40
0.2377320258
 40
0.4994613445
 40
0.7614853529
 40
1.0
 40
1.0
 40
1.0
 40
1.0
 10
16.1113716516
 20
-14.4356588161
 30
0.0
 10
16.1318118642
 20
-14.4468801437
 30
0.0
 10
16.1704745287
 20
-14.4783693148
 30
0.0
 10
16.2150517751
 20
-14.5390826201
 30
0.0
 10
16.2446764257
 20
-14.6084164441
 30
0.0
 10
16.2521871251
 20
-14.6578077686
 30
0.0
 10
16.2515109917
 20
-14.6811925737
 30
0.0
  0
SPLINE
  5
284
100
AcDbEntity
  8
0
100
AcDbSpline
 62
250
  6
CONTINUOUS
 70
0
 71
3
 72
11
 73
7
 74
0
 42
0.0000001
 43
0.0000001
 44
0.0000000001
 40
0.0
 40
0.0
 40
0.0
 40
0.0
 40
0.2377321135
 40
0.4994615419
 40
0.7614855028
 40
1.0
 40
1.0
 40
1.0
 40
1.0
 10
16.1305968222
 20
-14.4247575013
 30
0.0
 10
16.1510370334
 20
-14.4359788442
 30
0.0
 10
16.18969969
 20
-14.4674680466
 30
0.0
 10
16.234276919
 20
-14.5281813706
 30
0.0
 10
16.2639015657
 20
-14.5975151762
 30
0.0
 10
16.2714122796
 20
-14.6469064705
 30
0.0
 10
16.2707361622
 20
-14.6702912588
 30
0.0
  0
SPLINE
  5
285
100
AcDbEntity
  8
0
100
AcDbSpline
 62
7
  6
CONTINUOUS
 70
0
 71
3
 72
11
 73
7
 74
0
 42
0.0000001
 43
0.0000001
 44
0.0000000001
 40
0.0
 40
0.0
 40
0.0
 40
0.0
 40
0.4272331777
 40
0.7098932446
 40
0.8963679997
 40
1.0
 40
1.0
 40
1.0
 40
1.0
 10
16.4036479773
 20
-17.0869899356
 30
0.0
 10
16.4106457702
 20
-17.0832836531
 30
0.0
 10
16.4231090905
 20
-17.0784603241
 30
0.0
 10
16.4397881351
 20
-17.0766937463
 30
0.0
 10
16.4502091154
 20
-17.0763019441
 30
0.0
 10
16.455842566
 20
-17.075994273
 30
0.0
 10
16.4575064083
 20
-17.0750345322
 30
0.0
  0
SPLINE
  5
286
100
AcDbEntity
  8
0
100
AcDbSpline
 62
250
  6
CONTINUOUS
 70
0
 71
3
 72
11
 73
7
 74
0
 42
0.0000001
 43
0.0000001
 44
0.0000000001
 40
0.0
 40
0.0
 40
0.0
 40
0.0
 40
0.2885540555
 40
0.5474963512
 40
0.7809698976
 40
1.0
 40
1.0
 40
1.0
 40
1.0
 10
16.1305969373
 20
-14.4247575677
 30
0.0
 10
16.1471339674
 20
-14.4156337613
 30
0.0
 10
16.1799918885
 20
-14.4007624041
 30
0.0
 10
16.2303082324
 20
-14.3894919542
 30
0.0
 10
16.2774590346
 20
-14.3913343731
 30
0.0
 10
16.3058178602
 20
-14.4018391738
 30
0.0
 10
16.318235469
 20
-14.4090039472
 30
0.0
  0
ELLIPSE
  5
287
100
AcDbEntity
  8
0
100
AcDbEllipse
 62
7
  6
CONTINUOUS
 10
14.1536701828
 20
-30.7836270821
 30
0.0
 11
-0.2501834304
 21
0.4333025529
 31
0.0
 40
0.5769361983
 41
-3.16775339
 42
-2.3565853618
  0
ELLIPSE
  5
288
100
AcDbEntity
  8
0
100
AcDbEllipse
 62
7
  6
CONTINUOUS
 10
14.1536701828
 20
11.4023532427
 30
0.0
 11
-0.2500121049
 21
0.4330057129
 31
0.0
 40
0.5777274115
 41
-2.3559002616
 42
-0.7857891675
  0
ELLIPSE
  5
289
100
AcDbEntity
  8
0
100
AcDbEllipse
 62
7
  6
CONTINUOUS
 10
-16.6540725506
 20
29.1903577853
 30
0.0
 11
-0.2501834304
 21
0.4333025529
 31
0.0
 40
0.5769361983
 41
-0.7851038024
 42
0.0261607363
  0
ELLIPSE
  5
28A
100
AcDbEntity
  8
0
100
AcDbEllipse
 62
7
  6
CONTINUOUS
 10
21.2967819026
 20
-12.0904257301
 30
0.0
 11
5.25874204
 21
3.2018783838
 31
0.0
 40
0.0226558884
 41
2.7524715701
 42
3.1277990889
  0
ELLIPSE
  5
28B
100
AcDbEntity
  8
0
100
AcDbEllipse
 62
7
  6
CONTINUOUS
 10
21.2967819026
 20
-14.0499543944
 30
0.0
 11
5.25874204
 21
3.2018783838
 31
0.0
 40
0.0226558884
 41
3.1277990889
 42
3.5031266076
  0
ENDSEC
  0
SECTION
  2
OBJECTS
  0
DICTIONARY
  5
C
100
AcDbDictionary
280
0
281
1
  3
ACAD_GROUP
350
D
  3
ACAD_MLINESTYLE
350
17
  3
ACAD_LAYOUT
350
1A
  3
ACAD_PLOTSETTINGS
350
19
  3
ACAD_PLOTSTYLENAME
350
E
  0
DICTIONARY
  5
D
102
{ACAD_REACTORS
330
C
102
}
100
AcDbDictionary
280
0
281
1
  0
ACDBDICTIONARYWDFLT
  5
E
102
{ACAD_REACTORS
330
C
102
}
100
AcDbDictionary
281
1
  3
Normal
350
F
100
AcDbDictionaryWithDefault
340
F
  0
DICTIONARY
  5
17
102
{ACAD_REACTORS
330
C
102
}
100
AcDbDictionary
280
0
281
1
  3
Standard
350
18
  0
DICTIONARY
  5
19
102
{ACAD_REACTORS
330
C
102
}
100
AcDbDictionary
281
1
  0
DICTIONARY
  5
1A
102
{ACAD_REACTORS
330
C
102
}
100
AcDbDictionary
281
1
  3
Model
350
28C
  3
Layout1
350
28D
  0
ACDBPLACEHOLDER
  5
F
102
{ACAD_REACTORS
330
E
102
}
  0
MLINESTYLE
  5
18
102
{ACAD_REACTORS
330
17
102
}
100
AcDbMlineStyle
  2
STANDARD
 70
0
  3

 62
256
 51
90.0
 52
90.0
 71
2
 49
0.5
 62
256
  6
BYLAYER
 49
-0.5
 62
256
  6
BYLAYER
  0
LAYOUT
  5
28C
102
{ACAD_REACTORS
330
1A
102
}
100
AcDbPlotSettings
  1

  2
none_device
  4
ISO_A4_(297.00_x_210.00_MM)
  6

 40
0.0
 41
0.0
 42
0.0
 43
0.0
 44
297.0
 45
210.0
 46
0.0
 47
0.0
 48
0.0
 49
0.0
140
0.0
141
0.0
142
1.0
143
1.0
 70
1024
 72
1
 73
0
 74
0
  7

 75
0
147
1.0
148
0.0
149
0.0
100
AcDbLayout
  1
Model
 70
0
 71
0
 10
0.0
 20
0.0
 11
297.0
 21
210.0
 12
0.0
 22
0.0
 32
0.0
 14
0.0
 24
0.0
 34
0.0
 15
0.0
 25
0.0
 35
0.0
146
0.0
 13
0.0
 23
0.0
 33
0.0
 16
1.0
 26
0.0
 36
0.0
 17
0.0
 27
1.0
 37
0.0
 76
0
330
216
345
0
346
0
  0
LAYOUT
  5
28D
102
{ACAD_REACTORS
330
1A
102
}
100
AcDbPlotSettings
  1

  2
none_device
  4
ISO_A4_(297.00_x_210.00_MM)
  6

 40
0.0
 41
0.0
 42
0.0
 43
0.0
 44
297.0
 45
210.0
 46
0.0
 47
0.0
 48
0.0
 49
0.0
140
0.0
141
0.0
142
1.0
143
1.0
 70
0
 72
1
 73
0
 74
0
  7

 75
0
147
1.0
148
0.0
149
0.0
100
AcDbLayout
  1
Layout1
 70
0
 71
1
 10
0.0
 20
0.0
 11
297.0
 21
210.0
 12
0.0
 22
0.0
 32
0.0
 14
0.0
 24
0.0
 34
0.0
 15
0.0
 25
0.0
 35
0.0
146
0.0
 13
0.0
 23
0.0
 33
0.0
 16
1.0
 26
0.0
 36
0.0
 17
0.0
 27
1.0
 37
0.0
 76
0
330
217
345
0
346
0
  0
ENDSEC
  0
EOF
