  0
SECTION
  2
HEADER
  9
$ACADVER
  1
AC1024
  9
$DWGCODEPAGE
  3
ANSI_1252
  9
$EXTMAX
 10
297.0
 20
210.0
 30
0.0
  9
$EXTMIN
 10
0.0
 20
0.0
 30
0.0
  9
$LIMMIN
 10
0.0
 20
0.0
  9
$LIMMAX
 10
297.0
 20
210.0
  9
$VIEWCTR
 10
148.5
 20
105.0
  9
$VIEWSIZE
 40
210.0
  9
$CLAYER
  8
0
  9
$LTSCALE
 40
16.335
  9
$CELTYPE
  6
BYLAYER
  9
$DIMSCALE
 40
1.0
  9
$DIMASZ
 40
3.0
  9
$DIMEXO
 40
0.5
  9
$DIMDLI
 40
11.286
  9
$DIMEXE
 40
1.5
  9
$DIMCEN
 40
2.673
  9
$DIMLFAC
 40
1.0
  9
$DIMBLK
  1
_FILLED
  9
$DIMALT
 70
0
  9
$DIMALTF
 40
0.0393700787
  9
$DIMTXT
 40
3.0
  9
$DIMTOL
 70
1
  9
$DIMLIM
 70
0
  9
$DIMTFAC
 40
1.0
  9
$DIMTP
 40
0.01
  9
$DIMTM
 40
0.01
  9
$DIMGAP
 40
0.625
  9
$DIMDSEP
 70
44
  9
$AUNITS
 70
0
  9
$PDMODE
 70
3
  9
$PDSIZE
 40
3.0
  9
$HANDSEED
  5
473
  9
$TILEMODE
 70
1
  9
$MEASUREMENT
 70
1
  9
$INSUNITS
 70
4
  0
ENDSEC
  0
SECTION
  2
CLASSES
  0
CLASS
  1
ACDBDICTIONARYWDFLT
  2
AcDbDictionaryWithDefault
  3
AutoCAD 2000
 90
0
 91
1
280
0
281
0
  0
CLASS
  1
ACDBPLACEHOLDER
  2
AcDbPlaceHolder
  3
AutoCAD 2000
 90
0
 91
1
280
0
281
0
  0
CLASS
  1
LAYOUT
  2
AcDbLayout
  3
AutoCAD 2000
 90
0
 91
0
280
0
281
0
  0
ENDSEC
  0
SECTION
  2
TABLES
  0
TABLE
  2
VPORT
  5
8
100
AcDbSymbolTable
 70
2
  0
VPORT
  5
1F4
100
AcDbSymbolTableRecord
100
AcDbViewportTableRecord
  2
*ACTIVE
 70
0
 10
0.0
 20
0.0
 11
1.0
 21
1.0
 12
148.5
 22
105.0
 13
0.0
 23
0.0
 14
1.0
 24
1.0
 15
0.0
 25
0.0
 16
0.0
 26
0.0
 36
1.0
 17
0.0
 27
0.0
 37
0.0
 40
210.0
 41
1.4142857143
 42
50.0
 43
0.0
 44
0.0
 50
0.0
 51
0.0
 71
0
 72
100
 73
1
 74
1
 75
0
 76
0
 77
0
 78
0
  0
ENDTAB
  0
TABLE
  2
LTYPE
  5
5
100
AcDbSymbolTable
 70
6
  0
LTYPE
  5
14
100
AcDbSymbolTableRecord
100
AcDbLinetypeTableRecord
  2
BYBLOCK
 70
0
  3

 72
65
 73
0
 40
0.0
  0
LTYPE
  5
15
100
AcDbSymbolTableRecord
100
AcDbLinetypeTableRecord
  2
BYLAYER
 70
0
  3

 72
65
 73
0
 40
0.0
  0
LTYPE
  5
16
100
AcDbSymbolTableRecord
100
AcDbLinetypeTableRecord
  2
CONTINUOUS
 70
64
  3
Solid line
 72
65
 73
0
 40
0.0
  0
LTYPE
  5
1F5
100
AcDbSymbolTableRecord
100
AcDbLinetypeTableRecord
  2
CENTER
 70
64
  3
____ _ ____ _ ____ _ ____ _ ____ _ ____ _ ____
 72
65
 73
4
 40
0.6
 49
0.375
 74
0
 49
-0.075
 74
0
 49
0.075
 74
0
 49
-0.075
 74
0
  0
LTYPE
  5
1F6
100
AcDbSymbolTableRecord
100
AcDbLinetypeTableRecord
  2
HIDDEN
 70
64
  3
- - - - - - - - - - - - - - - - - - - -
 72
65
 73
2
 40
0.2
 49
0.1
 74
0
 49
-0.1
 74
0
  0
LTYPE
  5
1F7
100
AcDbSymbolTableRecord
100
AcDbLinetypeTableRecord
  2
PHANTOM
 70
64
  3
_____ _ _ _____ _ _ _____ _ _ _____
 72
65
 73
6
 40
0.8
 49
0.45
 74
0
 49
-0.05
 74
0
 49
0.1
 74
0
 49
-0.05
 74
0
 49
0.1
 74
0
 49
-0.05
 74
0
  0
LTYPE
  5
1F8
100
AcDbSymbolTableRecord
100
AcDbLinetypeTableRecord
  2
DOT
 70
64
  3
. . . . . . . . . . . . . . . . . . . .
 72
65
 73
2
 40
0.2
 49
0.1
 74
0
 49
-0.1
 74
0
  0
LTYPE
  5
1F9
100
AcDbSymbolTableRecord
100
AcDbLinetypeTableRecord
  2
DASHED
 70
64
  3
- - - - - - - - - - - - - - - - - - - -
 72
65
 73
2
 40
0.2
 49
0.1
 74
0
 49
-0.1
 74
0
  0
ENDTAB
  0
TABLE
  2
LAYER
  5
2
100
AcDbSymbolTable
 70
36
  0
LAYER
  5
10
100
AcDbSymbolTableRecord
100
AcDbLayerTableRecord
  2
0
 70
0
 62
7
  6
CONTINUOUS
370
-3
390
F
  0
LAYER
  5
1FA
100
AcDbSymbolTableRecord
100
AcDbLayerTableRecord
  2
DEFAULT_1
 70
0
 62
7
  6
CENTER
370
-3
390
F
  0
LAYER
  5
1FB
100
AcDbSymbolTableRecord
100
AcDbLayerTableRecord
  2
DEFAULT_2
 70
0
 62
7
  6
HIDDEN
370
-3
390
F
  0
LAYER
  5
1FC
100
AcDbSymbolTableRecord
100
AcDbLayerTableRecord
  2
DEFAULT_3
 70
0
 62
7
  6
PHANTOM
370
-3
390
F
  0
LAYER
  5
1FD
100
AcDbSymbolTableRecord
100
AcDbLayerTableRecord
  2
ASSI
 70
0
 62
7
  6
CONTINUOUS
370
-3
390
F
  0
LAYER
  5
1FE
100
AcDbSymbolTableRecord
100
AcDbLayerTableRecord
  2
COLOR
 70
0
 62
7
  6
CONTINUOUS
370
-3
390
F
  0
LAYER
  5
1FF
100
AcDbSymbolTableRecord
100
AcDbLayerTableRecord
  2
COORDINATE
 70
0
 62
7
  6
CONTINUOUS
370
-3
390
F
  0
LAYER
  5
200
100
AcDbSymbolTableRecord
100
AcDbLayerTableRecord
  2
COPY_PUBLISH
 70
0
 62
7
  6
CONTINUOUS
370
-3
390
F
  0
LAYER
  5
201
100
AcDbSymbolTableRecord
100
AcDbLayerTableRecord
  2
COSMETICI
 70
0
 62
7
  6
CONTINUOUS
370
-3
390
F
  0
LAYER
  5
202
100
AcDbSymbolTableRecord
100
AcDbLayerTableRecord
  2
CURVE
 70
0
 62
7
  6
CONTINUOUS
370
-3
390
F
  0
LAYER
  5
203
100
AcDbSymbolTableRecord
100
AcDbLayerTableRecord
  2
DRAFT
 70
0
 62
7
  6
CONTINUOUS
370
-3
390
F
  0
LAYER
  5
204
100
AcDbSymbolTableRecord
100
AcDbLayerTableRecord
  2
IMPORT_IGES
 70
0
 62
7
  6
CONTINUOUS
370
-3
390
F
  0
LAYER
  5
205
100
AcDbSymbolTableRecord
100
AcDbLayerTableRecord
  2
INTF_10000
 70
0
 62
7
  6
CONTINUOUS
370
-3
390
F
  0
LAYER
  5
206
100
AcDbSymbolTableRecord
100
AcDbLayerTableRecord
  2
INTF_11
 70
0
 62
7
  6
CONTINUOUS
370
-3
390
F
  0
LAYER
  5
207
100
AcDbSymbolTableRecord
100
AcDbLayerTableRecord
  2
INTF_7
 70
0
 62
7
  6
CONTINUOUS
370
-3
390
F
  0
LAYER
  5
208
100
AcDbSymbolTableRecord
100
AcDbLayerTableRecord
  2
INTF_GREEN
 70
0
 62
7
  6
CONTINUOUS
370
-3
390
F
  0
LAYER
  5
209
100
AcDbSymbolTableRecord
100
AcDbLayerTableRecord
  2
INTF_RED
 70
0
 62
7
  6
CONTINUOUS
370
-3
390
F
  0
LAYER
  5
20A
100
AcDbSymbolTableRecord
100
AcDbLayerTableRecord
  2
INTF_YELLOW
 70
0
 62
7
  6
CONTINUOUS
370
-3
390
F
  0
LAYER
  5
20B
100
AcDbSymbolTableRecord
100
AcDbLayerTableRecord
  2
NOTE
 70
0
 62
7
  6
CONTINUOUS
370
-3
390
F
  0
LAYER
  5
20C
100
AcDbSymbolTableRecord
100
AcDbLayerTableRecord
  2
PIANI
 70
0
 62
7
  6
CONTINUOUS
370
-3
390
F
  0
LAYER
  5
20D
100
AcDbSymbolTableRecord
100
AcDbLayerTableRecord
  2
PUNTI
 70
0
 62
7
  6
CONTINUOUS
370
-3
390
F
  0
LAYER
  5
20E
100
AcDbSymbolTableRecord
100
AcDbLayerTableRecord
  2
RACCORDO
 70
0
 62
7
  6
CONTINUOUS
370
-3
390
F
  0
LAYER
  5
20F
100
AcDbSymbolTableRecord
100
AcDbLayerTableRecord
  2
SIMBOLI
 70
0
 62
7
  6
CONTINUOUS
370
-3
390
F
  0
LAYER
  5
210
100
AcDbSymbolTableRecord
100
AcDbLayerTableRecord
  2
SMUSSO
 70
0
 62
7
  6
CONTINUOUS
370
-3
390
F
  0
LAYER
  5
211
100
AcDbSymbolTableRecord
100
AcDbLayerTableRecord
  2
SNAPLINE
 70
0
 62
7
  6
CONTINUOUS
370
-3
390
F
  0
LAYER
  5
212
100
AcDbSymbolTableRecord
100
AcDbLayerTableRecord
  2
SUPERFICI
 70
0
 62
7
  6
CONTINUOUS
370
-3
390
F
  0
LAYER
  5
213
100
AcDbSymbolTableRecord
100
AcDbLayerTableRecord
  2
TRASH
 70
0
 62
7
  6
CONTINUOUS
370
-3
390
F
  0
ENDTAB
  0
TABLE
  2
STYLE
  5
3
100
AcDbSymbolTable
 70
1
  0
STYLE
  5
11
100
AcDbSymbolTableRecord
100
AcDbTextStyleTableRecord
  2
STANDARD
 70
0
 40
0.0
 41
0.8
 50
0.0
 71
0
 42
0.2
  3
txt
  4

  0
STYLE
  5
214
100
AcDbSymbolTableRecord
100
AcDbTextStyleTableRecord
  2
TEXTSTYLE_1
 70
0
 40
0.0
 41
0.8
 50
0.0
 71
0
 42
0.2
  3
gdt
  4

  0
ENDTAB
  0
TABLE
  2
VIEW
  5
6
100
AcDbSymbolTable
 70
0
  0
ENDTAB
  0
TABLE
  2
UCS
  5
7
100
AcDbSymbolTable
 70
0
  0
ENDTAB
  0
TABLE
  2
APPID
  5
9
100
AcDbSymbolTable
 70
1
  0
APPID
  5
215
100
AcDbSymbolTableRecord
100
AcDbRegAppTableRecord
  2
ACAD
 70
0
  0
ENDTAB
  0
TABLE
  2
BLOCK_RECORD
  5
1
100
AcDbSymbolTable
 70
0
  0
BLOCK_RECORD
  5
216
100
AcDbSymbolTableRecord
100
AcDbBlockTableRecord
  2
*Model_Space
  0
BLOCK_RECORD
  5
217
100
AcDbSymbolTableRecord
100
AcDbBlockTableRecord
  2
*Paper_Space
  0
BLOCK_RECORD
  5
218
100
AcDbSymbolTableRecord
100
AcDbBlockTableRecord
  2
_FILLED
  0
ENDTAB
  0
TABLE
  2
DIMSTYLE
  5
A
100
AcDbSymbolTable
 70
1
100
AcDbDimStyleTable
 71
0
  0
DIMSTYLE
105
219
100
AcDbSymbolTableRecord
100
AcDbDimStyleTableRecord
  2
STANDARD
 70
0
  3

  4

 40
1.0
 41
3.0
 42
0.5
 43
0.38
 44
1.5
 45
0.0
 46
0.0
 47
0.01
 48
0.01
140
3.0
141
0.09
142
0.0
143
25.4
144
1.0
145
0.0
146
1.0
147
0.625
 71
1
 72
0
 73
0
 74
0
 75
0
 76
0
 77
1
 78
8
 79
2
170
0
171
1
172
0
173
0
174
0
175
0
176
0
177
0
178
0
270
2
179
2
271
2
272
2
273
2
274
2
275
0
280
0
281
0
282
0
283
1
284
8
285
0
286
0
287
3
288
0
340
11
278
44
341
218
342
218
343
218
344
218
  0
ENDTAB
  0
ENDSEC
  0
SECTION
  2
BLOCKS
  0
BLOCK
  5
20
100
AcDbEntity
  8
0
100
AcDbBlockBegin
  2
*Model_Space
 70
0
 10
0.0
 20
0.0
 30
0.0
  3
*Model_Space
  1

  0
ENDBLK
  5
21
100
AcDbEntity
  8
0
100
AcDbBlockEnd
  0
BLOCK
  5
1C
100
AcDbEntity
  8
0
100
AcDbBlockBegin
  2
*Paper_Space
 70
0
 10
0.0
 20
0.0
 30
0.0
  3
*Paper_Space
  1

  0
ENDBLK
  5
1D
100
AcDbEntity
  8
0
100
AcDbBlockEnd
  0
BLOCK
  5
21A
100
AcDbEntity
  8
0
100
AcDbBlockBegin
  2
_FILLED
 70
64
 10
0.0
 20
0.0
  3
_FILLED
  1

  0
SOLID
  5
21B
100
AcDbEntity
  8
0
  6
BYBLOCK
 62
0
100
AcDbTrace
 10
0.0
 20
0.0
 11
-1.0
 21
0.3166666667
 12
-1.0
 22
-0.3166666667
 13
-1.0
 23
-0.3166666667
  0
ENDBLK
  5
21C
100
AcDbEntity
  8
0
  6
BYBLOCK
 62
0
100
AcDbBlockEnd
  0
ENDSEC
  0
SECTION
  2
ENTITIES
  0
LWPOLYLINE
  5
21D
100
AcDbEntity
  8
RACCORDO
100
AcDbPolyline
 62
7
  6
CONTINUOUS
 90
23
 70
0
 10
-41.4262227853
 20
86.2837648168
 10
-41.5536397749
 20
86.2243848614
 10
-41.7377760616
 20
86.1336904539
 10
-41.9156235147
 20
86.0399707269
 10
-42.0870623876
 20
85.9431060812
 10
-42.2513402473
 20
85.8433303644
 10
-42.407259912
 20
85.7412242976
 10
-42.5545753668
 20
85.6368466198
 10
-42.6930610825
 20
85.5302408413
 10
-42.821920296
 20
85.4219268638
 10
-42.9411078787
 20
85.3118963357
 10
-43.0505335663
 20
85.2001619339
 10
-43.1496800351
 20
85.0872135258
 10
-43.2386586442
 20
84.9729391298
 10
-43.3174158851
 20
84.8573896482
 10
-43.385504355
 20
84.7413181426
 10
-43.4429837425
 20
84.6249311325
 10
-43.4900542549
 20
84.5081553193
 10
-43.5266765978
 20
84.3914831571
 10
-43.5529478019
 20
84.2752732012
 10
-43.5690450383
 20
84.1596982437
 10
-43.5751124901
 20
84.0451703036
 10
-43.5751752244
 20
84.031994492
  0
LINE
  5
21E
100
AcDbEntity
  8
RACCORDO
100
AcDbLine
 62
7
  6
CONTINUOUS
 10
-41.4262182315
 20
86.2837564773
 11
-41.4242170453
 21
86.2846510786
  0
LINE
  5
21F
100
AcDbEntity
  8
RACCORDO
100
AcDbLine
 62
7
  6
CONTINUOUS
 10
-31.3357557477
 20
90.7070172871
 11
-41.4242170453
 21
86.2846510786
  0
LINE
  5
220
100
AcDbEntity
  8
RACCORDO
100
AcDbLine
 62
250
  6
CONTINUOUS
 10
-31.1853055116
 20
90.7140939165
 11
-31.3141323935
 21
90.657659299
  0
LWPOLYLINE
  5
221
100
AcDbEntity
  8
RACCORDO
100
AcDbPolyline
 62
7
  6
CONTINUOUS
 90
6
 70
0
 10
-31.1203905225
 20
90.8238467391
 10
-31.138164384
 20
90.8165952878
 10
-31.1616675361
 20
90.8046488703
 10
-31.1839752836
 20
90.790470396
 10
-31.2049585123
 20
90.7741136029
 10
-31.2244221674
 20
90.7556904935
  0
LINE
  5
222
100
AcDbEntity
  8
RACCORDO
100
AcDbLine
 62
7
  6
CONTINUOUS
 10
-24.1311708614
 20
93.3976715961
 11
-31.1205114395
 21
90.8238022905
  0
LINE
  5
223
100
AcDbEntity
  8
RACCORDO
100
AcDbLine
 62
250
  6
CONTINUOUS
 10
-24.1185842424
 20
93.3634079174
 11
-24.0251646087
 21
93.3978004283
  0
LINE
  5
224
100
AcDbEntity
  8
RACCORDO
100
AcDbLine
 62
7
  6
CONTINUOUS
 10
-31.2244221674
 20
90.7556904935
 11
-31.2421755129
 21
90.7353657748
  0
LWPOLYLINE
  5
225
100
AcDbEntity
  8
RACCORDO
100
AcDbPolyline
 62
7
  6
CONTINUOUS
 90
9
 70
0
 10
38.09095143
 20
-88.0982235376
 10
38.1137211908
 20
-88.0973727271
 10
38.1360522824
 20
-88.094761184
 10
38.1578095486
 20
-88.0904470607
 10
38.1788795634
 20
-88.084506856
 10
38.1991288005
 20
-88.0770390127
 10
38.218448496
 20
-88.0681526779
 10
38.236759059
 20
-88.0579588514
 10
38.2391642
 20
-88.0564800276
  0
LWPOLYLINE
  5
226
100
AcDbEntity
  8
RACCORDO
100
AcDbPolyline
 62
7
  6
CONTINUOUS
 90
3
 70
0
 10
38.0577408611
 20
-88.0960634989
 10
38.0679018454
 20
-88.0972758212
 10
38.09095143
 20
-88.0982235376
  0
LINE
  5
227
100
AcDbEntity
  8
RACCORDO
100
AcDbLine
 62
7
  6
CONTINUOUS
 10
-31.2421755129
 20
90.7353657748
 11
-31.2507306777
 21
90.7234902639
  0
LINE
  5
228
100
AcDbEntity
  8
CURVE
100
AcDbLine
 62
7
  6
CONTINUOUS
 10
23.0231657158
 20
-92.0273057212
 11
23.037061038
 21
-92.0312132312
  0
LINE
  5
229
100
AcDbEntity
  8
CURVE
100
AcDbLine
 62
250
  6
CONTINUOUS
 10
18.3572508534
 20
-86.83215247
 11
19.243670829
 21
-87.0995154865
  0
LINE
  5
22A
100
AcDbEntity
  8
CURVE
100
AcDbLine
 62
250
  6
CONTINUOUS
 10
16.4508648604
 20
-86.244445239
 11
17.3274937648
 21
-86.5168664665
  0
LINE
  5
22B
100
AcDbEntity
  8
CURVE
100
AcDbLine
 62
250
  6
CONTINUOUS
 10
15.3786380288
 20
-85.3951628298
 11
14.4572226615
 21
-85.0999161148
  0
LINE
  5
22C
100
AcDbEntity
  8
CURVE
100
AcDbLine
 62
250
  6
CONTINUOUS
 10
14.4572226298
 20
-84.512316136
 11
15.378637997
 21
-84.8075628511
  0
LINE
  5
22D
100
AcDbEntity
  8
RACCORDO
100
AcDbLine
 62
7
  6
CONTINUOUS
 10
13.0999309122
 20
81.9485942364
 11
3.5441243111
 21
77.989277562
  0
LINE
  5
22E
100
AcDbEntity
  8
CURVE
100
AcDbLine
 62
250
  6
CONTINUOUS
 10
19.2436708468
 20
-84.5071862251
 11
18.3572508712
 21
-84.2398232086
  0
LINE
  5
22F
100
AcDbEntity
  8
CURVE
100
AcDbLine
 62
250
  6
CONTINUOUS
 10
17.327493732
 20
-83.9245371896
 11
16.4508648277
 21
-83.652115962
  0
LINE
  5
230
100
AcDbEntity
  8
CURVE
100
AcDbLine
 62
250
  6
CONTINUOUS
 10
10.3993168321
 20
-82.6432419411
 11
9.6426772209
 21
-82.3817376023
  0
LINE
  5
231
100
AcDbEntity
  8
RACCORDO
100
AcDbLine
 62
250
  6
CONTINUOUS
 10
-40.791590585
 20
-61.5736311286
 11
-40.9751324745
 21
-61.4137972722
  0
LINE
  5
232
100
AcDbEntity
  8
RACCORDO
100
AcDbLine
 62
250
  6
CONTINUOUS
 10
-40.7936603038
 20
-61.5742179534
 11
-40.9751324745
 21
-61.4137972722
  0
LINE
  5
233
100
AcDbEntity
  8
CURVE
100
AcDbLine
 62
7
  6
CONTINUOUS
 10
-40.9751324745
 20
-60.0281566261
 11
-40.9673033916
 21
-60.035094433
  0
LINE
  5
234
100
AcDbEntity
  8
RACCORDO
100
AcDbLine
 62
7
  6
CONTINUOUS
 10
3.3221272216
 20
77.8912387745
 11
-14.3073162163
 21
69.0765170556
  0
LWPOLYLINE
  5
235
100
AcDbEntity
  8
RACCORDO
100
AcDbPolyline
 62
7
  6
CONTINUOUS
 90
15
 70
0
 10
36.5133922934
 20
-88.8639161861
 10
36.5354049749
 20
-88.8741654427
 10
36.5624382872
 20
-88.8847376482
 10
36.5897013743
 20
-88.8932174701
 10
36.6170880473
 20
-88.8995669658
 10
36.6444469871
 20
-88.9037540277
 10
36.6716677738
 20
-88.9057785168
 10
36.6986271995
 20
-88.9056454863
 10
36.7251187141
 20
-88.9033779197
 10
36.7509928433
 20
-88.8990279341
 10
36.7761185461
 20
-88.8926667086
 10
36.8003016676
 20
-88.8844025203
 10
36.8233985572
 20
-88.8743585047
 10
36.8453219653
 20
-88.8626550679
 10
36.8520532302
 20
-88.8585958222
  0
LINE
  5
236
100
AcDbEntity
  8
RACCORDO
100
AcDbLine
 62
7
  6
CONTINUOUS
 10
36.5133918851
 20
-88.863915982
 11
36.4324022507
 21
-88.8234211648
  0
LINE
  5
237
100
AcDbEntity
  8
RACCORDO
100
AcDbLine
 62
250
  6
CONTINUOUS
 10
36.4614132475
 20
-88.7557412217
 11
36.4324022507
 21
-88.7412357233
  0
LINE
  5
238
100
AcDbEntity
  8
DRAFT
100
AcDbLine
 62
7
  6
CONTINUOUS
 10
36.4324022507
 20
-87.8722133975
 11
36.4103318432
 21
-87.8611781938
  0
LWPOLYLINE
  5
239
100
AcDbEntity
  8
RACCORDO
100
AcDbPolyline
 62
7
  6
CONTINUOUS
 90
17
 70
0
 10
9.2877108928
 20
-54.8386955
 10
9.5514287385
 20
-54.9256890914
 10
9.8760279926
 20
-55.0188196045
 10
10.1997023531
 20
-55.0962347489
 10
10.5218431491
 20
-55.1579366271
 10
10.8418769191
 20
-55.2039869745
 10
11.1592433121
 20
-55.2344201638
 10
11.4733923534
 20
-55.2491721583
 10
11.7837014431
 20
-55.2482163075
 10
12.0894903622
 20
-55.2316136235
 10
12.3901903748
 20
-55.1994872309
 10
12.6852628547
 20
-55.1520348479
 10
12.9741279756
 20
-55.08946871
 10
13.2562648672
 20
-55.0119724999
 10
13.5311195594
 20
-54.9196914596
 10
13.7981077329
 20
-54.8128441393
 10
13.9225356028
 20
-54.7568265387
  0
LINE
  5
23A
100
AcDbEntity
  8
ASSI
100
AcDbLine
 62
7
  6
CONTINUOUS
 10
9.2518591274
 20
-54.938616142
 11
9.3685078559
 21
-54.979375338
  0
LINE
  5
23B
100
AcDbEntity
  8
ASSI
100
AcDbLine
 62
7
  6
CONTINUOUS
 10
9.2524231084
 20
-54.9382129903
 11
9.3685078559
 21
-54.979375338
  0
LINE
  5
23C
100
AcDbEntity
  8
RACCORDO
100
AcDbLine
 62
7
  6
CONTINUOUS
 10
-43.5751758691
 20
84.0323578594
 11
-43.5751758165
 21
84.0320433438
  0
LINE
  5
23D
100
AcDbEntity
  8
ASSI
100
AcDbLine
 62
7
  6
CONTINUOUS
 10
-43.5751758691
 20
84.0323417673
 11
-43.5751758691
 21
82.2808156143
  0
LINE
  5
23E
100
AcDbEntity
  8
RACCORDO
100
AcDbLine
 62
7
  6
CONTINUOUS
 10
-42.8185811745
 20
82.9515026909
 11
-42.8186036741
 21
81.2384137456
  0
LINE
  5
23F
100
AcDbEntity
  8
ASSI
100
AcDbLine
 62
7
  6
CONTINUOUS
 10
-41.7494146556
 20
-59.939698117
 11
-41.7494146556
 21
-58.7393099971
  0
LINE
  5
240
100
AcDbEntity
  8
ASSI
100
AcDbLine
 62
7
  6
CONTINUOUS
 10
-41.7276674743
 20
-58.5450131409
 11
-41.7276674743
 21
80.6139322473
  0
LINE
  5
241
100
AcDbEntity
  8
RACCORDO
100
AcDbLine
 62
250
  6
CONTINUOUS
 10
-40.9751324745
 20
-60.2366461432
 11
-40.9751324745
 21
-61.4137972722
  0
LINE
  5
242
100
AcDbEntity
  8
ASSI
100
AcDbLine
 62
250
  6
CONTINUOUS
 10
-40.9533366
 20
-60.0191554499
 11
-40.9533366
 21
80.1762101253
  0
LINE
  5
243
100
AcDbEntity
  8
0
100
AcDbLine
 62
250
  6
CONTINUOUS
 10
-40.9533366
 20
-60.0191554499
 11
-40.9533366
 21
80.1762101253
  0
LINE
  5
244
100
AcDbEntity
  8
RACCORDO
100
AcDbLine
 62
250
  6
CONTINUOUS
 10
3.5687295466
 20
-44.7951207629
 11
2.3290347323
 21
-44.7113662984
  0
LWPOLYLINE
  5
245
100
AcDbEntity
  8
RACCORDO
100
AcDbPolyline
 62
7
  6
CONTINUOUS
 90
13
 70
0
 10
9.2006774176
 20
-53.1563918626
 10
9.4984027598
 20
-53.25564389
 10
9.859396875
 20
-53.3543584815
 10
10.218335907
 20
-53.4288898476
 10
10.5743470785
 20
-53.4790876999
 10
10.9259002834
 20
-53.5048457067
 10
11.270723112
 20
-53.5062697697
 10
11.6073135581
 20
-53.4837191429
 10
11.9350565373
 20
-53.4376248423
 10
12.2529574433
 20
-53.3685080862
 10
12.5597795789
 20
-53.2769749985
 10
12.8545756265
 20
-53.1636324894
 10
13.0235095204
 20
-53.0863489422
  0
LINE
  5
246
100
AcDbEntity
  8
RACCORDO
100
AcDbLine
 62
250
  6
CONTINUOUS
 10
-32.4470210855
 20
-33.905403043
 11
-32.5283963966
 21
-33.8480994586
  0
LWPOLYLINE
  5
247
100
AcDbEntity
  8
RACCORDO
100
AcDbPolyline
 62
7
  6
CONTINUOUS
 90
25
 70
0
 10
-32.4808634284
 20
-33.9534528676
 10
-31.0887162169
 20
-34.9354778781
 10
-29.6246244101
 20
-35.9371969987
 10
-28.1312886317
 20
-36.9280274878
 10
-26.6090713077
 20
-37.9077241774
 10
-25.0583026913
 20
-38.876078096
 10
-23.4792898011
 20
-39.8329020121
 10
-21.872347867
 20
-40.7780032199
 10
-20.2378308623
 20
-41.7111750142
 10
-18.5761095587
 20
-42.6322084241
 10
-16.8875398735
 20
-43.5409039154
 10
-15.1724884292
 20
-44.4370655317
 10
-13.4313461535
 20
-45.3204923925
 10
-11.6644839034
 20
-46.1909957246
 10
-9.8722828476
 20
-47.0483906617
 10
-8.0551534211
 20
-47.8924836973
 10
-6.2134888355
 20
-48.7230917376
 10
-4.3476907245
 20
-49.5400382932
 10
-2.4581846903
 20
-50.3431407425
 10
-0.5453890345
 20
-51.1322219949
 10
1.3903056708
 20
-51.9071249314
 10
3.3485152421
 20
-52.6676969172
 10
5.3288270674
 20
-53.4137773883
 10
7.3307530981
 20
-54.1451886175
 10
9.2877058598
 20
-54.8386937429
  0
LINE
  5
248
100
AcDbEntity
  8
RACCORDO
100
AcDbLine
 62
250
  6
CONTINUOUS
 10
-32.4478876985
 20
-33.9057063703
 11
-32.5283963966
 21
-33.8480994586
  0
LINE
  5
249
100
AcDbEntity
  8
RACCORDO
100
AcDbLine
 62
250
  6
CONTINUOUS
 10
29.3543182755
 20
50.9646442039
 11
30.1659339366
 21
51.4668097151
  0
LINE
  5
24A
100
AcDbEntity
  8
ASSI
100
AcDbLine
 62
7
  6
CONTINUOUS
 10
12.633965376
 20
-41.2648920179
 11
12.6420979265
 21
-41.2713841702
  0
LINE
  5
24B
100
AcDbEntity
  8
ASSI
100
AcDbLine
 62
7
  6
CONTINUOUS
 10
12.6340276943
 20
-41.2647689874
 11
12.6420979265
 21
-41.2713841702
  0
LINE
  5
24C
100
AcDbEntity
  8
RACCORDO
100
AcDbLine
 62
250
  6
CONTINUOUS
 10
12.5507649716
 20
-41.7658302228
 11
12.5645642239
 21
-41.7776319842
  0
LINE
  5
24D
100
AcDbEntity
  8
RACCORDO
100
AcDbLine
 62
250
  6
CONTINUOUS
 10
12.5506825952
 20
-41.7659732619
 11
12.5644241312
 21
-41.7778779254
  0
LINE
  5
24E
100
AcDbEntity
  8
RACCORDO
100
AcDbLine
 62
7
  6
CONTINUOUS
 10
-14.6608550101
 20
68.4666179718
 11
-14.6608552795
 21
66.7953057928
  0
LINE
  5
24F
100
AcDbEntity
  8
RACCORDO
100
AcDbLine
 62
250
  6
CONTINUOUS
 10
16.0135431528
 20
-49.1505906394
 11
16.3943443277
 21
-49.6167401577
  0
LWPOLYLINE
  5
250
100
AcDbEntity
  8
RACCORDO
100
AcDbPolyline
 62
7
  6
CONTINUOUS
 90
54
 70
0
 10
-35.6279889743
 20
-18.1151680128
 10
-35.8014878821
 20
-18.220694328
 10
-35.967666763
 20
-18.3430101786
 10
-36.1263237417
 20
-18.4821056163
 10
-36.2769089837
 20
-18.6377544085
 10
-36.4189980062
 20
-18.8096607338
 10
-36.5523881651
 20
-18.9976254072
 10
-36.676843387
 20
-19.2012400384
 10
-36.7920318985
 20
-19.4197686004
 10
-36.8977974602
 20
-19.6528618466
 10
-36.9939420296
 20
-19.9002557621
 10
-37.0801584266
 20
-20.161171513
 10
-37.1563417478
 20
-20.4349643095
 10
-37.222515774
 20
-20.7210942512
 10
-37.2786498963
 20
-21.0187715942
 10
-37.3246730074
 20
-21.3273591795
 10
-37.3604967745
 20
-21.6463462723
 10
-37.3860650004
 20
-21.975072006
 10
-37.401404466
 20
-22.3127311125
 10
-37.406628941
 20
-22.658546817
 10
-37.4018056279
 20
-23.0118625654
 10
-37.3869497435
 20
-23.3718866822
 10
-37.3620528451
 20
-23.7379157165
 10
-37.3271332873
 20
-24.1094307297
 10
-37.2823113799
 20
-24.4855814177
 10
-37.2277631841
 20
-24.8655189419
 10
-37.1635762633
 20
-25.2487166489
 10
-37.0898026037
 20
-25.6343907949
 10
-37.006507756
 20
-26.0216995186
 10
-36.9137642014
 20
-26.4100348531
 10
-36.811753032
 20
-26.7985554845
 10
-36.7007007577
 20
-27.1864247158
 10
-36.5807234441
 20
-27.5730409436
 10
-36.451923309
 20
-27.9576201985
 10
-36.3144687627
 20
-28.3392461178
 10
-36.1685527255
 20
-28.7171145547
 10
-36.0144146452
 20
-29.0904429661
 10
-35.8523445576
 20
-29.4584250598
 10
-35.6826109369
 20
-29.8202270537
 10
-35.5054338575
 20
-30.1750262601
 10
-35.3210755322
 20
-30.5219993965
 10
-35.1298725046
 20
-30.8603076588
 10
-34.9321527755
 20
-31.1892215836
 10
-34.7282706851
 20
-31.5080564598
 10
-34.5185976634
 20
-31.8160311884
 10
-34.3034612335
 20
-32.1124139028
 10
-34.0832250647
 20
-32.3964713476
 10
-33.8583190727
 20
-32.6674683015
 10
-33.6291693328
 20
-32.9247933248
 10
-33.3961778419
 20
-33.1679363152
 10
-33.1597405784
 20
-33.3963355979
 10
-32.9202510629
 20
-33.6093315691
 10
-32.6781458663
 20
-33.8062828526
 10
-32.4808593116
 20
-33.9534558166
  0
LINE
  5
251
100
AcDbEntity
  8
RACCORDO
100
AcDbLine
 62
7
  6
CONTINUOUS
 10
-35.6094178828
 20
-18.1051025553
 11
-35.6279889743
 21
-18.1151680128
  0
LINE
  5
252
100
AcDbEntity
  8
RACCORDO
100
AcDbLine
 62
7
  6
CONTINUOUS
 10
-35.6093249045
 20
-18.1050521709
 11
-35.6058413063
 21
-18.1031892011
  0
LINE
  5
253
100
AcDbEntity
  8
0
100
AcDbLine
 62
7
  6
CONTINUOUS
 10
-34.7883584134
 20
-17.6670054464
 11
-35.6058409661
 21
-18.1031890196
  0
LWPOLYLINE
  5
254
100
AcDbEntity
  8
RACCORDO
100
AcDbPolyline
 62
7
  6
CONTINUOUS
 90
25
 70
0
 10
3.6714711619
 20
-45.3623499946
 10
3.6798686271
 20
-45.6906722899
 10
3.7121457784
 20
-46.0920667207
 10
3.7683835611
 20
-46.4968259803
 10
3.8482501654
 20
-46.9033321729
 10
3.9512468629
 20
-47.3101857384
 10
4.0769127056
 20
-47.7160056641
 10
4.2247672344
 20
-48.1194050256
 10
4.3941389583
 20
-48.518865417
 10
4.5842998442
 20
-48.9127173389
 10
4.7945550935
 20
-49.2994793498
 10
5.024066335
 20
-49.6777374093
 10
5.271862566
 20
-50.0458578527
 10
5.5371065897
 20
-50.4024820753
 10
5.8187777964
 20
-50.7462295522
 10
6.115586572
 20
-51.0754248431
 10
6.4265181836
 20
-51.3887995688
 10
6.7504217009
 20
-51.6851454242
 10
7.0857672892
 20
-51.9629402945
 10
7.4313598249
 20
-52.2210295436
 10
7.7861033873
 20
-52.4584735429
 10
8.1486381214
 20
-52.6741434897
 10
8.5177090609
 20
-52.867036379
 10
8.8919800134
 20
-53.0362902273
 10
9.2007034778
 20
-53.1564016935
  0
LWPOLYLINE
  5
255
100
AcDbEntity
  8
RACCORDO
100
AcDbPolyline
 62
7
  6
CONTINUOUS
 90
22
 70
0
 10
8.2906748022
 20
-46.8588898771
 10
8.2918681423
 20
-46.9162487405
 10
8.304027992
 20
-47.0533346981
 10
8.329171694
 20
-47.1904204186
 10
8.3674522895
 20
-47.3273912272
 10
8.4186363757
 20
-47.4628007372
 10
8.4817256999
 20
-47.5938756008
 10
8.5564827898
 20
-47.7202526188
 10
8.6426092625
 20
-47.8410792299
 10
8.7380950504
 20
-47.953361258
 10
8.8423918681
 20
-48.0566801362
 10
8.9551954802
 20
-48.1504538771
 10
9.0739213403
 20
-48.2324904947
 10
9.1977539796
 20
-48.3024019041
 10
9.3263403821
 20
-48.3598514324
 10
9.4570808717
 20
-48.4037495369
 10
9.5885082462
 20
-48.433881636
 10
9.7202096129
 20
-48.4503351202
 10
9.8505858036
 20
-48.4531181317
 10
9.9778050619
 20
-48.4425162586
 10
10.1012308487
 20
-48.4189145642
 10
10.2206575293
 20
-48.3825428243
  0
LINE
  5
256
100
AcDbEntity
  8
CURVE
100
AcDbLine
 62
250
  6
CONTINUOUS
 10
6.7106392956
 20
-80.3654745923
 11
6.7106392956
 21
-82.9617780496
  0
LINE
  5
257
100
AcDbEntity
  8
CURVE
100
AcDbLine
 62
250
  6
CONTINUOUS
 10
7.4692627983
 20
-82.587007632
 11
7.4692627983
 21
-82.2624698081
  0
LINE
  5
258
100
AcDbEntity
  8
CURVE
100
AcDbLine
 62
250
  6
CONTINUOUS
 10
7.4692627983
 20
-81.6133932943
 11
7.4692627983
 21
-81.2888554703
  0
LINE
  5
259
100
AcDbEntity
  8
RACCORDO
100
AcDbLine
 62
250
  6
CONTINUOUS
 10
-32.2185064119
 20
-18.6245350949
 11
-32.3679065936
 21
-18.7030800394
  0
LINE
  5
25A
100
AcDbEntity
  8
RACCORDO
100
AcDbLine
 62
250
  6
CONTINUOUS
 10
16.0057501217
 20
-48.8297215948
 11
16.0054563541
 21
-48.8236958488
  0
LINE
  5
25B
100
AcDbEntity
  8
RACCORDO
100
AcDbLine
 62
250
  6
CONTINUOUS
 10
16.0057024117
 20
-48.8297087054
 11
16.0054563541
 21
-48.8236958488
  0
LINE
  5
25C
100
AcDbEntity
  8
CURVE
100
AcDbLine
 62
250
  6
CONTINUOUS
 10
8.3967635405
 20
-82.5935095804
 11
8.3967635405
 21
-81.9444330666
  0
LINE
  5
25D
100
AcDbEntity
  8
CURVE
100
AcDbLine
 62
250
  6
CONTINUOUS
 10
9.0964949161
 20
-81.8665278649
 11
9.0964949161
 21
-81.2174522171
  0
LINE
  5
25E
100
AcDbEntity
  8
CURVE
100
AcDbLine
 62
250
  6
CONTINUOUS
 10
9.3590304081
 20
-81.3093035306
 11
9.3590304081
 21
-81.9583791784
  0
LINE
  5
25F
100
AcDbEntity
  8
CURVE
100
AcDbLine
 62
250
  6
CONTINUOUS
 10
9.3775677989
 20
-83.9120784895
 11
9.3775677989
 21
-83.2630028417
  0
LINE
  5
260
100
AcDbEntity
  8
CURVE
100
AcDbLine
 62
250
  6
CONTINUOUS
 10
9.6426772062
 20
-82.3817375973
 11
9.6426772062
 21
-84.0044275829
  0
LINE
  5
261
100
AcDbEntity
  8
CURVE
100
AcDbLine
 62
250
  6
CONTINUOUS
 10
10.3993168321
 20
-83.6168562788
 11
10.3993168321
 21
-82.6432419411
  0
LINE
  5
262
100
AcDbEntity
  8
CURVE
100
AcDbLine
 62
250
  6
CONTINUOUS
 10
11.8228851895
 20
-84.7497408642
 11
11.8228851895
 21
-84.1006652163
  0
LINE
  5
263
100
AcDbEntity
  8
CURVE
100
AcDbLine
 62
250
  6
CONTINUOUS
 10
13.6374658196
 20
-83.7285312731
 11
13.6374658196
 21
-85.3512212587
  0
LINE
  5
264
100
AcDbEntity
  8
CURVE
100
AcDbLine
 62
250
  6
CONTINUOUS
 10
14.4572226298
 20
-85.0999161046
 11
14.4572226298
 21
-84.512316136
  0
LINE
  5
265
100
AcDbEntity
  8
RACCORDO
100
AcDbLine
 62
7
  6
CONTINUOUS
 10
8.2906728524
 20
-46.8585312759
 11
8.2906726309
 21
-46.8588898751
  0
LINE
  5
266
100
AcDbEntity
  8
CURVE
100
AcDbLine
 62
250
  6
CONTINUOUS
 10
15.3786380288
 20
-84.8075628613
 11
15.3786380288
 21
-85.3951628298
  0
LINE
  5
267
100
AcDbEntity
  8
CURVE
100
AcDbLine
 62
250
  6
CONTINUOUS
 10
16.2071073038
 20
-86.1745905943
 11
16.2071073038
 21
-84.5519006087
  0
LWPOLYLINE
  5
268
100
AcDbEntity
  8
RACCORDO
100
AcDbPolyline
 62
7
  6
CONTINUOUS
 90
20
 70
0
 10
15.9986938496
 20
-49.1127738068
 10
15.994548099
 20
-49.342024856
 10
15.977140764
 20
-49.6303494941
 10
15.9460811189
 20
-49.9135335526
 10
15.9014201803
 20
-50.1908671533
 10
15.8432749196
 20
-50.461678592
 10
15.7717502614
 20
-50.7253704955
 10
15.686934374
 20
-50.9812936574
 10
15.5889232792
 20
-51.2288672961
 10
15.4778460244
 20
-51.4676104683
 10
15.3539661756
 20
-51.6968992012
 10
15.2175872465
 20
-51.9161280015
 10
15.0689285452
 20
-52.1248370189
 10
14.9082090953
 20
-52.3225456569
 10
14.7357351704
 20
-52.5087101357
 10
14.5518656142
 20
-52.6828149256
 10
14.356940199
 20
-52.8444342741
 10
14.151474715
 20
-52.9930478132
 10
13.9361825259
 20
-53.1280757011
 10
13.7938680518
 20
-53.2069893738
  0
LINE
  5
269
100
AcDbEntity
  8
ASSI
100
AcDbLine
 62
250
  6
CONTINUOUS
 10
-32.2889707616
 20
-34.0888145568
 11
-32.3507922341
 21
-34.119725293
  0
LINE
  5
26A
100
AcDbEntity
  8
RACCORDO
100
AcDbLine
 62
7
  6
CONTINUOUS
 10
22.2533238045
 20
50.4149286655
 11
22.2533891773
 21
48.7024173198
  0
LINE
  5
26B
100
AcDbEntity
  8
RACCORDO
100
AcDbLine
 62
250
  6
CONTINUOUS
 10
23.0231657158
 20
-92.2357952383
 11
23.0231657158
 21
-93.4129463673
  0
LINE
  5
26C
100
AcDbEntity
  8
ASSI
100
AcDbLine
 62
250
  6
CONTINUOUS
 10
23.0411680681
 20
-92.016407784
 11
23.0411680681
 21
48.3912698329
  0
LINE
  5
26D
100
AcDbEntity
  8
0
100
AcDbLine
 62
250
  6
CONTINUOUS
 10
23.0411680681
 20
-92.016407784
 11
23.0411680681
 21
48.3912698329
  0
LINE
  5
26E
100
AcDbEntity
  8
RACCORDO
100
AcDbLine
 62
7
  6
CONTINUOUS
 10
29.6661708517
 20
50.4096668139
 11
29.6661692297
 21
48.6305487519
  0
LINE
  5
26F
100
AcDbEntity
  8
ASSI
100
AcDbLine
 62
7
  6
CONTINUOUS
 10
30.5793154469
 20
-91.3357455632
 11
30.5793154469
 21
49.1956311751
  0
LINE
  5
270
100
AcDbEntity
  8
0
100
AcDbLine
 62
7
  6
CONTINUOUS
 10
30.5793154469
 20
-91.3357455632
 11
30.5793154469
 21
49.1956311751
  0
LINE
  5
271
100
AcDbEntity
  8
RACCORDO
100
AcDbLine
 62
7
  6
CONTINUOUS
 10
30.5929535176
 20
-91.4402370992
 11
30.5929535176
 21
-92.7132595994
  0
LINE
  5
272
100
AcDbEntity
  8
RACCORDO
100
AcDbLine
 62
250
  6
CONTINUOUS
 10
16.0830813521
 20
-51.626630501
 11
16.0813166554
 21
-51.6319200213
  0
LINE
  5
273
100
AcDbEntity
  8
RACCORDO
100
AcDbLine
 62
250
  6
CONTINUOUS
 10
16.0830835155
 20
-51.62663148
 11
16.081263415
 21
-51.6318858992
  0
LINE
  5
274
100
AcDbEntity
  8
RACCORDO
100
AcDbLine
 62
7
  6
CONTINUOUS
 10
36.4324022507
 20
-87.8722133975
 11
36.4324022507
 21
-89.2336675961
  0
LINE
  5
275
100
AcDbEntity
  8
ASSI
100
AcDbLine
 62
7
  6
CONTINUOUS
 10
36.4324022507
 20
-87.8480269501
 11
36.4324022507
 21
52.8165857448
  0
LINE
  5
276
100
AcDbEntity
  8
0
100
AcDbLine
 62
7
  6
CONTINUOUS
 10
36.4324022507
 20
-87.8480269501
 11
36.4324022507
 21
52.8165857448
  0
LINE
  5
277
100
AcDbEntity
  8
RACCORDO
100
AcDbLine
 62
250
  6
CONTINUOUS
 10
36.67403169
 20
52.9660256443
 11
36.67403169
 21
-88.6025984935
  0
LINE
  5
278
100
AcDbEntity
  8
RACCORDO
100
AcDbLine
 62
250
  6
CONTINUOUS
 10
36.9686619349
 20
53.1482448071
 11
36.9686619349
 21
-88.5961665764
  0
LINE
  5
279
100
AcDbEntity
  8
RACCORDO
100
AcDbLine
 62
7
  6
CONTINUOUS
 10
38.1188519262
 20
55.6359005803
 11
38.1188519262
 21
-87.8838487943
  0
LINE
  5
27A
100
AcDbEntity
  8
RACCORDO
100
AcDbLine
 62
250
  6
CONTINUOUS
 10
38.3302700369
 20
-87.8477328262
 11
38.3302700369
 21
55.814230456
  0
LWPOLYLINE
  5
27B
100
AcDbEntity
  8
RACCORDO
100
AcDbPolyline
 62
7
  6
CONTINUOUS
 90
12
 70
0
 10
8.7823116182
 20
-45.8631854971
 10
8.6976617568
 20
-45.9298807459
 10
8.619457139
 20
-46.0045506436
 10
8.5484335799
 20
-46.0865706115
 10
8.4852899807
 20
-46.1751932445
 10
8.4301843584
 20
-46.2703044695
 10
8.38364067
 20
-46.3712242465
 10
8.3461671321
 20
-46.4771273124
 10
8.3180092397
 20
-46.5879652574
 10
8.2995490977
 20
-46.703293659
 10
8.2911728689
 20
-46.8220477341
 10
8.2906728524
 20
-46.8585312759
  0
LWPOLYLINE
  5
27C
100
AcDbEntity
  8
RACCORDO
100
AcDbPolyline
 62
7
  6
CONTINUOUS
 90
17
 70
0
 10
5.980782467
 20
-41.1622360836
 10
5.8890365385
 20
-41.21086358
 10
5.6204878272
 20
-41.3716853813
 10
5.3660015893
 20
-41.5527614088
 10
5.1260315996
 20
-41.7537931433
 10
4.9016392143
 20
-41.9739479209
 10
4.6938218868
 20
-42.2123606246
 10
4.5030077428
 20
-42.4688320216
 10
4.329999927
 20
-42.7425925069
 10
4.1757224866
 20
-43.0325324401
 10
4.0407903472
 20
-43.3380854655
 10
3.9257855715
 20
-43.6587445641
 10
3.8314939086
 20
-43.9931222331
 10
3.7586575268
 20
-44.339374171
 10
3.7076802407
 20
-44.6961223502
 10
3.6786923238
 20
-45.0623273514
 10
3.6714639877
 20
-45.3623280554
  0
LINE
  5
27D
100
AcDbEntity
  8
RACCORDO
100
AcDbLine
 62
250
  6
CONTINUOUS
 10
9.5505477251
 20
-39.4578502772
 11
9.3511891048
 21
-39.5626278875
  0
LINE
  5
27E
100
AcDbEntity
  8
DRAFT
100
AcDbLine
 62
7
  6
CONTINUOUS
 10
7.7874617112
 20
-40.2337991283
 11
5.9798904615
 21
-41.162665327
  0
LINE
  5
27F
100
AcDbEntity
  8
RACCORDO
100
AcDbLine
 62
7
  6
CONTINUOUS
 10
5.979898837
 20
-41.1626610231
 11
5.9807687936
 21
-41.1622141324
  0
LINE
  5
280
100
AcDbEntity
  8
RACCORDO
100
AcDbLine
 62
7
  6
CONTINUOUS
 10
5.9997855409
 20
-40.6020482575
 11
5.9990964902
 21
-40.6023738841
  0
LINE
  5
281
100
AcDbEntity
  8
RACCORDO
100
AcDbLine
 62
250
  6
CONTINUOUS
 10
5.9762318581
 20
-40.5271105051
 11
5.9677418993
 21
-40.5309381001
  0
LWPOLYLINE
  5
282
100
AcDbEntity
  8
RACCORDO
100
AcDbPolyline
 62
7
  6
CONTINUOUS
 90
48
 70
0
 10
5.9997985623
 20
-40.6020427348
 10
6.1456876572
 20
-40.537054321
 10
6.3810820686
 20
-40.4477771608
 10
6.6247146351
 20
-40.3737752288
 10
6.8761655513
 20
-40.3151329017
 10
7.134901222
 20
-40.2719458175
 10
7.4002760444
 20
-40.2443109437
 10
7.6716396748
 20
-40.232294135
 10
7.9484496442
 20
-40.2358910079
 10
8.230041459
 20
-40.2550569866
 10
8.5158124284
 20
-40.2897175383
 10
8.8052903
 20
-40.3398236374
 10
9.0978164424
 20
-40.4052969195
 10
9.3926604202
 20
-40.485995027
 10
9.6892364023
 20
-40.5817790377
 10
9.9869102871
 20
-40.6924853925
 10
10.2848871444
 20
-40.8178723491
 10
10.5823426987
 20
-40.9576367767
 10
10.8785774354
 20
-41.1114789122
 10
11.1728873762
 20
-41.2790527523
 10
11.4644388751
 20
-41.4599070562
 10
11.7525123431
 20
-41.6536557018
 10
12.0363374448
 20
-41.8598875437
 10
12.3150744272
 20
-42.0780150236
 10
12.5880999151
 20
-42.3075234943
 10
12.8547776464
 20
-42.5478403733
 10
13.1142600794
 20
-42.7982420326
 10
13.3658518997
 20
-43.0581501732
 10
13.6089285742
 20
-43.3270133197
 10
13.8428126963
 20
-43.6040685623
 10
14.0670137901
 20
-43.8885895696
 10
14.2810292889
 20
-44.1798886624
 10
14.4842623705
 20
-44.4771877037
 10
14.6761628444
 20
-44.7797846764
 10
14.8563071322
 20
-45.0870240912
 10
15.0243228585
 20
-45.3982062612
 10
15.1798591227
 20
-45.7125035641
 10
15.3226375158
 20
-46.0291989736
 10
15.4524211805
 20
-46.3477318082
 10
15.5688624297
 20
-46.6673715152
 10
15.6716595943
 20
-46.9873975547
 10
15.7606700311
 20
-47.3072711859
 10
15.8357462219
 20
-47.6262080468
 10
15.8967867435
 20
-47.9433903564
 10
15.9436717493
 20
-48.2582461628
 10
15.9762560058
 20
-48.57011201
 10
15.9944546911
 20
-48.8782229714
 10
15.9986938495
 20
-49.1127799838
  0
LINE
  5
283
100
AcDbEntity
  8
RACCORDO
100
AcDbLine
 62
250
  6
CONTINUOUS
 10
5.9762472778
 20
-40.5271262819
 11
5.9676832163
 21
-40.5308239401
  0
LWPOLYLINE
  5
284
100
AcDbEntity
  8
RACCORDO
100
AcDbPolyline
 62
7
  6
CONTINUOUS
 90
20
 70
0
 10
45.6301087973
 20
60.5173605533
 10
45.6284441165
 20
60.5968002136
 10
45.6183580549
 20
60.7290761474
 10
45.5990616143
 20
60.8625089598
 10
45.5705196736
 20
60.9966903137
 10
45.5327090076
 20
61.1313159698
 10
45.4856127545
 20
61.2661702284
 10
45.4292312588
 20
61.4010215921
 10
45.3635654748
 20
61.5356356526
 10
45.2886235671
 20
61.6698033402
 10
45.2044024338
 20
61.8033512104
 10
45.1107894955
 20
61.9362294036
 10
45.007910554
 20
62.0680566035
 10
44.8962064142
 20
62.198170329
 10
44.7757470748
 20
62.3264247582
 10
44.6467182173
 20
62.4525631271
 10
44.5099514751
 20
62.5757919112
 10
44.3659569466
 20
62.6957469202
 10
44.2148287073
 20
62.8124526194
 10
44.1142974564
 20
62.8855061124
  0
LINE
  5
285
100
AcDbEntity
  8
RACCORDO
100
AcDbLine
 62
250
  6
CONTINUOUS
 10
44.403658814
 20
58.843725995
 11
44.403658814
 21
-84.0751332522
  0
LINE
  5
286
100
AcDbEntity
  8
RACCORDO
100
AcDbLine
 62
7
  6
CONTINUOUS
 10
45.6301109128
 20
60.5173315885
 11
45.6301109128
 21
-82.346320941
  0
LINE
  5
287
100
AcDbEntity
  8
RACCORDO
100
AcDbLine
 62
7
  6
CONTINUOUS
 10
8.8732913932
 20
-45.8046195125
 11
8.7823116182
 21
-45.8631854971
  0
LINE
  5
288
100
AcDbEntity
  8
RACCORDO
100
AcDbLine
 62
7
  6
CONTINUOUS
 10
8.9228481127
 20
-45.7776002354
 11
8.8732913932
 21
-45.8046195125
  0
LINE
  5
289
100
AcDbEntity
  8
DRAFT
100
AcDbLine
 62
7
  6
CONTINUOUS
 10
9.0257828748
 20
-45.7247001525
 11
8.9225875481
 21
-45.7777296808
  0
LINE
  5
28A
100
AcDbEntity
  8
RACCORDO
100
AcDbLine
 62
7
  6
CONTINUOUS
 10
8.922581849
 20
-45.7777326095
 11
8.9229608489
 21
-45.7775380118
  0
LINE
  5
28B
100
AcDbEntity
  8
RACCORDO
100
AcDbLine
 62
7
  6
CONTINUOUS
 10
10.3301677041
 20
-48.3361109023
 11
10.3296060368
 21
-48.3363843684
  0
LINE
  5
28C
100
AcDbEntity
  8
DRAFT
100
AcDbLine
 62
7
  6
CONTINUOUS
 10
10.5148912765
 20
-48.2462844108
 11
10.3295971659
 21
-48.3363886821
  0
LINE
  5
28D
100
AcDbEntity
  8
RACCORDO
100
AcDbLine
 62
7
  6
CONTINUOUS
 10
10.2206575293
 20
-48.3825428243
 11
10.3302929304
 21
-48.3360422997
  0
LINE
  5
28E
100
AcDbEntity
  8
RACCORDO
100
AcDbLine
 62
7
  6
CONTINUOUS
 10
13.7938621352
 20
-53.2069927111
 11
13.7950385577
 21
-53.2063719152
  0
LINE
  5
28F
100
AcDbEntity
  8
ASSI
100
AcDbLine
 62
250
  6
CONTINUOUS
 10
9.5059107362
 20
-54.9106738979
 11
9.3685078559
 21
-54.979375338
  0
LINE
  5
290
100
AcDbEntity
  8
DRAFT
100
AcDbLine
 62
7
  6
CONTINUOUS
 10
15.1049979593
 20
-52.0741974538
 11
13.0250266407
 21
-53.0856397475
  0
LINE
  5
291
100
AcDbEntity
  8
RACCORDO
100
AcDbLine
 62
7
  6
CONTINUOUS
 10
13.0249948983
 20
-53.085655183
 11
13.0235980338
 21
-53.0863340491
  0
LINE
  5
292
100
AcDbEntity
  8
RACCORDO
100
AcDbLine
 62
7
  6
CONTINUOUS
 10
15.1433696114
 20
-54.1863226723
 11
15.147671872
 21
-54.1843096743
  0
LINE
  5
293
100
AcDbEntity
  8
0
100
AcDbLine
 62
7
  6
CONTINUOUS
 10
13.9244251989
 20
-54.7559468981
 11
15.143369656
 21
-54.1863226515
  0
LINE
  5
294
100
AcDbEntity
  8
RACCORDO
100
AcDbLine
 62
7
  6
CONTINUOUS
 10
13.9244256934
 20
-54.755946667
 11
13.9225938717
 21
-54.7568022274
  0
LINE
  5
295
100
AcDbEntity
  8
RACCORDO
100
AcDbLine
 62
250
  6
CONTINUOUS
 10
-18.5773438324
 20
70.3284003964
 11
-18.5389887642
 21
70.3099915943
  0
LINE
  5
296
100
AcDbEntity
  8
RACCORDO
100
AcDbLine
 62
250
  6
CONTINUOUS
 10
-18.574727624
 20
70.327835861
 11
-18.5363546649
 21
70.309423383
  0
LINE
  5
297
100
AcDbEntity
  8
RACCORDO
100
AcDbLine
 62
7
  6
CONTINUOUS
 10
13.2560741529
 20
81.9523794546
 11
13.2619480114
 21
81.9494442667
  0
LINE
  5
298
100
AcDbEntity
  8
RACCORDO
100
AcDbLine
 62
250
  6
CONTINUOUS
 10
13.0999309122
 20
81.9485942364
 11
13.2257516248
 21
81.8821963331
  0
LWPOLYLINE
  5
299
100
AcDbEntity
  8
RACCORDO
100
AcDbPolyline
 62
7
  6
CONTINUOUS
 90
37
 70
0
 10
-17.6108613512
 20
93.7460367754
 10
-17.7136135428
 20
93.7747990564
 10
-17.8734313869
 20
93.8155950086
 10
-18.0378916479
 20
93.8530386848
 10
-18.2065796573
 20
93.8871266167
 10
-18.379230444
 20
93.9178989082
 10
-18.555712263
 20
93.9454065775
 10
-18.7357150312
 20
93.9696622486
 10
-18.9188934847
 20
93.9906819708
 10
-19.1050655718
 20
94.0084952137
 10
-19.2939058532
 20
94.023112552
 10
-19.4850747357
 20
94.0345539463
 10
-19.6783741754
 20
94.0428444607
 10
-19.8734746727
 20
94.0480001132
 10
-20.0700395884
 20
94.0500467332
 10
-20.2678665204
 20
94.0490088104
 10
-20.4666243217
 20
94.0449086503
 10
-20.6659759405
 20
94.0377788745
 10
-20.8657158414
 20
94.0276453428
 10
-21.0655113864
 20
94.0145376199
 10
-21.2650269799
 20
93.9984955888
 10
-21.4640563267
 20
93.9795470245
 10
-21.6622665735
 20
93.9577288557
 10
-21.8593242856
 20
93.9330882986
 10
-22.0550233441
 20
93.9056551649
 10
-22.2490314333
 20
93.8754736637
 10
-22.441020989
 20
93.8425974016
 10
-22.6307915503
 20
93.8070566276
 10
-22.8180121372
 20
93.7689022351
 10
-23.0023624876
 20
93.7281937378
 10
-23.1836548351
 20
93.6849592816
 10
-23.361561946
 20
93.6392547588
 10
-23.5357848178
 20
93.5911381872
 10
-23.7061735697
 20
93.5406223944
 10
-23.8724693799
 20
93.4877437334
 10
-24.0342945383
 20
93.4325874672
 10
-24.1311951887
 20
93.3976618679
  0
LINE
  5
29A
100
AcDbEntity
  8
RACCORDO
100
AcDbLine
 62
7
  6
CONTINUOUS
 10
-17.6108610916
 20
93.7460376695
 11
-17.6109061782
 21
93.7460507614
  0
LINE
  5
29B
100
AcDbEntity
  8
RACCORDO
100
AcDbLine
 62
250
  6
CONTINUOUS
 10
-17.7503011763
 20
93.736190961
 11
-17.624982901
 21
93.6997710695
  0
LINE
  5
29C
100
AcDbEntity
  8
RACCORDO
100
AcDbLine
 62
250
  6
CONTINUOUS
 10
-17.7503011763
 20
93.736190961
 11
-17.6248784743
 21
93.6989693838
  0
LWPOLYLINE
  5
29D
100
AcDbEntity
  8
RACCORDO
100
AcDbPolyline
 62
7
  6
CONTINUOUS
 90
19
 70
0
 10
44.3128143734
 20
-84.2837167269
 10
44.4136806317
 20
-84.2191349671
 10
44.5565834343
 20
-84.1204473239
 10
44.6908869297
 20
-84.0187644831
 10
44.8164591337
 20
-83.9142919018
 10
44.9332589464
 20
-83.8071841765
 10
45.0412802725
 20
-83.6975390546
 10
45.1404726121
 20
-83.5854878124
 10
45.2307448817
 20
-83.4712151992
 10
45.3120133371
 20
-83.3548901454
 10
45.3842294219
 20
-83.2366443786
 10
45.4472957232
 20
-83.1167110979
 10
45.5010711272
 20
-82.9954546573
 10
45.545531815
 20
-82.8730748224
 10
45.5806382403
 20
-82.7498822383
 10
45.6063204152
 20
-82.6264896169
 10
45.6226435474
 20
-82.5033310486
 10
45.6297515906
 20
-82.3806254207
 10
45.6301081692
 20
-82.3447851505
  0
LINE
  5
29E
100
AcDbEntity
  8
RACCORDO
100
AcDbLine
 62
250
  6
CONTINUOUS
 10
44.403658814
 20
-84.0751332522
 11
38.3302700369
 21
-87.8477328262
  0
LINE
  5
29F
100
AcDbEntity
  8
RACCORDO
100
AcDbLine
 62
7
  6
CONTINUOUS
 10
44.3128376394
 20
-84.2837045457
 11
38.2390514319
 21
-88.0565509911
  0
LINE
  5
2A0
100
AcDbEntity
  8
DRAFT
100
AcDbLine
 62
7
  6
CONTINUOUS
 10
30.5929535176
 20
-91.4402370992
 11
35.4000135244
 21
-88.4632034368
  0
LINE
  5
2A1
100
AcDbEntity
  8
RACCORDO
100
AcDbLine
 62
250
  6
CONTINUOUS
 10
38.1188519262
 20
-87.8838487943
 11
36.9686619349
 21
-88.5961665764
  0
LINE
  5
2A2
100
AcDbEntity
  8
RACCORDO
100
AcDbLine
 62
7
  6
CONTINUOUS
 10
38.0040655276
 20
-88.145151714
 11
36.8518842817
 21
-88.858702689
  0
LINE
  5
2A3
100
AcDbEntity
  8
ASSI
100
AcDbLine
 62
7
  6
CONTINUOUS
 10
30.5793154469
 20
-91.3357455632
 11
36.4324022507
 21
-87.8480269501
  0
LINE
  5
2A4
100
AcDbEntity
  8
CURVE
100
AcDbLine
 62
7
  6
CONTINUOUS
 10
36.4324022507
 20
-87.8480269501
 11
30.5726068816
 21
-91.3398405498
  0
LINE
  5
2A5
100
AcDbEntity
  8
RACCORDO
100
AcDbLine
 62
250
  6
CONTINUOUS
 10
36.4324022507
 20
-89.2336675961
 11
30.5929535176
 21
-92.7132595994
  0
LINE
  5
2A6
100
AcDbEntity
  8
RACCORDO
100
AcDbLine
 62
7
  6
CONTINUOUS
 10
36.3146534924
 20
-89.496937581
 11
30.4651732571
 21
-92.9825071237
  0
LINE
  5
2A7
100
AcDbEntity
  8
DRAFT
100
AcDbLine
 62
7
  6
CONTINUOUS
 10
35.4000135244
 20
-88.4632034368
 11
36.4324022507
 21
-87.8722133975
  0
ARC
  5
2A8
100
AcDbEntity
  8
RACCORDO
100
AcDbCircle
 62
250
  6
CONTINUOUS
 10
-143.3131018753
 20
-191.680228556
 40
307.2288287893
100
AcDbArc
 50
53.8086519874
 51
55.0112283026
  0
ARC
  5
2A9
100
AcDbEntity
  8
ASSI
100
AcDbCircle
 62
7
  6
CONTINUOUS
 10
-40.2077869818
 20
-58.5435319039
 40
1.5199433334
100
AcDbArc
 50
185.9574037149
 51
187.1950881849
  0
ARC
  5
2AA
100
AcDbEntity
  8
ASSI
100
AcDbCircle
 62
7
  6
CONTINUOUS
 10
-40.2213925331
 20
-58.544898417
 40
1.506269433
100
AcDbArc
 50
180.0043641063
 51
185.9594187663
  0
ARC
  5
2AB
100
AcDbEntity
  8
RACCORDO
100
AcDbCircle
 62
250
  6
CONTINUOUS
 10
-38.0395925113
 20
79.1646024709
 40
7.8277111946
100
AcDbArc
 50
114.524129625
 51
115.4462349664
  0
ARC
  5
2AC
100
AcDbEntity
  8
RACCORDO
100
AcDbCircle
 62
250
  6
CONTINUOUS
 10
-38.1793165645
 20
79.4598267758
 40
7.5010925767
100
AcDbArc
 50
115.4514135516
 51
115.8729548756
  0
ARC
  5
2AD
100
AcDbEntity
  8
RACCORDO
100
AcDbCircle
 62
250
  6
CONTINUOUS
 10
4.7370787269
 20
-50.8362915952
 40
11.9089812631
100
AcDbArc
 50
48.6088688663
 51
49.1713818019
  0
ARC
  5
2AE
100
AcDbEntity
  8
ASSI
100
AcDbCircle
 62
7
  6
CONTINUOUS
 10
-28.4793397671
 20
-28.727372838
 40
6.6382817362
100
AcDbArc
 50
232.2269159045
 51
232.5689805778
  0
ARC
  5
2AF
100
AcDbEntity
  8
ASSI
100
AcDbCircle
 62
7
  6
CONTINUOUS
 10
-28.6515102504
 20
-28.95494646
 40
6.3529227596
100
AcDbArc
 50
232.5545282859
 51
234.3878011463
  0
ARC
  5
2B0
100
AcDbEntity
  8
RACCORDO
100
AcDbCircle
 62
250
  6
CONTINUOUS
 10
-32.9818706131
 20
-19.5346841198
 40
2.6812872816
100
AcDbArc
 50
136.1876963115
 51
139.3660116156
  0
ARC
  5
2B1
100
AcDbEntity
  8
RACCORDO
100
AcDbCircle
 62
250
  6
CONTINUOUS
 10
-34.6260605949
 20
-19.9395724266
 40
2.0814106587
100
AcDbArc
 50
116.3644833187
 51
118.0816350012
  0
ARC
  5
2B2
100
AcDbEntity
  8
RACCORDO
100
AcDbCircle
 62
250
  6
CONTINUOUS
 10
44.2786240937
 20
-82.3462814845
 40
1.3514847448
100
AcDbArc
 50
359.1864277458
 51
359.9983213467
  0
ARC
  5
2B3
100
AcDbEntity
  8
RACCORDO
100
AcDbCircle
 62
250
  6
CONTINUOUS
 10
38.1777735271
 20
-87.5044004387
 40
0.3776700218
100
AcDbArc
 50
261.0114595281
 51
266.3254475799
  0
ARC
  5
2B4
100
AcDbEntity
  8
RACCORDO
100
AcDbCircle
 62
250
  6
CONTINUOUS
 10
5.5632607943
 20
-49.7391027304
 40
10.5928421484
100
AcDbArc
 50
59.677192557
 51
59.9816531298
  0
ARC
  5
2B5
100
AcDbEntity
  8
RACCORDO
100
AcDbCircle
 62
250
  6
CONTINUOUS
 10
5.565955159
 20
-49.6462555904
 40
10.4569937087
100
AcDbArc
 50
59.2575757008
 51
59.7345640117
  0
ARC
  5
2B6
100
AcDbEntity
  8
RACCORDO
100
AcDbCircle
 62
250
  6
CONTINUOUS
 10
6.3224035224
 20
-50.2276396175
 40
10.324255731
100
AcDbArc
 50
20.3165744677
 51
20.9061951892
  0
ARC
  5
2B7
100
AcDbEntity
  8
RACCORDO
100
AcDbCircle
 62
250
  6
CONTINUOUS
 10
5.6315434343
 20
-49.5903821004
 40
10.3128777455
100
AcDbArc
 50
59.2269582759
 51
59.8927437762
  0
ARC
  5
2B8
100
AcDbEntity
  8
ASSI
100
AcDbCircle
 62
7
  6
CONTINUOUS
 10
6.1625348822
 20
-48.4977089122
 40
9.6551590928
100
AcDbArc
 50
66.7741365521
 51
67.051617156
  0
ARC
  5
2B9
100
AcDbEntity
  8
ASSI
100
AcDbCircle
 62
7
  6
CONTINUOUS
 10
6.3321295215
 20
-48.0822928807
 40
9.2064971348
100
AcDbArc
 50
67.0155270419
 51
70.7428650026
  0
ARC
  5
2BA
100
AcDbEntity
  8
RACCORDO
100
AcDbCircle
 62
250
  6
CONTINUOUS
 10
6.8923526634
 20
-48.3461945604
 40
8.2695575218
100
AcDbArc
 50
64.622272316
 51
64.8066804318
  0
ARC
  5
2BB
100
AcDbEntity
  8
RACCORDO
100
AcDbCircle
 62
250
  6
CONTINUOUS
 10
11.8578631455
 20
-47.2298405446
 40
7.9459475271
100
AcDbArc
 50
250.7573620968
 51
251.3335626997
  0
ARC
  5
2BC
100
AcDbEntity
  8
RACCORDO
100
AcDbCircle
 62
250
  6
CONTINUOUS
 10
9.3344748544
 20
-49.1526106938
 40
6.6790845976
100
AcDbArc
 50
0.9355817838
 51
2.7709480242
  0
ARC
  5
2BD
100
AcDbEntity
  8
RACCORDO
100
AcDbCircle
 62
250
  6
CONTINUOUS
 10
9.429560494
 20
-49.1508921831
 40
6.5839835761
100
AcDbArc
 50
0.3321839363
 51
0.9341398236
  0
ARC
  5
2BE
100
AcDbEntity
  8
RACCORDO
100
AcDbCircle
 62
250
  6
CONTINUOUS
 10
9.4726647031
 20
-49.1506090016
 40
6.5408784497
100
AcDbArc
 50
0.000160847
 51
0.3318924793
  0
ARC
  5
2BF
100
AcDbEntity
  8
RACCORDO
100
AcDbCircle
 62
250
  6
CONTINUOUS
 10
8.5525274907
 20
-49.1869942267
 40
5.100109091
100
AcDbArc
 50
357.7349417346
 51
359.996802886
  0
ARC
  5
2C0
100
AcDbEntity
  8
RACCORDO
100
AcDbCircle
 62
250
  6
CONTINUOUS
 10
13.0447985172
 20
-49.6958225932
 40
4.9566671888
100
AcDbArc
 50
295.1032703318
 51
295.7584832172
  0
ARC
  5
2C1
100
AcDbEntity
  8
ASSI
100
AcDbCircle
 62
7
  6
CONTINUOUS
 10
12.0014771474
 20
-50.4770156337
 40
4.878163495
100
AcDbArc
 50
296.5295058823
 51
309.9828867687
  0
ARC
  5
2C2
100
AcDbEntity
  8
ASSI
100
AcDbCircle
 62
7
  6
CONTINUOUS
 10
12.0144450689
 20
-50.4946248619
 40
4.8563382073
100
AcDbArc
 50
309.9991501652
 51
310.2870142768
  0
ARC
  5
2C3
100
AcDbEntity
  8
0
100
AcDbCircle
 62
7
  6
CONTINUOUS
 10
9.9721593156
 20
-46.6170895288
 40
1.6988490614
100
AcDbArc
 50
187.8303477524
 51
188.1539277716
  0
ARC
  5
2C4
100
AcDbEntity
  8
0
100
AcDbCircle
 62
7
  6
CONTINUOUS
 10
9.9265258533
 20
-46.623075239
 40
1.6528256237
100
AcDbArc
 50
185.3861360238
 51
187.8403043052
  0
ARC
  5
2C5
100
AcDbEntity
  8
RACCORDO
100
AcDbCircle
 62
250
  6
CONTINUOUS
 10
9.3498446117
 20
-47.5291270087
 40
1.3949231374
100
AcDbArc
 50
357.9909159882
 51
359.9914138119
  0
ARC
  5
2C6
100
AcDbEntity
  8
RACCORDO
100
AcDbCircle
 62
250
  6
CONTINUOUS
 10
9.414455915
 20
-47.5315871703
 40
1.3302653178
100
AcDbArc
 50
355.021140103
 51
357.9992506328
  0
ARC
  5
2C7
100
AcDbEntity
  8
0
100
AcDbCircle
 62
7
  6
CONTINUOUS
 10
10.1756995227
 20
-47.6175011035
 40
0.8027669877
100
AcDbArc
 50
282.6387567769
 51
287.5318799968
  0
ARC
  5
2C8
100
AcDbEntity
  8
0
100
AcDbCircle
 62
7
  6
CONTINUOUS
 10
9.9752955927
 20
-47.7706719766
 40
0.7549704501
100
AcDbArc
 50
302.3327833327
 51
316.8991670996
  0
ARC
  5
2C9
100
AcDbEntity
  8
0
100
AcDbCircle
 62
7
  6
CONTINUOUS
 10
9.9765393114
 20
-47.7713811264
 40
0.7537107799
100
AcDbArc
 50
296.5894811763
 51
299.6389004444
  0
ARC
  5
2CA
100
AcDbEntity
  8
0
100
AcDbCircle
 62
7
  6
CONTINUOUS
 10
9.2993008955
 20
-46.3280527628
 40
0.7529163152
100
AcDbArc
 50
129.6429914328
 51
138.1193380806
  0
ARC
  5
2CB
100
AcDbEntity
  8
0
100
AcDbCircle
 62
7
  6
CONTINUOUS
 10
9.9781874411
 20
-47.7743136826
 40
0.7503468683
100
AcDbArc
 50
299.6402562577
 51
302.2949268479
  0
ARC
  5
2CC
100
AcDbEntity
  8
0
100
AcDbCircle
 62
7
  6
CONTINUOUS
 10
9.2901797475
 20
-46.3176536156
 40
0.7390894026
100
AcDbArc
 50
126.3490123103
 51
129.6128411787
  0
ARC
  5
2CD
100
AcDbEntity
  8
DRAFT
100
AcDbCircle
 62
7
  6
CONTINUOUS
 10
9.3555572573
 20
-46.366688376
 40
0.72171136
100
AcDbArc
 50
108.8125707051
 51
117.1884006743
  0
ARC
  5
2CE
100
AcDbEntity
  8
DRAFT
100
AcDbCircle
 62
7
  6
CONTINUOUS
 10
10.2047708274
 20
-47.6092269848
 40
0.7085163993
100
AcDbArc
 50
295.9567982471
 51
304.0371058791
  0
ARC
  5
2CF
100
AcDbEntity
  8
RACCORDO
100
AcDbCircle
 62
250
  6
CONTINUOUS
 10
9.2252436394
 20
-46.3753664473
 40
0.6701222355
100
AcDbArc
 50
102.9159891693
 51
110.8814709708
  0
ARC
  5
2D0
100
AcDbEntity
  8
RACCORDO
100
AcDbCircle
 62
250
  6
CONTINUOUS
 10
10.0365152081
 20
-47.7462182563
 40
0.6594951348
100
AcDbArc
 50
307.5121538057
 51
315.554363488
  0
ARC
  5
2D1
100
AcDbEntity
  8
RACCORDO
100
AcDbCircle
 62
250
  6
CONTINUOUS
 10
9.2152542795
 20
-46.3478186868
 40
0.6408234355
100
AcDbArc
 50
110.9249019845
 51
117.1357427182
  0
ARC
  5
2D2
100
AcDbEntity
  8
RACCORDO
100
AcDbCircle
 62
250
  6
CONTINUOUS
 10
10.0514155695
 20
-47.7648225651
 40
0.6356646637
100
AcDbArc
 50
296.0076134773
 51
307.4679324816
  0
ARC
  5
2D3
100
AcDbEntity
  8
RACCORDO
100
AcDbCircle
 62
250
  6
CONTINUOUS
 10
72.3098911811
 20
281.6282882997
 40
229.6242075537
100
AcDbArc
 50
239.9088058461
 51
241.0488004992
  0
ARC
  5
2D4
100
AcDbEntity
  8
RACCORDO
100
AcDbCircle
 62
250
  6
CONTINUOUS
 10
40.9639515585
 20
58.6784094817
 40
5.1595475241
100
AcDbArc
 50
53.1604983723
 51
54.6356485782
  0
ARC
  5
2D5
100
AcDbEntity
  8
RACCORDO
100
AcDbCircle
 62
250
  6
CONTINUOUS
 10
41.0621975461
 20
58.8107084304
 40
4.994760429
100
AcDbArc
 50
52.7712338067
 51
53.1525240927
  0
ARC
  5
2D6
100
AcDbEntity
  8
RACCORDO
100
AcDbCircle
 62
250
  6
CONTINUOUS
 10
348.4168772369
 20
767.6150843918
 40
787.882432195
100
AcDbArc
 50
245.381260072
 51
245.5452221827
  0
ARC
  5
2D7
100
AcDbEntity
  8
RACCORDO
100
AcDbCircle
 62
250
  6
CONTINUOUS
 10
345.2644515887
 20
760.7548701003
 40
780.3325804023
100
AcDbArc
 50
245.020540113
 51
245.3818514674
  0
ARC
  5
2D8
100
AcDbEntity
  8
RACCORDO
100
AcDbCircle
 62
250
  6
CONTINUOUS
 10
331.8037061786
 20
732.0652073027
 40
748.6421925856
100
AcDbArc
 50
244.1638250018
 51
245.0271344764
  0
ARC
  5
2D9
100
AcDbEntity
  8
RACCORDO
100
AcDbCircle
 62
250
  6
CONTINUOUS
 10
232.1382986099
 20
592.6897544079
 40
579.4132540791
100
AcDbArc
 50
244.3647886792
 51
244.7893999232
  0
ARC
  5
2DA
100
AcDbEntity
  8
RACCORDO
100
AcDbCircle
 62
250
  6
CONTINUOUS
 10
242.8684360616
 20
554.9467951394
 40
549.735632069
100
AcDbArc
 50
242.1082355615
 51
242.3705371433
  0
SPLINE
  5
2DB
100
AcDbEntity
  8
RACCORDO
100
AcDbSpline
 62
250
  6
CONTINUOUS
 70
0
 71
3
 72
10
 73
6
 74
0
 42
0.0000001
 43
0.0000001
 44
0.0000000001
 40
0.0
 40
0.0
 40
0.0
 40
0.0
 40
0.5280202202
 40
0.7697916656
 40
1.0
 40
1.0
 40
1.0
 40
1.0
 10
10.7397018593
 20
-47.6470384714
 30
0.0
 10
10.7302387432
 20
-47.7553364368
 30
0.0
 10
10.6962253305
 20
-47.9136078625
 30
0.0
 10
10.6013506449
 20
-48.0973698597
 30
0.0
 10
10.5405370052
 20
-48.1741909665
 30
0.0
 10
10.5073387868
 20
-48.2080179863
 30
0.0
  0
SPLINE
  5
2DC
100
AcDbEntity
  8
RACCORDO
100
AcDbSpline
 62
250
  6
CONTINUOUS
 70
0
 71
3
 72
18
 73
14
 74
0
 42
0.0000001
 43
0.0000001
 44
0.0000000001
 40
0.0
 40
0.0
 40
0.0
 40
0.0
 40
0.1170869606
 40
0.1706091286
 40
0.2223542871
 40
0.2742184448
 40
0.3280342677
 40
0.3851470035
 40
0.4462302831
 40
0.5794696274
 40
0.7229203011
 40
0.8665842478
 40
1.0
 40
1.0
 40
1.0
 40
1.0
 10
9.7232451854
 20
-47.5710174589
 30
0.0
 10
9.723214815
 20
-47.6407645019
 30
0.0
 10
9.7048228594
 20
-47.745195215
 30
0.0
 10
9.6340831834
 20
-47.8587756038
 30
0.0
 10
9.5640823525
 20
-47.9227912582
 30
0.0
 10
9.478925412
 20
-47.9648363207
 30
0.0
 10
9.3827205338
 20
-47.9835456409
 30
0.0
 10
9.2795141799
 20
-47.978837006
 30
0.0
 10
9.133632513
 20
-47.9412709954
 30
0.0
 10
8.9561833485
 20
-47.8384124235
 30
0.0
 10
8.7820002089
 20
-47.654383663
 30
0.0
 10
8.6625818329
 20
-47.4308202927
 30
0.0
 10
8.6298960049
 20
-47.2652816405
 30
0.0
 10
8.629861445
 20
-47.1858077676
 30
0.0
  0
SPLINE
  5
2DD
100
AcDbEntity
  8
RACCORDO
100
AcDbSpline
 62
250
  6
CONTINUOUS
 70
0
 71
3
 72
18
 73
14
 74
0
 42
0.0000001
 43
0.0000001
 44
0.0000000001
 40
0.0
 40
0.0
 40
0.0
 40
0.0
 40
0.117085752
 40
0.1706074426
 40
0.222352265
 40
0.2742160157
 40
0.3280314065
 40
0.3851437224
 40
0.4462267572
 40
0.5794659634
 40
0.7229174374
 40
0.8665827057
 40
1.0
 40
1.0
 40
1.0
 40
1.0
 10
8.629861445
 20
-47.1858077676
 30
0.0
 10
8.6298916341
 20
-47.1160614443
 30
0.0
 10
8.6482833718
 20
-47.0116317507
 30
0.0
 10
8.7190217841
 20
-46.8980521821
 30
0.0
 10
8.7890209111
 20
-46.8340357473
 30
0.0
 10
8.8741770323
 20
-46.7919904708
 30
0.0
 10
8.9703808625
 20
-46.7732802502
 30
0.0
 10
9.0735866789
 20
-46.7779869965
 30
0.0
 10
9.2194681768
 20
-46.8155518913
 30
0.0
 10
9.39691874
 20
-46.9184085698
 30
0.0
 10
9.5711033085
 20
-47.102437729
 30
0.0
 10
9.690524351
 20
-47.3260022215
 30
0.0
 10
9.7232104193
 20
-47.4915426674
 30
0.0
 10
9.7232451854
 20
-47.5710174589
 30
0.0
  0
SPLINE
  5
2DE
100
AcDbEntity
  8
RACCORDO
100
AcDbSpline
 62
250
  6
CONTINUOUS
 70
0
 71
3
 72
9
 73
5
 74
0
 42
0.0000001
 43
0.0000001
 44
0.0000000001
 40
0.0
 40
0.0
 40
0.0
 40
0.0
 40
0.2426835326
 40
1.0
 40
1.0
 40
1.0
 40
1.0
 10
9.0754564915
 20
-45.7221990715
 30
0.0
 10
9.0955921199
 20
-45.7175741015
 30
0.0
 10
9.1794074339
 20
-45.7022403109
 30
0.0
 10
9.2657114976
 20
-45.7019930867
 30
0.0
 10
9.3298212271
 20
-45.7088116737
 30
0.0
  0
SPLINE
  5
2DF
100
AcDbEntity
  8
RACCORDO
100
AcDbSpline
 62
250
  6
CONTINUOUS
 70
0
 71
3
 72
9
 73
5
 74
0
 42
0.0000001
 43
0.0000001
 44
0.0000000001
 40
0.0
 40
0.0
 40
0.0
 40
0.0
 40
0.5179546396
 40
1.0
 40
1.0
 40
1.0
 40
1.0
 10
10.5229810393
 20
-46.6775825722
 30
0.0
 10
10.5929613492
 20
-46.8136428388
 30
0.0
 10
10.7014168182
 20
-47.0910351985
 30
0.0
 10
10.7447307655
 20
-47.3869414442
 30
0.0
 10
10.7447677335
 20
-47.5293360481
 30
0.0
  0
SPLINE
  5
2E0
100
AcDbEntity
  8
RACCORDO
100
AcDbSpline
 62
250
  6
CONTINUOUS
 70
0
 71
3
 72
9
 73
5
 74
0
 42
0.0000001
 43
0.0000001
 44
0.0000000001
 40
0.0
 40
0.0
 40
0.0
 40
0.0
 40
0.2435195374
 40
1.0
 40
1.0
 40
1.0
 40
1.0
 10
10.7447529809
 20
-47.5293285342
 30
0.0
 10
10.7392057605
 20
-47.5320541907
 30
0.0
 10
10.716294906
 20
-47.5429783865
 30
0.0
 10
10.6928916592
 20
-47.552861171
 30
0.0
 10
10.674993258
 20
-47.5598099791
 30
0.0
  0
SPLINE
  5
2E1
100
AcDbEntity
  8
RACCORDO
100
AcDbSpline
 62
250
  6
CONTINUOUS
 70
0
 71
3
 72
11
 73
7
 74
0
 42
0.0000001
 43
0.0000001
 44
0.0000000001
 40
0.0
 40
0.0
 40
0.0
 40
0.0
 40
0.238547198
 40
0.4972912598
 40
0.7576244618
 40
1.0
 40
1.0
 40
1.0
 40
1.0
 10
10.674993258
 20
-47.5598099791
 30
0.0
 10
10.6032160645
 20
-47.5876764874
 30
0.0
 10
10.4468124155
 20
-47.6287184932
 30
0.0
 10
10.2022940758
 20
-47.6503968419
 30
0.0
 10
9.9561233094
 20
-47.6342052384
 30
0.0
 10
9.7970325427
 20
-47.5970126258
 30
0.0
 10
9.7232451855
 20
-47.5710174588
 30
0.0
  0
SPLINE
  5
2E2
100
AcDbEntity
  8
RACCORDO
100
AcDbSpline
 62
250
  6
CONTINUOUS
 70
0
 71
3
 72
11
 73
7
 74
0
 42
0.0000001
 43
0.0000001
 44
0.0000000001
 40
0.0
 40
0.0
 40
0.0
 40
0.0
 40
0.1957005403
 40
0.4199463472
 40
0.6879742581
 40
1.0
 40
1.0
 40
1.0
 40
1.0
 10
8.290705951
 20
-46.8588898641
 30
0.0
 10
8.2907491166
 20
-46.8913811511
 30
0.0
 10
8.3090274693
 20
-46.961678398
 30
0.0
 10
8.3819902852
 20
-47.0524319618
 30
0.0
 10
8.49222857
 20
-47.1298092593
 30
0.0
 10
8.5810009974
 20
-47.1685932167
 30
0.0
 10
8.6298614451
 20
-47.1858077676
 30
0.0
  0
SPLINE
  5
2E3
100
AcDbEntity
  8
0
100
AcDbSpline
 62
7
  6
CONTINUOUS
 70
0
 71
3
 72
11
 73
7
 74
0
 42
0.0000001
 43
0.0000001
 44
0.0000000001
 40
0.0
 40
0.0
 40
0.0
 40
0.0
 40
0.2715589052
 40
0.5279483062
 40
0.7695951661
 40
1.0
 40
1.0
 40
1.0
 40
1.0
 10
10.7732744233
 20
-47.5787789311
 30
0.0
 10
10.7732744233
 20
-47.6481495562
 30
0.0
 10
10.7634046415
 20
-47.7832901125
 30
0.0
 10
10.7168632166
 20
-47.9753412021
 30
0.0
 10
10.6392105568
 20
-48.1457458444
 30
0.0
 10
10.5667726106
 20
-48.2435723772
 30
0.0
 10
10.5265390364
 20
-48.2865314984
 30
0.0
  0
SPLINE
  5
2E4
100
AcDbEntity
  8
0
100
AcDbSpline
 62
7
  6
CONTINUOUS
 70
0
 71
3
 72
9
 73
5
 74
0
 42
0.0000001
 43
0.0000001
 44
0.0000000001
 40
0.0
 40
0.0
 40
0.0
 40
0.0
 40
0.2539019853
 40
1.0
 40
1.0
 40
1.0
 40
1.0
 10
10.0996168879
 20
-48.4201040484
 30
0.0
 10
10.1111487435
 20
-48.4207801252
 30
0.0
 10
10.1566085348
 20
-48.4226618749
 30
0.0
 10
10.2022091887
 20
-48.4213612839
 30
0.0
 10
10.2360312826
 20
-48.4184768947
 30
0.0
  0
SPLINE
  5
2E5
100
AcDbEntity
  8
0
100
AcDbSpline
 62
7
  6
CONTINUOUS
 70
0
 71
3
 72
9
 73
5
 74
0
 42
0.0000001
 43
0.0000001
 44
0.0000000001
 40
0.0
 40
0.0
 40
0.0
 40
0.0
 40
0.2528939822
 40
1.0
 40
1.0
 40
1.0
 40
1.0
 10
10.2360312826
 20
-48.4184768947
 30
0.0
 10
10.2458341986
 20
-48.4176408902
 30
0.0
 10
10.2845396768
 20
-48.413700591
 30
0.0
 10
10.3229887961
 20
-48.4071849294
 30
0.0
 10
10.3513476161
 20
-48.4008162278
 30
0.0
  0
SPLINE
  5
2E6
100
AcDbEntity
  8
0
100
AcDbSpline
 62
7
  6
CONTINUOUS
 70
0
 71
3
 72
9
 73
5
 74
0
 42
0.0000001
 43
0.0000001
 44
0.0000000001
 40
0.0
 40
0.0
 40
0.0
 40
0.0
 40
0.2453359725
 40
1.0
 40
1.0
 40
1.0
 40
1.0
 10
8.7387269116
 20
-45.8254199085
 30
0.0
 10
8.726668465
 20
-45.8388625112
 30
0.0
 10
8.6794613483
 20
-45.8953830428
 30
0.0
 10
8.6402402598
 20
-45.9584528738
 30
0.0
 10
8.615382287
 20
-46.0081292728
 30
0.0
  0
SPLINE
  5
2E7
100
AcDbEntity
  8
0
100
AcDbSpline
 62
7
  6
CONTINUOUS
 70
0
 71
3
 72
16
 73
12
 74
0
 42
0.0000001
 43
0.0000001
 44
0.0000000001
 40
0.0
 40
0.0
 40
0.0
 40
0.0
 40
0.0491033161
 40
0.0997714648
 40
0.2081309683
 40
0.3283077258
 40
0.459255949
 40
0.5972663722
 40
0.7370896882
 40
0.8730580238
 40
1.0
 40
1.0
 40
1.0
 40
1.0
 10
8.7333331186
 20
-45.7697994615
 30
0.0
 10
8.779163718
 20
-45.7468600386
 30
0.0
 10
8.8773642905
 20
-45.7098011169
 30
0.0
 10
9.0926444071
 20
-45.673298706
 30
0.0
 10
9.3881384243
 20
-45.7042500144
 30
0.0
 10
9.738552674
 20
-45.8488346633
 30
0.0
 10
10.0708406845
 20
-46.0879389628
 30
0.0
 10
10.3613075493
 20
-46.4041603244
 30
0.0
 10
10.5888367381
 20
-46.774499469
 30
0.0
 10
10.735620455
 20
-47.1712748117
 30
0.0
 10
10.7732744233
 20
-47.4462848607
 30
0.0
 10
10.7732744233
 20
-47.5787789311
 30
0.0
  0
SPLINE
  5
2E8
100
AcDbEntity
  8
RACCORDO
100
AcDbSpline
 62
250
  6
CONTINUOUS
 70
0
 71
3
 72
15
 73
11
 74
0
 42
0.0000001
 43
0.0000001
 44
0.0000000001
 40
0.0
 40
0.0
 40
0.0
 40
0.0
 40
0.1414421244
 40
0.2771754371
 40
0.4071534094
 40
0.5319219698
 40
0.6523401782
 40
0.769533058
 40
0.8849038504
 40
1.0
 40
1.0
 40
1.0
 40
1.0
 10
15.0986727401
 20
-49.2104426836
 30
0.0
 10
15.0986586949
 20
-49.4290340591
 30
0.0
 10
15.0767992498
 20
-49.8578052171
 30
0.0
 10
14.9745126528
 20
-50.4800750098
 30
0.0
 10
14.8039735526
 20
-51.06067623
 30
0.0
 10
14.5673454787
 20
-51.592014778
 30
0.0
 10
14.2674853641
 20
-52.067455161
 30
0.0
 10
13.9078582416
 20
-52.4806566643
 30
0.0
 10
13.493472933
 20
-52.8261655683
 30
0.0
 10
13.1849808955
 20
-53.0078257536
 30
0.0
 10
13.0250187136
 20
-53.0856180132
 30
0.0
  0
SPLINE
  5
2E9
100
AcDbEntity
  8
RACCORDO
100
AcDbSpline
 62
250
  6
CONTINUOUS
 70
0
 71
3
 72
15
 73
11
 74
0
 42
0.0000001
 43
0.0000001
 44
0.0000000001
 40
0.0
 40
0.0
 40
0.0
 40
0.0
 40
0.1159293924
 40
0.2386922248
 40
0.3666332223
 40
0.4975313549
 40
0.6288360446
 40
0.7579117543
 40
0.8822975421
 40
1.0
 40
1.0
 40
1.0
 40
1.0
 10
9.5337575389
 20
-41.1202655462
 30
0.0
 10
9.908428706
 20
-41.2610519673
 30
0.0
 10
10.6534255281
 20
-41.6246736864
 30
0.0
 10
11.6905707905
 20
-42.3583212584
 30
0.0
 10
12.6469899257
 20
-43.2709584641
 30
0.0
 10
13.4870207382
 20
-44.3291785979
 30
0.0
 10
14.1792583051
 20
-45.4940288461
 30
0.0
 10
14.6970125065
 20
-46.7222492739
 30
0.0
 10
15.0199104685
 20
-47.9670655963
 30
0.0
 10
15.0986434968
 20
-48.8040720856
 30
0.0
 10
15.0986727401
 20
-49.2104426836
 30
0.0
  0
SPLINE
  5
2EA
100
AcDbEntity
  8
0
100
AcDbSpline
 62
7
  6
CONTINUOUS
 70
0
 71
3
 72
11
 73
7
 74
0
 42
0.0000001
 43
0.0000001
 44
0.0000000001
 40
0.0
 40
0.0
 40
0.0
 40
0.0
 40
0.225823682
 40
0.46473183
 40
0.7222718611
 40
1.0
 40
1.0
 40
1.0
 40
1.0
 10
10.3138964308
 20
-48.4453767597
 30
0.0
 10
10.245649555
 20
-48.4795384819
 30
0.0
 10
10.0935636981
 20
-48.5282679086
 30
0.0
 10
9.8470258389
 20
-48.536286973
 30
0.0
 10
9.5888663217
 20
-48.4824372903
 30
0.0
 10
9.4217135925
 20
-48.4100931085
 30
0.0
 10
9.3390423721
 20
-48.3656479016
 30
0.0
  0
SPLINE
  5
2EB
100
AcDbEntity
  8
0
100
AcDbSpline
 62
7
  6
CONTINUOUS
 70
0
 71
3
 72
9
 73
5
 74
0
 42
0.0000001
 43
0.0000001
 44
0.0000000001
 40
0.0
 40
0.0
 40
0.0
 40
0.0
 40
0.2536357632
 40
1.0
 40
1.0
 40
1.0
 40
1.0
 10
8.280997939
 20
-46.7782217035
 30
0.0
 10
8.2798722002
 20
-46.7662585489
 30
0.0
 10
8.2759618191
 20
-46.7190443339
 30
0.0
 10
8.274193128
 20
-46.6716475919
 30
0.0
 10
8.274193128
 20
-46.6362885571
 30
0.0
  0
SPLINE
  5
2EC
100
AcDbEntity
  8
0
100
AcDbSpline
 62
7
  6
CONTINUOUS
 70
0
 71
3
 72
11
 73
7
 74
0
 42
0.0000001
 43
0.0000001
 44
0.0000000001
 40
0.0
 40
0.0
 40
0.0
 40
0.0
 40
0.2769018929
 40
0.5319747927
 40
0.7696450353
 40
1.0
 40
1.0
 40
1.0
 40
1.0
 10
8.274193128
 20
-46.6362885571
 30
0.0
 10
8.274193128
 20
-46.5411461019
 30
0.0
 10
8.2923373045
 20
-46.3575214773
 30
0.0
 10
8.3814921651
 20
-46.1053527379
 30
0.0
 10
8.5293025594
 20
-45.9009884333
 30
0.0
 10
8.6625549153
 20
-45.8052258176
 30
0.0
 10
8.7333331186
 20
-45.7697994615
 30
0.0
  0
SPLINE
  5
2ED
100
AcDbEntity
  8
RACCORDO
100
AcDbSpline
 62
250
  6
CONTINUOUS
 70
0
 71
3
 72
15
 73
11
 74
0
 42
0.0000001
 43
0.0000001
 44
0.0000000001
 40
0.0
 40
0.0
 40
0.0
 40
0.0
 40
0.1367965686
 40
0.264314957
 40
0.3843381382
 40
0.5001907882
 40
0.6161178967
 40
0.7362483227
 40
0.8636711618
 40
1.0
 40
1.0
 40
1.0
 40
1.0
 10
4.2940969983
 20
-45.825380244
 30
0.0
 10
4.2941392017
 20
-45.5130298004
 30
0.0
 10
4.3489961275
 20
-44.9072499879
 30
0.0
 10
4.6160749592
 20
-44.0633309102
 30
0.0
 10
5.0574610306
 20
-43.3494646555
 30
0.0
 10
5.6566030742
 20
-42.7986857105
 30
0.0
 10
6.3853958812
 20
-42.4364331349
 30
0.0
 10
7.2087874504
 20
-42.2754374856
 30
0.0
 10
8.0914326534
 20
-42.3163448665
 30
0.0
 10
8.6784959038
 20
-42.469206468
 30
0.0
 10
8.9717352137
 20
-42.5736453593
 30
0.0
  0
SPLINE
  5
2EE
100
AcDbEntity
  8
RACCORDO
100
AcDbSpline
 62
250
  6
CONTINUOUS
 70
0
 71
3
 72
13
 73
9
 74
0
 42
0.0000001
 43
0.0000001
 44
0.0000000001
 40
0.0
 40
0.0
 40
0.0
 40
0.0
 40
0.239532145
 40
0.3678075982
 40
0.4988052476
 40
0.6300502033
 40
0.7589802756
 40
1.0
 40
1.0
 40
1.0
 40
1.0
 10
8.9717352137
 20
-42.5736453593
 30
0.0
 10
9.6146535604
 20
-42.8027438213
 30
0.0
 10
10.5394068989
 20
-43.3456983269
 30
0.0
 10
11.585414121
 20
-44.3109511541
 30
0.0
 10
12.2931735377
 20
-45.1747131942
 30
0.0
 10
12.8767010175
 20
-46.1290689369
 30
0.0
 10
13.4455836148
 20
-47.4411224957
 30
0.0
 10
13.6525482832
 20
-48.5005226677
 30
0.0
 10
13.6526365738
 20
-49.1872788136
 30
0.0
  0
SPLINE
  5
2EF
100
AcDbEntity
  8
RACCORDO
100
AcDbSpline
 62
250
  6
CONTINUOUS
 70
0
 71
3
 72
15
 73
11
 74
0
 42
0.0000001
 43
0.0000001
 44
0.0000000001
 40
0.0
 40
0.0
 40
0.0
 40
0.0
 40
0.1356384844
 40
0.262089845
 40
0.3814042428
 40
0.497031717
 40
0.6132538527
 40
0.7341139558
 40
0.8625488516
 40
1.0
 40
1.0
 40
1.0
 40
1.0
 10
13.648651783
 20
-49.3885629215
 30
0.0
 10
13.6367040727
 20
-49.6892123272
 30
0.0
 10
13.5611687091
 20
-50.2702543706
 30
0.0
 10
13.2725254957
 20
-51.0733137842
 30
0.0
 10
12.8206295437
 20
-51.7465001098
 30
0.0
 10
12.2214447787
 20
-52.2597731446
 30
0.0
 10
11.5018447107
 20
-52.5907095916
 30
0.0
 10
10.6944570072
 20
-52.7290492468
 30
0.0
 10
9.8317487533
 20
-52.6753266331
 30
0.0
 10
9.2583939474
 20
-52.5207263894
 30
0.0
 10
8.9717352137
 20
-52.4168249863
 30
0.0
  0
SPLINE
  5
2F0
100
AcDbEntity
  8
RACCORDO
100
AcDbSpline
 62
250
  6
CONTINUOUS
 70
0
 71
3
 72
13
 73
9
 74
0
 42
0.0000001
 43
0.0000001
 44
0.0000000001
 40
0.0
 40
0.0
 40
0.0
 40
0.0
 40
0.2399656953
 40
0.368358553
 40
0.4993635364
 40
0.6305123602
 40
0.7592783332
 40
1.0
 40
1.0
 40
1.0
 40
1.0
 10
8.9717352137
 20
-52.4168249863
 30
0.0
 10
8.3308502693
 20
-52.1843924772
 30
0.0
 10
7.4094261007
 20
-51.6404233956
 30
0.0
 10
6.3644659816
 20
-50.6779544754
 30
0.0
 10
5.6567445837
 20
-49.8184226072
 30
0.0
 10
5.0724039644
 20
-48.8692950438
 30
0.0
 10
4.5019601158
 20
-47.5642658883
 30
0.0
 10
4.294200106
 20
-46.5092598178
 30
0.0
 10
4.2940969983
 20
-45.825380244
 30
0.0
  0
SPLINE
  5
2F1
100
AcDbEntity
  8
RACCORDO
100
AcDbSpline
 62
250
  6
CONTINUOUS
 70
0
 71
3
 72
12
 73
8
 74
0
 42
0.0000001
 43
0.0000001
 44
0.0000000001
 40
0.0
 40
0.0
 40
0.0
 40
0.0
 40
0.1150331562
 40
0.2317324202
 40
0.4726865044
 40
0.7280037808
 40
1.0
 40
1.0
 40
1.0
 40
1.0
 10
5.9807689378
 20
-41.1622405892
 30
0.0
 10
6.105401165
 20
-41.0982406983
 30
0.0
 10
6.3647913831
 20
-40.9848214984
 30
0.0
 10
6.9174122421
 20
-40.8194096847
 30
0.0
 10
7.6660073626
 20
-40.7337972787
 30
0.0
 10
8.6029418206
 20
-40.8247316539
 30
0.0
 10
9.2236416699
 20
-41.0037649082
 30
0.0
 10
9.5337575389
 20
-41.1202655462
 30
0.0
  0
SPLINE
  5
2F2
100
AcDbEntity
  8
RACCORDO
100
AcDbSpline
 62
7
  6
CONTINUOUS
 70
0
 71
3
 72
15
 73
11
 74
0
 42
0.0000001
 43
0.0000001
 44
0.0000000001
 40
0.0
 40
0.0
 40
0.0
 40
0.0
 40
0.1250887679
 40
0.2553054699
 40
0.3881201165
 40
0.5207764076
 40
0.6505400966
 40
0.7749077873
 40
0.891824731
 40
1.0
 40
1.0
 40
1.0
 40
1.0
 10
23.1331035787
 20
-93.6764286621
 30
0.0
 10
23.4357498834
 20
-93.7618007923
 30
0.0
 10
24.0632060966
 20
-93.9026932445
 30
0.0
 10
25.0323001059
 20
-94.0261495834
 30
0.0
 10
26.0275541299
 20
-94.0644160544
 30
0.0
 10
27.021225616
 20
-94.0164795421
 30
0.0
 10
27.9857861117
 20
-93.8835682341
 30
0.0
 10
28.8951143063
 20
-93.6686746194
 30
0.0
 10
29.7253902334
 20
-93.3763820377
 30
0.0
 10
30.233518419
 20
-93.1224147827
 30
0.0
 10
30.4663006227
 20
-92.9818336292
 30
0.0
  0
SPLINE
  5
2F3
100
AcDbEntity
  8
RACCORDO
100
AcDbSpline
 62
7
  6
CONTINUOUS
 70
0
 71
3
 72
15
 73
11
 74
0
 42
0.0000001
 43
0.0000001
 44
0.0000000001
 40
0.0
 40
0.0
 40
0.0
 40
0.0
 40
0.1070575099
 40
0.2194343404
 40
0.3371394473
 40
0.460087416
 40
0.5881124288
 40
0.7209787614
 40
0.8583902201
 40
1.0
 40
1.0
 40
1.0
 40
1.0
 10
-40.8712872234
 20
-61.6651491082
 30
0.0
 10
-38.9448203779
 20
-63.3724922145
 30
0.0
 10
-34.8539439131
 20
-66.7139831453
 30
0.0
 10
-28.2225404695
 20
-71.3864135159
 30
0.0
 10
-20.9777696695
 20
-75.8204639598
 30
0.0
 10
-13.152965675
 20
-79.996449981
 30
0.0
 10
-4.7834388952
 20
-83.8961367736
 30
0.0
 10
4.0928357991
 20
-87.5021895638
 30
0.0
 10
13.4353185542
 20
-90.798408632
 30
0.0
 10
19.8560341499
 20
-92.7520149368
 30
0.0
 10
23.1331035787
 20
-93.6764286621
 30
0.0
  0
SPLINE
  5
2F4
100
AcDbEntity
  8
RACCORDO
100
AcDbSpline
 62
7
  6
CONTINUOUS
 70
0
 71
3
 72
11
 73
7
 74
0
 42
0.0000001
 43
0.0000001
 44
0.0000000001
 40
0.0
 40
0.0
 40
0.0
 40
0.0
 40
0.2389117798
 40
0.4820437786
 40
0.7341126592
 40
1.0
 40
1.0
 40
1.0
 40
1.0
 10
-41.7494146556
 20
-59.939698117
 30
0.0
 10
-41.7494146556
 20
-60.0983885442
 30
0.0
 10
-41.7079288815
 20
-60.419943516
 30
0.0
 10
-41.5282254433
 20
-60.8777500378
 30
0.0
 10
-41.2449022439
 20
-61.300402824
 30
0.0
 10
-41.003458469
 20
-61.5480115278
 30
0.0
 10
-40.8712872234
 20
-61.6651491082
 30
0.0
  0
SPLINE
  5
2F5
100
AcDbEntity
  8
RACCORDO
100
AcDbSpline
 62
7
  6
CONTINUOUS
 70
0
 71
3
 72
11
 73
7
 74
0
 42
0.0000001
 43
0.0000001
 44
0.0000000001
 40
0.0
 40
0.0
 40
0.0
 40
0.0
 40
0.2258727017
 40
0.4632034482
 40
0.7201603371
 40
1.0
 40
1.0
 40
1.0
 40
1.0
 10
30.4663122664
 20
-92.9818206666
 30
0.0
 10
30.4862744668
 20
-92.9697723487
 30
0.0
 10
30.5234316871
 20
-92.9382451894
 30
0.0
 10
30.5637825549
 20
-92.8746891729
 30
0.0
 10
30.5880305333
 20
-92.7977643767
 30
0.0
 10
30.5929528814
 20
-92.7421468306
 30
0.0
 10
30.5929535025
 20
-92.7132596084
 30
0.0
  0
SPLINE
  5
2F6
100
AcDbEntity
  8
RACCORDO
100
AcDbSpline
 62
250
  6
CONTINUOUS
 70
0
 71
3
 72
11
 73
7
 74
0
 42
0.0000001
 43
0.0000001
 44
0.0000000001
 40
0.0
 40
0.0
 40
0.0
 40
0.0
 40
0.1788907267
 40
0.3971126095
 40
0.6712973574
 40
1.0
 40
1.0
 40
1.0
 40
1.0
 10
23.1331049234
 20
-93.6764238968
 30
0.0
 10
23.1157701962
 20
-93.6715265554
 30
0.0
 10
23.0807056535
 20
-93.6479058536
 30
0.0
 10
23.0471243616
 20
-93.5876829186
 30
0.0
 10
23.0269722884
 20
-93.5069337072
 30
0.0
 10
23.0231657158
 20
-93.4460447777
 30
0.0
 10
23.0231657158
 20
-93.4129463673
 30
0.0
  0
SPLINE
  5
2F7
100
AcDbEntity
  8
RACCORDO
100
AcDbSpline
 62
250
  6
CONTINUOUS
 70
0
 71
3
 72
9
 73
5
 74
0
 42
0.0000001
 43
0.0000001
 44
0.0000000001
 40
0.0
 40
0.0
 40
0.0
 40
0.0
 40
0.4807942476
 40
1.0
 40
1.0
 40
1.0
 40
1.0
 10
-40.8712836375
 20
-61.665145063
 30
0.0
 10
-40.9046535157
 20
-61.6355582363
 30
0.0
 10
-40.9595288117
 20
-61.5561307069
 30
0.0
 10
-40.9751324744
 20
-61.4619576496
 30
0.0
 10
-40.9751324744
 20
-61.4137972722
 30
0.0
  0
SPLINE
  5
2F8
100
AcDbEntity
  8
RACCORDO
100
AcDbSpline
 62
250
  6
CONTINUOUS
 70
0
 71
3
 72
11
 73
7
 74
0
 42
0.0000001
 43
0.0000001
 44
0.0000000001
 40
0.0
 40
0.0
 40
0.0
 40
0.0
 40
0.2811818679
 40
0.5372362305
 40
0.7739377697
 40
1.0
 40
1.0
 40
1.0
 40
1.0
 10
-40.9751324745
 20
-61.4137972722
 30
0.0
 10
-41.0953225961
 20
-61.3072780367
 30
0.0
 10
-41.3112219786
 20
-61.0870505105
 30
0.0
 10
-41.5608641337
 20
-60.7188291071
 30
0.0
 10
-41.714461269
 20
-60.3342456937
 30
0.0
 10
-41.7494068436
 20
-60.0688150836
 30
0.0
 10
-41.7494109412
 20
-59.939698117
 30
0.0
  0
SPLINE
  5
2F9
100
AcDbEntity
  8
RACCORDO
100
AcDbSpline
 62
250
  6
CONTINUOUS
 70
0
 71
3
 72
15
 73
11
 74
0
 42
0.0000001
 43
0.0000001
 44
0.0000000001
 40
0.0
 40
0.0
 40
0.0
 40
0.0
 40
0.1416364108
 40
0.2790731888
 40
0.4119622082
 40
0.540004634
 40
0.6629606011
 40
0.7806584417
 40
0.8930050782
 40
1.0
 40
1.0
 40
1.0
 40
1.0
 10
23.0231657158
 20
-93.4129463673
 30
0.0
 10
19.7569882919
 20
-92.4916051185
 30
0.0
 10
13.3574749046
 20
-90.5450607397
 30
0.0
 10
4.045202855
 20
-87.2624744527
 30
0.0
 10
-4.8031417338
 20
-83.672980813
 30
0.0
 10
-13.1472364173
 20
-79.7928514222
 30
0.0
 10
-20.9492788071
 20
-75.6395534879
 30
0.0
 10
-28.1741036824
 20
-71.2315375068
 30
0.0
 10
-34.7885379655
 20
-66.588787509
 30
0.0
 10
-38.87077988
 20
-63.2697076151
 30
0.0
 10
-40.7936603038
 20
-61.5742179534
 30
0.0
  0
SPLINE
  5
2FA
100
AcDbEntity
  8
RACCORDO
100
AcDbSpline
 62
250
  6
CONTINUOUS
 70
0
 71
3
 72
15
 73
11
 74
0
 42
0.0000001
 43
0.0000001
 44
0.0000000001
 40
0.0
 40
0.0
 40
0.0
 40
0.0
 40
0.1055765803
 40
0.2215556248
 40
0.3460236781
 40
0.4764904781
 40
0.6101197452
 40
0.7439018174
 40
0.8748118714
 40
1.0
 40
1.0
 40
1.0
 40
1.0
 10
30.5929535176
 20
-92.7132595994
 30
0.0
 10
30.358548655
 20
-92.8548207044
 30
0.0
 10
29.8420639305
 20
-93.1118940953
 30
0.0
 10
28.9933513995
 20
-93.4090589264
 30
0.0
 10
28.055162328
 20
-93.629300978
 30
0.0
 10
27.0552581956
 20
-93.7659428098
 30
0.0
 10
26.0231464742
 20
-93.814945772
 30
0.0
 10
24.9894770731
 20
-93.7748024795
 30
0.0
 10
23.98509082
 20
-93.6467873777
 30
0.0
 10
23.3356710557
 20
-93.5010995883
 30
0.0
 10
23.0231657158
 20
-93.4129463673
 30
0.0
  0
SPLINE
  5
2FB
100
AcDbEntity
  8
CURVE
100
AcDbSpline
 62
7
  6
CONTINUOUS
 70
0
 71
3
 72
96
 73
92
 74
0
 42
0.0000001
 43
0.0000001
 44
0.0000000001
 40
0.0
 40
0.0
 40
0.0
 40
0.0
 40
0.03125
 40
0.0625
 40
0.09375
 40
0.109375
 40
0.125
 40
0.140625
 40
0.1484375
 40
0.15625
 40
0.16015625
 40
0.1640625
 40
0.166015625
 40
0.1669921875
 40
0.16796875
 40
0.169921875
 40
0.171875
 40
0.1796875
 40
0.1875
 40
0.1953125
 40
0.203125
 40
0.21875
 40
0.25
 40
0.28125
 40
0.296875
 40
0.3125
 40
0.3203125
 40
0.328125
 40
0.33203125
 40
0.333984375
 40
0.3359375
 40
0.33984375
 40
0.34375
 40
0.359375
 40
0.375
 40
0.390625
 40
0.40625
 40
0.421875
 40
0.4375
 40
0.453125
 40
0.46875
 40
0.4765625
 40
0.484375
 40
0.4921875
 40
0.49609375
 40
0.498046875
 40
0.5
 40
0.501953125
 40
0.50390625
 40
0.5078125
 40
0.515625
 40
0.5234375
 40
0.53125
 40
0.546875
 40
0.5625
 40
0.59375
 40
0.609375
 40
0.625
 40
0.640625
 40
0.65625
 40
0.66015625
 40
0.6640625
 40
0.666015625
 40
0.66796875
 40
0.671875
 40
0.6796875
 40
0.6875
 40
0.703125
 40
0.71875
 40
0.75
 40
0.78125
 40
0.796875
 40
0.8046875
 40
0.8125
 40
0.8203125
 40
0.828125
 40
0.830078125
 40
0.83203125
 40
0.8330078125
 40
0.833984375
 40
0.8359375
 40
0.83984375
 40
0.84375
 40
0.8515625
 40
0.859375
 40
0.875
 40
0.890625
 40
0.90625
 40
0.9375
 40
0.96875
 40
1.0
 40
1.0
 40
1.0
 40
1.0
 10
-40.9673033917
 20
-60.035094433
 30
0.0
 10
-40.742394491
 20
-60.224973315
 30
0.0
 10
-40.2925767323
 20
-60.6047310667
 30
0.0
 10
-39.617849838
 20
-61.174367767
 30
0.0
 10
-39.0555781738
 20
-61.6490648056
 30
0.0
 10
-38.6057591759
 20
-62.0288229079
 30
0.0
 10
-38.2683994786
 20
-62.3136401974
 30
0.0
 10
-37.9872519215
 20
-62.5509920332
 30
0.0
 10
-37.7623663427
 20
-62.7408643183
 30
0.0
 10
-37.6217389266
 20
-62.8595554082
 30
0.0
 10
-37.5094063076
 20
-62.9544603879
 30
0.0
 10
-37.4388121006
 20
-63.013885275
 30
0.0
 10
-37.3901703905
 20
-63.0552636952
 30
0.0
 10
-37.361163764
 20
-63.0792511542
 30
0.0
 10
-37.3275945477
 20
-63.1045291914
 30
0.0
 10
-37.2871925398
 20
-63.1356856129
 30
0.0
 10
-37.1889441706
 20
-63.2108240905
 30
0.0
 10
-37.0421107216
 20
-63.323379315
 30
0.0
 10
-36.8460246638
 20
-63.473540106
 30
0.0
 10
-36.650021019
 20
-63.6236775796
 30
0.0
 10
-36.3886541241
 20
-63.8238690265
 30
0.0
 10
-35.9312749818
 20
-64.1742001067
 30
0.0
 10
-35.2778730639
 20
-64.6746763936
 30
0.0
 10
-34.6244591022
 20
-65.1751469473
 30
0.0
 10
-34.1017593526
 20
-65.5755344977
 30
0.0
 10
-33.7749994815
 20
-65.8257518147
 30
0.0
 10
-33.5137577959
 20
-66.0259826563
 30
0.0
 10
-33.3501024781
 20
-66.1509969133
 30
0.0
 10
-33.2363038519
 20
-66.238767467
 30
0.0
 10
-33.1700868227
 20
-66.2885143768
 30
0.0
 10
-33.0993905214
 20
-66.3367257169
 30
0.0
 10
-33.012551179
 20
-66.3975147562
 30
0.0
 10
-32.8028766454
 20
-66.542976463
 30
0.0
 10
-32.488894113
 20
-66.7613504653
 30
0.0
 10
-32.0699481972
 20
-67.0524120862
 30
0.0
 10
-31.6510833332
 20
-67.3435014926
 30
0.0
 10
-31.2321968015
 20
-67.6345834727
 30
0.0
 10
-30.8133158887
 20
-67.9256673722
 30
0.0
 10
-30.3944341681
 20
-68.2167510207
 30
0.0
 10
-29.9755500597
 20
-68.5078337539
 30
0.0
 10
-29.6264886016
 20
-68.7504059582
 30
0.0
 10
-29.3472199118
 20
-68.9444563554
 30
0.0
 10
-29.1378217852
 20
-69.090014296
 30
0.0
 10
-28.963153512
 20
-69.2112485068
 30
0.0
 10
-28.8412190143
 20
-69.2962381952
 30
0.0
 10
-28.7710217485
 20
-69.3446073976
 30
0.0
 10
-28.7198398022
 20
-69.381437375
 30
0.0
 10
-28.663054049
 20
-69.4161532171
 30
0.0
 10
-28.5892943821
 20
-69.4631784407
 30
0.0
 10
-28.4593042475
 20
-69.5451289978
 30
0.0
 10
-28.2740801892
 20
-69.6623808521
 30
0.0
 10
-28.0516075166
 20
-69.8030061891
 30
0.0
 10
-27.7550484813
 20
-69.9905334983
 30
0.0
 10
-27.3843252323
 20
-70.2249334059
 30
0.0
 10
-26.7911821553
 20
-70.5999786033
 30
0.0
 10
-26.1980326056
 20
-70.9750212622
 30
0.0
 10
-25.6048918831
 20
-71.3500675274
 30
0.0
 10
-25.1600163324
 20
-71.6313439461
 30
0.0
 10
-24.7152164032
 20
-71.9126516826
 30
0.0
 10
-24.3814045984
 20
-72.1235447415
 30
0.0
 10
-24.1591928601
 20
-72.2642765664
 30
0.0
 10
-24.0661143769
 20
-72.3227117796
 30
0.0
 10
-23.9927952652
 20
-72.369933618
 30
0.0
 10
-23.9152936615
 20
-72.4154232226
 30
0.0
 10
-23.7777225713
 20
-72.4942251942
 30
0.0
 10
-23.5822063496
 20
-72.6072193624
 30
0.0
 10
-23.2688137781
 20
-72.7877753586
 30
0.0
 10
-22.8772670606
 20
-73.0135507084
 30
0.0
 10
-22.2506839661
 20
-73.3747463443
 30
0.0
 10
-21.467491709
 20
-73.8262563999
 30
0.0
 10
-20.6842884411
 20
-74.2777605672
 30
0.0
 10
-20.1360436484
 20
-74.5938149921
 30
0.0
 10
-19.8227685075
 20
-74.7744167024
 30
0.0
 10
-19.5877900743
 20
-74.909870009
 30
0.0
 10
-19.3528961524
 20
-75.0453156294
 30
0.0
 10
-19.1764887352
 20
-75.1469213853
 30
0.0
 10
-19.0592523403
 20
-75.2146250568
 30
0.0
 10
-19.0098554191
 20
-75.2428847682
 30
0.0
 10
-18.9716172431
 20
-75.2653762513
 30
0.0
 10
-18.9287003618
 20
-75.288293
 30
0.0
 10
-18.8514219833
 20
-75.3285948986
 30
0.0
 10
-18.7421584978
 20
-75.3860659479
 30
0.0
 10
-18.5667030782
 20
-75.478077239
 30
0.0
 10
-18.3476008323
 20
-75.5930716264
 30
0.0
 10
-17.9969159414
 20
-75.7770736715
 30
0.0
 10
-17.5586014443
 20
-76.0070724451
 30
0.0
 10
-17.0326062344
 20
-76.2830725926
 30
0.0
 10
-16.3312855105
 20
-76.6510722236
 30
0.0
 10
-15.4546324694
 20
-77.1110719565
 30
0.0
 10
-14.4026497403
 20
-77.6630715524
 30
0.0
 10
-13.7013277456
 20
-78.031071299
 30
0.0
 10
-13.3506667702
 20
-78.2150711702
 30
0.0
  0
SPLINE
  5
2FC
100
AcDbEntity
  8
CURVE
100
AcDbSpline
 62
7
  6
CONTINUOUS
 70
0
 71
3
 72
14
 73
10
 74
0
 42
0.0000001
 43
0.0000001
 44
0.0000000001
 40
0.0
 40
0.0
 40
0.0
 40
0.0
 40
0.125
 40
0.1875
 40
0.25
 40
0.375
 40
0.5
 40
0.75
 40
1.0
 40
1.0
 40
1.0
 40
1.0
 10
-41.7279395136
 20
-58.3004630494
 30
0.0
 10
-41.7287882948
 20
-58.3056817992
 30
0.0
 10
-41.7300196542
 20
-58.31311598
 30
0.0
 10
-41.7318287164
 20
-58.3246039962
 30
0.0
 10
-41.7342311377
 20
-58.3412978776
 30
0.0
 10
-41.7368906254
 20
-58.3603707031
 30
0.0
 10
-41.7408447695
 20
-58.39200463
 30
0.0
 10
-41.7444957515
 20
-58.4305102292
 30
0.0
 10
-41.7465950184
 20
-58.4636573776
 30
0.0
 10
-41.7476120025
 20
-58.4805241673
 30
0.0
  0
SPLINE
  5
2FD
100
AcDbEntity
  8
CURVE
100
AcDbSpline
 62
7
  6
CONTINUOUS
 70
0
 71
3
 72
8
 73
4
 74
0
 42
0.0000001
 43
0.0000001
 44
0.0000000001
 40
0.0
 40
0.0
 40
0.0
 40
0.0
 40
1.0
 40
1.0
 40
1.0
 40
1.0
 10
-41.7476120026
 20
-58.4805241683
 30
0.0
 10
-41.748565633
 20
-58.5014626803
 30
0.0
 10
-41.7491430381
 20
-58.5207734337
 30
0.0
 10
-41.7493871904
 20
-58.5449802798
 30
0.0
  0
LINE
  5
2FE
100
AcDbEntity
  8
CURVE
100
AcDbLine
 62
7
  6
CONTINUOUS
 10
-41.7493871904
 20
-58.5449802818
 11
-41.7492615637
 21
-58.5754880535
  0
SPLINE
  5
2FF
100
AcDbEntity
  8
CURVE
100
AcDbSpline
 62
7
  6
CONTINUOUS
 70
0
 71
3
 72
19
 73
15
 74
0
 42
0.0000001
 43
0.0000001
 44
0.0000000001
 40
0.0
 40
0.0
 40
0.0
 40
0.0
 40
0.125
 40
0.1875
 40
0.25
 40
0.3125
 40
0.375
 40
0.5
 40
0.625
 40
0.6875
 40
0.75
 40
0.8125
 40
0.875
 40
1.0
 40
1.0
 40
1.0
 40
1.0
 10
-41.7492615637
 20
-58.5754880542
 30
0.0
 10
-41.749215022
 20
-58.5781059433
 30
0.0
 10
-41.7491604818
 20
-58.5816218213
 30
0.0
 10
-41.7490266727
 20
-58.5879534814
 30
0.0
 10
-41.7487749312
 20
-58.5964453665
 30
0.0
 10
-41.7485510602
 20
-58.6048481743
 30
0.0
 10
-41.7483057688
 20
-58.6115361433
 30
0.0
 10
-41.748228605
 20
-58.6147178153
 30
0.0
 10
-41.7473998528
 20
-58.6311675981
 30
0.0
 10
-41.7469514429
 20
-58.6401786126
 30
0.0
 10
-41.7467264236
 20
-58.643569745
 30
0.0
 10
-41.7465571767
 20
-58.646798403
 30
0.0
 10
-41.7458856767
 20
-58.6564593151
 30
0.0
 10
-41.7452798878
 20
-58.6650169288
 30
0.0
 10
-41.7448987316
 20
-58.6704304647
 30
0.0
  0
SPLINE
  5
300
100
AcDbEntity
  8
CURVE
100
AcDbSpline
 62
7
  6
CONTINUOUS
 70
0
 71
3
 72
19
 73
15
 74
0
 42
0.0000001
 43
0.0000001
 44
0.0000000001
 40
0.0
 40
0.0
 40
0.0
 40
0.0
 40
0.125
 40
0.1875
 40
0.25
 40
0.3125
 40
0.375
 40
0.5
 40
0.625
 40
0.6875
 40
0.75
 40
0.8125
 40
0.875
 40
1.0
 40
1.0
 40
1.0
 40
1.0
 10
-41.7448987316
 20
-58.6704304647
 30
0.0
 10
-41.7446864911
 20
-58.6730463055
 30
0.0
 10
-41.7444094101
 20
-58.6765595588
 30
0.0
 10
-41.7438748505
 20
-58.6828859288
 30
0.0
 10
-41.7430856672
 20
-58.691369575
 30
0.0
 10
-41.7423299794
 20
-58.6997646297
 30
0.0
 10
-41.7416614377
 20
-58.7064453657
 30
0.0
 10
-41.7413829008
 20
-58.7096242224
 30
0.0
 10
-41.7395132316
 20
-58.7260526473
 30
0.0
 10
-41.7384946156
 20
-58.7350520503
 30
0.0
 10
-41.7380550378
 20
-58.7384379225
 30
0.0
 10
-41.7376814897
 20
-58.7416622844
 30
0.0
 10
-41.7363987546
 20
-58.7513077288
 30
0.0
 10
-41.7352515404
 20
-58.7598514676
 30
0.0
 10
-41.7345278782
 20
-58.7652562589
 30
0.0
  0
SPLINE
  5
301
100
AcDbEntity
  8
CURVE
100
AcDbSpline
 62
7
  6
CONTINUOUS
 70
0
 71
3
 72
34
 73
30
 74
0
 42
0.0000001
 43
0.0000001
 44
0.0000000001
 40
0.0
 40
0.0
 40
0.0
 40
0.0
 40
0.0625
 40
0.125
 40
0.15625
 40
0.171875
 40
0.1875
 40
0.25
 40
0.3125
 40
0.328125
 40
0.34375
 40
0.375
 40
0.4375
 40
0.46875
 40
0.5
 40
0.53125
 40
0.5625
 40
0.625
 40
0.65625
 40
0.671875
 40
0.6875
 40
0.75
 40
0.78125
 40
0.8125
 40
0.828125
 40
0.84375
 40
0.875
 40
0.9375
 40
1.0
 40
1.0
 40
1.0
 40
1.0
 10
-41.7345278782
 20
-58.7652562588
 30
0.0
 10
-41.7286517789
 20
-58.7925815428
 30
0.0
 10
-41.7169751616
 20
-58.8472375722
 30
0.0
 10
-41.7020014829
 20
-58.9155303019
 30
0.0
 10
-41.6922143121
 20
-58.9633853893
 30
0.0
 10
-41.6855446079
 20
-58.9906533286
 30
0.0
 10
-41.6696452745
 20
-59.0311278345
 30
0.0
 10
-41.6485554158
 20
-59.092049879
 30
0.0
 10
-41.6252711571
 20
-59.1527718854
 30
0.0
 10
-41.6115662237
 20
-59.1934464294
 30
0.0
 10
-41.5985571418
 20
-59.2201364809
 30
0.0
 10
-41.5738751137
 20
-59.2666304495
 30
0.0
 10
-41.5468211403
 20
-59.3199075271
 30
0.0
 10
-41.5184948589
 20
-59.3730054032
 30
0.0
 10
-41.4999130132
 20
-59.4132253011
 30
0.0
 10
-41.4713158602
 20
-59.4519488368
 30
0.0
 10
-41.4367349731
 20
-59.5041122265
 30
0.0
 10
-41.4008927996
 20
-59.5560762875
 30
0.0
 10
-41.3705129727
 20
-59.601718948
 30
0.0
 10
-41.3521001578
 20
-59.6276016634
 30
0.0
 10
-41.3189427712
 20
-59.665369727
 30
0.0
 10
-41.282057711
 20
-59.7097945579
 30
0.0
 10
-41.2392750379
 20
-59.7603803511
 30
0.0
 10
-41.2120511695
 20
-59.79204626
 30
0.0
 10
-41.1915924289
 20
-59.8173058561
 30
0.0
 10
-41.16624003
 20
-59.8428181458
 30
0.0
 10
-41.1195951747
 20
-59.8875814455
 30
0.0
 10
-41.0541586972
 20
-59.9514675467
 30
0.0
 10
-41.0014440966
 20
-60.0025951613
 30
0.0
 10
-40.9751324736
 20
-60.0281566269
 30
0.0
  0
SPLINE
  5
302
100
AcDbEntity
  8
CURVE
100
AcDbSpline
 62
7
  6
CONTINUOUS
 70
0
 71
3
 72
68
 73
64
 74
0
 42
0.0000001
 43
0.0000001
 44
0.0000000001
 40
0.0
 40
0.0
 40
0.0
 40
0.0
 40
0.03125
 40
0.0625
 40
0.09375
 40
0.109375
 40
0.125
 40
0.1328125
 40
0.140625
 40
0.15625
 40
0.171875
 40
0.1875
 40
0.21875
 40
0.25
 40
0.265625
 40
0.2734375
 40
0.28125
 40
0.28515625
 40
0.2890625
 40
0.296875
 40
0.3125
 40
0.34375
 40
0.375
 40
0.40625
 40
0.4140625
 40
0.421875
 40
0.4296875
 40
0.4375
 40
0.453125
 40
0.46875
 40
0.5
 40
0.53125
 40
0.546875
 40
0.5625
 40
0.5703125
 40
0.578125
 40
0.5859375
 40
0.59375
 40
0.625
 40
0.65625
 40
0.6875
 40
0.703125
 40
0.7109375
 40
0.71484375
 40
0.71875
 40
0.7265625
 40
0.734375
 40
0.75
 40
0.78125
 40
0.8125
 40
0.828125
 40
0.84375
 40
0.8515625
 40
0.85546875
 40
0.857421875
 40
0.859375
 40
0.8671875
 40
0.875
 40
0.890625
 40
0.90625
 40
0.9375
 40
0.96875
 40
1.0
 40
1.0
 40
1.0
 40
1.0
 10
23.0370610384
 20
-92.0312132313
 30
0.0
 10
23.1152579801
 20
-92.0483585142
 30
0.0
 10
23.2716496337
 20
-92.0826516908
 30
0.0
 10
23.5062504924
 20
-92.1340757911
 30
0.0
 10
23.7017121883
 20
-92.1769748963
 30
0.0
 10
23.858168503
 20
-92.211192361
 30
0.0
 10
23.9557558148
 20
-92.232809981
 30
0.0
 10
24.0342788483
 20
-92.2495734409
 30
0.0
 10
24.1111474533
 20
-92.2682740812
 30
0.0
 10
24.2190749437
 20
-92.2777843242
 30
0.0
 10
24.3458196588
 20
-92.2924374728
 30
0.0
 10
24.5157789055
 20
-92.3108462782
 30
0.0
 10
24.7279014476
 20
-92.3342205877
 30
0.0
 10
24.9401221886
 20
-92.3575525938
 30
0.0
 10
25.088699051
 20
-92.3737195234
 30
0.0
 10
25.173532352
 20
-92.3832541307
 30
0.0
 10
25.2267172534
 20
-92.3885117546
 30
0.0
 10
25.2688883035
 20
-92.3943273768
 30
0.0
 10
25.312435567
 20
-92.3942661111
 30
0.0
 10
25.3884033806
 20
-92.3951831729
 30
0.0
 10
25.5405095994
 20
-92.3962908427
 30
0.0
 10
25.7577128275
 20
-92.3982469658
 30
0.0
 10
26.0184053544
 20
-92.4004608384
 30
0.0
 10
26.2138884341
 20
-92.4020731829
 30
0.0
 10
26.3442558089
 20
-92.4032698901
 30
0.0
 10
26.4093609582
 20
-92.403640642
 30
0.0
 10
26.4747711959
 20
-92.4048974387
 30
0.0
 10
26.5579862489
 20
-92.3949585073
 30
0.0
 10
26.6633748412
 20
-92.3865134167
 30
0.0
 10
26.8312272167
 20
-92.3707677207
 30
0.0
 10
27.0413338741
 20
-92.351922939
 30
0.0
 10
27.2512374946
 20
-92.3325207433
 30
0.0
 10
27.4194147291
 20
-92.3176669096
 30
0.0
 10
27.5239911738
 20
-92.3069921632
 30
0.0
 10
27.6088711296
 20
-92.3016240263
 30
0.0
 10
27.6691952922
 20
-92.2889176032
 30
0.0
 10
27.7298587131
 20
-92.2770941133
 30
0.0
 10
27.8510115779
 20
-92.2529934691
 30
0.0
 10
28.0328060923
 20
-92.2170254709
 30
0.0
 10
28.2751989069
 20
-92.1689996392
 30
0.0
 10
28.4770765483
 20
-92.1288811719
 30
0.0
 10
28.6186352195
 20
-92.1010317897
 30
0.0
 10
28.6890786191
 20
-92.0867822283
 30
0.0
 10
28.7298729774
 20
-92.0791631787
 30
0.0
 10
28.7652356298
 20
-92.0662871748
 30
0.0
 10
28.8112985055
 20
-92.0519919066
 30
0.0
 10
28.8839613327
 20
-92.0281150709
 30
0.0
 10
29.0116043693
 20
-91.986798351
 30
0.0
 10
29.1937024541
 20
-91.9275317691
 30
0.0
 10
29.3758768105
 20
-91.8683450344
 30
0.0
 10
29.5216325321
 20
-91.8209981704
 30
0.0
 10
29.6126511312
 20
-91.7913601476
 30
0.0
 10
29.6765259254
 20
-91.7707100683
 30
0.0
 10
29.708241326
 20
-91.7602523598
 30
0.0
 10
29.7267218668
 20
-91.7544901678
 30
0.0
 10
29.7488785556
 20
-91.7425213263
 30
0.0
 10
29.7844443619
 20
-91.7259611158
 30
0.0
 10
29.8459357354
 20
-91.6954827384
 30
0.0
 10
29.9233946115
 20
-91.6577401813
 30
0.0
 10
30.0469964477
 20
-91.5971534425
 30
0.0
 10
30.2016128474
 20
-91.5214882166
 30
0.0
 10
30.3871033743
 20
-91.4306605681
 30
0.0
 10
30.510773088
 20
-91.3701143982
 30
0.0
 10
30.5726067746
 20
-91.3398406137
 30
0.0
  0
SPLINE
  5
303
100
AcDbEntity
  8
CURVE
100
AcDbSpline
 62
7
  6
CONTINUOUS
 70
0
 71
3
 72
94
 73
90
 74
0
 42
0.0000001
 43
0.0000001
 44
0.0000000001
 40
0.0
 40
0.0
 40
0.0
 40
0.0
 40
0.03125
 40
0.0625
 40
0.09375
 40
0.109375
 40
0.125
 40
0.140625
 40
0.1484375
 40
0.15625
 40
0.16015625
 40
0.1640625
 40
0.166015625
 40
0.1669921875
 40
0.16796875
 40
0.169921875
 40
0.171875
 40
0.17578125
 40
0.1796875
 40
0.1875
 40
0.1953125
 40
0.203125
 40
0.21875
 40
0.25
 40
0.28125
 40
0.296875
 40
0.3125
 40
0.3203125
 40
0.328125
 40
0.33203125
 40
0.333984375
 40
0.3359375
 40
0.33984375
 40
0.34375
 40
0.359375
 40
0.375
 40
0.390625
 40
0.40625
 40
0.4375
 40
0.453125
 40
0.46875
 40
0.4765625
 40
0.484375
 40
0.4921875
 40
0.49609375
 40
0.5
 40
0.50390625
 40
0.5078125
 40
0.515625
 40
0.5234375
 40
0.53125
 40
0.546875
 40
0.5625
 40
0.59375
 40
0.609375
 40
0.625
 40
0.640625
 40
0.65625
 40
0.66015625
 40
0.6640625
 40
0.666015625
 40
0.66796875
 40
0.671875
 40
0.6796875
 40
0.6875
 40
0.703125
 40
0.71875
 40
0.75
 40
0.78125
 40
0.796875
 40
0.8046875
 40
0.8125
 40
0.8203125
 40
0.828125
 40
0.830078125
 40
0.83203125
 40
0.8330078125
 40
0.833984375
 40
0.8359375
 40
0.83984375
 40
0.84375
 40
0.8515625
 40
0.859375
 40
0.875
 40
0.890625
 40
0.90625
 40
0.9375
 40
0.96875
 40
1.0
 40
1.0
 40
1.0
 40
1.0
 10
-13.3506650713
 20
-78.2150720197
 30
0.0
 10
-13.0321078951
 20
-78.367814694
 30
0.0
 10
-12.3949935903
 20
-78.6733000369
 30
0.0
 10
-11.4393218472
 20
-79.1315280867
 30
0.0
 10
-10.6429295618
 20
-79.5133846913
 30
0.0
 10
-10.0058138752
 20
-79.8188702056
 30
0.0
 10
-9.5279821849
 20
-80.0479837118
 30
0.0
 10
-9.1297729684
 20
-80.238913636
 30
0.0
 10
-8.8112417968
 20
-80.3916530845
 30
0.0
 10
-8.6120773813
 20
-80.4871254656
 30
0.0
 10
-8.4529346383
 20
-80.5634799513
 30
0.0
 10
-8.3530396669
 20
-80.6112549399
 30
0.0
 10
-8.283976479
 20
-80.6445903414
 30
0.0
 10
-8.2431610981
 20
-80.6638066955
 30
0.0
 10
-8.1972574232
 20
-80.6836542473
 30
0.0
 10
-8.1416200519
 20
-80.7082475662
 30
0.0
 10
-8.0516266228
 20
-80.7477176549
 30
0.0
 10
-7.9394682104
 20
-80.7970139111
 30
0.0
 10
-7.7598284273
 20
-80.8759110341
 30
0.0
 10
-7.5353426261
 20
-80.9745245088
 30
0.0
 10
-7.2659322971
 20
-81.0928640678
 30
0.0
 10
-6.9067281063
 20
-81.2506489851
 30
0.0
 10
-6.2781159562
 20
-81.5267729221
 30
0.0
 10
-5.3801039513
 20
-81.9212372009
 30
0.0
 10
-4.4820797104
 20
-82.3156948012
 30
0.0
 10
-3.7636854022
 20
-82.6312757005
 30
0.0
 10
-3.3146323661
 20
-82.8284800544
 30
0.0
 10
-2.9555194905
 20
-82.9863207322
 30
0.0
 10
-2.7307783569
 20
-83.0847950232
 30
0.0
 10
-2.5740519548
 20
-83.1540800191
 30
0.0
 10
-2.4835671586
 20
-83.1931191556
 30
0.0
 10
-2.389591382
 20
-83.2300780979
 30
0.0
 10
-2.273314893
 20
-83.276987795
 30
0.0
 10
-1.9932692353
 20
-83.3889858668
 30
0.0
 10
-1.5736132304
 20
-83.5572287623
 30
0.0
 10
-1.0138361568
 20
-83.7814121565
 30
0.0
 10
-0.4541220572
 20
-84.0056330694
 30
0.0
 10
0.2921849589
 20
-84.3045814755
 30
0.0
 10
1.038488623
 20
-84.6035317109
 30
0.0
 10
1.7847861805
 20
-84.9024860666
 30
0.0
 10
2.2512402136
 20
-85.0893207139
 30
0.0
 10
2.6243616236
 20
-85.2388157816
 30
0.0
 10
2.9043172948
 20
-85.3508621278
 30
0.0
 10
3.1372490654
 20
-85.4444725359
 30
0.0
 10
3.324412268
 20
-85.5188260525
 30
0.0
 10
3.4625500847
 20
-85.576052548
 30
0.0
 10
3.6092173496
 20
-85.627701016
 30
0.0
 10
3.8017942558
 20
-85.6985141174
 30
0.0
 10
4.0435376213
 20
-85.7863619817
 30
0.0
 10
4.3331921131
 20
-85.8920655624
 30
0.0
 10
4.7195509215
 20
-86.032903731
 30
0.0
 10
5.2024471541
 20
-86.2089856262
 30
0.0
 10
5.9751100664
 20
-86.4906977556
 30
0.0
 10
6.7477666276
 20
-86.7724139118
 30
0.0
 10
7.5204205368
 20
-87.054132165
 30
0.0
 10
8.0999252756
 20
-87.2654105371
 30
0.0
 10
8.6793741131
 20
-87.4767291318
 30
0.0
 10
9.1141177149
 20
-87.6351051486
 30
0.0
 10
9.4037026291
 20
-87.7408648056
 30
0.0
 10
9.524726329
 20
-87.7846699555
 30
0.0
 10
9.6206977387
 20
-87.820323808
 30
0.0
 10
9.7197686944
 20
-87.8537478293
 30
0.0
 10
9.8945829887
 20
-87.9112038347
 30
0.0
 10
10.1435663124
 20
-87.9938243916
 30
0.0
 10
10.5423595359
 20
-88.1257151985
 30
0.0
 10
11.0407073035
 20
-88.2906821417
 30
0.0
 10
11.8381439952
 20
-88.5545714378
 30
0.0
 10
12.834912931
 20
-88.8844529162
 30
0.0
 10
13.8316892528
 20
-89.2143272279
 30
0.0
 10
14.5294360174
 20
-89.4452403955
 30
0.0
 10
14.928140514
 20
-89.5771909566
 30
0.0
 10
15.2271917535
 20
-89.67615301
 30
0.0
 10
15.5261554949
 20
-89.7751184437
 30
0.0
 10
15.7506236448
 20
-89.8493330285
 30
0.0
 10
15.8998875148
 20
-89.8988241794
 30
0.0
 10
15.9626485818
 20
-89.9194235268
 30
0.0
 10
16.0115329008
 20
-89.9359542458
 30
0.0
 10
16.0652611278
 20
-89.9522975729
 30
0.0
 10
16.1615361182
 20
-89.9808113287
 30
0.0
 10
16.2978975729
 20
-90.0215906925
 30
0.0
 10
16.5167321237
 20
-90.086812288
 30
0.0
 10
16.7900506205
 20
-90.1683479747
 30
0.0
 10
17.2274857958
 20
-90.2988002153
 30
0.0
 10
17.7742366788
 20
-90.4618671828
 30
0.0
 10
18.4303561809
 20
-90.6575468304
 30
0.0
 10
19.3051757412
 20
-90.9184532764
 30
0.0
 10
20.3987024034
 20
-91.2445862483
 30
0.0
 10
21.7109334452
 20
-91.6359458515
 30
0.0
 10
22.5857543213
 20
-91.8968522466
 30
0.0
 10
23.0231647366
 20
-92.027305445
 30
0.0
  0
SPLINE
  5
304
100
AcDbEntity
  8
RACCORDO
100
AcDbSpline
 62
250
  6
CONTINUOUS
 70
0
 71
3
 72
11
 73
7
 74
0
 42
0.0000001
 43
0.0000001
 44
0.0000000001
 40
0.0
 40
0.0
 40
0.0
 40
0.0
 40
0.270356399
 40
0.5255035645
 40
0.7673635887
 40
1.0
 40
1.0
 40
1.0
 40
1.0
 10
9.4536291702
 20
-53.2409027059
 30
0.0
 10
9.8274171117
 20
-53.3914386054
 30
0.0
 10
10.5809434358
 20
-53.6232883497
 30
0.0
 10
11.7264303542
 20
-53.7425682511
 30
0.0
 10
12.8160110363
 20
-53.6181055299
 30
0.0
 10
13.4871636463
 20
-53.3687708144
 30
0.0
 10
13.7938534684
 20
-53.2069971536
 30
0.0
  0
SPLINE
  5
305
100
AcDbEntity
  8
RACCORDO
100
AcDbSpline
 62
250
  6
CONTINUOUS
 70
0
 71
3
 72
11
 73
7
 74
0
 42
0.0000001
 43
0.0000001
 44
0.0000000001
 40
0.0
 40
0.0
 40
0.0
 40
0.0
 40
0.1947994357
 40
0.4187628502
 40
0.6873029149
 40
1.0
 40
1.0
 40
1.0
 40
1.0
 10
9.2877077529
 20
-54.8386883203
 30
0.0
 10
9.2801003399
 20
-54.8360313873
 30
0.0
 10
9.2651266118
 20
-54.8259355147
 30
0.0
 10
9.2498936736
 20
-54.8012765374
 30
0.0
 10
9.2408894594
 20
-54.7689122733
 30
0.0
 10
9.2391230134
 20
-54.7447938881
 30
0.0
 10
9.2391225123
 20
-54.7318589126
 30
0.0
  0
SPLINE
  5
306
100
AcDbEntity
  8
RACCORDO
100
AcDbSpline
 62
250
  6
CONTINUOUS
 70
0
 71
3
 72
9
 73
5
 74
0
 42
0.0000001
 43
0.0000001
 44
0.0000000001
 40
0.0
 40
0.0
 40
0.0
 40
0.0
 40
0.471708272
 40
1.0
 40
1.0
 40
1.0
 40
1.0
 10
-32.4808634093
 20
-33.9534528408
 30
0.0
 10
-32.4960735667
 20
-33.9425614066
 30
0.0
 10
-32.5217219517
 20
-33.909505184
 30
0.0
 10
-32.5283969614
 20
-33.8690510545
 30
0.0
 10
-32.5283963966
 20
-33.8480994586
 30
0.0
  0
SPLINE
  5
307
100
AcDbEntity
  8
RACCORDO
100
AcDbSpline
 62
250
  6
CONTINUOUS
 70
0
 71
3
 72
14
 73
10
 74
0
 42
0.0000001
 43
0.0000001
 44
0.0000000001
 40
0.0
 40
0.0
 40
0.0
 40
0.0
 40
0.1170848813
 40
0.2338352125
 40
0.3518235439
 40
0.4724385866
 40
0.5968284489
 40
0.7259711115
 40
1.0
 40
1.0
 40
1.0
 40
1.0
 10
5.9991195212
 20
-40.6023634283
 30
0.0
 10
5.8333472298
 20
-40.6807234454
 30
0.0
 10
5.5134180247
 20
-40.8623121775
 30
0.0
 10
5.0801234339
 20
-41.2060156949
 30
0.0
 10
4.7005277006
 20
-41.6158789324
 30
0.0
 10
4.3789459289
 20
-42.0870236282
 30
0.0
 10
4.1191033304
 20
-42.6142738819
 30
0.0
 10
3.8524554707
 20
-43.3980965352
 30
0.0
 10
3.7612895468
 20
-44.0299764681
 30
0.0
 10
3.7415186985
 20
-44.4586609917
 30
0.0
  0
SPLINE
  5
308
100
AcDbEntity
  8
RACCORDO
100
AcDbSpline
 62
250
  6
CONTINUOUS
 70
0
 71
3
 72
14
 73
10
 74
0
 42
0.0000001
 43
0.0000001
 44
0.0000000001
 40
0.0
 40
0.0
 40
0.0
 40
0.0
 40
0.1070002603
 40
0.2151293833
 40
0.3269083049
 40
0.4445179546
 40
0.5696871229
 40
0.7035926723
 40
1.0
 40
1.0
 40
1.0
 40
1.0
 10
-35.5503731431
 20
-18.0746550978
 30
0.0
 10
-35.4415735289
 20
-18.0207335982
 30
0.0
 10
-35.2126535585
 20
-17.9315373377
 30
0.0
 10
-34.8467462382
 20
-17.8602553753
 30
0.0
 10
-34.4621497055
 20
-17.8509195341
 30
0.0
 10
-34.0617586197
 20
-17.9031038202
 30
0.0
 10
-33.6482496327
 20
-18.0161070189
 30
0.0
 10
-33.0631061582
 20
-18.2535350356
 30
0.0
 10
-32.6421745209
 20
-18.5083345531
 30
0.0
 10
-32.3679065935
 20
-18.7030800384
 30
0.0
  0
SPLINE
  5
309
100
AcDbEntity
  8
RACCORDO
100
AcDbSpline
 62
250
  6
CONTINUOUS
 70
0
 71
3
 72
9
 73
5
 74
0
 42
0.0000001
 43
0.0000001
 44
0.0000000001
 40
0.0
 40
0.0
 40
0.0
 40
0.0
 40
0.2431755057
 40
1.0
 40
1.0
 40
1.0
 40
1.0
 10
9.3511891048
 20
-39.5626278875
 30
0.0
 10
9.496802344
 20
-39.6139018785
 30
0.0
 10
10.0899836484
 20
-39.840573037
 30
0.0
 10
10.6590843924
 20
-40.1287293885
 30
0.0
 10
11.0725517863
 20
-40.3734477641
 30
0.0
  0
SPLINE
  5
30A
100
AcDbEntity
  8
RACCORDO
100
AcDbSpline
 62
250
  6
CONTINUOUS
 70
0
 71
3
 72
20
 73
16
 74
0
 42
0.0000001
 43
0.0000001
 44
0.0000000001
 40
0.0
 40
0.0
 40
0.0
 40
0.0
 40
0.1357368725
 40
0.2763234852
 40
0.4164269188
 40
0.5509181766
 40
0.6149108519
 40
0.6762516929
 40
0.7348680462
 40
0.7909216962
 40
0.8181261369
 40
0.8448508901
 40
0.8971440811
 40
0.9485887677
 40
1.0
 40
1.0
 40
1.0
 40
1.0
 10
11.0725517863
 20
-40.3734477641
 30
0.0
 10
11.7564072216
 20
-40.7782003365
 30
0.0
 10
13.06084594
 20
-41.7570601875
 30
0.0
 10
14.7033006856
 20
-43.5777538892
 30
0.0
 10
15.962508127
 20
-45.6752017132
 30
0.0
 10
16.6107003314
 20
-47.5687406818
 30
0.0
 10
16.8286433333
 20
-49.0779984871
 30
0.0
 10
16.838345751
 20
-50.158515289
 30
0.0
 10
16.6963506887
 20
-51.1830761631
 30
0.0
 10
16.4509697273
 20
-51.9810303736
 30
0.0
 10
16.1827504958
 20
-52.5672493703
 30
0.0
 10
15.8737557367
 20
-53.1077116522
 30
0.0
 10
15.4051884612
 20
-53.7170736153
 30
0.0
 10
14.7201734844
 20
-54.3216105964
 30
0.0
 10
14.1971001852
 20
-54.6285157459
 30
0.0
 10
13.9244241183
 20
-54.7559446064
 30
0.0
  0
SPLINE
  5
30B
100
AcDbEntity
  8
RACCORDO
100
AcDbSpline
 62
250
  6
CONTINUOUS
 70
0
 71
3
 72
11
 73
7
 74
0
 42
0.0000001
 43
0.0000001
 44
0.0000000001
 40
0.0
 40
0.0
 40
0.0
 40
0.0
 40
0.2300022972
 40
0.4737423722
 40
0.7306858184
 40
1.0
 40
1.0
 40
1.0
 40
1.0
 10
-32.3679065936
 20
-18.7030800394
 30
0.0
 10
-29.4513049501
 20
-20.7914851273
 30
0.0
 10
-23.2459251962
 20
-24.8209959077
 30
0.0
 10
-13.2239787943
 20
-30.2662383616
 30
0.0
 10
-2.2887578545
 20
-35.2512816365
 30
0.0
 10
5.3856368354
 20
-38.1780338488
 30
0.0
 10
9.3511891048
 20
-39.5626278886
 30
0.0
  0
SPLINE
  5
30C
100
AcDbEntity
  8
RACCORDO
100
AcDbSpline
 62
250
  6
CONTINUOUS
 70
0
 71
3
 72
9
 73
5
 74
0
 42
0.0000001
 43
0.0000001
 44
0.0000000001
 40
0.0
 40
0.0
 40
0.0
 40
0.0
 40
0.2419513701
 40
1.0
 40
1.0
 40
1.0
 40
1.0
 10
3.5687295466
 20
-44.7951207629
 30
0.0
 10
3.5687297417
 20
-44.949914422
 30
0.0
 10
3.5900334359
 20
-45.5896062099
 30
0.0
 10
3.6923057171
 20
-46.2257927322
 30
0.0
 10
3.807530669
 20
-46.6968840076
 30
0.0
  0
SPLINE
  5
30D
100
AcDbEntity
  8
RACCORDO
100
AcDbSpline
 62
250
  6
CONTINUOUS
 70
0
 71
3
 72
22
 73
18
 74
0
 42
0.0000001
 43
0.0000001
 44
0.0000000001
 40
0.0
 40
0.0
 40
0.0
 40
0.0
 40
0.0743606778
 40
0.1468636847
 40
0.2846621021
 40
0.3498079108
 40
0.4123677541
 40
0.4725354524
 40
0.5306595215
 40
0.5872876481
 40
0.6430435738
 40
0.6987240735
 40
0.7550688831
 40
0.8128533996
 40
0.8726662385
 40
0.9349687357
 40
1.0
 40
1.0
 40
1.0
 40
1.0
 10
6.6404725891
 20
-51.5850620087
 30
0.0
 10
6.8691336214
 20
-51.8058223627
 30
0.0
 10
7.3425401568
 20
-52.2201634627
 30
0.0
 10
8.3353704525
 20
-52.9255628311
 30
0.0
 10
9.4023412453
 20
-53.4526505306
 30
0.0
 10
10.4986492724
 20
-53.7561374148
 30
0.0
 10
11.2969294486
 20
-53.865383844
 30
0.0
 10
12.0728131506
 20
-53.8579441
 30
0.0
 10
12.8134545893
 20
-53.7339894666
 30
0.0
 10
13.5054591391
 20
-53.4941504775
 30
0.0
 10
14.1361838552
 20
-53.1424591328
 30
0.0
 10
14.6928235403
 20
-52.6841207602
 30
0.0
 10
15.1640714682
 20
-52.127084319
 30
0.0
 10
15.5402387512
 20
-51.481610734
 30
0.0
 10
15.8134338199
 20
-50.7592778138
 30
0.0
 10
15.9785282645
 20
-49.9736847416
 30
0.0
 10
16.0135430754
 20
-49.4285521691
 30
0.0
 10
16.0135431528
 20
-49.1505906394
 30
0.0
  0
SPLINE
  5
30E
100
AcDbEntity
  8
RACCORDO
100
AcDbSpline
 62
250
  6
CONTINUOUS
 70
0
 71
3
 72
9
 73
5
 74
0
 42
0.0000001
 43
0.0000001
 44
0.0000000001
 40
0.0
 40
0.0
 40
0.0
 40
0.0
 40
0.5116579993
 40
1.0
 40
1.0
 40
1.0
 40
1.0
 10
16.3943443277
 20
-49.6167401577
 30
0.0
 10
16.3943444753
 20
-49.9647410065
 30
0.0
 10
16.3455418603
 20
-50.6460691115
 30
0.0
 10
16.188037654
 20
-51.3115068781
 30
0.0
 10
16.0830813521
 20
-51.626630501
 30
0.0
  0
SPLINE
  5
30F
100
AcDbEntity
  8
RACCORDO
100
AcDbSpline
 62
250
  6
CONTINUOUS
 70
0
 71
3
 72
27
 73
23
 74
0
 42
0.0000001
 43
0.0000001
 44
0.0000000001
 40
0.0
 40
0.0
 40
0.0
 40
0.0
 40
0.0552755118
 40
0.0821035198
 40
0.1085502765
 40
0.134777758
 40
0.1609496709
 40
0.1872316023
 40
0.2137808364
 40
0.2407410426
 40
0.2682404344
 40
0.325169585
 40
0.3852281508
 40
0.4486021122
 40
0.5150970654
 40
0.5841954472
 40
0.6551198763
 40
0.726875154
 40
0.7983460324
 40
0.8683776446
 40
0.9358894095
 40
1.0
 40
1.0
 40
1.0
 40
1.0
 10
16.0813166554
 20
-51.6319200213
 30
0.0
 10
15.9581294507
 20
-52.0005463652
 30
0.0
 10
15.715999124
 20
-52.5317112641
 30
0.0
 10
15.2814949189
 20
-53.160860034
 30
0.0
 10
14.9102052894
 20
-53.5806727243
 30
0.0
 10
14.4945790594
 20
-53.9496052673
 30
0.0
 10
14.0378325085
 20
-54.2642526754
 30
0.0
 10
13.5444209102
 20
-54.5223112854
 30
0.0
 10
13.0190386283
 20
-54.7227214909
 30
0.0
 10
12.4656709259
 20
-54.863081341
 30
0.0
 10
11.6883601683
 20
-54.9696606156
 30
0.0
 10
10.6650036503
 20
-54.9450489908
 30
0.0
 10
9.419970026
 20
-54.670156726
 30
0.0
 10
8.1791902526
 20
-54.160093815
 30
0.0
 10
6.9796821432
 20
-53.4300167909
 30
0.0
 10
5.8561328508
 20
-52.5027405758
 30
0.0
 10
4.8425973066
 20
-51.4059917139
 30
0.0
 10
3.9673581259
 20
-50.1757695475
 30
0.0
 10
3.256966566
 20
-48.8506753767
 30
0.0
 10
2.7319912105
 20
-47.4734125099
 30
0.0
 10
2.4075093766
 20
-46.0887664138
 30
0.0
 10
2.3290355224
 20
-45.1621543731
 30
0.0
 10
2.3290347323
 20
-44.7113662984
 30
0.0
  0
SPLINE
  5
310
100
AcDbEntity
  8
RACCORDO
100
AcDbSpline
 62
250
  6
CONTINUOUS
 70
0
 71
3
 72
15
 73
11
 74
0
 42
0.0000001
 43
0.0000001
 44
0.0000000001
 40
0.0
 40
0.0
 40
0.0
 40
0.0
 40
0.2394929961
 40
0.3025903516
 40
0.3665223787
 40
0.495914716
 40
0.6258409897
 40
0.7543659404
 40
0.879628336
 40
1.0
 40
1.0
 40
1.0
 40
1.0
 10
16.0054563541
 20
-48.8236958488
 30
0.0
 10
15.9657130593
 20
-48.0158806423
 30
0.0
 10
15.7327065043
 20
-46.9979008178
 30
0.0
 10
15.259364252
 20
-45.8547549532
 30
0.0
 10
14.8754528084
 20
-45.0776653431
 30
0.0
 10
14.296981779
 20
-44.148267071
 30
0.0
 10
13.4720044226
 20
-43.1268744452
 30
0.0
 10
12.5390898908
 20
-42.2227660379
 30
0.0
 10
11.5280917008
 20
-41.4595934272
 30
0.0
 10
10.8038326846
 20
-41.0488553158
 30
0.0
 10
10.4365523054
 20
-40.8746331102
 30
0.0
  0
SPLINE
  5
311
100
AcDbEntity
  8
RACCORDO
100
AcDbSpline
 62
250
  6
CONTINUOUS
 70
0
 71
3
 72
12
 73
8
 74
0
 42
0.0000001
 43
0.0000001
 44
0.0000000001
 40
0.0
 40
0.0
 40
0.0
 40
0.0
 40
0.2759848535
 40
0.5336311139
 40
0.7735520297
 40
0.8881472325
 40
1.0
 40
1.0
 40
1.0
 40
1.0
 10
10.4124865543
 20
-40.86326472
 30
0.0
 10
10.0315229657
 20
-40.6840515404
 30
0.0
 10
9.2665642817
 20
-40.3928126585
 30
0.0
 10
8.1001342158
 20
-40.1741244675
 30
0.0
 10
7.1575271982
 20
-40.1966845942
 30
0.0
 10
6.460007442
 20
-40.3446515844
 30
0.0
 10
6.1329828993
 20
-40.4596834269
 30
0.0
 10
5.9762472778
 20
-40.5271262819
 30
0.0
  0
SPLINE
  5
312
100
AcDbEntity
  8
RACCORDO
100
AcDbSpline
 62
250
  6
CONTINUOUS
 70
0
 71
3
 72
14
 73
10
 74
0
 42
0.0000001
 43
0.0000001
 44
0.0000000001
 40
0.0
 40
0.0
 40
0.0
 40
0.0
 40
0.1163843394
 40
0.2322359437
 40
0.3493832615
 40
0.4694500954
 40
0.5937706972
 40
0.7234088505
 40
1.0
 40
1.0
 40
1.0
 40
1.0
 10
5.9676832163
 20
-40.5308239401
 30
0.0
 10
5.7831203581
 20
-40.6107828842
 30
0.0
 10
5.4269250245
 20
-40.8003732084
 30
0.0
 10
4.9466233481
 20
-41.1707615067
 30
0.0
 10
4.5299309044
 20
-41.6202891183
 30
0.0
 10
4.1825584418
 20
-42.1426849601
 30
0.0
 10
3.9091225534
 20
-42.7310108813
 30
0.0
 10
3.6405370616
 20
-43.6100165872
 30
0.0
 10
3.5687296258
 20
-44.3171075136
 30
0.0
 10
3.5687295466
 20
-44.7951207629
 30
0.0
  0
SPLINE
  5
313
100
AcDbEntity
  8
RACCORDO
100
AcDbSpline
 62
250
  6
CONTINUOUS
 70
0
 71
3
 72
20
 73
16
 74
0
 42
0.0000001
 43
0.0000001
 44
0.0000000001
 40
0.0
 40
0.0
 40
0.0
 40
0.0
 40
0.1333870106
 40
0.1959411168
 40
0.2559505475
 40
0.3138647171
 40
0.3703068554
 40
0.4260334698
 40
0.4818683581
 40
0.5386087936
 40
0.5969750968
 40
0.6575317072
 40
0.7206421281
 40
0.854977435
 40
1.0
 40
1.0
 40
1.0
 40
1.0
 10
2.3290347323
 20
-44.7113662984
 30
0.0
 10
2.3290356358
 20
-44.183028929
 30
0.0
 10
2.4065023304
 20
-43.4017742382
 30
0.0
 10
2.6942730504
 20
-42.4272740428
 30
0.0
 10
2.988242353
 20
-41.7729628478
 30
0.0
 10
3.3616245491
 20
-41.1888012875
 30
0.0
 10
3.8105621426
 20
-40.6826545234
 30
0.0
 10
4.3289954828
 20
-40.2606719898
 30
0.0
 10
4.9108564932
 20
-39.929339234
 30
0.0
 10
5.5474540028
 20
-39.6907297934
 30
0.0
 10
6.2311451356
 20
-39.5484362796
 30
0.0
 10
6.9529476856
 20
-39.5027152938
 30
0.0
 10
7.9750915351
 20
-39.5701775602
 30
0.0
 10
9.3019029333
 20
-39.9036708262
 30
0.0
 10
10.3077614149
 20
-40.3806977207
 30
0.0
 10
10.8046922653
 20
-40.6688363506
 30
0.0
  0
SPLINE
  5
314
100
AcDbEntity
  8
RACCORDO
100
AcDbSpline
 62
250
  6
CONTINUOUS
 70
0
 71
3
 72
9
 73
5
 74
0
 42
0.0000001
 43
0.0000001
 44
0.0000000001
 40
0.0
 40
0.0
 40
0.0
 40
0.0
 40
0.4941319438
 40
1.0
 40
1.0
 40
1.0
 40
1.0
 10
10.9080103683
 20
-40.7295500803
 30
0.0
 10
11.1836456405
 20
-40.8936825059
 30
0.0
 10
11.7262087791
 20
-41.2519723854
 30
0.0
 10
12.23601355
 20
-41.6553555037
 30
0.0
 10
12.4847593011
 20
-41.8698001098
 30
0.0
  0
SPLINE
  5
315
100
AcDbEntity
  8
RACCORDO
100
AcDbSpline
 62
250
  6
CONTINUOUS
 70
0
 71
3
 72
14
 73
10
 74
0
 42
0.0000001
 43
0.0000001
 44
0.0000000001
 40
0.0
 40
0.0
 40
0.0
 40
0.0
 40
0.1283435024
 40
0.2579700437
 40
0.3877075315
 40
0.5163947921
 40
0.6429204114
 40
0.7662859135
 40
1.0
 40
1.0
 40
1.0
 40
1.0
 10
12.4847593011
 20
-41.8698001098
 30
0.0
 10
12.7739958576
 20
-42.1191519847
 30
0.0
 10
13.3310961851
 20
-42.6491871969
 30
0.0
 10
14.0897826927
 20
-43.5203601289
 30
0.0
 10
14.762741331
 20
-44.4608652745
 30
0.0
 10
15.3363792093
 20
-45.4543585484
 30
0.0
 10
15.7979261544
 20
-46.4845556714
 30
0.0
 10
16.2417669721
 20
-47.854810352
 30
0.0
 10
16.3943442556
 20
-48.9213306731
 30
0.0
 10
16.3943443277
 20
-49.6167401577
 30
0.0
  0
SPLINE
  5
316
100
AcDbEntity
  8
RACCORDO
100
AcDbSpline
 62
250
  6
CONTINUOUS
 70
0
 71
3
 72
9
 73
5
 74
0
 42
0.0000001
 43
0.0000001
 44
0.0000000001
 40
0.0
 40
0.0
 40
0.0
 40
0.0
 40
0.2370250682
 40
1.0
 40
1.0
 40
1.0
 40
1.0
 10
15.9986934123
 20
-49.112779984
 30
0.0
 10
15.9986990958
 20
-49.1160272599
 30
0.0
 10
16.000069465
 20
-49.1297400808
 30
0.0
 10
16.0069301757
 20
-49.1424955065
 30
0.0
 10
16.0135431528
 20
-49.1505906394
 30
0.0
  0
SPLINE
  5
317
100
AcDbEntity
  8
RACCORDO
100
AcDbSpline
 62
250
  6
CONTINUOUS
 70
0
 71
3
 72
11
 73
7
 74
0
 42
0.0000001
 43
0.0000001
 44
0.0000000001
 40
0.0
 40
0.0
 40
0.0
 40
0.0
 40
0.2692496999
 40
0.5261695629
 40
0.7699301762
 40
1.0
 40
1.0
 40
1.0
 40
1.0
 10
9.239122512
 20
-54.7318589129
 30
0.0
 10
5.2781738938
 20
-53.3492294509
 30
0.0
 10
-2.3879972201
 20
-50.4267174419
 30
0.0
 10
-13.3130848579
 20
-45.4495914213
 30
0.0
 10
-23.3285765066
 20
-40.013149826
 30
0.0
 10
-29.5316298602
 20
-35.9905452035
 30
0.0
 10
-32.4478876985
 20
-33.9057063703
 30
0.0
  0
SPLINE
  5
318
100
AcDbEntity
  8
RACCORDO
100
AcDbSpline
 62
250
  6
CONTINUOUS
 70
0
 71
3
 72
30
 73
26
 74
0
 42
0.0000001
 43
0.0000001
 44
0.0000000001
 40
0.0
 40
0.0
 40
0.0
 40
0.0
 40
0.0615399584
 40
0.1302536538
 40
0.205076644
 40
0.284362641
 40
0.366055806
 40
0.4478051077
 40
0.4879227397
 40
0.5271118513
 40
0.6014567789
 40
0.6687398499
 40
0.6992730193
 40
0.727605449
 40
0.7537291019
 40
0.7777766845
 40
0.7999853414
 40
0.8207267394
 40
0.8405260067
 40
0.8599938649
 40
0.8797786678
 40
0.9004723087
 40
0.9225632043
 40
0.9464021706
 40
1.0
 40
1.0
 40
1.0
 40
1.0
 10
-32.5283963966
 20
-33.8480994586
 30
0.0
 10
-32.875218395
 20
-33.5997130417
 30
0.0
 10
-33.5540625987
 20
-32.9957129744
 30
0.0
 10
-34.4607847471
 20
-31.8956883142
 30
0.0
 10
-35.2874861631
 20
-30.5866579858
 30
0.0
 10
-36.0069990537
 20
-29.1158211054
 30
0.0
 10
-36.5960768283
 20
-27.537090361
 30
0.0
 10
-36.9643530004
 20
-26.1725345414
 30
0.0
 10
-37.1761619001
 20
-25.0759684524
 30
0.0
 10
-37.3260641807
 20
-24.0210756049
 30
0.0
 10
-37.4060183364
 20
-22.7676944412
 30
0.0
 10
-37.3375266521
 20
-21.5719182129
 30
0.0
 10
-37.1828162802
 20
-20.7102813259
 30
0.0
 10
-37.0270270923
 20
-20.1411334132
 30
0.0
 10
-36.827875751
 20
-19.6334163714
 30
0.0
 10
-36.5876127331
 20
-19.1912491747
 30
0.0
 10
-36.3075757471
 20
-18.8182792598
 30
0.0
 10
-35.9888128717
 20
-18.518786078
 30
0.0
 10
-35.6346970765
 20
-18.2953060737
 30
0.0
 10
-35.2483869016
 20
-18.1512248379
 30
0.0
 10
-34.8348998568
 20
-18.0881327872
 30
0.0
 10
-34.3991774763
 20
-18.1044746492
 30
0.0
 10
-33.9452402756
 20
-18.1994581609
 30
0.0
 10
-33.2957335046
 20
-18.4373174775
 30
0.0
 10
-32.8304781094
 20
-18.7159756549
 30
0.0
 10
-32.5283963966
 20
-18.9322792032
 30
0.0
  0
SPLINE
  5
319
100
AcDbEntity
  8
RACCORDO
100
AcDbSpline
 62
250
  6
CONTINUOUS
 70
0
 71
3
 72
11
 73
7
 74
0
 42
0.0000001
 43
0.0000001
 44
0.0000000001
 40
0.0
 40
0.0
 40
0.0
 40
0.0
 40
0.2300018008
 40
0.4737417305
 40
0.7306853543
 40
1.0
 40
1.0
 40
1.0
 40
1.0
 10
-32.5283963966
 20
-18.9322792032
 30
0.0
 10
-29.6084257222
 20
-21.0231187158
 30
0.0
 10
-23.39586194
 20
-25.0573202382
 30
0.0
 10
-13.3622923985
 20
-30.5088898115
 30
0.0
 10
-2.4143647066
 20
-35.4997124187
 30
0.0
 10
5.2689552591
 20
-38.4298483053
 30
0.0
 10
9.239122512
 20
-39.8160386575
 30
0.0
  0
SPLINE
  5
31A
100
AcDbEntity
  8
RACCORDO
100
AcDbSpline
 62
250
  6
CONTINUOUS
 70
0
 71
3
 72
9
 73
5
 74
0
 42
0.0000001
 43
0.0000001
 44
0.0000000001
 40
0.0
 40
0.0
 40
0.0
 40
0.0
 40
0.2434729695
 40
1.0
 40
1.0
 40
1.0
 40
1.0
 10
9.239122512
 20
-39.8160386575
 30
0.0
 10
9.3763004709
 20
-39.8639351127
 30
0.0
 10
9.9347232151
 20
-40.0748545887
 30
0.0
 10
10.4716992525
 20
-40.3412651228
 30
0.0
 10
10.8626191281
 20
-40.5671287864
 30
0.0
  0
SPLINE
  5
31B
100
AcDbEntity
  8
RACCORDO
100
AcDbSpline
 62
250
  6
CONTINUOUS
 70
0
 71
3
 72
9
 73
5
 74
0
 42
0.0000001
 43
0.0000001
 44
0.0000000001
 40
0.0
 40
0.0
 40
0.0
 40
0.0
 40
0.2453554503
 40
1.0
 40
1.0
 40
1.0
 40
1.0
 10
10.9112824771
 20
-40.5954180868
 30
0.0
 10
11.053597584
 20
-40.6786559812
 30
0.0
 10
11.6256892258
 20
-41.0313786368
 30
0.0
 10
12.1651425931
 20
-41.4365282792
 30
0.0
 10
12.5507649716
 20
-41.7658302228
 30
0.0
  0
SPLINE
  5
31C
100
AcDbEntity
  8
RACCORDO
100
AcDbSpline
 62
250
  6
CONTINUOUS
 70
0
 71
3
 72
12
 73
8
 74
0
 42
0.0000001
 43
0.0000001
 44
0.0000000001
 40
0.0
 40
0.0
 40
0.0
 40
0.0
 40
0.2497808885
 40
0.4390142101
 40
0.6281294664
 40
0.8156037154
 40
1.0
 40
1.0
 40
1.0
 40
1.0
 10
12.5645642239
 20
-41.7776319842
 30
0.0
 10
12.9384487357
 20
-42.0978808609
 30
0.0
 10
13.562133282
 20
-42.7013604122
 30
0.0
 10
14.3579102062
 20
-43.6515073659
 30
0.0
 10
14.9954669351
 20
-44.5684630953
 30
0.0
 10
15.5395747055
 20
-45.5327296098
 30
0.0
 10
15.8372898411
 20
-46.2040431879
 30
0.0
 10
15.9669711284
 20
-46.5435424292
 30
0.0
  0
SPLINE
  5
31D
100
AcDbEntity
  8
RACCORDO
100
AcDbSpline
 62
250
  6
CONTINUOUS
 70
0
 71
3
 72
23
 73
19
 74
0
 42
0.0000001
 43
0.0000001
 44
0.0000000001
 40
0.0
 40
0.0
 40
0.0
 40
0.0
 40
0.0735016754
 40
0.1448727276
 40
0.2138116285
 40
0.2801809862
 40
0.3439649958
 40
0.4053488673
 40
0.4646650539
 40
0.5224026741
 40
0.579159364
 40
0.6355972573
 40
0.6923870374
 40
0.75015893
 40
0.8094405794
 40
0.8706652296
 40
0.9341270129
 40
1.0
 40
1.0
 40
1.0
 40
1.0
 10
16.0043721707
 20
-46.642986288
 30
0.0
 10
16.1208616806
 20
-46.9576259483
 30
0.0
 10
16.3201749886
 20
-47.5895517587
 30
0.0
 10
16.5161242273
 20
-48.5475556478
 30
0.0
 10
16.5989601734
 20
-49.4895262717
 30
0.0
 10
16.5687911325
 20
-50.400243573
 30
0.0
 10
16.4240056907
 20
-51.2652628595
 30
0.0
 10
16.1684497523
 20
-52.070819644
 30
0.0
 10
15.8059940558
 20
-52.8039636007
 30
0.0
 10
15.3433947372
 20
-53.4528331963
 30
0.0
 10
14.7896849059
 20
-54.0077409522
 30
0.0
 10
14.1541340552
 20
-54.4591502276
 30
0.0
 10
13.4489740423
 20
-54.8019452953
 30
0.0
 10
12.6854037163
 20
-55.0298037247
 30
0.0
 10
11.8763148397
 20
-55.1416513039
 30
0.0
 10
11.0338105057
 20
-55.1348656263
 30
0.0
 10
10.1704602363
 20
-55.0110301834
 30
0.0
 10
9.5995714014
 20
-54.8540500276
 30
0.0
 10
9.314698443
 20
-54.7578147342
 30
0.0
  0
SPLINE
  5
31E
100
AcDbEntity
  8
RACCORDO
100
AcDbSpline
 62
250
  6
CONTINUOUS
 70
0
 71
3
 72
20
 73
16
 74
0
 42
0.0000001
 43
0.0000001
 44
0.0000000001
 40
0.0
 40
0.0
 40
0.0
 40
0.0
 40
0.1333635081
 40
0.195890675
 40
0.2558651455
 40
0.3137392208
 40
0.3701410784
 40
0.4258334699
 40
0.4816422923
 40
0.5383725447
 40
0.5967423157
 40
0.6573152347
 40
0.720456315
 40
0.8548777313
 40
1.0
 40
1.0
 40
1.0
 40
1.0
 10
2.2330184152
 20
-44.6911985766
 30
0.0
 10
2.2330193186
 20
-44.1552422786
 30
0.0
 10
2.31173732
 20
-43.3627656632
 30
0.0
 10
2.6041595908
 20
-42.3745157758
 30
0.0
 10
2.9029211568
 20
-41.7113116112
 30
0.0
 10
3.2823092296
 20
-41.1195167456
 30
0.0
 10
3.7383994185
 20
-40.6071025045
 30
0.0
 10
4.2650980479
 20
-40.1804411045
 30
0.0
 10
4.8560475452
 20
-39.8458720109
 30
0.0
 10
5.5025413917
 20
-39.6057344451
 30
0.0
 10
6.1966848765
 20
-39.4634640616
 30
0.0
 10
6.929365816
 20
-39.4192655965
 30
0.0
 10
7.9667517178
 20
-39.490937741
 30
0.0
 10
9.3127653848
 20
-39.8334588832
 30
0.0
 10
10.3326284457
 20
-40.320612383
 30
0.0
 10
10.8363498793
 20
-40.6145527101
 30
0.0
  0
SPLINE
  5
31F
100
AcDbEntity
  8
RACCORDO
100
AcDbSpline
 62
250
  6
CONTINUOUS
 70
0
 71
3
 72
9
 73
5
 74
0
 42
0.0000001
 43
0.0000001
 44
0.0000000001
 40
0.0
 40
0.0
 40
0.0
 40
0.0
 40
0.494059235
 40
1.0
 40
1.0
 40
1.0
 40
1.0
 10
10.9113554528
 20
-40.6587412998
 30
0.0
 10
11.193236951
 20
-40.8263909037
 30
0.0
 10
11.7480547883
 20
-41.1926937724
 30
0.0
 10
12.2690216848
 20
-41.6055582954
 30
0.0
 10
12.5231543341
 20
-41.8251395399
 30
0.0
  0
SPLINE
  5
320
100
AcDbEntity
  8
RACCORDO
100
AcDbSpline
 62
250
  6
CONTINUOUS
 70
0
 71
3
 72
14
 73
10
 74
0
 42
0.0000001
 43
0.0000001
 44
0.0000000001
 40
0.0
 40
0.0
 40
0.0
 40
0.0
 40
0.1285564948
 40
0.2582716014
 40
0.3880041675
 40
0.516624535
 40
0.6430565648
 40
0.7663323385
 40
1.0
 40
1.0
 40
1.0
 40
1.0
 10
12.6112464894
 20
-41.902013965
 30
0.0
 10
12.897762371
 20
-42.1545308714
 30
0.0
 10
13.449256893
 20
-42.6898710867
 30
0.0
 10
14.1998137663
 20
-43.5667613069
 30
0.0
 10
14.8646624112
 20
-44.5107897038
 30
0.0
 10
15.430871473
 20
-45.5058350322
 30
0.0
 10
15.8860151823
 20
-46.53605316
 30
0.0
 10
16.3234768773
 20
-47.9052238454
 30
0.0
 10
16.4735704489
 20
-48.9695789866
 30
0.0
 10
16.4735705537
 20
-49.6637507521
 30
0.0
  0
SPLINE
  5
321
100
AcDbEntity
  8
RACCORDO
100
AcDbSpline
 62
250
  6
CONTINUOUS
 70
0
 71
3
 72
31
 73
27
 74
0
 42
0.0000001
 43
0.0000001
 44
0.0000000001
 40
0.0
 40
0.0
 40
0.0
 40
0.0
 40
0.0307756765
 40
0.0605858597
 40
0.0894835615
 40
0.1175513328
 40
0.1449162275
 40
0.171733614
 40
0.198188953
 40
0.2244805414
 40
0.2508125913
 40
0.2773805571
 40
0.3043648085
 40
0.3319278831
 40
0.3601942025
 40
0.3892677339
 40
0.4500117712
 40
0.5144148091
 40
0.5821404683
 40
0.6524475977
 40
0.6882685188
 40
0.7243096421
 40
0.7963304768
 40
0.8671503726
 40
0.9354148931
 40
1.0
 40
1.0
 40
1.0
 40
1.0
 10
16.4735705537
 20
-49.6637507521
 30
0.0
 10
16.4735707621
 20
-49.9041558861
 30
0.0
 10
16.4505864128
 20
-50.3778499719
 30
0.0
 10
16.3424047133
 20
-51.0697684193
 30
0.0
 10
16.1636535097
 20
-51.7251970397
 30
0.0
 10
15.9152797591
 20
-52.3370836861
 30
0.0
 10
15.6010899492
 20
-52.8994986508
 30
0.0
 10
15.2241491457
 20
-53.4064428647
 30
0.0
 10
14.789346845
 20
-53.8531237668
 30
0.0
 10
14.3016355236
 20
-54.2352963157
 30
0.0
 10
13.7661696525
 20
-54.5487078879
 30
0.0
 10
13.1894475379
 20
-54.7915273193
 30
0.0
 10
12.5771776014
 20
-54.9611891258
 30
0.0
 10
11.9355828759
 20
-55.0553253785
 30
0.0
 10
11.2711772476
 20
-55.0746491582
 30
0.0
 10
10.3502740831
 20
-54.9985946352
 30
0.0
 10
9.172186949
 20
-54.7074130986
 30
0.0
 10
7.7955222409
 20
-54.0768499312
 30
0.0
 10
6.4823571926
 20
-53.1838310506
 30
0.0
 10
5.4853346085
 20
-52.2538199533
 30
0.0
 10
4.7591136284
 20
-51.4125928731
 30
0.0
 10
4.085695473
 20
-50.5117115158
 30
0.0
 10
3.3685282542
 20
-49.3067428018
 30
0.0
 10
2.7280871699
 20
-47.7811399537
 30
0.0
 10
2.3301787781
 20
-46.2348979342
 30
0.0
 10
2.2330192633
 20
-45.1957071065
 30
0.0
 10
2.2330184152
 20
-44.6911985766
 30
0.0
  0
SPLINE
  5
322
100
AcDbEntity
  8
RACCORDO
100
AcDbSpline
 62
250
  6
CONTINUOUS
 70
0
 71
3
 72
9
 73
5
 74
0
 42
0.0000001
 43
0.0000001
 44
0.0000000001
 40
0.0
 40
0.0
 40
0.0
 40
0.0
 40
0.5508337778
 40
1.0
 40
1.0
 40
1.0
 40
1.0
 10
16.4735705537
 20
-49.6637507521
 30
0.0
 10
16.4572643616
 20
-49.6586601003
 30
0.0
 10
16.4283765745
 20
-49.6468405706
 30
0.0
 10
16.4031567493
 20
-49.6275276934
 30
0.0
 10
16.3943443277
 20
-49.6167401577
 30
0.0
  0
SPLINE
  5
323
100
AcDbEntity
  8
RACCORDO
100
AcDbSpline
 62
250
  6
CONTINUOUS
 70
0
 71
3
 72
9
 73
5
 74
0
 42
0.0000001
 43
0.0000001
 44
0.0000000001
 40
0.0
 40
0.0
 40
0.0
 40
0.0
 40
0.2339822395
 40
1.0
 40
1.0
 40
1.0
 40
1.0
 10
2.2330184152
 20
-44.6911985766
 30
0.0
 10
2.2401656519
 20
-44.693978386
 30
0.0
 10
2.2712702209
 20
-44.7044084325
 30
0.0
 10
2.3039855318
 20
-44.7096739609
 30
0.0
 10
2.3290347323
 20
-44.7113662984
 30
0.0
  0
SPLINE
  5
324
100
AcDbEntity
  8
RACCORDO
100
AcDbSpline
 62
250
  6
CONTINUOUS
 70
0
 71
3
 72
9
 73
5
 74
0
 42
0.0000001
 43
0.0000001
 44
0.0000000001
 40
0.0
 40
0.0
 40
0.0
 40
0.0
 40
0.2376478893
 40
1.0
 40
1.0
 40
1.0
 40
1.0
 10
3.7010171253
 20
-44.7809693913
 30
0.0
 10
3.6909211887
 20
-44.7841069102
 30
0.0
 10
3.6477140579
 20
-44.794911804
 30
0.0
 10
3.6025671179
 20
-44.7974068475
 30
0.0
 10
3.5687295466
 20
-44.7951207629
 30
0.0
  0
SPLINE
  5
325
100
AcDbEntity
  8
RACCORDO
100
AcDbSpline
 62
250
  6
CONTINUOUS
 70
0
 71
3
 72
11
 73
7
 74
0
 42
0.0000001
 43
0.0000001
 44
0.0000000001
 40
0.0
 40
0.0
 40
0.0
 40
0.0
 40
0.2189272819
 40
0.4767510058
 40
0.7470774622
 40
1.0
 40
1.0
 40
1.0
 40
1.0
 10
9.3511891048
 20
-39.562627888
 30
0.0
 10
9.3345546557
 20
-39.5750755131
 30
0.0
 10
9.303782559
 20
-39.6093205685
 30
0.0
 10
9.2691857202
 20
-39.6716158412
 30
0.0
 10
9.2456796096
 20
-39.7423385988
 30
0.0
 10
9.2391234387
 20
-39.7920363693
 30
0.0
 10
9.239122512
 20
-39.8160386575
 30
0.0
  0
SPLINE
  5
326
100
AcDbEntity
  8
RACCORDO
100
AcDbSpline
 62
250
  6
CONTINUOUS
 70
0
 71
3
 72
9
 73
5
 74
0
 42
0.0000001
 43
0.0000001
 44
0.0000000001
 40
0.0
 40
0.0
 40
0.0
 40
0.0
 40
0.5013851037
 40
1.0
 40
1.0
 40
1.0
 40
1.0
 10
-32.3679065936
 20
-18.7030800394
 30
0.0
 10
-32.4135439424
 20
-18.7200383361
 30
0.0
 10
-32.491905344
 20
-18.7871423063
 30
0.0
 10
-32.5283977057
 20
-18.8838619448
 30
0.0
 10
-32.5283963961
 20
-18.932279203
 30
0.0
  0
SPLINE
  5
327
100
AcDbEntity
  8
RACCORDO
100
AcDbSpline
 62
7
  6
CONTINUOUS
 70
0
 71
3
 72
9
 73
5
 74
0
 42
0.0000001
 43
0.0000001
 44
0.0000000001
 40
0.0
 40
0.0
 40
0.0
 40
0.0
 40
0.2571032989
 40
1.0
 40
1.0
 40
1.0
 40
1.0
 10
13.2560740919
 20
81.9523794835
 30
0.0
 10
10.6943037175
 20
83.1631743901
 30
0.0
 10
0.6458658679
 20
87.6899441442
 30
0.0
 10
-9.7480420337
 20
91.4639440892
 30
0.0
 10
-17.6109061782
 20
93.7460507614
 30
0.0
  0
SPLINE
  5
328
100
AcDbEntity
  8
RACCORDO
100
AcDbSpline
 62
7
  6
CONTINUOUS
 70
0
 71
3
 72
9
 73
5
 74
0
 42
0.0000001
 43
0.0000001
 44
0.0000000001
 40
0.0
 40
0.0
 40
0.0
 40
0.0
 40
0.508370548
 40
1.0
 40
1.0
 40
1.0
 40
1.0
 10
44.1143191285
 20
62.8854922564
 30
0.0
 10
39.0999264127
 20
66.4445146564
 30
0.0
 10
29.0210816851
 20
73.148066809
 30
0.0
 10
18.5218946392
 20
79.1755550621
 30
0.0
 10
13.2619485123
 20
81.9494440296
 30
0.0
  0
LINE
  5
329
100
AcDbEntity
  8
RACCORDO
100
AcDbLine
 62
250
  6
CONTINUOUS
 10
44.1734365819
 20
59.2984998329
 11
38.1005460482
 21
56.2686403391
  0
SPLINE
  5
32A
100
AcDbEntity
  8
RACCORDO
100
AcDbSpline
 62
250
  6
CONTINUOUS
 70
0
 71
3
 72
9
 73
5
 74
0
 42
0.0000001
 43
0.0000001
 44
0.0000000001
 40
0.0
 40
0.0
 40
0.0
 40
0.0
 40
0.4816556071
 40
1.0
 40
1.0
 40
1.0
 40
1.0
 10
-24.1311706935
 20
93.3976711404
 30
0.0
 10
-24.1149768333
 20
93.4036334494
 30
0.0
 10
-24.0787787914
 20
93.4097154056
 30
0.0
 10
-24.0428859313
 20
93.4033537893
 30
0.0
 10
-24.0251646106
 20
93.3978004509
 30
0.0
  0
SPLINE
  5
32B
100
AcDbEntity
  8
RACCORDO
100
AcDbSpline
 62
250
  6
CONTINUOUS
 70
0
 71
3
 72
11
 73
7
 74
0
 42
0.0000001
 43
0.0000001
 44
0.0000000001
 40
0.0
 40
0.0
 40
0.0
 40
0.0
 40
0.2150968824
 40
0.4466670986
 40
0.706630105
 40
1.0
 40
1.0
 40
1.0
 40
1.0
 10
44.1142970751
 20
62.8855055746
 30
0.0
 10
44.1042950402
 20
62.8925966367
 30
0.0
 10
44.080780356
 20
62.9037398597
 30
0.0
 10
44.0402760879
 20
62.908730837
 30
0.0
 10
43.9955623115
 20
62.9027834954
 30
0.0
 10
43.9655445793
 20
62.8925194801
 30
0.0
 10
43.9501630008
 20
62.8859588725
 30
0.0
  0
SPLINE
  5
32C
100
AcDbEntity
  8
RACCORDO
100
AcDbSpline
 62
250
  6
CONTINUOUS
 70
0
 71
3
 72
13
 73
9
 74
0
 42
0.0000001
 43
0.0000001
 44
0.0000000001
 40
0.0
 40
0.0
 40
0.0
 40
0.0
 40
0.1139904644
 40
0.2276121242
 40
0.3429097458
 40
0.4618051614
 40
0.7160893093
 40
1.0
 40
1.0
 40
1.0
 40
1.0
 10
45.6301090157
 20
60.5173119763
 30
0.0
 10
45.6301055959
 20
60.4342764166
 30
0.0
 10
45.6169623116
 20
60.2681373317
 30
0.0
 10
45.5565221239
 20
60.0246635763
 30
0.0
 10
45.4560276065
 20
59.7908850339
 30
0.0
 10
45.2659440411
 20
59.4885835149
 30
0.0
 10
44.9242663768
 20
59.1448056575
 30
0.0
 10
44.5882754447
 20
58.9369366135
 30
0.0
 10
44.403658814
 20
58.843725995
 30
0.0
  0
SPLINE
  5
32D
100
AcDbEntity
  8
RACCORDO
100
AcDbSpline
 62
250
  6
CONTINUOUS
 70
0
 71
3
 72
11
 73
7
 74
0
 42
0.0000001
 43
0.0000001
 44
0.0000000001
 40
0.0
 40
0.0
 40
0.0
 40
0.0
 40
0.2200757718
 40
0.4552893019
 40
0.7142772501
 40
1.0
 40
1.0
 40
1.0
 40
1.0
 10
38.2391829824
 20
-88.0564676625
 30
0.0
 10
38.2539661828
 20
-88.0472622257
 30
0.0
 10
38.2814453924
 20
-88.022816654
 30
0.0
 10
38.3105377231
 20
-87.9735146545
 30
0.0
 10
38.3275770394
 20
-87.9136368554
 30
0.0
 10
38.3305702723
 20
-87.8703406305
 30
0.0
 10
38.3302700369
 20
-87.8477328262
 30
0.0
  0
SPLINE
  5
32E
100
AcDbEntity
  8
RACCORDO
100
AcDbSpline
 62
250
  6
CONTINUOUS
 70
0
 71
3
 72
11
 73
7
 74
0
 42
0.0000001
 43
0.0000001
 44
0.0000000001
 40
0.0
 40
0.0
 40
0.0
 40
0.0
 40
0.2420307464
 40
0.5007209559
 40
0.7590239586
 40
1.0
 40
1.0
 40
1.0
 40
1.0
 10
38.3302700369
 20
55.814230456
 30
0.0
 10
38.3311899797
 20
55.8567064253
 30
0.0
 10
38.3198427641
 20
55.9450529984
 30
0.0
 10
38.2725834814
 20
56.0707091925
 30
0.0
 10
38.1995369773
 20
56.1831288883
 30
0.0
 10
38.1352159506
 20
56.2444049409
 30
0.0
 10
38.1005460481
 20
56.2686403391
 30
0.0
  0
SPLINE
  5
32F
100
AcDbEntity
  8
RACCORDO
100
AcDbSpline
 62
250
  6
CONTINUOUS
 70
0
 71
3
 72
10
 73
6
 74
0
 42
0.0000001
 43
0.0000001
 44
0.0000000001
 40
0.0
 40
0.0
 40
0.0
 40
0.0
 40
0.24336961
 40
0.6310677214
 40
1.0
 40
1.0
 40
1.0
 40
1.0
 10
44.4036588139
 20
58.843725995
 30
0.0
 10
44.4054889389
 20
58.8864981399
 30
0.0
 10
44.3929920287
 20
58.9983443632
 30
0.0
 10
44.3211181972
 20
59.1624324472
 30
0.0
 10
44.2274552198
 20
59.26252933
 30
0.0
 10
44.1734365819
 20
59.2984998329
 30
0.0
  0
SPLINE
  5
330
100
AcDbEntity
  8
RACCORDO
100
AcDbSpline
 62
250
  6
CONTINUOUS
 70
0
 71
3
 72
9
 73
5
 74
0
 42
0.0000001
 43
0.0000001
 44
0.0000000001
 40
0.0
 40
0.0
 40
0.0
 40
0.0
 40
0.5195492497
 40
1.0
 40
1.0
 40
1.0
 40
1.0
 10
-31.0122974259
 20
90.8250620761
 30
0.0
 10
-31.0305157588
 20
90.8303260997
 30
0.0
 10
-31.0671299299
 20
90.8361760676
 30
0.0
 10
-31.1039360456
 20
90.829891611
 30
0.0
 10
-31.1203969894
 20
90.8238446501
 30
0.0
  0
SPLINE
  5
331
100
AcDbEntity
  8
RACCORDO
100
AcDbSpline
 62
7
  6
CONTINUOUS
 70
0
 71
3
 72
9
 73
5
 74
0
 42
0.0000001
 43
0.0000001
 44
0.0000000001
 40
0.0
 40
0.0
 40
0.0
 40
0.0
 40
0.5306562999
 40
1.0
 40
1.0
 40
1.0
 40
1.0
 10
13.0999309122
 20
81.9485942364
 30
0.0
 10
13.1260310979
 20
81.9594084866
 30
0.0
 10
13.1788593825
 20
81.9731276544
 30
0.0
 10
13.2334814285
 20
81.9630544925
 30
0.0
 10
13.2560718508
 20
81.9523749072
 30
0.0
  0
SPLINE
  5
332
100
AcDbEntity
  8
RACCORDO
100
AcDbSpline
 62
7
  6
CONTINUOUS
 70
0
 71
3
 72
9
 73
5
 74
0
 42
0.0000001
 43
0.0000001
 44
0.0000000001
 40
0.0
 40
0.0
 40
0.0
 40
0.0
 40
0.4657629705
 40
1.0
 40
1.0
 40
1.0
 40
1.0
 10
3.5441243111
 20
77.989277562
 30
0.0
 10
3.5154441449
 20
77.9773943288
 30
0.0
 10
3.4619338472
 20
77.9333827864
 30
0.0
 10
3.4271547765
 20
77.8752767651
 30
0.0
 10
3.4138730089
 20
77.842237956
 30
0.0
  0
SPLINE
  5
333
100
AcDbEntity
  8
RACCORDO
100
AcDbSpline
 62
250
  6
CONTINUOUS
 70
0
 71
3
 72
10
 73
6
 74
0
 42
0.0000001
 43
0.0000001
 44
0.0000000001
 40
0.0
 40
0.0
 40
0.0
 40
0.0
 40
0.5256250423
 40
0.7781930383
 40
1.0
 40
1.0
 40
1.0
 40
1.0
 10
37.9423452541
 20
56.0984252172
 30
0.0
 10
37.9590868224
 20
56.1363166195
 30
0.0
 10
37.9941296774
 20
56.1884689838
 30
0.0
 10
38.0522525759
 20
56.2419598461
 30
0.0
 10
38.0844747393
 20
56.2617633285
 30
0.0
 10
38.1005460481
 20
56.2686403391
 30
0.0
  0
SPLINE
  5
334
100
AcDbEntity
  8
RACCORDO
100
AcDbSpline
 62
250
  6
CONTINUOUS
 70
0
 71
3
 72
10
 73
6
 74
0
 42
0.0000001
 43
0.0000001
 44
0.0000000001
 40
0.0
 40
0.0
 40
0.0
 40
0.0
 40
0.5252470779
 40
0.7780849942
 40
1.0
 40
1.0
 40
1.0
 40
1.0
 10
38.0988612599
 20
55.7882860814
 30
0.0
 10
38.1393505616
 20
55.7793877412
 30
0.0
 10
38.2021657678
 20
55.7767282014
 30
0.0
 10
38.2798624469
 20
55.7915328086
 30
0.0
 10
38.3150875298
 20
55.8054977199
 30
0.0
 10
38.3302700369
 20
55.8142304564
 30
0.0
  0
SPLINE
  5
335
100
AcDbEntity
  8
RACCORDO
100
AcDbSpline
 62
250
  6
CONTINUOUS
 70
0
 71
3
 72
9
 73
5
 74
0
 42
0.0000001
 43
0.0000001
 44
0.0000000001
 40
0.0
 40
0.0
 40
0.0
 40
0.0
 40
0.5338261312
 40
1.0
 40
1.0
 40
1.0
 40
1.0
 10
38.1535690015
 20
-87.8812940395
 30
0.0
 10
38.1858138805
 20
-87.8833836546
 30
0.0
 10
38.2467540474
 20
-87.8801248712
 30
0.0
 10
38.3058100361
 20
-87.8618018322
 30
0.0
 10
38.3302700369
 20
-87.8477328262
 30
0.0
  0
SPLINE
  5
336
100
AcDbEntity
  8
RACCORDO
100
AcDbSpline
 62
250
  6
CONTINUOUS
 70
0
 71
3
 72
9
 73
5
 74
0
 42
0.0000001
 43
0.0000001
 44
0.0000000001
 40
0.0
 40
0.0
 40
0.0
 40
0.0
 40
0.2539031812
 40
1.0
 40
1.0
 40
1.0
 40
1.0
 10
-31.122686045
 20
90.6968553454
 30
0.0
 10
-31.1209441401
 20
90.7016454779
 30
0.0
 10
-31.113575951
 20
90.7203210597
 30
0.0
 10
-31.1042033431
 20
90.738220844
 30
0.0
 10
-31.0960972099
 20
90.7508152951
 30
0.0
  0
SPLINE
  5
337
100
AcDbEntity
  8
RACCORDO
100
AcDbSpline
 62
250
  6
CONTINUOUS
 70
0
 71
3
 72
9
 73
5
 74
0
 42
0.0000001
 43
0.0000001
 44
0.0000000001
 40
0.0
 40
0.0
 40
0.0
 40
0.0
 40
0.2715055829
 40
1.0
 40
1.0
 40
1.0
 40
1.0
 10
-31.0960972099
 20
90.7508152951
 30
0.0
 10
-31.0905682105
 20
90.7594056685
 30
0.0
 10
-31.0683816916
 20
90.7897000132
 30
0.0
 10
-31.0377117229
 20
90.8147921284
 30
0.0
 10
-31.0122974259
 20
90.8250620761
 30
0.0
  0
SPLINE
  5
338
100
AcDbEntity
  8
RACCORDO
100
AcDbSpline
 62
250
  6
CONTINUOUS
 70
0
 71
3
 72
11
 73
7
 74
0
 42
0.0000001
 43
0.0000001
 44
0.0000000001
 40
0.0
 40
0.0
 40
0.0
 40
0.0
 40
0.2228022303
 40
0.4585089453
 40
0.7164220036
 40
1.0
 40
1.0
 40
1.0
 40
1.0
 10
44.3128367128
 20
-84.2837030536
 30
0.0
 10
44.3278230528
 20
-84.274399435
 30
0.0
 10
44.3556062076
 20
-84.2498893438
 30
0.0
 10
44.3849610242
 20
-84.2004816013
 30
0.0
 10
44.4017291907
 20
-84.140685883
 30
0.0
 10
44.4042602092
 20
-84.0975762273
 30
0.0
 10
44.403658814
 20
-84.0751332522
 30
0.0
  0
SPLINE
  5
339
100
AcDbEntity
  8
RACCORDO
100
AcDbSpline
 62
250
  6
CONTINUOUS
 70
0
 71
3
 72
12
 73
8
 74
0
 42
0.0000001
 43
0.0000001
 44
0.0000000001
 40
0.0
 40
0.0
 40
0.0
 40
0.0
 40
0.1056048438
 40
0.2138947541
 40
0.4452866891
 40
0.7057541367
 40
1.0
 40
1.0
 40
1.0
 40
1.0
 10
45.6299725935
 20
-82.3654712669
 30
0.0
 10
45.6288781678
 20
-82.4425483683
 30
0.0
 10
45.6131646861
 20
-82.5987814754
 30
0.0
 10
45.5272522605
 20
-82.913565874
 30
0.0
 10
45.3123502331
 20
-83.3027960156
 30
0.0
 10
44.9166313592
 20
-83.7240109416
 30
0.0
 10
44.5864051223
 20
-83.9622854528
 30
0.0
 10
44.403658814
 20
-84.0751332522
 30
0.0
  0
SPLINE
  5
33A
100
AcDbEntity
  8
RACCORDO
100
AcDbSpline
 62
250
  6
CONTINUOUS
 70
0
 71
3
 72
9
 73
5
 74
0
 42
0.0000001
 43
0.0000001
 44
0.0000000001
 40
0.0
 40
0.0
 40
0.0
 40
0.0
 40
0.4849395598
 40
1.0
 40
1.0
 40
1.0
 40
1.0
 10
-17.6109061493
 20
93.7460508611
 30
0.0
 10
-17.6329107608
 20
93.7524396294
 30
0.0
 10
-17.6810930537
 20
93.7571517049
 30
0.0
 10
-17.7277436509
 20
93.7453246092
 30
0.0
 10
-17.7503011763
 20
93.736190961
 30
0.0
  0
LINE
  5
33B
100
AcDbEntity
  8
RACCORDO
100
AcDbLine
 62
250
  6
CONTINUOUS
 10
44.403658814
 20
58.843725995
 11
38.3302700369
 21
55.814230456
  0
SPLINE
  5
33C
100
AcDbEntity
  8
RACCORDO
100
AcDbSpline
 62
250
  6
CONTINUOUS
 70
0
 71
3
 72
9
 73
5
 74
0
 42
0.0000001
 43
0.0000001
 44
0.0000000001
 40
0.0
 40
0.0
 40
0.0
 40
0.0
 40
0.2580069943
 40
1.0
 40
1.0
 40
1.0
 40
1.0
 10
3.5441243111
 20
77.989277562
 30
0.0
 10
0.6758104169
 20
79.3452280365
 30
0.0
 10
-10.5462291306
 20
84.3731599663
 30
0.0
 10
-22.1999919322
 20
88.4599770577
 30
0.0
 10
-31.0122974259
 20
90.8250620761
 30
0.0
  0
LINE
  5
33D
100
AcDbEntity
  8
RACCORDO
100
AcDbLine
 62
250
  6
CONTINUOUS
 10
-31.0122974259
 20
90.8250620761
 11
-24.1185842424
 21
93.3634079174
  0
SPLINE
  5
33E
100
AcDbEntity
  8
RACCORDO
100
AcDbSpline
 62
250
  6
CONTINUOUS
 70
0
 71
3
 72
15
 73
11
 74
0
 42
0.0000001
 43
0.0000001
 44
0.0000000001
 40
0.0
 40
0.0
 40
0.0
 40
0.0
 40
0.116008128
 40
0.2428094782
 40
0.3764335446
 40
0.5125659016
 40
0.6468648484
 40
0.7752179829
 40
0.8939467434
 40
1.0
 40
1.0
 40
1.0
 40
1.0
 10
-24.0251646087
 20
93.3978004283
 30
0.0
 10
-23.7941090134
 20
93.482858965
 30
0.0
 10
-23.3011777543
 20
93.6359324875
 30
0.0
 10
-22.5212452271
 20
93.8120917027
 30
0.0
 10
-21.6887399925
 20
93.9401714892
 30
0.0
 10
-20.8338526741
 20
94.0150633928
 30
0.0
 10
-19.9870634972
 20
94.0338154732
 30
0.0
 10
-19.1777703566
 20
93.9957320911
 30
0.0
 10
-18.433348622
 20
93.9023117154
 30
0.0
 10
-17.9664683462
 20
93.7989260026
 30
0.0
 10
-17.7503011763
 20
93.736190961
 30
0.0
  0
SPLINE
  5
33F
100
AcDbEntity
  8
RACCORDO
100
AcDbSpline
 62
250
  6
CONTINUOUS
 70
0
 71
3
 72
9
 73
5
 74
0
 42
0.0000001
 43
0.0000001
 44
0.0000000001
 40
0.0
 40
0.0
 40
0.0
 40
0.0
 40
0.2431462648
 40
1.0
 40
1.0
 40
1.0
 40
1.0
 10
-17.624982901
 20
93.6997710695
 30
0.0
 10
-15.0635040177
 20
92.9543815522
 30
0.0
 10
-4.5952318217
 20
89.6624490865
 30
0.0
 10
5.5923054502
 20
85.4970568039
 30
0.0
 10
13.0999309122
 20
81.9485942364
 30
0.0
  0
SPLINE
  5
340
100
AcDbEntity
  8
RACCORDO
100
AcDbSpline
 62
250
  6
CONTINUOUS
 70
0
 71
3
 72
9
 73
5
 74
0
 42
0.0000001
 43
0.0000001
 44
0.0000000001
 40
0.0
 40
0.0
 40
0.0
 40
0.0
 40
0.507980692
 40
1.0
 40
1.0
 40
1.0
 40
1.0
 10
32.8567920826
 20
60.021423608
 30
0.0
 10
28.0846754391
 20
63.3609079903
 30
0.0
 10
18.4977251153
 20
69.6647200565
 30
0.0
 10
8.5344572369
 20
75.3580463763
 30
0.0
 10
3.5441243111
 20
77.989277562
 30
0.0
  0
SPLINE
  5
341
100
AcDbEntity
  8
RACCORDO
100
AcDbSpline
 62
250
  6
CONTINUOUS
 70
0
 71
3
 72
9
 73
5
 74
0
 42
0.0000001
 43
0.0000001
 44
0.0000000001
 40
0.0
 40
0.0
 40
0.0
 40
0.0
 40
0.4916353405
 40
1.0
 40
1.0
 40
1.0
 40
1.0
 10
13.2257516248
 20
81.8821963331
 30
0.0
 10
18.4632213286
 20
79.1163694402
 30
0.0
 10
28.9180411571
 20
73.1087511041
 30
0.0
 10
38.9558230738
 20
66.4307485769
 30
0.0
 10
43.9501630008
 20
62.8859588725
 30
0.0
  0
SPLINE
  5
342
100
AcDbEntity
  8
RACCORDO
100
AcDbSpline
 62
250
  6
CONTINUOUS
 70
0
 71
3
 72
18
 73
14
 74
0
 42
0.0000001
 43
0.0000001
 44
0.0000000001
 40
0.0
 40
0.0
 40
0.0
 40
0.0
 40
0.1538938154
 40
0.2927582387
 40
0.4171757001
 40
0.474949552
 40
0.5304964726
 40
0.5846379246
 40
0.6383216864
 40
0.692547022
 40
0.7482766514
 40
0.867177839
 40
1.0
 40
1.0
 40
1.0
 40
1.0
 10
44.0840223525
 20
62.787667895
 30
0.0
 10
44.2631476221
 20
62.6515607427
 30
0.0
 10
44.5872908369
 20
62.369027015
 30
0.0
 10
44.9744231238
 20
61.8935316223
 30
0.0
 10
45.1886872707
 20
61.4700755551
 30
0.0
 10
45.2786536304
 20
61.1332422759
 30
0.0
 10
45.306182667
 20
60.8889952405
 30
0.0
 10
45.2947030237
 20
60.6493754401
 30
0.0
 10
45.2440344896
 20
60.4168295664
 30
0.0
 10
45.1545416715
 20
60.193807883
 30
0.0
 10
44.9811664285
 20
59.9061739718
 30
0.0
 10
44.6630587818
 20
59.5799718664
 30
0.0
 10
44.347180442
 20
59.3851790493
 30
0.0
 10
44.1734365819
 20
59.2984998329
 30
0.0
  0
SPLINE
  5
343
100
AcDbEntity
  8
CURVE
100
AcDbSpline
 62
250
  6
CONTINUOUS
 70
0
 71
3
 72
24
 73
20
 74
0
 42
0.0000001
 43
0.0000001
 44
0.0000000001
 40
0.0
 40
0.0
 40
0.0
 40
0.0
 40
0.25
 40
0.375
 40
0.4375
 40
0.5
 40
0.5625
 40
0.59375
 40
0.625
 40
0.640625
 40
0.65625
 40
0.6640625
 40
0.671875
 40
0.6875
 40
0.71875
 40
0.75
 40
0.8125
 40
0.875
 40
1.0
 40
1.0
 40
1.0
 40
1.0
 10
7.4692627983
 20
-81.2888554703
 30
0.0
 10
7.5888742156
 20
-81.3316943935
 30
0.0
 10
7.7682628685
 20
-81.3959733497
 30
0.0
 10
7.9776492856
 20
-81.4708934654
 30
0.0
 10
8.0976038162
 20
-81.5134942841
 30
0.0
 10
8.1875208214
 20
-81.5454704319
 30
0.0
 10
8.262487489
 20
-81.5721198908
 30
0.0
 10
8.3223992778
 20
-81.5934202853
 30
0.0
 10
8.359980094
 20
-81.6067796288
 30
0.0
 10
8.3897338576
 20
-81.6173600641
 30
0.0
 10
8.4090392092
 20
-81.6242171365
 30
0.0
 10
8.4228590143
 20
-81.6291432334
 30
0.0
 10
8.4426093249
 20
-81.6361121344
 30
0.0
 10
8.4799273404
 20
-81.6492566808
 30
0.0
 10
8.5318013829
 20
-81.6675394788
 30
0.0
 10
8.6156031582
 20
-81.6970686604
 30
0.0
 10
8.720080206
 20
-81.7338853527
 30
0.0
 10
8.8873979646
 20
-81.7928452728
 30
0.0
 10
9.0128515251
 20
-81.8370532401
 30
0.0
 10
9.0964949562
 20
-81.866527879
 30
0.0
  0
SPLINE
  5
344
100
AcDbEntity
  8
CURVE
100
AcDbSpline
 62
250
  6
CONTINUOUS
 70
0
 71
3
 72
15
 73
11
 74
0
 42
0.0000001
 43
0.0000001
 44
0.0000000001
 40
0.0
 40
0.0
 40
0.0
 40
0.0
 40
0.25
 40
0.375
 40
0.4375
 40
0.5
 40
0.5625
 40
0.625
 40
0.75
 40
1.0
 40
1.0
 40
1.0
 40
1.0
 10
8.3967635405
 20
-81.9444330666
 30
0.0
 10
8.3168363392
 20
-81.9160042469
 30
0.0
 10
8.1970730601
 20
-81.8734017676
 30
0.0
 10
8.0569029045
 20
-81.8235562492
 30
0.0
 10
7.9774432871
 20
-81.7952768471
 30
0.0
 10
7.9160632538
 20
-81.7734967919
 30
0.0
 10
7.8615056943
 20
-81.7538968755
 30
0.0
 10
7.7863818546
 20
-81.7270029822
 30
0.0
 10
7.6560309603
 20
-81.6802952336
 30
0.0
 10
7.5439190537
 20
-81.6401377698
 30
0.0
 10
7.4692627979
 20
-81.6133932941
 30
0.0
  0
SPLINE
  5
345
100
AcDbEntity
  8
CURVE
100
AcDbSpline
 62
250
  6
CONTINUOUS
 70
0
 71
3
 72
15
 73
11
 74
0
 42
0.0000001
 43
0.0000001
 44
0.0000000001
 40
0.0
 40
0.0
 40
0.0
 40
0.0
 40
0.25
 40
0.375
 40
0.4375
 40
0.5
 40
0.5625
 40
0.625
 40
0.75
 40
1.0
 40
1.0
 40
1.0
 40
1.0
 10
7.4692627983
 20
-82.2624698081
 30
0.0
 10
7.5490037432
 20
-82.2910290902
 30
0.0
 10
7.66849665
 20
-82.3338209505
 30
0.0
 10
7.8083198278
 20
-82.3839095077
 30
0.0
 10
7.8876262343
 20
-82.4122962257
 30
0.0
 10
7.9487651857
 20
-82.4342451455
 30
0.0
 10
8.0035638271
 20
-82.4536761973
 30
0.0
 10
8.0788408777
 20
-82.4804627747
 30
0.0
 10
8.2095387498
 20
-82.5269274844
 30
0.0
 10
8.3219210286
 20
-82.5668955673
 30
0.0
 10
8.3967635409
 20
-82.5935095806
 30
0.0
  0
SPLINE
  5
346
100
AcDbEntity
  8
CURVE
100
AcDbSpline
 62
250
  6
CONTINUOUS
 70
0
 71
3
 72
32
 73
28
 74
0
 42
0.0000001
 43
0.0000001
 44
0.0000000001
 40
0.0
 40
0.0
 40
0.0
 40
0.0
 40
0.125
 40
0.25
 40
0.375
 40
0.4375
 40
0.5
 40
0.5625
 40
0.625
 40
0.65625
 40
0.6875
 40
0.703125
 40
0.71875
 40
0.734375
 40
0.7421875
 40
0.74609375
 40
0.75
 40
0.75390625
 40
0.7578125
 40
0.765625
 40
0.78125
 40
0.796875
 40
0.8125
 40
0.84375
 40
0.875
 40
0.9375
 40
1.0
 40
1.0
 40
1.0
 40
1.0
 10
9.6426772062
 20
-84.0044275829
 30
0.0
 10
9.7233099516
 20
-84.0323538655
 30
0.0
 10
9.8846237348
 20
-84.0881714462
 30
0.0
 10
10.1263046544
 20
-84.1721077242
 30
0.0
 10
10.3285505403
 20
-84.2414423942
 30
0.0
 10
10.4902140749
 20
-84.2970064198
 30
0.0
 10
10.6113541766
 20
-84.3387579074
 30
0.0
 10
10.7329910624
 20
-84.3801473763
 30
0.0
 10
10.8342399542
 20
-84.4147206461
 30
0.0
 10
10.9152671069
 20
-84.4423633615
 30
0.0
 10
10.9658965691
 20
-84.4596387868
 30
0.0
 10
11.0064231487
 20
-84.4734661545
 30
0.0
 10
11.036756559
 20
-84.483816361
 30
0.0
 10
11.0622298948
 20
-84.4925063361
 30
0.0
 10
11.0796776096
 20
-84.4984621219
 30
0.0
 10
11.0902467188
 20
-84.5020640389
 30
0.0
 10
11.096486197
 20
-84.504205986
 30
0.0
 10
11.109175597
 20
-84.5084865903
 30
0.0
 10
11.123844992
 20
-84.5134480751
 30
0.0
 10
11.150564659
 20
-84.5224782429
 30
0.0
 10
11.1881875876
 20
-84.5351967695
 30
0.0
 10
11.2335696738
 20
-84.5505367804
 30
0.0
 10
11.2939971908
 20
-84.5709629616
 30
0.0
 10
11.3695596413
 20
-84.5965049904
 30
0.0
 10
11.4904438775
 20
-84.6373670357
 30
0.0
 10
11.6415545902
 20
-84.6884463886
 30
0.0
 10
11.7624415093
 20
-84.7293093235
 30
0.0
 10
11.8228851752
 20
-84.7497408594
 30
0.0
  0
SPLINE
  5
347
100
AcDbEntity
  8
CURVE
100
AcDbSpline
 62
250
  6
CONTINUOUS
 70
0
 71
3
 72
17
 73
13
 74
0
 42
0.0000001
 43
0.0000001
 44
0.0000000001
 40
0.0
 40
0.0
 40
0.0
 40
0.0
 40
0.25
 40
0.375
 40
0.5
 40
0.5625
 40
0.625
 40
0.65625
 40
0.6875
 40
0.75
 40
0.875
 40
1.0
 40
1.0
 40
1.0
 40
1.0
 10
11.8228851895
 20
-84.1006652163
 30
0.0
 10
11.700925116
 20
-84.0595151101
 30
0.0
 10
11.5179566773
 20
-83.9978245021
 30
0.0
 10
11.2741120731
 20
-83.9154321526
 30
0.0
 10
11.1221931852
 20
-83.8636933391
 30
0.0
 10
11.0003322442
 20
-83.8222836398
 30
0.0
 10
10.9247417378
 20
-83.7965709963
 30
0.0
 10
10.8629765943
 20
-83.7756013392
 30
0.0
 10
10.8059243392
 20
-83.7560951166
 30
0.0
 10
10.7082732879
 20
-83.7226397033
 30
0.0
 10
10.5676189465
 20
-83.6744881103
 30
0.0
 10
10.455446815
 20
-83.6360759849
 30
0.0
 10
10.3993168315
 20
-83.6168562786
 30
0.0
  0
SPLINE
  5
348
100
AcDbEntity
  8
CURVE
100
AcDbSpline
 62
250
  6
CONTINUOUS
 70
0
 71
3
 72
22
 73
18
 74
0
 42
0.0000001
 43
0.0000001
 44
0.0000000001
 40
0.0
 40
0.0
 40
0.0
 40
0.0
 40
0.25
 40
0.375
 40
0.5
 40
0.5625
 40
0.625
 40
0.6875
 40
0.71875
 40
0.734375
 40
0.75
 40
0.765625
 40
0.78125
 40
0.8125
 40
0.875
 40
0.9375
 40
1.0
 40
1.0
 40
1.0
 40
1.0
 10
9.3590304081
 20
-81.9583791784
 30
0.0
 10
9.5200665093
 20
-82.014396963
 30
0.0
 10
9.7612123494
 20
-82.098716745
 30
0.0
 10
10.084373383
 20
-82.2099707006
 30
0.0
 10
10.2858721518
 20
-82.2798364524
 30
0.0
 10
10.4478073605
 20
-82.335225288
 30
0.0
 10
10.5690828932
 20
-82.3768096305
 30
0.0
 10
10.6704253359
 20
-82.4115307658
 30
0.0
 10
10.7408550432
 20
-82.4356750876
 30
0.0
 10
10.7818910308
 20
-82.4497266843
 30
0.0
 10
10.8104424147
 20
-82.4595467073
 30
0.0
 10
10.8475010054
 20
-82.4721140076
 30
0.0
 10
10.8939450451
 20
-82.487912125
 30
0.0
 10
10.9766047442
 20
-82.5160053306
 30
0.0
 10
11.0939667214
 20
-82.5559048999
 30
0.0
 10
11.2351126725
 20
-82.6038850028
 30
0.0
 10
11.329150625
 20
-82.6358525723
 30
0.0
 10
11.3761770198
 20
-82.6518387528
 30
0.0
  0
SPLINE
  5
349
100
AcDbEntity
  8
CURVE
100
AcDbSpline
 62
250
  6
CONTINUOUS
 70
0
 71
3
 72
12
 73
8
 74
0
 42
0.0000001
 43
0.0000001
 44
0.0000000001
 40
0.0
 40
0.0
 40
0.0
 40
0.0
 40
0.25
 40
0.5
 40
0.625
 40
0.75
 40
1.0
 40
1.0
 40
1.0
 40
1.0
 10
11.7716585292
 20
-82.1362113797
 30
0.0
 10
11.5684419785
 20
-82.06759066
 30
0.0
 10
11.161966846
 20
-81.9304594575
 30
0.0
 10
10.6555239863
 20
-81.7574314874
 30
0.0
 10
10.2516663447
 20
-81.6188942834
 30
0.0
 10
9.8459417839
 20
-81.4787167544
 30
0.0
 10
9.5543175504
 20
-81.3772433724
 30
0.0
 10
9.3590303262
 20
-81.309303502
 30
0.0
  0
SPLINE
  5
34A
100
AcDbEntity
  8
CURVE
100
AcDbSpline
 62
250
  6
CONTINUOUS
 70
0
 71
3
 72
22
 73
18
 74
0
 42
0.0000001
 43
0.0000001
 44
0.0000000001
 40
0.0
 40
0.0
 40
0.0
 40
0.0
 40
0.25
 40
0.375
 40
0.5
 40
0.5625
 40
0.625
 40
0.6875
 40
0.75
 40
0.78125
 40
0.796875
 40
0.8125
 40
0.828125
 40
0.84375
 40
0.875
 40
0.9375
 40
1.0
 40
1.0
 40
1.0
 40
1.0
 10
16.2071073038
 20
-84.5519006087
 30
0.0
 10
15.999684674
 20
-84.4865017712
 30
0.0
 10
15.6885436386
 20
-84.3884115691
 30
0.0
 10
15.2745413864
 20
-84.2569414974
 30
0.0
 10
15.0164176392
 20
-84.174297388
 30
0.0
 10
14.8098564176
 20
-84.1081946862
 30
0.0
 10
14.6551598955
 20
-84.0585403533
 30
0.0
 10
14.5004300766
 20
-84.0085409269
 30
0.0
 10
14.3724540142
 20
-83.9672794393
 30
0.0
 10
14.2808578859
 20
-83.9376975041
 30
0.0
 10
14.2316782644
 20
-83.9218702346
 30
0.0
 10
14.1858855885
 20
-83.9069693861
 30
0.0
 10
14.1402061821
 20
-83.8921071191
 30
0.0
 10
14.0792607964
 20
-83.8722773051
 30
0.0
 10
13.9726247881
 20
-83.8375814036
 30
0.0
 10
13.8202779405
 20
-83.7880125285
 30
0.0
 10
13.6984034164
 20
-83.7483584346
 30
0.0
 10
13.6374657851
 20
-83.7285312618
 30
0.0
  0
SPLINE
  5
34B
100
AcDbEntity
  8
CURVE
100
AcDbSpline
 62
250
  6
CONTINUOUS
 70
0
 71
3
 72
34
 73
30
 74
0
 42
0.0000001
 43
0.0000001
 44
0.0000000001
 40
0.0
 40
0.0
 40
0.0
 40
0.0
 40
0.125
 40
0.25
 40
0.375
 40
0.4375
 40
0.5
 40
0.5625
 40
0.625
 40
0.6875
 40
0.71875
 40
0.75
 40
0.765625
 40
0.7734375
 40
0.78125
 40
0.7890625
 40
0.79296875
 40
0.796875
 40
0.80078125
 40
0.802734375
 40
0.8046875
 40
0.8125
 40
0.828125
 40
0.84375
 40
0.859375
 40
0.875
 40
0.90625
 40
0.9375
 40
1.0
 40
1.0
 40
1.0
 40
1.0
 10
16.0931300918
 20
-83.5424580785
 30
0.0
 10
15.9894710327
 20
-83.509717262
 30
0.0
 10
15.7820926849
 20
-83.4442830578
 30
0.0
 10
15.4713865408
 20
-83.3458471786
 30
0.0
 10
15.2127859666
 20
-83.2635629678
 30
0.0
 10
15.0061916158
 20
-83.1975123487
 30
0.0
 10
14.8514393122
 20
-83.1478230043
 30
0.0
 10
14.6965997918
 20
-83.0982016597
 30
0.0
 10
14.541915679
 20
-83.0484596959
 30
0.0
 10
14.4132620754
 20
-83.0068137124
 30
0.0
 10
14.3102875633
 20
-82.973537898
 30
0.0
 10
14.2459326542
 20
-82.9527352563
 30
0.0
 10
14.2008867738
 20
-82.9381754855
 30
0.0
 10
14.1751406408
 20
-82.9298536309
 30
0.0
 10
14.1558472006
 20
-82.9236176028
 30
0.0
 10
14.1397178144
 20
-82.918403864
 30
0.0
 10
14.126929872
 20
-82.9142711084
 30
0.0
 10
14.1170231274
 20
-82.9110670644
 30
0.0
 10
14.10977198
 20
-82.9087293543
 30
0.0
 10
14.0965196298
 20
-82.9043939047
 30
0.0
 10
14.0785556056
 20
-82.8985241367
 30
0.0
 10
14.0385146212
 20
-82.8854361111
 30
0.0
 10
13.9776692043
 20
-82.8655508394
 30
0.0
 10
13.9043305881
 20
-82.8415812807
 30
0.0
 10
13.8310786795
 20
-82.8176404089
 30
0.0
 10
13.7333791822
 20
-82.7857092266
 30
0.0
 10
13.611265185
 20
-82.745798681
 30
0.0
 10
13.4158769652
 20
-82.6819398812
 30
0.0
 10
13.2693371108
 20
-82.6340462149
 30
0.0
 10
13.1716435833
 20
-82.6021170076
 30
0.0
  0
SPLINE
  5
34C
100
AcDbEntity
  8
CURVE
100
AcDbSpline
 62
250
  6
CONTINUOUS
 70
0
 71
3
 72
16
 73
12
 74
0
 42
0.0000001
 43
0.0000001
 44
0.0000000001
 40
0.0
 40
0.0
 40
0.0
 40
0.0
 40
0.25
 40
0.5
 40
0.625
 40
0.75
 40
0.8125
 40
0.84375
 40
0.875
 40
0.9375
 40
1.0
 40
1.0
 40
1.0
 40
1.0
 10
13.5715389722
 20
-83.3824346974
 30
0.0
 10
13.8180511734
 20
-83.4627809366
 30
0.0
 10
14.3112145343
 20
-83.6233468311
 30
0.0
 10
14.9297710412
 20
-83.822533451
 30
0.0
 10
15.4260572473
 20
-83.9805477733
 30
0.0
 10
15.7371239332
 20
-84.0790801959
 30
0.0
 10
15.954135715
 20
-84.1476823254
 30
0.0
 10
16.079548707
 20
-84.1872615281
 30
0.0
 10
16.2103327227
 20
-84.2282117932
 30
0.0
 10
16.3719576191
 20
-84.2789260668
 30
0.0
 10
16.501822907
 20
-84.3196418081
 30
0.0
 10
16.5666848797
 20
-84.3399816384
 30
0.0
  0
SPLINE
  5
34D
100
AcDbEntity
  8
CURVE
100
AcDbSpline
 62
250
  6
CONTINUOUS
 70
0
 71
3
 72
22
 73
18
 74
0
 42
0.0000001
 43
0.0000001
 44
0.0000000001
 40
0.0
 40
0.0
 40
0.0
 40
0.0
 40
0.25
 40
0.375
 40
0.5
 40
0.5625
 40
0.625
 40
0.6875
 40
0.75
 40
0.78125
 40
0.796875
 40
0.8125
 40
0.828125
 40
0.84375
 40
0.875
 40
0.9375
 40
1.0
 40
1.0
 40
1.0
 40
1.0
 10
13.6374658196
 20
-85.3512212587
 30
0.0
 10
13.8429551983
 20
-85.4181284601
 30
0.0
 10
14.1511775932
 20
-85.5184958479
 30
0.0
 10
14.5630260047
 20
-85.6516463922
 30
0.0
 10
14.8210327567
 20
-85.7343817838
 30
0.0
 10
15.027441283
 20
-85.8006036217
 30
0.0
 10
15.1822944109
 20
-85.8501357674
 30
0.0
 10
15.337788525
 20
-85.8995388744
 30
0.0
 10
15.46622824
 20
-85.9404386103
 30
0.0
 10
15.5582469071
 20
-85.9696908716
 30
0.0
 10
15.6075519882
 20
-85.9854202549
 30
0.0
 10
15.6537587374
 20
-85.9999980345
 30
0.0
 10
15.6998480608
 20
-86.0145404756
 30
0.0
 10
15.7613414522
 20
-86.0339427238
 30
0.0
 10
15.8689357947
 20
-86.0678909124
 30
0.0
 10
16.0226520469
 20
-86.1163913488
 30
0.0
 10
16.1456219862
 20
-86.1551907763
 30
0.0
 10
16.2071073387
 20
-86.1745906053
 30
0.0
  0
SPLINE
  5
34E
100
AcDbEntity
  8
CURVE
100
AcDbSpline
 62
250
  6
CONTINUOUS
 70
0
 71
3
 72
15
 73
11
 74
0
 42
0.0000001
 43
0.0000001
 44
0.0000000001
 40
0.0
 40
0.0
 40
0.0
 40
0.0
 40
0.25
 40
0.5
 40
0.625
 40
0.6875
 40
0.75
 40
0.8125
 40
0.875
 40
1.0
 40
1.0
 40
1.0
 40
1.0
 10
9.3775677989
 20
-83.2630028417
 30
0.0
 10
9.2169086584
 20
-83.2067151094
 30
0.0
 10
8.8953098265
 20
-83.094302134
 30
0.0
 10
8.4947140412
 20
-82.9529734686
 30
0.0
 10
8.2148217113
 20
-82.8533308032
 30
0.0
 10
8.0553444107
 20
-82.796600304
 30
0.0
 10
7.9342029944
 20
-82.7536315293
 30
0.0
 10
7.8189647549
 20
-82.7122422722
 30
0.0
 10
7.6632424789
 20
-82.6565023794
 30
0.0
 10
7.5469168121
 20
-82.6148221585
 30
0.0
 10
7.4692628031
 20
-82.5870076337
 30
0.0
  0
SPLINE
  5
34F
100
AcDbEntity
  8
CURVE
100
AcDbSpline
 62
250
  6
CONTINUOUS
 70
0
 71
3
 72
27
 73
23
 74
0
 42
0.0000001
 43
0.0000001
 44
0.0000000001
 40
0.0
 40
0.0
 40
0.0
 40
0.0
 40
0.125
 40
0.25
 40
0.375
 40
0.5
 40
0.5625
 40
0.625
 40
0.6875
 40
0.71875
 40
0.75
 40
0.765625
 40
0.78125
 40
0.7890625
 40
0.796875
 40
0.8125
 40
0.828125
 40
0.84375
 40
0.875
 40
0.90625
 40
0.9375
 40
1.0
 40
1.0
 40
1.0
 40
1.0
 10
6.7106392956
 20
-82.9617780496
 30
0.0
 10
6.8099174796
 20
-82.9977533431
 30
0.0
 10
7.008405455
 20
-83.0697513439
 30
0.0
 10
7.3065477727
 20
-83.1774638632
 30
0.0
 10
7.6050578068
 20
-83.2849229266
 30
0.0
 10
7.8545034312
 20
-83.3739926396
 30
0.0
 10
8.0540218676
 20
-83.4452736708
 30
0.0
 10
8.2038113329
 20
-83.498633295
 30
0.0
 10
8.3288939835
 20
-83.5429032004
 30
0.0
 10
8.4289352812
 20
-83.5783703966
 30
0.0
 10
8.491394101
 20
-83.6005074386
 30
0.0
 10
8.5415281417
 20
-83.6182761476
 30
0.0
 10
8.5724779505
 20
-83.6292488802
 30
0.0
 10
8.5981175713
 20
-83.6383308027
 30
0.0
 10
8.6205452702
 20
-83.646303948
 30
0.0
 10
8.6715695908
 20
-83.6642065378
 30
0.0
 10
8.7298170365
 20
-83.6846603339
 30
0.0
 10
8.8085218593
 20
-83.7122916146
 30
0.0
 10
8.9065455219
 20
-83.7467073508
 30
0.0
 10
9.0243269301
 20
-83.7880590552
 30
0.0
 10
9.1813151189
 20
-83.8431761275
 30
0.0
 10
9.2990683404
 20
-83.8845181017
 30
0.0
 10
9.3775678037
 20
-83.9120784912
 30
0.0
  0
SPLINE
  5
350
100
AcDbEntity
  8
CURVE
100
AcDbSpline
 62
250
  6
CONTINUOUS
 70
0
 71
3
 72
12
 73
8
 74
0
 42
0.0000001
 43
0.0000001
 44
0.0000000001
 40
0.0
 40
0.0
 40
0.0
 40
0.0
 40
0.25
 40
0.5
 40
0.625
 40
0.75
 40
1.0
 40
1.0
 40
1.0
 40
1.0
 10
9.0964949161
 20
-81.2174522171
 30
0.0
 10
8.8959577128
 20
-81.1468883997
 30
0.0
 10
8.4948089781
 20
-81.0058603714
 30
0.0
 10
7.9952262484
 20
-80.8280285855
 30
0.0
 10
7.5965662495
 20
-80.6855536725
 30
0.0
 10
7.1971691472
 20
-80.5418085768
 30
0.0
 10
6.9055698011
 20
-80.4361160129
 30
0.0
 10
6.7106392465
 20
-80.3654745744
 30
0.0
  0
SPLINE
  5
351
100
AcDbEntity
  8
ASSI
100
AcDbSpline
 62
7
  6
CONTINUOUS
 70
0
 71
3
 72
14
 73
10
 74
0
 42
0.0000001
 43
0.0000001
 44
0.0000000001
 40
0.0
 40
0.0
 40
0.0
 40
0.0
 40
0.1067355247
 40
0.2145630513
 40
0.3260914308
 40
0.4435567208
 40
0.5687033643
 40
0.7027571997
 40
1.0
 40
1.0
 40
1.0
 40
1.0
 10
-35.5887932584
 20
-17.882192055
 30
0.0
 10
-35.4784206486
 20
-17.8270031998
 30
0.0
 10
-35.2460547614
 20
-17.7357144098
 30
0.0
 10
-34.874284477
 20
-17.6626717119
 30
0.0
 10
-34.4832088993
 20
-17.6536741728
 30
0.0
 10
-34.0759295076
 20
-17.7079693706
 30
0.0
 10
-33.6550278454
 20
-17.8243776373
 30
0.0
 10
-33.0588150056
 20
-18.0690541581
 30
0.0
 10
-32.6301934033
 20
-18.331183651
 30
0.0
 10
-32.3507922341
 20
-18.5312680249
 30
0.0
  0
SPLINE
  5
352
100
AcDbEntity
  8
ASSI
100
AcDbSpline
 62
7
  6
CONTINUOUS
 70
0
 71
3
 72
16
 73
12
 74
0
 42
0.0000001
 43
0.0000001
 44
0.0000000001
 40
0.0
 40
0.0
 40
0.0
 40
0.0
 40
0.0486522271
 40
0.0988939831
 40
0.2066448751
 40
0.3266236282
 40
0.4577148403
 40
0.5960758329
 40
0.7363259174
 40
0.8726586962
 40
1.0
 40
1.0
 40
1.0
 40
1.0
 10
2.3209488103
 20
18.9190949595
 30
0.0
 10
2.3559765606
 20
18.9366090634
 30
0.0
 10
2.4310900405
 20
18.9648599594
 30
0.0
 10
2.5960845268
 20
18.9920875952
 30
0.0
 10
2.8228430611
 20
18.9665619009
 30
0.0
 10
3.0916270534
 20
18.853014047
 30
0.0
 10
3.3467411104
 20
18.6666872203
 30
0.0
 10
3.569995651
 20
18.421165237
 30
0.0
 10
3.7449497209
 20
18.1341949394
 30
0.0
 10
3.8579526821
 20
17.8271276487
 30
0.0
 10
3.886929031
 20
17.6144211683
 30
0.0
 10
3.886929031
 20
17.5119185515
 30
0.0
  0
SPLINE
  5
353
100
AcDbEntity
  8
ASSI
100
AcDbSpline
 62
7
  6
CONTINUOUS
 70
0
 71
3
 72
16
 73
12
 74
0
 42
0.0000001
 43
0.0000001
 44
0.0000000001
 40
0.0
 40
0.0
 40
0.0
 40
0.0
 40
0.0473561297
 40
0.0962644957
 40
0.2017231734
 40
0.3204613292
 40
0.4515246748
 40
0.5908749
 40
0.7327692062
 40
0.8709850058
 40
1.0
 40
1.0
 40
1.0
 40
1.0
 10
-3.293708991
 20
21.202934805
 30
0.0
 10
-3.2600858259
 20
21.2197453447
 30
0.0
 10
-3.1878208646
 20
21.2465879844
 30
0.0
 10
-3.0285598718
 20
21.2706973818
 30
0.0
 10
-2.8092533957
 20
21.2402152705
 30
0.0
 10
-2.5505875267
 20
21.1207067213
 30
0.0
 10
-2.305439374
 20
20.9288903026
 30
0.0
 10
-2.0912530287
 20
20.6788528376
 30
0.0
 10
-1.9237112847
 20
20.3888706737
 30
0.0
 10
-1.8157055068
 20
20.0806014858
 30
0.0
 10
-1.7879499899
 20
19.868060184
 30
0.0
 10
-1.7879499899
 20
19.7656478656
 30
0.0
  0
SPLINE
  5
354
100
AcDbEntity
  8
ASSI
100
AcDbSpline
 62
7
  6
CONTINUOUS
 70
0
 71
3
 72
15
 73
11
 74
0
 42
0.0000001
 43
0.0000001
 44
0.0000000001
 40
0.0
 40
0.0
 40
0.0
 40
0.0
 40
0.1250195787
 40
0.2557375302
 40
0.3893427364
 40
0.5228492841
 40
0.6532855222
 40
0.7778453656
 40
0.894055103
 40
1.0
 40
1.0
 40
1.0
 40
1.0
 10
23.0411680681
 20
-92.016407784
 30
0.0
 10
23.3517751837
 20
-92.1040289249
 30
0.0
 10
23.9971494155
 20
-92.2490358346
 30
0.0
 10
24.9952870546
 20
-92.3770920589
 30
0.0
 10
26.022729191
 20
-92.4183217455
 30
0.0
 10
27.049174307
 20
-92.3714278688
 30
0.0
 10
28.0444943154
 20
-92.2378542456
 30
0.0
 10
28.9796473267
 20
-92.0214874563
 30
0.0
 10
29.8272698314
 20
-91.7288192043
 30
0.0
 10
30.3441670245
 20
-91.475393948
 30
0.0
 10
30.5793154469
 20
-91.3357455632
 30
0.0
  0
SPLINE
  5
355
100
AcDbEntity
  8
ASSI
100
AcDbSpline
 62
7
  6
CONTINUOUS
 70
0
 71
3
 72
16
 73
12
 74
0
 42
0.0000001
 43
0.0000001
 44
0.0000000001
 40
0.0
 40
0.0
 40
0.0
 40
0.0
 40
0.0460199288
 40
0.0935497868
 40
0.1966471025
 40
0.3141164413
 40
0.4451413256
 40
0.5854920909
 40
0.7290755433
 40
0.8692448372
 40
1.0
 40
1.0
 40
1.0
 40
1.0
 10
-8.6886937863
 20
23.5966112959
 30
0.0
 10
-8.656456192
 20
23.6127302642
 30
0.0
 10
-8.5869976669
 20
23.6381781004
 30
0.0
 10
-8.4334011828
 20
23.6591739334
 30
0.0
 10
-8.2215695781
 20
23.6237019436
 30
0.0
 10
-7.9731350369
 20
23.4983816329
 30
0.0
 10
-7.7379540604
 20
23.3013410241
 30
0.0
 10
-7.5327083594
 20
23.0470120481
 30
0.0
 10
-7.3723447614
 20
22.754095309
 30
0.0
 10
-7.2690860582
 20
22.4445127453
 30
0.0
 10
-7.2424845975
 20
22.2319568142
 30
0.0
 10
-7.2424845975
 20
22.1295493864
 30
0.0
  0
SPLINE
  5
356
100
AcDbEntity
  8
ASSI
100
AcDbSpline
 62
7
  6
CONTINUOUS
 70
0
 71
3
 72
16
 73
12
 74
0
 42
0.0000001
 43
0.0000001
 44
0.0000000001
 40
0.0
 40
0.0
 40
0.0
 40
0.0
 40
0.0446186723
 40
0.0906989674
 40
0.191307692
 40
0.3074206884
 40
0.4383731091
 40
0.5797542493
 40
0.7251188257
 40
0.8673723727
 40
1.0
 40
1.0
 40
1.0
 40
1.0
 10
-13.8656849368
 20
26.0992845493
 30
0.0
 10
-13.8348324462
 20
26.1147109611
 30
0.0
 10
-13.768185028
 20
26.1387695255
 30
0.0
 10
-13.6202833282
 20
26.15664497
 30
0.0
 10
-13.4161004532
 20
26.1161801704
 30
0.0
 10
-13.1781089087
 20
25.9853261375
 30
0.0
 10
-12.952923288
 20
25.7833851652
 30
0.0
 10
-12.7564579943
 20
25.5249759231
 30
0.0
 10
-12.6029914419
 20
25.2291165661
 30
0.0
 10
-12.5042156439
 20
24.9179832029
 30
0.0
 10
-12.4786896266
 20
24.7051486649
 30
0.0
 10
-12.4786896266
 20
24.6026156964
 30
0.0
  0
SPLINE
  5
357
100
AcDbEntity
  8
ASSI
100
AcDbSpline
 62
7
  6
CONTINUOUS
 70
0
 71
3
 72
17
 73
13
 74
0
 42
0.0000001
 43
0.0000001
 44
0.0000000001
 40
0.0
 40
0.0
 40
0.0
 40
0.0
 40
0.0431323105
 40
0.0876745487
 40
0.1350007639
 40
0.1860639059
 40
0.3007055308
 40
0.4315011893
 40
0.5738732822
 40
0.7210365565
 40
0.8654348297
 40
1.0
 40
1.0
 40
1.0
 40
1.0
 10
-18.8251537905
 20
28.7107189576
 30
0.0
 10
-18.7956892416
 20
28.7254514099
 30
0.0
 10
-18.731859827
 20
28.7481247214
 30
0.0
 10
-18.6284584518
 20
28.7588134748
 30
0.0
 10
-18.5192307002
 20
28.7466217609
 30
0.0
 10
-18.362907527
 20
28.6988421569
 30
0.0
 10
-18.1657548278
 20
28.5811519004
 30
0.0
 10
-17.9509594193
 20
28.3746336304
 30
0.0
 10
-17.7630882992
 20
28.1122985109
 30
0.0
 10
-17.6163590003
 20
27.8134766163
 30
0.0
 10
-17.5218669191
 20
27.5005712927
 30
0.0
 10
-17.4973624185
 20
27.2872227246
 30
0.0
 10
-17.4973624185
 20
27.184448125
 30
0.0
  0
SPLINE
  5
358
100
AcDbEntity
  8
ASSI
100
AcDbSpline
 62
7
  6
CONTINUOUS
 70
0
 71
3
 72
17
 73
13
 74
0
 42
0.0000001
 43
0.0000001
 44
0.0000000001
 40
0.0
 40
0.0
 40
0.0
 40
0.0
 40
0.0415953287
 40
0.084548542
 40
0.1304081512
 40
0.1802465411
 40
0.2933985568
 40
0.4240544385
 40
0.5674894598
 40
0.7165892802
 40
0.8633154574
 40
1.0
 40
1.0
 40
1.0
 40
1.0
 10
-23.5663772354
 20
31.4312779817
 30
0.0
 10
-23.5383066353
 20
31.4453155196
 30
0.0
 10
-23.4772964231
 20
31.4665883785
 30
0.0
 10
-23.3783572141
 20
31.4749298975
 30
0.0
 10
-23.2740060323
 20
31.460220909
 30
0.0
 10
-23.1242636329
 20
31.4087051292
 30
0.0
 10
-22.9359316524
 20
31.2861988928
 30
0.0
 10
-22.7313300197
 20
31.0753290692
 30
0.0
 10
-22.5521162702
 20
30.8092193459
 30
0.0
 10
-22.4119732421
 20
30.5073837329
 30
0.0
 10
-22.3216307784
 20
30.1924747628
 30
0.0
 10
-22.2981049111
 20
29.9783781678
 30
0.0
 10
-22.2981049111
 20
29.8752457032
 30
0.0
  0
SPLINE
  5
359
100
AcDbEntity
  8
ASSI
100
AcDbSpline
 62
7
  6
CONTINUOUS
 70
0
 71
3
 72
17
 73
13
 74
0
 42
0.0000001
 43
0.0000001
 44
0.0000000001
 40
0.0
 40
0.0
 40
0.0
 40
0.0
 40
0.0399582196
 40
0.0812274405
 40
0.1255447027
 40
0.1741061165
 40
0.2857076834
 40
0.4161995042
 40
0.560716867
 40
0.7118423472
 40
0.8610456801
 40
1.0
 40
1.0
 40
1.0
 40
1.0
 10
-28.0874141621
 20
34.2619264663
 30
0.0
 10
-28.0607626337
 20
34.275252477
 30
0.0
 10
-28.0026250645
 20
34.2951165883
 30
0.0
 10
-27.9082457178
 20
34.3010807154
 30
0.0
 10
-27.8089024597
 20
34.2838555232
 30
0.0
 10
-27.6659411031
 20
34.2286091099
 30
0.0
 10
-27.4866915945
 20
34.101443964
 30
0.0
 10
-27.2923999525
 20
33.8864577198
 30
0.0
 10
-27.1218443039
 20
33.6166725725
 30
0.0
 10
-26.9881959772
 20
33.3117289587
 30
0.0
 10
-26.9018932952
 20
32.9945375574
 30
0.0
 10
-26.8793126332
 20
32.7794309217
 30
0.0
 10
-26.8793126332
 20
32.6758106667
 30
0.0
  0
SPLINE
  5
35A
100
AcDbEntity
  8
ASSI
100
AcDbSpline
 62
7
  6
CONTINUOUS
 70
0
 71
3
 72
16
 73
12
 74
0
 42
0.0000001
 43
0.0000001
 44
0.0000000001
 40
0.0
 40
0.0
 40
0.0
 40
0.0
 40
0.0486522271
 40
0.0988939831
 40
0.2066448751
 40
0.3266236282
 40
0.4577148403
 40
0.5960758329
 40
0.7363259174
 40
0.8726586962
 40
1.0
 40
1.0
 40
1.0
 40
1.0
 10
2.3209488103
 20
12.6837120522
 30
0.0
 10
2.3559765606
 20
12.7012261561
 30
0.0
 10
2.4310900405
 20
12.7294770522
 30
0.0
 10
2.5960845268
 20
12.7567046879
 30
0.0
 10
2.8228430611
 20
12.7311789936
 30
0.0
 10
3.0916270534
 20
12.6176311398
 30
0.0
 10
3.3467411104
 20
12.4313043131
 30
0.0
 10
3.569995651
 20
12.1857823297
 30
0.0
 10
3.7449497209
 20
11.8988120321
 30
0.0
 10
3.8579526821
 20
11.5917447414
 30
0.0
 10
3.886929031
 20
11.379038261
 30
0.0
 10
3.886929031
 20
11.2765356443
 30
0.0
  0
SPLINE
  5
35B
100
AcDbEntity
  8
ASSI
100
AcDbSpline
 62
7
  6
CONTINUOUS
 70
0
 71
3
 72
9
 73
5
 74
0
 42
0.0000001
 43
0.0000001
 44
0.0000000001
 40
0.0
 40
0.0
 40
0.0
 40
0.0
 40
0.2493453958
 40
1.0
 40
1.0
 40
1.0
 40
1.0
 10
-12.8235427041
 20
-11.8052887609
 30
0.0
 10
-12.8084431407
 20
-11.8527376379
 30
0.0
 10
-12.7402779038
 20
-12.0405152506
 30
0.0
 10
-12.6432852339
 20
-12.217913575
 30
0.0
 10
-12.5561890886
 20
-12.3399188561
 30
0.0
  0
SPLINE
  5
35C
100
AcDbEntity
  8
ASSI
100
AcDbSpline
 62
7
  6
CONTINUOUS
 70
0
 71
3
 72
9
 73
5
 74
0
 42
0.0000001
 43
0.0000001
 44
0.0000000001
 40
0.0
 40
0.0
 40
0.0
 40
0.0
 40
0.4991395415
 40
1.0
 40
1.0
 40
1.0
 40
1.0
 10
-7.696353194
 20
-14.1710806712
 30
0.0
 10
-7.6615388549
 20
-14.3153592182
 30
0.0
 10
-7.5532177926
 20
-14.5958434209
 30
0.0
 10
-7.3830125158
 20
-14.8436669892
 30
0.0
 10
-7.2834324041
 20
-14.9544112789
 30
0.0
  0
SPLINE
  5
35D
100
AcDbEntity
  8
ASSI
100
AcDbSpline
 62
7
  6
CONTINUOUS
 70
0
 71
3
 72
16
 73
12
 74
0
 42
0.0000001
 43
0.0000001
 44
0.0000000001
 40
0.0
 40
0.0
 40
0.0
 40
0.0
 40
0.0473561297
 40
0.0962644957
 40
0.2017231734
 40
0.3204613292
 40
0.4515246748
 40
0.5908749
 40
0.7327692062
 40
0.8709850058
 40
1.0
 40
1.0
 40
1.0
 40
1.0
 10
-3.293708991
 20
14.9675518977
 30
0.0
 10
-3.2600858259
 20
14.9843624374
 30
0.0
 10
-3.1878208646
 20
15.0112050772
 30
0.0
 10
-3.0285598718
 20
15.0353144746
 30
0.0
 10
-2.8092533957
 20
15.0048323632
 30
0.0
 10
-2.5505875267
 20
14.8853238141
 30
0.0
 10
-2.305439374
 20
14.6935073953
 30
0.0
 10
-2.0912530287
 20
14.4434699304
 30
0.0
 10
-1.9237112847
 20
14.1534877665
 30
0.0
 10
-1.8157055068
 20
13.8452185786
 30
0.0
 10
-1.7879499899
 20
13.6326772767
 30
0.0
 10
-1.7879499899
 20
13.5302649584
 30
0.0
  0
SPLINE
  5
35E
100
AcDbEntity
  8
ASSI
100
AcDbSpline
 62
7
  6
CONTINUOUS
 70
0
 71
3
 72
9
 73
5
 74
0
 42
0.0000001
 43
0.0000001
 44
0.0000000001
 40
0.0
 40
0.0
 40
0.0
 40
0.0
 40
0.4974512325
 40
1.0
 40
1.0
 40
1.0
 40
1.0
 10
-2.3305779421
 20
-16.47454634
 30
0.0
 10
-2.2976747071
 20
-16.651411261
 30
0.0
 10
-2.1676917566
 20
-16.9961601168
 30
0.0
 10
-1.9437554036
 20
-17.2882580375
 30
0.0
 10
-1.8105369324
 20
-17.4118838621
 30
0.0
  0
SPLINE
  5
35F
100
AcDbEntity
  8
ASSI
100
AcDbSpline
 62
7
  6
CONTINUOUS
 70
0
 71
3
 72
11
 73
7
 74
0
 42
0.0000001
 43
0.0000001
 44
0.0000000001
 40
0.0
 40
0.0
 40
0.0
 40
0.0
 40
0.2421985632
 40
0.4956166806
 40
0.7512673772
 40
1.0
 40
1.0
 40
1.0
 40
1.0
 10
3.2652582121
 20
-18.6915151259
 30
0.0
 10
3.2791466517
 20
-18.7903057077
 30
0.0
 10
3.3302613152
 20
-18.9896688604
 30
0.0
 10
3.4627745682
 20
-19.2710960278
 30
0.0
 10
3.6446452883
 20
-19.5267344455
 30
0.0
 10
3.7947753292
 20
-19.6724918865
 30
0.0
 10
3.8751574337
 20
-19.7360168913
 30
0.0
  0
SPLINE
  5
360
100
AcDbEntity
  8
ASSI
100
AcDbSpline
 62
7
  6
CONTINUOUS
 70
0
 71
3
 72
16
 73
12
 74
0
 42
0.0000001
 43
0.0000001
 44
0.0000000001
 40
0.0
 40
0.0
 40
0.0
 40
0.0
 40
0.0460199288
 40
0.0935497868
 40
0.1966471025
 40
0.3141164413
 40
0.4451413256
 40
0.5854920909
 40
0.7290755433
 40
0.8692448372
 40
1.0
 40
1.0
 40
1.0
 40
1.0
 10
-8.6886937863
 20
17.3612283886
 30
0.0
 10
-8.656456192
 20
17.3773473569
 30
0.0
 10
-8.5869976669
 20
17.4027951932
 30
0.0
 10
-8.4334011828
 20
17.4237910261
 30
0.0
 10
-8.2215695781
 20
17.3883190363
 30
0.0
 10
-7.9731350369
 20
17.2629987256
 30
0.0
 10
-7.7379540604
 20
17.0659581169
 30
0.0
 10
-7.5327083594
 20
16.8116291408
 30
0.0
 10
-7.3723447614
 20
16.5187124017
 30
0.0
 10
-7.2690860582
 20
16.209129838
 30
0.0
 10
-7.2424845975
 20
15.9965739069
 30
0.0
 10
-7.2424845975
 20
15.8941664791
 30
0.0
  0
SPLINE
  5
361
100
AcDbEntity
  8
ASSI
100
AcDbSpline
 62
7
  6
CONTINUOUS
 70
0
 71
3
 72
9
 73
5
 74
0
 42
0.0000001
 43
0.0000001
 44
0.0000000001
 40
0.0
 40
0.0
 40
0.0
 40
0.0
 40
0.2493453958
 40
1.0
 40
1.0
 40
1.0
 40
1.0
 10
-12.8235427041
 20
-5.5699058537
 30
0.0
 10
-12.8084431407
 20
-5.6173547306
 30
0.0
 10
-12.7402779038
 20
-5.8051323434
 30
0.0
 10
-12.6432852339
 20
-5.9825306678
 30
0.0
 10
-12.5561890886
 20
-6.1045359488
 30
0.0
  0
SPLINE
  5
362
100
AcDbEntity
  8
ASSI
100
AcDbSpline
 62
7
  6
CONTINUOUS
 70
0
 71
3
 72
16
 73
12
 74
0
 42
0.0000001
 43
0.0000001
 44
0.0000000001
 40
0.0
 40
0.0
 40
0.0
 40
0.0
 40
0.0446186723
 40
0.0906989674
 40
0.191307692
 40
0.3074206884
 40
0.4383731091
 40
0.5797542493
 40
0.7251188257
 40
0.8673723727
 40
1.0
 40
1.0
 40
1.0
 40
1.0
 10
-13.8656849368
 20
19.863901642
 30
0.0
 10
-13.8348324462
 20
19.8793280539
 30
0.0
 10
-13.768185028
 20
19.9033866183
 30
0.0
 10
-13.6202833282
 20
19.9212620627
 30
0.0
 10
-13.4161004532
 20
19.8807972631
 30
0.0
 10
-13.1781089087
 20
19.7499432302
 30
0.0
 10
-12.952923288
 20
19.5480022579
 30
0.0
 10
-12.7564579943
 20
19.2895930158
 30
0.0
 10
-12.6029914419
 20
18.9937336588
 30
0.0
 10
-12.5042156439
 20
18.6826002957
 30
0.0
 10
-12.4786896266
 20
18.4697657577
 30
0.0
 10
-12.4786896266
 20
18.3672327891
 30
0.0
  0
SPLINE
  5
363
100
AcDbEntity
  8
ASSI
100
AcDbSpline
 62
7
  6
CONTINUOUS
 70
0
 71
3
 72
9
 73
5
 74
0
 42
0.0000001
 43
0.0000001
 44
0.0000000001
 40
0.0
 40
0.0
 40
0.0
 40
0.0
 40
0.4991395415
 40
1.0
 40
1.0
 40
1.0
 40
1.0
 10
-7.696353194
 20
-7.9356977639
 30
0.0
 10
-7.6615388549
 20
-8.0799763109
 30
0.0
 10
-7.5532177926
 20
-8.3604605136
 30
0.0
 10
-7.3830125158
 20
-8.608284082
 30
0.0
 10
-7.2834324041
 20
-8.7190283717
 30
0.0
  0
SPLINE
  5
364
100
AcDbEntity
  8
ASSI
100
AcDbSpline
 62
7
  6
CONTINUOUS
 70
0
 71
3
 72
9
 73
5
 74
0
 42
0.0000001
 43
0.0000001
 44
0.0000000001
 40
0.0
 40
0.0
 40
0.0
 40
0.0
 40
0.4974512325
 40
1.0
 40
1.0
 40
1.0
 40
1.0
 10
-2.3305779421
 20
-10.2391634327
 30
0.0
 10
-2.2976747071
 20
-10.4160283537
 30
0.0
 10
-2.1676917566
 20
-10.7607772095
 30
0.0
 10
-1.9437554036
 20
-11.0528751303
 30
0.0
 10
-1.8105369324
 20
-11.1765009549
 30
0.0
  0
SPLINE
  5
365
100
AcDbEntity
  8
ASSI
100
AcDbSpline
 62
7
  6
CONTINUOUS
 70
0
 71
3
 72
11
 73
7
 74
0
 42
0.0000001
 43
0.0000001
 44
0.0000000001
 40
0.0
 40
0.0
 40
0.0
 40
0.0
 40
0.2421985632
 40
0.4956166806
 40
0.7512673772
 40
1.0
 40
1.0
 40
1.0
 40
1.0
 10
3.2652582121
 20
-12.4561322186
 30
0.0
 10
3.2791466517
 20
-12.5549228005
 30
0.0
 10
3.3302613152
 20
-12.7542859531
 30
0.0
 10
3.4627745682
 20
-13.0357131206
 30
0.0
 10
3.6446452883
 20
-13.2913515382
 30
0.0
 10
3.7947753292
 20
-13.4371089792
 30
0.0
 10
3.8751574337
 20
-13.5006339841
 30
0.0
  0
SPLINE
  5
366
100
AcDbEntity
  8
ASSI
100
AcDbSpline
 62
7
  6
CONTINUOUS
 70
0
 71
3
 72
17
 73
13
 74
0
 42
0.0000001
 43
0.0000001
 44
0.0000000001
 40
0.0
 40
0.0
 40
0.0
 40
0.0
 40
0.0431323105
 40
0.0876745487
 40
0.1350007639
 40
0.1860639059
 40
0.3007055308
 40
0.4315011893
 40
0.5738732822
 40
0.7210365565
 40
0.8654348297
 40
1.0
 40
1.0
 40
1.0
 40
1.0
 10
-18.8251537905
 20
22.4753360504
 30
0.0
 10
-18.7956892416
 20
22.4900685026
 30
0.0
 10
-18.731859827
 20
22.5127418142
 30
0.0
 10
-18.6284584518
 20
22.5234305676
 30
0.0
 10
-18.5192307002
 20
22.5112388536
 30
0.0
 10
-18.362907527
 20
22.4634592497
 30
0.0
 10
-18.1657548278
 20
22.3457689932
 30
0.0
 10
-17.9509594193
 20
22.1392507231
 30
0.0
 10
-17.7630882992
 20
21.8769156036
 30
0.0
 10
-17.6163590003
 20
21.578093709
 30
0.0
 10
-17.5218669191
 20
21.2651883855
 30
0.0
 10
-17.4973624185
 20
21.0518398173
 30
0.0
 10
-17.4973624185
 20
20.9490652177
 30
0.0
  0
SPLINE
  5
367
100
AcDbEntity
  8
ASSI
100
AcDbSpline
 62
7
  6
CONTINUOUS
 70
0
 71
3
 72
17
 73
13
 74
0
 42
0.0000001
 43
0.0000001
 44
0.0000000001
 40
0.0
 40
0.0
 40
0.0
 40
0.0
 40
0.0415953287
 40
0.084548542
 40
0.1304081512
 40
0.1802465411
 40
0.2933985568
 40
0.4240544385
 40
0.5674894598
 40
0.7165892802
 40
0.8633154574
 40
1.0
 40
1.0
 40
1.0
 40
1.0
 10
-23.5663772354
 20
25.1958950744
 30
0.0
 10
-23.5383066353
 20
25.2099326123
 30
0.0
 10
-23.4772964231
 20
25.2312054713
 30
0.0
 10
-23.3783572141
 20
25.2395469902
 30
0.0
 10
-23.2740060323
 20
25.2248380018
 30
0.0
 10
-23.1242636329
 20
25.1733222219
 30
0.0
 10
-22.9359316524
 20
25.0508159855
 30
0.0
 10
-22.7313300197
 20
24.839946162
 30
0.0
 10
-22.5521162702
 20
24.5738364387
 30
0.0
 10
-22.4119732421
 20
24.2720008256
 30
0.0
 10
-22.3216307784
 20
23.9570918555
 30
0.0
 10
-22.2981049111
 20
23.7429952606
 30
0.0
 10
-22.2981049111
 20
23.639862796
 30
0.0
  0
SPLINE
  5
368
100
AcDbEntity
  8
ASSI
100
AcDbSpline
 62
7
  6
CONTINUOUS
 70
0
 71
3
 72
9
 73
5
 74
0
 42
0.0000001
 43
0.0000001
 44
0.0000000001
 40
0.0
 40
0.0
 40
0.0
 40
0.0
 40
0.2493453958
 40
1.0
 40
1.0
 40
1.0
 40
1.0
 10
-12.8235427041
 20
0.6654770536
 30
0.0
 10
-12.8084431407
 20
0.6180281766
 30
0.0
 10
-12.7402779038
 20
0.4302505639
 30
0.0
 10
-12.6432852339
 20
0.2528522395
 30
0.0
 10
-12.5561890886
 20
0.1308469584
 30
0.0
  0
SPLINE
  5
369
100
AcDbEntity
  8
ASSI
100
AcDbSpline
 62
7
  6
CONTINUOUS
 70
0
 71
3
 72
9
 73
5
 74
0
 42
0.0000001
 43
0.0000001
 44
0.0000000001
 40
0.0
 40
0.0
 40
0.0
 40
0.0
 40
0.4991395415
 40
1.0
 40
1.0
 40
1.0
 40
1.0
 10
-7.696353194
 20
-1.7003148567
 30
0.0
 10
-7.6615388549
 20
-1.8445934037
 30
0.0
 10
-7.5532177926
 20
-2.1250776064
 30
0.0
 10
-7.3830125158
 20
-2.3729011747
 30
0.0
 10
-7.2834324041
 20
-2.4836454644
 30
0.0
  0
SPLINE
  5
36A
100
AcDbEntity
  8
ASSI
100
AcDbSpline
 62
7
  6
CONTINUOUS
 70
0
 71
3
 72
9
 73
5
 74
0
 42
0.0000001
 43
0.0000001
 44
0.0000000001
 40
0.0
 40
0.0
 40
0.0
 40
0.0
 40
0.4974512325
 40
1.0
 40
1.0
 40
1.0
 40
1.0
 10
-2.3305779421
 20
-4.0037805255
 30
0.0
 10
-2.2976747071
 20
-4.1806454465
 30
0.0
 10
-2.1676917566
 20
-4.5253943023
 30
0.0
 10
-1.9437554036
 20
-4.817492223
 30
0.0
 10
-1.8105369324
 20
-4.9411180476
 30
0.0
  0
SPLINE
  5
36B
100
AcDbEntity
  8
ASSI
100
AcDbSpline
 62
7
  6
CONTINUOUS
 70
0
 71
3
 72
17
 73
13
 74
0
 42
0.0000001
 43
0.0000001
 44
0.0000000001
 40
0.0
 40
0.0
 40
0.0
 40
0.0
 40
0.0399582196
 40
0.0812274405
 40
0.1255447027
 40
0.1741061165
 40
0.2857076834
 40
0.4161995042
 40
0.560716867
 40
0.7118423472
 40
0.8610456801
 40
1.0
 40
1.0
 40
1.0
 40
1.0
 10
-28.0874141621
 20
28.026543559
 30
0.0
 10
-28.0607626337
 20
28.0398695698
 30
0.0
 10
-28.0026250645
 20
28.0597336811
 30
0.0
 10
-27.9082457178
 20
28.0656978082
 30
0.0
 10
-27.8089024597
 20
28.0484726159
 30
0.0
 10
-27.6659411031
 20
27.9932262026
 30
0.0
 10
-27.4866915945
 20
27.8660610568
 30
0.0
 10
-27.2923999525
 20
27.6510748125
 30
0.0
 10
-27.1218443039
 20
27.3812896653
 30
0.0
 10
-26.9881959772
 20
27.0763460515
 30
0.0
 10
-26.9018932952
 20
26.7591546501
 30
0.0
 10
-26.8793126332
 20
26.5440480144
 30
0.0
 10
-26.8793126332
 20
26.4404277594
 30
0.0
  0
SPLINE
  5
36C
100
AcDbEntity
  8
ASSI
100
AcDbSpline
 62
7
  6
CONTINUOUS
 70
0
 71
3
 72
11
 73
7
 74
0
 42
0.0000001
 43
0.0000001
 44
0.0000000001
 40
0.0
 40
0.0
 40
0.0
 40
0.0
 40
0.2421985632
 40
0.4956166806
 40
0.7512673772
 40
1.0
 40
1.0
 40
1.0
 40
1.0
 10
3.2652582121
 20
-6.2207493114
 30
0.0
 10
3.2791466517
 20
-6.3195398932
 30
0.0
 10
3.3302613152
 20
-6.5189030459
 30
0.0
 10
3.4627745682
 20
-6.8003302133
 30
0.0
 10
3.6446452883
 20
-7.055968631
 30
0.0
 10
3.7947753292
 20
-7.201726072
 30
0.0
 10
3.8751574337
 20
-7.2652510768
 30
0.0
  0
SPLINE
  5
36D
100
AcDbEntity
  8
ASSI
100
AcDbSpline
 62
7
  6
CONTINUOUS
 70
0
 71
3
 72
16
 73
12
 74
0
 42
0.0000001
 43
0.0000001
 44
0.0000000001
 40
0.0
 40
0.0
 40
0.0
 40
0.0
 40
0.0486522271
 40
0.0988939831
 40
0.2066448751
 40
0.3266236282
 40
0.4577148403
 40
0.5960758329
 40
0.7363259174
 40
0.8726586962
 40
1.0
 40
1.0
 40
1.0
 40
1.0
 10
2.3209488103
 20
6.448329145
 30
0.0
 10
2.3559765606
 20
6.4658432489
 30
0.0
 10
2.4310900405
 20
6.4940941449
 30
0.0
 10
2.5960845268
 20
6.5213217807
 30
0.0
 10
2.8228430611
 20
6.4957960864
 30
0.0
 10
3.0916270534
 20
6.3822482325
 30
0.0
 10
3.3467411104
 20
6.1959214058
 30
0.0
 10
3.569995651
 20
5.9503994225
 30
0.0
 10
3.7449497209
 20
5.6634291249
 30
0.0
 10
3.8579526821
 20
5.3563618342
 30
0.0
 10
3.886929031
 20
5.1436553538
 30
0.0
 10
3.886929031
 20
5.041152737
 30
0.0
  0
SPLINE
  5
36E
100
AcDbEntity
  8
ASSI
100
AcDbSpline
 62
7
  6
CONTINUOUS
 70
0
 71
3
 72
9
 73
5
 74
0
 42
0.0000001
 43
0.0000001
 44
0.0000000001
 40
0.0
 40
0.0
 40
0.0
 40
0.0
 40
0.2493453958
 40
1.0
 40
1.0
 40
1.0
 40
1.0
 10
-12.8235427041
 20
6.9008599608
 30
0.0
 10
-12.8084431407
 20
6.8534110839
 30
0.0
 10
-12.7402779038
 20
6.6656334711
 30
0.0
 10
-12.6432852339
 20
6.4882351467
 30
0.0
 10
-12.5561890886
 20
6.3662298657
 30
0.0
  0
SPLINE
  5
36F
100
AcDbEntity
  8
ASSI
100
AcDbSpline
 62
7
  6
CONTINUOUS
 70
0
 71
3
 72
9
 73
5
 74
0
 42
0.0000001
 43
0.0000001
 44
0.0000000001
 40
0.0
 40
0.0
 40
0.0
 40
0.0
 40
0.4991395415
 40
1.0
 40
1.0
 40
1.0
 40
1.0
 10
-7.696353194
 20
4.5350680506
 30
0.0
 10
-7.6615388549
 20
4.3907895036
 30
0.0
 10
-7.5532177926
 20
4.1103053009
 30
0.0
 10
-7.3830125158
 20
3.8624817325
 30
0.0
 10
-7.2834324041
 20
3.7517374428
 30
0.0
  0
SPLINE
  5
370
100
AcDbEntity
  8
ASSI
100
AcDbSpline
 62
7
  6
CONTINUOUS
 70
0
 71
3
 72
16
 73
12
 74
0
 42
0.0000001
 43
0.0000001
 44
0.0000000001
 40
0.0
 40
0.0
 40
0.0
 40
0.0
 40
0.0473561297
 40
0.0962644957
 40
0.2017231734
 40
0.3204613292
 40
0.4515246748
 40
0.5908749
 40
0.7327692062
 40
0.8709850058
 40
1.0
 40
1.0
 40
1.0
 40
1.0
 10
-3.293708991
 20
8.7321689905
 30
0.0
 10
-3.2600858259
 20
8.7489795302
 30
0.0
 10
-3.1878208646
 20
8.7758221699
 30
0.0
 10
-3.0285598718
 20
8.7999315673
 30
0.0
 10
-2.8092533957
 20
8.769449456
 30
0.0
 10
-2.5505875267
 20
8.6499409068
 30
0.0
 10
-2.305439374
 20
8.4581244881
 30
0.0
 10
-2.0912530287
 20
8.2080870231
 30
0.0
 10
-1.9237112847
 20
7.9181048592
 30
0.0
 10
-1.8157055068
 20
7.6098356713
 30
0.0
 10
-1.7879499899
 20
7.3972943695
 30
0.0
 10
-1.7879499899
 20
7.2948820511
 30
0.0
  0
SPLINE
  5
371
100
AcDbEntity
  8
ASSI
100
AcDbSpline
 62
7
  6
CONTINUOUS
 70
0
 71
3
 72
9
 73
5
 74
0
 42
0.0000001
 43
0.0000001
 44
0.0000000001
 40
0.0
 40
0.0
 40
0.0
 40
0.0
 40
0.4974512325
 40
1.0
 40
1.0
 40
1.0
 40
1.0
 10
-2.3305779421
 20
2.2316023818
 30
0.0
 10
-2.2976747071
 20
2.0547374608
 30
0.0
 10
-2.1676917566
 20
1.709988605
 30
0.0
 10
-1.9437554036
 20
1.4178906842
 30
0.0
 10
-1.8105369324
 20
1.2942648596
 30
0.0
  0
SPLINE
  5
372
100
AcDbEntity
  8
ASSI
100
AcDbSpline
 62
7
  6
CONTINUOUS
 70
0
 71
3
 72
11
 73
7
 74
0
 42
0.0000001
 43
0.0000001
 44
0.0000000001
 40
0.0
 40
0.0
 40
0.0
 40
0.0
 40
0.2421985632
 40
0.4956166806
 40
0.7512673772
 40
1.0
 40
1.0
 40
1.0
 40
1.0
 10
3.2652582121
 20
0.0146335959
 30
0.0
 10
3.2791466517
 20
-0.084156986
 30
0.0
 10
3.3302613152
 20
-0.2835201386
 30
0.0
 10
3.4627745682
 20
-0.5649473061
 30
0.0
 10
3.6446452883
 20
-0.8205857237
 30
0.0
 10
3.7947753292
 20
-0.9663431647
 30
0.0
 10
3.8751574337
 20
-1.0298681696
 30
0.0
  0
SPLINE
  5
373
100
AcDbEntity
  8
ASSI
100
AcDbSpline
 62
7
  6
CONTINUOUS
 70
0
 71
3
 72
16
 73
12
 74
0
 42
0.0000001
 43
0.0000001
 44
0.0000000001
 40
0.0
 40
0.0
 40
0.0
 40
0.0
 40
0.0460199288
 40
0.0935497868
 40
0.1966471025
 40
0.3141164413
 40
0.4451413256
 40
0.5854920909
 40
0.7290755433
 40
0.8692448372
 40
1.0
 40
1.0
 40
1.0
 40
1.0
 10
-8.6886937863
 20
11.1258454814
 30
0.0
 10
-8.656456192
 20
11.1419644497
 30
0.0
 10
-8.5869976669
 20
11.1674122859
 30
0.0
 10
-8.4334011828
 20
11.1884081189
 30
0.0
 10
-8.2215695781
 20
11.1529361291
 30
0.0
 10
-7.9731350369
 20
11.0276158184
 30
0.0
 10
-7.7379540604
 20
10.8305752096
 30
0.0
 10
-7.5327083594
 20
10.5762462336
 30
0.0
 10
-7.3723447614
 20
10.2833294945
 30
0.0
 10
-7.2690860582
 20
9.9737469308
 30
0.0
 10
-7.2424845975
 20
9.7611909997
 30
0.0
 10
-7.2424845975
 20
9.6587835719
 30
0.0
  0
SPLINE
  5
374
100
AcDbEntity
  8
ASSI
100
AcDbSpline
 62
7
  6
CONTINUOUS
 70
0
 71
3
 72
9
 73
5
 74
0
 42
0.0000001
 43
0.0000001
 44
0.0000000001
 40
0.0
 40
0.0
 40
0.0
 40
0.0
 40
0.2493453958
 40
1.0
 40
1.0
 40
1.0
 40
1.0
 10
-12.8235427041
 20
13.1362428681
 30
0.0
 10
-12.8084431407
 20
13.0887939911
 30
0.0
 10
-12.7402779038
 20
12.9010163784
 30
0.0
 10
-12.6432852339
 20
12.723618054
 30
0.0
 10
-12.5561890886
 20
12.6016127729
 30
0.0
  0
SPLINE
  5
375
100
AcDbEntity
  8
ASSI
100
AcDbSpline
 62
7
  6
CONTINUOUS
 70
0
 71
3
 72
16
 73
12
 74
0
 42
0.0000001
 43
0.0000001
 44
0.0000000001
 40
0.0
 40
0.0
 40
0.0
 40
0.0
 40
0.0446186723
 40
0.0906989674
 40
0.191307692
 40
0.3074206884
 40
0.4383731091
 40
0.5797542493
 40
0.7251188257
 40
0.8673723727
 40
1.0
 40
1.0
 40
1.0
 40
1.0
 10
-13.8656849368
 20
13.6285187348
 30
0.0
 10
-13.8348324462
 20
13.6439451466
 30
0.0
 10
-13.768185028
 20
13.668003711
 30
0.0
 10
-13.6202833282
 20
13.6858791555
 30
0.0
 10
-13.4161004532
 20
13.6454143559
 30
0.0
 10
-13.1781089087
 20
13.514560323
 30
0.0
 10
-12.952923288
 20
13.3126193507
 30
0.0
 10
-12.7564579943
 20
13.0542101086
 30
0.0
 10
-12.6029914419
 20
12.7583507516
 30
0.0
 10
-12.5042156439
 20
12.4472173884
 30
0.0
 10
-12.4786896266
 20
12.2343828504
 30
0.0
 10
-12.4786896266
 20
12.1318498819
 30
0.0
  0
SPLINE
  5
376
100
AcDbEntity
  8
ASSI
100
AcDbSpline
 62
7
  6
CONTINUOUS
 70
0
 71
3
 72
9
 73
5
 74
0
 42
0.0000001
 43
0.0000001
 44
0.0000000001
 40
0.0
 40
0.0
 40
0.0
 40
0.0
 40
0.4991395415
 40
1.0
 40
1.0
 40
1.0
 40
1.0
 10
-7.696353194
 20
10.7704509578
 30
0.0
 10
-7.6615388549
 20
10.6261724108
 30
0.0
 10
-7.5532177926
 20
10.3456882081
 30
0.0
 10
-7.3830125158
 20
10.0978646398
 30
0.0
 10
-7.2834324041
 20
9.9871203501
 30
0.0
  0
SPLINE
  5
377
100
AcDbEntity
  8
ASSI
100
AcDbSpline
 62
7
  6
CONTINUOUS
 70
0
 71
3
 72
9
 73
5
 74
0
 42
0.0000001
 43
0.0000001
 44
0.0000000001
 40
0.0
 40
0.0
 40
0.0
 40
0.0
 40
0.4974512325
 40
1.0
 40
1.0
 40
1.0
 40
1.0
 10
-2.3305779421
 20
8.466985289
 30
0.0
 10
-2.2976747071
 20
8.290120368
 30
0.0
 10
-2.1676917566
 20
7.9453715122
 30
0.0
 10
-1.9437554036
 20
7.6532735915
 30
0.0
 10
-1.8105369324
 20
7.5296477669
 30
0.0
  0
SPLINE
  5
378
100
AcDbEntity
  8
ASSI
100
AcDbSpline
 62
7
  6
CONTINUOUS
 70
0
 71
3
 72
11
 73
7
 74
0
 42
0.0000001
 43
0.0000001
 44
0.0000000001
 40
0.0
 40
0.0
 40
0.0
 40
0.0
 40
0.2421985632
 40
0.4956166806
 40
0.7512673772
 40
1.0
 40
1.0
 40
1.0
 40
1.0
 10
3.2652582121
 20
6.2500165031
 30
0.0
 10
3.2791466517
 20
6.1512259212
 30
0.0
 10
3.3302613152
 20
5.9518627686
 30
0.0
 10
3.4627745682
 20
5.6704356012
 30
0.0
 10
3.6446452883
 20
5.4147971835
 30
0.0
 10
3.7947753292
 20
5.2690397425
 30
0.0
 10
3.8751574337
 20
5.2055147377
 30
0.0
  0
SPLINE
  5
379
100
AcDbEntity
  8
ASSI
100
AcDbSpline
 62
7
  6
CONTINUOUS
 70
0
 71
3
 72
17
 73
13
 74
0
 42
0.0000001
 43
0.0000001
 44
0.0000000001
 40
0.0
 40
0.0
 40
0.0
 40
0.0
 40
0.0431323105
 40
0.0876745487
 40
0.1350007639
 40
0.1860639059
 40
0.3007055308
 40
0.4315011893
 40
0.5738732822
 40
0.7210365565
 40
0.8654348297
 40
1.0
 40
1.0
 40
1.0
 40
1.0
 10
-18.8251537905
 20
16.2399531431
 30
0.0
 10
-18.7956892416
 20
16.2546855954
 30
0.0
 10
-18.731859827
 20
16.2773589069
 30
0.0
 10
-18.6284584518
 20
16.2880476604
 30
0.0
 10
-18.5192307002
 20
16.2758559464
 30
0.0
 10
-18.362907527
 20
16.2280763424
 30
0.0
 10
-18.1657548278
 20
16.1103860859
 30
0.0
 10
-17.9509594193
 20
15.9038678159
 30
0.0
 10
-17.7630882992
 20
15.6415326964
 30
0.0
 10
-17.6163590003
 20
15.3427108018
 30
0.0
 10
-17.5218669191
 20
15.0298054782
 30
0.0
 10
-17.4973624185
 20
14.8164569101
 30
0.0
 10
-17.4973624185
 20
14.7136823105
 30
0.0
  0
SPLINE
  5
37A
100
AcDbEntity
  8
ASSI
100
AcDbSpline
 62
7
  6
CONTINUOUS
 70
0
 71
3
 72
17
 73
13
 74
0
 42
0.0000001
 43
0.0000001
 44
0.0000000001
 40
0.0
 40
0.0
 40
0.0
 40
0.0
 40
0.0415953287
 40
0.084548542
 40
0.1304081512
 40
0.1802465411
 40
0.2933985568
 40
0.4240544385
 40
0.5674894598
 40
0.7165892802
 40
0.8633154574
 40
1.0
 40
1.0
 40
1.0
 40
1.0
 10
-23.5663772354
 20
18.9605121672
 30
0.0
 10
-23.5383066353
 20
18.9745497051
 30
0.0
 10
-23.4772964231
 20
18.995822564
 30
0.0
 10
-23.3783572141
 20
19.004164083
 30
0.0
 10
-23.2740060323
 20
18.9894550945
 30
0.0
 10
-23.1242636329
 20
18.9379393147
 30
0.0
 10
-22.9359316524
 20
18.8154330783
 30
0.0
 10
-22.7313300197
 20
18.6045632547
 30
0.0
 10
-22.5521162702
 20
18.3384535314
 30
0.0
 10
-22.4119732421
 20
18.0366179184
 30
0.0
 10
-22.3216307784
 20
17.7217089483
 30
0.0
 10
-22.2981049111
 20
17.5076123533
 30
0.0
 10
-22.2981049111
 20
17.4044798887
 30
0.0
  0
SPLINE
  5
37B
100
AcDbEntity
  8
ASSI
100
AcDbSpline
 62
7
  6
CONTINUOUS
 70
0
 71
3
 72
9
 73
5
 74
0
 42
0.0000001
 43
0.0000001
 44
0.0000000001
 40
0.0
 40
0.0
 40
0.0
 40
0.0
 40
0.2493453958
 40
1.0
 40
1.0
 40
1.0
 40
1.0
 10
-12.8235427041
 20
19.3716257753
 30
0.0
 10
-12.8084431407
 20
19.3241768984
 30
0.0
 10
-12.7402779038
 20
19.1363992856
 30
0.0
 10
-12.6432852339
 20
18.9590009612
 30
0.0
 10
-12.5561890886
 20
18.8369956802
 30
0.0
  0
SPLINE
  5
37C
100
AcDbEntity
  8
ASSI
100
AcDbSpline
 62
7
  6
CONTINUOUS
 70
0
 71
3
 72
9
 73
5
 74
0
 42
0.0000001
 43
0.0000001
 44
0.0000000001
 40
0.0
 40
0.0
 40
0.0
 40
0.0
 40
0.4991395415
 40
1.0
 40
1.0
 40
1.0
 40
1.0
 10
-7.696353194
 20
17.0058338651
 30
0.0
 10
-7.6615388549
 20
16.8615553181
 30
0.0
 10
-7.5532177926
 20
16.5810711154
 30
0.0
 10
-7.3830125158
 20
16.333247547
 30
0.0
 10
-7.2834324041
 20
16.2225032573
 30
0.0
  0
SPLINE
  5
37D
100
AcDbEntity
  8
ASSI
100
AcDbSpline
 62
7
  6
CONTINUOUS
 70
0
 71
3
 72
9
 73
5
 74
0
 42
0.0000001
 43
0.0000001
 44
0.0000000001
 40
0.0
 40
0.0
 40
0.0
 40
0.0
 40
0.4974512325
 40
1.0
 40
1.0
 40
1.0
 40
1.0
 10
-2.3305779421
 20
14.7023681963
 30
0.0
 10
-2.2976747071
 20
14.5255032753
 30
0.0
 10
-2.1676917566
 20
14.1807544195
 30
0.0
 10
-1.9437554036
 20
13.8886564987
 30
0.0
 10
-1.8105369324
 20
13.7650306741
 30
0.0
  0
SPLINE
  5
37E
100
AcDbEntity
  8
ASSI
100
AcDbSpline
 62
7
  6
CONTINUOUS
 70
0
 71
3
 72
17
 73
13
 74
0
 42
0.0000001
 43
0.0000001
 44
0.0000000001
 40
0.0
 40
0.0
 40
0.0
 40
0.0
 40
0.0399582196
 40
0.0812274405
 40
0.1255447027
 40
0.1741061165
 40
0.2857076834
 40
0.4161995042
 40
0.560716867
 40
0.7118423472
 40
0.8610456801
 40
1.0
 40
1.0
 40
1.0
 40
1.0
 10
-28.0874141621
 20
21.7911606518
 30
0.0
 10
-28.0607626337
 20
21.8044866625
 30
0.0
 10
-28.0026250645
 20
21.8243507739
 30
0.0
 10
-27.9082457178
 20
21.8303149009
 30
0.0
 10
-27.8089024597
 20
21.8130897087
 30
0.0
 10
-27.6659411031
 20
21.7578432954
 30
0.0
 10
-27.4866915945
 20
21.6306781495
 30
0.0
 10
-27.2923999525
 20
21.4156919053
 30
0.0
 10
-27.1218443039
 20
21.145906758
 30
0.0
 10
-26.9881959772
 20
20.8409631442
 30
0.0
 10
-26.9018932952
 20
20.5237717429
 30
0.0
 10
-26.8793126332
 20
20.3086651072
 30
0.0
 10
-26.8793126332
 20
20.2050448522
 30
0.0
  0
SPLINE
  5
37F
100
AcDbEntity
  8
ASSI
100
AcDbSpline
 62
7
  6
CONTINUOUS
 70
0
 71
3
 72
11
 73
7
 74
0
 42
0.0000001
 43
0.0000001
 44
0.0000000001
 40
0.0
 40
0.0
 40
0.0
 40
0.0
 40
0.2421985632
 40
0.4956166806
 40
0.7512673772
 40
1.0
 40
1.0
 40
1.0
 40
1.0
 10
3.2652582121
 20
12.4853994104
 30
0.0
 10
3.2791466517
 20
12.3866088285
 30
0.0
 10
3.3302613152
 20
12.1872456759
 30
0.0
 10
3.4627745682
 20
11.9058185084
 30
0.0
 10
3.6446452883
 20
11.6501800908
 30
0.0
 10
3.7947753292
 20
11.5044226498
 30
0.0
 10
3.8751574337
 20
11.4408976449
 30
0.0
  0
SPLINE
  5
380
100
AcDbEntity
  8
ASSI
100
AcDbSpline
 62
7
  6
CONTINUOUS
 70
0
 71
3
 72
16
 73
12
 74
0
 42
0.0000001
 43
0.0000001
 44
0.0000000001
 40
0.0
 40
0.0
 40
0.0
 40
0.0
 40
0.0486522271
 40
0.0988939831
 40
0.2066448751
 40
0.3266236282
 40
0.4577148403
 40
0.5960758329
 40
0.7363259174
 40
0.8726586962
 40
1.0
 40
1.0
 40
1.0
 40
1.0
 10
2.3209488103
 20
0.2129462377
 30
0.0
 10
2.3559765606
 20
0.2304603416
 30
0.0
 10
2.4310900405
 20
0.2587112377
 30
0.0
 10
2.5960845268
 20
0.2859388735
 30
0.0
 10
2.8228430611
 20
0.2604131791
 30
0.0
 10
3.0916270534
 20
0.1468653253
 30
0.0
 10
3.3467411104
 20
-0.0394615014
 30
0.0
 10
3.569995651
 20
-0.2849834848
 30
0.0
 10
3.7449497209
 20
-0.5719537823
 30
0.0
 10
3.8579526821
 20
-0.8790210731
 30
0.0
 10
3.886929031
 20
-1.0917275535
 30
0.0
 10
3.886929031
 20
-1.1942301702
 30
0.0
  0
SPLINE
  5
381
100
AcDbEntity
  8
ASSI
100
AcDbSpline
 62
7
  6
CONTINUOUS
 70
0
 71
3
 72
9
 73
5
 74
0
 42
0.0000001
 43
0.0000001
 44
0.0000000001
 40
0.0
 40
0.0
 40
0.0
 40
0.0
 40
0.2493453958
 40
1.0
 40
1.0
 40
1.0
 40
1.0
 10
-12.8235427041
 20
25.6070086826
 30
0.0
 10
-12.8084431407
 20
25.5595598056
 30
0.0
 10
-12.7402779038
 20
25.3717821929
 30
0.0
 10
-12.6432852339
 20
25.1943838685
 30
0.0
 10
-12.5561890886
 20
25.0723785874
 30
0.0
  0
SPLINE
  5
382
100
AcDbEntity
  8
ASSI
100
AcDbSpline
 62
7
  6
CONTINUOUS
 70
0
 71
3
 72
9
 73
5
 74
0
 42
0.0000001
 43
0.0000001
 44
0.0000000001
 40
0.0
 40
0.0
 40
0.0
 40
0.0
 40
0.4991395415
 40
1.0
 40
1.0
 40
1.0
 40
1.0
 10
-7.696353194
 20
23.2412167723
 30
0.0
 10
-7.6615388549
 20
23.0969382253
 30
0.0
 10
-7.5532177926
 20
22.8164540226
 30
0.0
 10
-7.3830125158
 20
22.5686304543
 30
0.0
 10
-7.2834324041
 20
22.4578861646
 30
0.0
  0
SPLINE
  5
383
100
AcDbEntity
  8
ASSI
100
AcDbSpline
 62
7
  6
CONTINUOUS
 70
0
 71
3
 72
16
 73
12
 74
0
 42
0.0000001
 43
0.0000001
 44
0.0000000001
 40
0.0
 40
0.0
 40
0.0
 40
0.0
 40
0.0473561297
 40
0.0962644957
 40
0.2017231734
 40
0.3204613292
 40
0.4515246748
 40
0.5908749
 40
0.7327692062
 40
0.8709850058
 40
1.0
 40
1.0
 40
1.0
 40
1.0
 10
-3.293708991
 20
2.4967860832
 30
0.0
 10
-3.2600858259
 20
2.5135966229
 30
0.0
 10
-3.1878208646
 20
2.5404392627
 30
0.0
 10
-3.0285598718
 20
2.5645486601
 30
0.0
 10
-2.8092533957
 20
2.5340665488
 30
0.0
 10
-2.5505875267
 20
2.4145579996
 30
0.0
 10
-2.305439374
 20
2.2227415808
 30
0.0
 10
-2.0912530287
 20
1.9727041159
 30
0.0
 10
-1.9237112847
 20
1.682721952
 30
0.0
 10
-1.8157055068
 20
1.3744527641
 30
0.0
 10
-1.7879499899
 20
1.1619114622
 30
0.0
 10
-1.7879499899
 20
1.0594991439
 30
0.0
  0
SPLINE
  5
384
100
AcDbEntity
  8
ASSI
100
AcDbSpline
 62
7
  6
CONTINUOUS
 70
0
 71
3
 72
9
 73
5
 74
0
 42
0.0000001
 43
0.0000001
 44
0.0000000001
 40
0.0
 40
0.0
 40
0.0
 40
0.0
 40
0.4974512325
 40
1.0
 40
1.0
 40
1.0
 40
1.0
 10
-2.3305779421
 20
20.9377511035
 30
0.0
 10
-2.2976747071
 20
20.7608861825
 30
0.0
 10
-2.1676917566
 20
20.4161373267
 30
0.0
 10
-1.9437554036
 20
20.124039406
 30
0.0
 10
-1.8105369324
 20
20.0004135814
 30
0.0
  0
SPLINE
  5
385
100
AcDbEntity
  8
ASSI
100
AcDbSpline
 62
7
  6
CONTINUOUS
 70
0
 71
3
 72
11
 73
7
 74
0
 42
0.0000001
 43
0.0000001
 44
0.0000000001
 40
0.0
 40
0.0
 40
0.0
 40
0.0
 40
0.2421985632
 40
0.4956166806
 40
0.7512673772
 40
1.0
 40
1.0
 40
1.0
 40
1.0
 10
3.2652582121
 20
18.7207823176
 30
0.0
 10
3.2791466517
 20
18.6219917357
 30
0.0
 10
3.3302613152
 20
18.4226285831
 30
0.0
 10
3.4627745682
 20
18.1412014157
 30
0.0
 10
3.6446452883
 20
17.885562998
 30
0.0
 10
3.7947753292
 20
17.739805557
 30
0.0
 10
3.8751574337
 20
17.6762805522
 30
0.0
  0
SPLINE
  5
386
100
AcDbEntity
  8
ASSI
100
AcDbSpline
 62
7
  6
CONTINUOUS
 70
0
 71
3
 72
16
 73
12
 74
0
 42
0.0000001
 43
0.0000001
 44
0.0000000001
 40
0.0
 40
0.0
 40
0.0
 40
0.0
 40
0.0460199288
 40
0.0935497868
 40
0.1966471025
 40
0.3141164413
 40
0.4451413256
 40
0.5854920909
 40
0.7290755433
 40
0.8692448372
 40
1.0
 40
1.0
 40
1.0
 40
1.0
 10
-8.6886937863
 20
4.8904625741
 30
0.0
 10
-8.656456192
 20
4.9065815424
 30
0.0
 10
-8.5869976669
 20
4.9320293787
 30
0.0
 10
-8.4334011828
 20
4.9530252116
 30
0.0
 10
-8.2215695781
 20
4.9175532218
 30
0.0
 10
-7.9731350369
 20
4.7922329112
 30
0.0
 10
-7.7379540604
 20
4.5951923024
 30
0.0
 10
-7.5327083594
 20
4.3408633264
 30
0.0
 10
-7.3723447614
 20
4.0479465872
 30
0.0
 10
-7.2690860582
 20
3.7383640235
 30
0.0
 10
-7.2424845975
 20
3.5258080924
 30
0.0
 10
-7.2424845975
 20
3.4234006646
 30
0.0
  0
SPLINE
  5
387
100
AcDbEntity
  8
ASSI
100
AcDbSpline
 62
7
  6
CONTINUOUS
 70
0
 71
3
 72
16
 73
12
 74
0
 42
0.0000001
 43
0.0000001
 44
0.0000000001
 40
0.0
 40
0.0
 40
0.0
 40
0.0
 40
0.0446186723
 40
0.0906989674
 40
0.191307692
 40
0.3074206884
 40
0.4383731091
 40
0.5797542493
 40
0.7251188257
 40
0.8673723727
 40
1.0
 40
1.0
 40
1.0
 40
1.0
 10
-13.8656849368
 20
7.3931358275
 30
0.0
 10
-13.8348324462
 20
7.4085622394
 30
0.0
 10
-13.768185028
 20
7.4326208038
 30
0.0
 10
-13.6202833282
 20
7.4504962482
 30
0.0
 10
-13.4161004532
 20
7.4100314486
 30
0.0
 10
-13.1781089087
 20
7.2791774157
 30
0.0
 10
-12.952923288
 20
7.0772364434
 30
0.0
 10
-12.7564579943
 20
6.8188272013
 30
0.0
 10
-12.6029914419
 20
6.5229678443
 30
0.0
 10
-12.5042156439
 20
6.2118344812
 30
0.0
 10
-12.4786896266
 20
5.9989999432
 30
0.0
 10
-12.4786896266
 20
5.8964669747
 30
0.0
  0
SPLINE
  5
388
100
AcDbEntity
  8
ASSI
100
AcDbSpline
 62
7
  6
CONTINUOUS
 70
0
 71
3
 72
17
 73
13
 74
0
 42
0.0000001
 43
0.0000001
 44
0.0000000001
 40
0.0
 40
0.0
 40
0.0
 40
0.0
 40
0.0431323105
 40
0.0876745487
 40
0.1350007639
 40
0.1860639059
 40
0.3007055308
 40
0.4315011893
 40
0.5738732822
 40
0.7210365565
 40
0.8654348297
 40
1.0
 40
1.0
 40
1.0
 40
1.0
 10
-18.8251537905
 20
10.0045702359
 30
0.0
 10
-18.7956892416
 20
10.0193026881
 30
0.0
 10
-18.731859827
 20
10.0419759997
 30
0.0
 10
-18.6284584518
 20
10.0526647531
 30
0.0
 10
-18.5192307002
 20
10.0404730391
 30
0.0
 10
-18.362907527
 20
9.9926934352
 30
0.0
 10
-18.1657548278
 20
9.8750031787
 30
0.0
 10
-17.9509594193
 20
9.6684849086
 30
0.0
 10
-17.7630882992
 20
9.4061497891
 30
0.0
 10
-17.6163590003
 20
9.1073278946
 30
0.0
 10
-17.5218669191
 20
8.794422571
 30
0.0
 10
-17.4973624185
 20
8.5810740028
 30
0.0
 10
-17.4973624185
 20
8.4782994032
 30
0.0
  0
SPLINE
  5
389
100
AcDbEntity
  8
ASSI
100
AcDbSpline
 62
7
  6
CONTINUOUS
 70
0
 71
3
 72
11
 73
7
 74
0
 42
0.0000001
 43
0.0000001
 44
0.0000000001
 40
0.0
 40
0.0
 40
0.0
 40
0.0
 40
0.3029855241
 40
0.5682288658
 40
0.7970176823
 40
1.0
 40
1.0
 40
1.0
 40
1.0
 10
-26.8793126332
 20
-4.7364867768
 30
0.0
 10
-26.8793126332
 20
-4.8090848744
 30
0.0
 10
-26.889354209
 20
-4.9456604928
 30
0.0
 10
-26.9407118921
 20
-5.1312172951
 30
0.0
 10
-27.0264266229
 20
-5.2774370345
 30
0.0
 10
-27.1092518306
 20
-5.344566254
 30
0.0
 10
-27.1527534179
 20
-5.3663174126
 30
0.0
  0
SPLINE
  5
38A
100
AcDbEntity
  8
ASSI
100
AcDbSpline
 62
7
  6
CONTINUOUS
 70
0
 71
3
 72
11
 73
7
 74
0
 42
0.0000001
 43
0.0000001
 44
0.0000000001
 40
0.0
 40
0.0
 40
0.0
 40
0.0
 40
0.2981108358
 40
0.5613742573
 40
0.7918187557
 40
1.0
 40
1.0
 40
1.0
 40
1.0
 10
-22.2981049111
 20
-7.5370517403
 30
0.0
 10
-22.2981049111
 20
-7.6097626218
 30
0.0
 10
-22.3087478655
 20
-7.7471429383
 30
0.0
 10
-22.3629083428
 20
-7.9342807624
 30
0.0
 10
-22.4533729738
 20
-8.0826489132
 30
0.0
 10
-22.539657061
 20
-8.1509396302
 30
0.0
 10
-22.5850736543
 20
-8.1736462762
 30
0.0
  0
SPLINE
  5
38B
100
AcDbEntity
  8
ASSI
100
AcDbSpline
 62
7
  6
CONTINUOUS
 70
0
 71
3
 72
11
 73
7
 74
0
 42
0.0000001
 43
0.0000001
 44
0.0000000001
 40
0.0
 40
0.0
 40
0.0
 40
0.0
 40
0.2935325471
 40
0.5549446555
 40
0.7869508486
 40
1.0
 40
1.0
 40
1.0
 40
1.0
 10
-17.4973624185
 20
-10.2278493185
 30
0.0
 10
-17.4973624185
 20
-10.3006988604
 30
0.0
 10
-17.508618195
 20
-10.4389209748
 30
0.0
 10
-17.56560337
 20
-10.6276283001
 30
0.0
 10
-17.6607639873
 20
-10.7780502159
 30
0.0
 10
-17.750428018
 20
-10.8474920762
 30
0.0
 10
-17.7977207462
 20
-10.8711387114
 30
0.0
  0
SPLINE
  5
38C
100
AcDbEntity
  8
ASSI
100
AcDbSpline
 62
7
  6
CONTINUOUS
 70
0
 71
3
 72
11
 73
7
 74
0
 42
0.0000001
 43
0.0000001
 44
0.0000000001
 40
0.0
 40
0.0
 40
0.0
 40
0.0
 40
0.2892108125
 40
0.548882907
 40
0.7823758826
 40
1.0
 40
1.0
 40
1.0
 40
1.0
 10
-12.4786896266
 20
-12.8096817471
 30
0.0
 10
-12.4786896266
 20
-12.8826961857
 30
0.0
 10
-12.4905732495
 20
-13.0218010746
 30
0.0
 10
-12.5504241768
 20
-13.2120731931
 30
0.0
 10
-12.6502478666
 20
-13.3644706651
 30
0.0
 10
-12.7432330972
 20
-13.4350634527
 30
0.0
 10
-12.7923742467
 20
-13.4596342903
 30
0.0
  0
SPLINE
  5
38D
100
AcDbEntity
  8
ASSI
100
AcDbSpline
 62
7
  6
CONTINUOUS
 70
0
 71
3
 72
11
 73
7
 74
0
 42
0.0000001
 43
0.0000001
 44
0.0000000001
 40
0.0
 40
0.0
 40
0.0
 40
0.0
 40
0.2851134764
 40
0.5431495342
 40
0.778066097
 40
1.0
 40
1.0
 40
1.0
 40
1.0
 10
-7.2424845975
 20
-15.2827480571
 30
0.0
 10
-7.2424845975
 20
-15.3559549272
 30
0.0
 10
-7.2550167612
 20
-15.4959902131
 30
0.0
 10
-7.3177908171
 20
-15.6878311262
 30
0.0
 10
-7.4222702603
 20
-15.8421390995
 30
0.0
 10
-7.5185369489
 20
-15.9138841967
 30
0.0
 10
-7.5695054409
 20
-15.9393687226
 30
0.0
  0
SPLINE
  5
38E
100
AcDbEntity
  8
ASSI
100
AcDbSpline
 62
7
  6
CONTINUOUS
 70
0
 71
3
 72
11
 73
7
 74
0
 42
0.0000001
 43
0.0000001
 44
0.0000000001
 40
0.0
 40
0.0
 40
0.0
 40
0.0
 40
0.2812173145
 40
0.5377140399
 40
0.7740046579
 40
1.0
 40
1.0
 40
1.0
 40
1.0
 10
-1.7879499899
 20
-17.6466495778
 30
0.0
 10
-1.7879499899
 20
-17.7200792461
 30
0.0
 10
-1.8011552369
 20
-17.8611013217
 30
0.0
 10
-1.8669358292
 20
-18.0545221903
 30
0.0
 10
-1.9760854458
 20
-18.210687357
 30
0.0
 10
-2.0756105403
 20
-18.2835885085
 30
0.0
 10
-2.1283896959
 20
-18.3099815963
 30
0.0
  0
SPLINE
  5
38F
100
AcDbEntity
  8
ASSI
100
AcDbSpline
 62
7
  6
CONTINUOUS
 70
0
 71
3
 72
11
 73
7
 74
0
 42
0.0000001
 43
0.0000001
 44
0.0000000001
 40
0.0
 40
0.0
 40
0.0
 40
0.0
 40
0.2774848319
 40
0.5325322334
 40
0.7701505666
 40
1.0
 40
1.0
 40
1.0
 40
1.0
 10
3.886929031
 20
-19.900378892
 30
0.0
 10
3.886929031
 20
-19.9740607629
 30
0.0
 10
3.8730141353
 20
-20.1161288037
 30
0.0
 10
3.8041461628
 20
-20.3111525839
 30
0.0
 10
3.6902801321
 20
-20.4691328376
 30
0.0
 10
3.5874989741
 20
-20.5432038237
 30
0.0
 10
3.532909539
 20
-20.5704989271
 30
0.0
  0
SPLINE
  5
390
100
AcDbEntity
  8
ASSI
100
AcDbSpline
 62
7
  6
CONTINUOUS
 70
0
 71
3
 72
11
 73
7
 74
0
 42
0.0000001
 43
0.0000001
 44
0.0000000001
 40
0.0
 40
0.0
 40
0.0
 40
0.0
 40
0.3029855241
 40
0.5682288658
 40
0.7970176823
 40
1.0
 40
1.0
 40
1.0
 40
1.0
 10
-26.8793126332
 20
1.4988961305
 30
0.0
 10
-26.8793126332
 20
1.4262980328
 30
0.0
 10
-26.889354209
 20
1.2897224145
 30
0.0
 10
-26.9407118921
 20
1.1041656121
 30
0.0
 10
-27.0264266229
 20
0.9579458727
 30
0.0
 10
-27.1092518306
 20
0.8908166533
 30
0.0
 10
-27.1527534179
 20
0.8690654947
 30
0.0
  0
SPLINE
  5
391
100
AcDbEntity
  8
ASSI
100
AcDbSpline
 62
7
  6
CONTINUOUS
 70
0
 71
3
 72
11
 73
7
 74
0
 42
0.0000001
 43
0.0000001
 44
0.0000000001
 40
0.0
 40
0.0
 40
0.0
 40
0.0
 40
0.2981108358
 40
0.5613742573
 40
0.7918187557
 40
1.0
 40
1.0
 40
1.0
 40
1.0
 10
-22.2981049111
 20
-1.301668833
 30
0.0
 10
-22.2981049111
 20
-1.3743797145
 30
0.0
 10
-22.3087478655
 20
-1.5117600311
 30
0.0
 10
-22.3629083428
 20
-1.6988978552
 30
0.0
 10
-22.4533729738
 20
-1.8472660059
 30
0.0
 10
-22.539657061
 20
-1.9155567229
 30
0.0
 10
-22.5850736543
 20
-1.938263369
 30
0.0
  0
SPLINE
  5
392
100
AcDbEntity
  8
ASSI
100
AcDbSpline
 62
7
  6
CONTINUOUS
 70
0
 71
3
 72
11
 73
7
 74
0
 42
0.0000001
 43
0.0000001
 44
0.0000000001
 40
0.0
 40
0.0
 40
0.0
 40
0.0
 40
0.2935325471
 40
0.5549446555
 40
0.7869508486
 40
1.0
 40
1.0
 40
1.0
 40
1.0
 10
-17.4973624185
 20
-3.9924664113
 30
0.0
 10
-17.4973624185
 20
-4.0653159532
 30
0.0
 10
-17.508618195
 20
-4.2035380675
 30
0.0
 10
-17.56560337
 20
-4.3922453928
 30
0.0
 10
-17.6607639873
 20
-4.5426673087
 30
0.0
 10
-17.750428018
 20
-4.612109169
 30
0.0
 10
-17.7977207462
 20
-4.6357558042
 30
0.0
  0
SPLINE
  5
393
100
AcDbEntity
  8
ASSI
100
AcDbSpline
 62
7
  6
CONTINUOUS
 70
0
 71
3
 72
11
 73
7
 74
0
 42
0.0000001
 43
0.0000001
 44
0.0000000001
 40
0.0
 40
0.0
 40
0.0
 40
0.0
 40
0.2892108125
 40
0.548882907
 40
0.7823758826
 40
1.0
 40
1.0
 40
1.0
 40
1.0
 10
-12.4786896266
 20
-6.5742988398
 30
0.0
 10
-12.4786896266
 20
-6.6473132784
 30
0.0
 10
-12.4905732495
 20
-6.7864181674
 30
0.0
 10
-12.5504241768
 20
-6.9766902858
 30
0.0
 10
-12.6502478666
 20
-7.1290877578
 30
0.0
 10
-12.7432330972
 20
-7.1996805454
 30
0.0
 10
-12.7923742467
 20
-7.2242513831
 30
0.0
  0
SPLINE
  5
394
100
AcDbEntity
  8
ASSI
100
AcDbSpline
 62
7
  6
CONTINUOUS
 70
0
 71
3
 72
11
 73
7
 74
0
 42
0.0000001
 43
0.0000001
 44
0.0000000001
 40
0.0
 40
0.0
 40
0.0
 40
0.0
 40
0.2851134764
 40
0.5431495342
 40
0.778066097
 40
1.0
 40
1.0
 40
1.0
 40
1.0
 10
-7.2424845975
 20
-9.0473651499
 30
0.0
 10
-7.2424845975
 20
-9.12057202
 30
0.0
 10
-7.2550167612
 20
-9.2606073058
 30
0.0
 10
-7.3177908171
 20
-9.452448219
 30
0.0
 10
-7.4222702603
 20
-9.6067561922
 30
0.0
 10
-7.5185369489
 20
-9.6785012895
 30
0.0
 10
-7.5695054409
 20
-9.7039858153
 30
0.0
  0
SPLINE
  5
395
100
AcDbEntity
  8
ASSI
100
AcDbSpline
 62
7
  6
CONTINUOUS
 70
0
 71
3
 72
11
 73
7
 74
0
 42
0.0000001
 43
0.0000001
 44
0.0000000001
 40
0.0
 40
0.0
 40
0.0
 40
0.0
 40
0.2812173145
 40
0.5377140399
 40
0.7740046579
 40
1.0
 40
1.0
 40
1.0
 40
1.0
 10
-1.7879499899
 20
-11.4112666706
 30
0.0
 10
-1.7879499899
 20
-11.4846963389
 30
0.0
 10
-1.8011552369
 20
-11.6257184145
 30
0.0
 10
-1.8669358292
 20
-11.819139283
 30
0.0
 10
-1.9760854458
 20
-11.9753044498
 30
0.0
 10
-2.0756105403
 20
-12.0482056013
 30
0.0
 10
-2.1283896959
 20
-12.0745986891
 30
0.0
  0
SPLINE
  5
396
100
AcDbEntity
  8
ASSI
100
AcDbSpline
 62
7
  6
CONTINUOUS
 70
0
 71
3
 72
11
 73
7
 74
0
 42
0.0000001
 43
0.0000001
 44
0.0000000001
 40
0.0
 40
0.0
 40
0.0
 40
0.0
 40
0.2774848319
 40
0.5325322334
 40
0.7701505666
 40
1.0
 40
1.0
 40
1.0
 40
1.0
 10
3.886929031
 20
-13.6649959847
 30
0.0
 10
3.886929031
 20
-13.7386778557
 30
0.0
 10
3.8730141353
 20
-13.8807458965
 30
0.0
 10
3.8041461628
 20
-14.0757696766
 30
0.0
 10
3.6902801321
 20
-14.2337499303
 30
0.0
 10
3.5874989741
 20
-14.3078209165
 30
0.0
 10
3.532909539
 20
-14.3351160198
 30
0.0
  0
SPLINE
  5
397
100
AcDbEntity
  8
ASSI
100
AcDbSpline
 62
7
  6
CONTINUOUS
 70
0
 71
3
 72
11
 73
7
 74
0
 42
0.0000001
 43
0.0000001
 44
0.0000000001
 40
0.0
 40
0.0
 40
0.0
 40
0.0
 40
0.3029855241
 40
0.5682288658
 40
0.7970176823
 40
1.0
 40
1.0
 40
1.0
 40
1.0
 10
-26.8793126332
 20
7.7342790377
 30
0.0
 10
-26.8793126332
 20
7.6616809401
 30
0.0
 10
-26.889354209
 20
7.5251053217
 30
0.0
 10
-26.9407118921
 20
7.3395485194
 30
0.0
 10
-27.0264266229
 20
7.19332878
 30
0.0
 10
-27.1092518306
 20
7.1261995605
 30
0.0
 10
-27.1527534179
 20
7.1044484019
 30
0.0
  0
SPLINE
  5
398
100
AcDbEntity
  8
ASSI
100
AcDbSpline
 62
7
  6
CONTINUOUS
 70
0
 71
3
 72
11
 73
7
 74
0
 42
0.0000001
 43
0.0000001
 44
0.0000000001
 40
0.0
 40
0.0
 40
0.0
 40
0.0
 40
0.2981108358
 40
0.5613742573
 40
0.7918187557
 40
1.0
 40
1.0
 40
1.0
 40
1.0
 10
-22.2981049111
 20
4.9337140742
 30
0.0
 10
-22.2981049111
 20
4.8610031927
 30
0.0
 10
-22.3087478655
 20
4.7236228762
 30
0.0
 10
-22.3629083428
 20
4.5364850521
 30
0.0
 10
-22.4533729738
 20
4.3881169013
 30
0.0
 10
-22.539657061
 20
4.3198261843
 30
0.0
 10
-22.5850736543
 20
4.2971195383
 30
0.0
  0
SPLINE
  5
399
100
AcDbEntity
  8
ASSI
100
AcDbSpline
 62
7
  6
CONTINUOUS
 70
0
 71
3
 72
11
 73
7
 74
0
 42
0.0000001
 43
0.0000001
 44
0.0000000001
 40
0.0
 40
0.0
 40
0.0
 40
0.0
 40
0.2935325471
 40
0.5549446555
 40
0.7869508486
 40
1.0
 40
1.0
 40
1.0
 40
1.0
 10
-17.4973624185
 20
2.242916496
 30
0.0
 10
-17.4973624185
 20
2.1700669541
 30
0.0
 10
-17.508618195
 20
2.0318448397
 30
0.0
 10
-17.56560337
 20
1.8431375144
 30
0.0
 10
-17.6607639873
 20
1.6927155986
 30
0.0
 10
-17.750428018
 20
1.6232737383
 30
0.0
 10
-17.7977207462
 20
1.5996271031
 30
0.0
  0
SPLINE
  5
39A
100
AcDbEntity
  8
ASSI
100
AcDbSpline
 62
7
  6
CONTINUOUS
 70
0
 71
3
 72
11
 73
7
 74
0
 42
0.0000001
 43
0.0000001
 44
0.0000000001
 40
0.0
 40
0.0
 40
0.0
 40
0.0
 40
0.2892108125
 40
0.548882907
 40
0.7823758826
 40
1.0
 40
1.0
 40
1.0
 40
1.0
 10
-12.4786896266
 20
-0.3389159326
 30
0.0
 10
-12.4786896266
 20
-0.4119303712
 30
0.0
 10
-12.4905732495
 20
-0.5510352601
 30
0.0
 10
-12.5504241768
 20
-0.7413073786
 30
0.0
 10
-12.6502478666
 20
-0.8937048506
 30
0.0
 10
-12.7432330972
 20
-0.9642976382
 30
0.0
 10
-12.7923742467
 20
-0.9888684758
 30
0.0
  0
SPLINE
  5
39B
100
AcDbEntity
  8
ASSI
100
AcDbSpline
 62
7
  6
CONTINUOUS
 70
0
 71
3
 72
11
 73
7
 74
0
 42
0.0000001
 43
0.0000001
 44
0.0000000001
 40
0.0
 40
0.0
 40
0.0
 40
0.0
 40
0.2851134764
 40
0.5431495342
 40
0.778066097
 40
1.0
 40
1.0
 40
1.0
 40
1.0
 10
-7.2424845975
 20
-2.8119822426
 30
0.0
 10
-7.2424845975
 20
-2.8851891127
 30
0.0
 10
-7.2550167612
 20
-3.0252243986
 30
0.0
 10
-7.3177908171
 20
-3.2170653117
 30
0.0
 10
-7.4222702603
 20
-3.371373285
 30
0.0
 10
-7.5185369489
 20
-3.4431183822
 30
0.0
 10
-7.5695054409
 20
-3.4686029081
 30
0.0
  0
SPLINE
  5
39C
100
AcDbEntity
  8
ASSI
100
AcDbSpline
 62
7
  6
CONTINUOUS
 70
0
 71
3
 72
11
 73
7
 74
0
 42
0.0000001
 43
0.0000001
 44
0.0000000001
 40
0.0
 40
0.0
 40
0.0
 40
0.0
 40
0.2812173145
 40
0.5377140399
 40
0.7740046579
 40
1.0
 40
1.0
 40
1.0
 40
1.0
 10
-1.7879499899
 20
-5.1758837633
 30
0.0
 10
-1.7879499899
 20
-5.2493134316
 30
0.0
 10
-1.8011552369
 20
-5.3903355072
 30
0.0
 10
-1.8669358292
 20
-5.5837563758
 30
0.0
 10
-1.9760854458
 20
-5.7399215426
 30
0.0
 10
-2.0756105403
 20
-5.812822694
 30
0.0
 10
-2.1283896959
 20
-5.8392157818
 30
0.0
  0
SPLINE
  5
39D
100
AcDbEntity
  8
ASSI
100
AcDbSpline
 62
7
  6
CONTINUOUS
 70
0
 71
3
 72
11
 73
7
 74
0
 42
0.0000001
 43
0.0000001
 44
0.0000000001
 40
0.0
 40
0.0
 40
0.0
 40
0.0
 40
0.2774848319
 40
0.5325322334
 40
0.7701505666
 40
1.0
 40
1.0
 40
1.0
 40
1.0
 10
3.886929031
 20
-7.4296130775
 30
0.0
 10
3.886929031
 20
-7.5032949484
 30
0.0
 10
3.8730141353
 20
-7.6453629892
 30
0.0
 10
3.8041461628
 20
-7.8403867694
 30
0.0
 10
3.6902801321
 20
-7.9983670231
 30
0.0
 10
3.5874989741
 20
-8.0724380092
 30
0.0
 10
3.532909539
 20
-8.0997331126
 30
0.0
  0
SPLINE
  5
39E
100
AcDbEntity
  8
ASSI
100
AcDbSpline
 62
7
  6
CONTINUOUS
 70
0
 71
3
 72
11
 73
7
 74
0
 42
0.0000001
 43
0.0000001
 44
0.0000000001
 40
0.0
 40
0.0
 40
0.0
 40
0.0
 40
0.3029855241
 40
0.5682288658
 40
0.7970176823
 40
1.0
 40
1.0
 40
1.0
 40
1.0
 10
-26.8793126332
 20
13.969661945
 30
0.0
 10
-26.8793126332
 20
13.8970638473
 30
0.0
 10
-26.889354209
 20
13.760488229
 30
0.0
 10
-26.9407118921
 20
13.5749314266
 30
0.0
 10
-27.0264266229
 20
13.4287116872
 30
0.0
 10
-27.1092518306
 20
13.3615824678
 30
0.0
 10
-27.1527534179
 20
13.3398313092
 30
0.0
  0
SPLINE
  5
39F
100
AcDbEntity
  8
ASSI
100
AcDbSpline
 62
7
  6
CONTINUOUS
 70
0
 71
3
 72
11
 73
7
 74
0
 42
0.0000001
 43
0.0000001
 44
0.0000000001
 40
0.0
 40
0.0
 40
0.0
 40
0.0
 40
0.2981108358
 40
0.5613742573
 40
0.7918187557
 40
1.0
 40
1.0
 40
1.0
 40
1.0
 10
-22.2981049111
 20
11.1690969815
 30
0.0
 10
-22.2981049111
 20
11.0963861
 30
0.0
 10
-22.3087478655
 20
10.9590057834
 30
0.0
 10
-22.3629083428
 20
10.7718679593
 30
0.0
 10
-22.4533729738
 20
10.6234998086
 30
0.0
 10
-22.539657061
 20
10.5552090916
 30
0.0
 10
-22.5850736543
 20
10.5325024455
 30
0.0
  0
SPLINE
  5
3A0
100
AcDbEntity
  8
ASSI
100
AcDbSpline
 62
7
  6
CONTINUOUS
 70
0
 71
3
 72
11
 73
7
 74
0
 42
0.0000001
 43
0.0000001
 44
0.0000000001
 40
0.0
 40
0.0
 40
0.0
 40
0.0
 40
0.2935325471
 40
0.5549446555
 40
0.7869508486
 40
1.0
 40
1.0
 40
1.0
 40
1.0
 10
-17.4973624185
 20
8.4782994032
 30
0.0
 10
-17.4973624185
 20
8.4054498613
 30
0.0
 10
-17.508618195
 20
8.267227747
 30
0.0
 10
-17.56560337
 20
8.0785204217
 30
0.0
 10
-17.6607639873
 20
7.9280985058
 30
0.0
 10
-17.750428018
 20
7.8586566455
 30
0.0
 10
-17.7977207462
 20
7.8350100103
 30
0.0
  0
SPLINE
  5
3A1
100
AcDbEntity
  8
ASSI
100
AcDbSpline
 62
7
  6
CONTINUOUS
 70
0
 71
3
 72
11
 73
7
 74
0
 42
0.0000001
 43
0.0000001
 44
0.0000000001
 40
0.0
 40
0.0
 40
0.0
 40
0.0
 40
0.2892108125
 40
0.548882907
 40
0.7823758826
 40
1.0
 40
1.0
 40
1.0
 40
1.0
 10
-12.4786896266
 20
5.8964669747
 30
0.0
 10
-12.4786896266
 20
5.8234525361
 30
0.0
 10
-12.4905732495
 20
5.6843476471
 30
0.0
 10
-12.5504241768
 20
5.4940755287
 30
0.0
 10
-12.6502478666
 20
5.3416780567
 30
0.0
 10
-12.7432330972
 20
5.2710852691
 30
0.0
 10
-12.7923742467
 20
5.2465144314
 30
0.0
  0
SPLINE
  5
3A2
100
AcDbEntity
  8
ASSI
100
AcDbSpline
 62
7
  6
CONTINUOUS
 70
0
 71
3
 72
11
 73
7
 74
0
 42
0.0000001
 43
0.0000001
 44
0.0000000001
 40
0.0
 40
0.0
 40
0.0
 40
0.0
 40
0.2851134764
 40
0.5431495342
 40
0.778066097
 40
1.0
 40
1.0
 40
1.0
 40
1.0
 10
-7.2424845975
 20
3.4234006646
 30
0.0
 10
-7.2424845975
 20
3.3501937945
 30
0.0
 10
-7.2550167612
 20
3.2101585087
 30
0.0
 10
-7.3177908171
 20
3.0183175955
 30
0.0
 10
-7.4222702603
 20
2.8640096223
 30
0.0
 10
-7.5185369489
 20
2.792264525
 30
0.0
 10
-7.5695054409
 20
2.7667799992
 30
0.0
  0
SPLINE
  5
3A3
100
AcDbEntity
  8
ASSI
100
AcDbSpline
 62
7
  6
CONTINUOUS
 70
0
 71
3
 72
11
 73
7
 74
0
 42
0.0000001
 43
0.0000001
 44
0.0000000001
 40
0.0
 40
0.0
 40
0.0
 40
0.0
 40
0.2812173145
 40
0.5377140399
 40
0.7740046579
 40
1.0
 40
1.0
 40
1.0
 40
1.0
 10
-1.7879499899
 20
1.0594991439
 30
0.0
 10
-1.7879499899
 20
0.9860694756
 30
0.0
 10
-1.8011552369
 20
0.8450474
 30
0.0
 10
-1.8669358292
 20
0.6516265315
 30
0.0
 10
-1.9760854458
 20
0.4954613647
 30
0.0
 10
-2.0756105403
 20
0.4225602132
 30
0.0
 10
-2.1283896959
 20
0.3961671254
 30
0.0
  0
SPLINE
  5
3A4
100
AcDbEntity
  8
ASSI
100
AcDbSpline
 62
7
  6
CONTINUOUS
 70
0
 71
3
 72
11
 73
7
 74
0
 42
0.0000001
 43
0.0000001
 44
0.0000000001
 40
0.0
 40
0.0
 40
0.0
 40
0.0
 40
0.2774848319
 40
0.5325322334
 40
0.7701505666
 40
1.0
 40
1.0
 40
1.0
 40
1.0
 10
3.886929031
 20
-1.1942301702
 30
0.0
 10
3.886929031
 20
-1.2679120412
 30
0.0
 10
3.8730141353
 20
-1.409980082
 30
0.0
 10
3.8041461628
 20
-1.6050038621
 30
0.0
 10
3.6902801321
 20
-1.7629841159
 30
0.0
 10
3.5874989741
 20
-1.837055102
 30
0.0
 10
3.532909539
 20
-1.8643502053
 30
0.0
  0
SPLINE
  5
3A5
100
AcDbEntity
  8
ASSI
100
AcDbSpline
 62
7
  6
CONTINUOUS
 70
0
 71
3
 72
11
 73
7
 74
0
 42
0.0000001
 43
0.0000001
 44
0.0000000001
 40
0.0
 40
0.0
 40
0.0
 40
0.0
 40
0.3029855241
 40
0.5682288658
 40
0.7970176823
 40
1.0
 40
1.0
 40
1.0
 40
1.0
 10
-26.8793126332
 20
20.2050448522
 30
0.0
 10
-26.8793126332
 20
20.1324467546
 30
0.0
 10
-26.889354209
 20
19.9958711362
 30
0.0
 10
-26.9407118921
 20
19.8103143339
 30
0.0
 10
-27.0264266229
 20
19.6640945945
 30
0.0
 10
-27.1092518306
 20
19.596965375
 30
0.0
 10
-27.1527534179
 20
19.5752142164
 30
0.0
  0
SPLINE
  5
3A6
100
AcDbEntity
  8
ASSI
100
AcDbSpline
 62
7
  6
CONTINUOUS
 70
0
 71
3
 72
11
 73
7
 74
0
 42
0.0000001
 43
0.0000001
 44
0.0000000001
 40
0.0
 40
0.0
 40
0.0
 40
0.0
 40
0.2981108358
 40
0.5613742573
 40
0.7918187557
 40
1.0
 40
1.0
 40
1.0
 40
1.0
 10
-22.2981049111
 20
17.4044798887
 30
0.0
 10
-22.2981049111
 20
17.3317690072
 30
0.0
 10
-22.3087478655
 20
17.1943886907
 30
0.0
 10
-22.3629083428
 20
17.0072508666
 30
0.0
 10
-22.4533729738
 20
16.8588827158
 30
0.0
 10
-22.539657061
 20
16.7905919988
 30
0.0
 10
-22.5850736543
 20
16.7678853528
 30
0.0
  0
SPLINE
  5
3A7
100
AcDbEntity
  8
ASSI
100
AcDbSpline
 62
7
  6
CONTINUOUS
 70
0
 71
3
 72
11
 73
7
 74
0
 42
0.0000001
 43
0.0000001
 44
0.0000000001
 40
0.0
 40
0.0
 40
0.0
 40
0.0
 40
0.2935325471
 40
0.5549446555
 40
0.7869508486
 40
1.0
 40
1.0
 40
1.0
 40
1.0
 10
-17.4973624185
 20
14.7136823105
 30
0.0
 10
-17.4973624185
 20
14.6408327686
 30
0.0
 10
-17.508618195
 20
14.5026106542
 30
0.0
 10
-17.56560337
 20
14.3139033289
 30
0.0
 10
-17.6607639873
 20
14.1634814131
 30
0.0
 10
-17.750428018
 20
14.0940395528
 30
0.0
 10
-17.7977207462
 20
14.0703929176
 30
0.0
  0
SPLINE
  5
3A8
100
AcDbEntity
  8
ASSI
100
AcDbSpline
 62
7
  6
CONTINUOUS
 70
0
 71
3
 72
11
 73
7
 74
0
 42
0.0000001
 43
0.0000001
 44
0.0000000001
 40
0.0
 40
0.0
 40
0.0
 40
0.0
 40
0.2892108125
 40
0.548882907
 40
0.7823758826
 40
1.0
 40
1.0
 40
1.0
 40
1.0
 10
-12.4786896266
 20
12.1318498819
 30
0.0
 10
-12.4786896266
 20
12.0588354433
 30
0.0
 10
-12.4905732495
 20
11.9197305544
 30
0.0
 10
-12.5504241768
 20
11.7294584359
 30
0.0
 10
-12.6502478666
 20
11.5770609639
 30
0.0
 10
-12.7432330972
 20
11.5064681763
 30
0.0
 10
-12.7923742467
 20
11.4818973387
 30
0.0
  0
SPLINE
  5
3A9
100
AcDbEntity
  8
ASSI
100
AcDbSpline
 62
7
  6
CONTINUOUS
 70
0
 71
3
 72
11
 73
7
 74
0
 42
0.0000001
 43
0.0000001
 44
0.0000000001
 40
0.0
 40
0.0
 40
0.0
 40
0.0
 40
0.2851134764
 40
0.5431495342
 40
0.778066097
 40
1.0
 40
1.0
 40
1.0
 40
1.0
 10
-7.2424845975
 20
9.6587835719
 30
0.0
 10
-7.2424845975
 20
9.5855767018
 30
0.0
 10
-7.2550167612
 20
9.4455414159
 30
0.0
 10
-7.3177908171
 20
9.2537005028
 30
0.0
 10
-7.4222702603
 20
9.0993925295
 30
0.0
 10
-7.5185369489
 20
9.0276474323
 30
0.0
 10
-7.5695054409
 20
9.0021629064
 30
0.0
  0
SPLINE
  5
3AA
100
AcDbEntity
  8
ASSI
100
AcDbSpline
 62
7
  6
CONTINUOUS
 70
0
 71
3
 72
11
 73
7
 74
0
 42
0.0000001
 43
0.0000001
 44
0.0000000001
 40
0.0
 40
0.0
 40
0.0
 40
0.0
 40
0.2812173145
 40
0.5377140399
 40
0.7740046579
 40
1.0
 40
1.0
 40
1.0
 40
1.0
 10
-1.7879499899
 20
7.2948820511
 30
0.0
 10
-1.7879499899
 20
7.2214523829
 30
0.0
 10
-1.8011552369
 20
7.0804303073
 30
0.0
 10
-1.8669358292
 20
6.8870094387
 30
0.0
 10
-1.9760854458
 20
6.7308442719
 30
0.0
 10
-2.0756105403
 20
6.6579431205
 30
0.0
 10
-2.1283896959
 20
6.6315500327
 30
0.0
  0
SPLINE
  5
3AB
100
AcDbEntity
  8
ASSI
100
AcDbSpline
 62
7
  6
CONTINUOUS
 70
0
 71
3
 72
11
 73
7
 74
0
 42
0.0000001
 43
0.0000001
 44
0.0000000001
 40
0.0
 40
0.0
 40
0.0
 40
0.0
 40
0.2774848319
 40
0.5325322334
 40
0.7701505666
 40
1.0
 40
1.0
 40
1.0
 40
1.0
 10
3.886929031
 20
5.041152737
 30
0.0
 10
3.886929031
 20
4.9674708661
 30
0.0
 10
3.8730141353
 20
4.8254028253
 30
0.0
 10
3.8041461628
 20
4.6303790451
 30
0.0
 10
3.6902801321
 20
4.4723987914
 30
0.0
 10
3.5874989741
 20
4.3983278053
 30
0.0
 10
3.532909539
 20
4.3710327019
 30
0.0
  0
SPLINE
  5
3AC
100
AcDbEntity
  8
ASSI
100
AcDbSpline
 62
7
  6
CONTINUOUS
 70
0
 71
3
 72
11
 73
7
 74
0
 42
0.0000001
 43
0.0000001
 44
0.0000000001
 40
0.0
 40
0.0
 40
0.0
 40
0.0
 40
0.3029855241
 40
0.5682288658
 40
0.7970176823
 40
1.0
 40
1.0
 40
1.0
 40
1.0
 10
-26.8793126332
 20
26.4404277594
 30
0.0
 10
-26.8793126332
 20
26.3678296618
 30
0.0
 10
-26.889354209
 20
26.2312540435
 30
0.0
 10
-26.9407118921
 20
26.0456972411
 30
0.0
 10
-27.0264266229
 20
25.8994775017
 30
0.0
 10
-27.1092518306
 20
25.8323482823
 30
0.0
 10
-27.1527534179
 20
25.8105971237
 30
0.0
  0
SPLINE
  5
3AD
100
AcDbEntity
  8
ASSI
100
AcDbSpline
 62
7
  6
CONTINUOUS
 70
0
 71
3
 72
11
 73
7
 74
0
 42
0.0000001
 43
0.0000001
 44
0.0000000001
 40
0.0
 40
0.0
 40
0.0
 40
0.0
 40
0.2981108358
 40
0.5613742573
 40
0.7918187557
 40
1.0
 40
1.0
 40
1.0
 40
1.0
 10
-22.2981049111
 20
23.639862796
 30
0.0
 10
-22.2981049111
 20
23.5671519145
 30
0.0
 10
-22.3087478655
 20
23.4297715979
 30
0.0
 10
-22.3629083428
 20
23.2426337738
 30
0.0
 10
-22.4533729738
 20
23.0942656231
 30
0.0
 10
-22.539657061
 20
23.0259749061
 30
0.0
 10
-22.5850736543
 20
23.00326826
 30
0.0
  0
SPLINE
  5
3AE
100
AcDbEntity
  8
ASSI
100
AcDbSpline
 62
7
  6
CONTINUOUS
 70
0
 71
3
 72
11
 73
7
 74
0
 42
0.0000001
 43
0.0000001
 44
0.0000000001
 40
0.0
 40
0.0
 40
0.0
 40
0.0
 40
0.2935325471
 40
0.5549446555
 40
0.7869508486
 40
1.0
 40
1.0
 40
1.0
 40
1.0
 10
-17.4973624185
 20
20.9490652177
 30
0.0
 10
-17.4973624185
 20
20.8762156758
 30
0.0
 10
-17.508618195
 20
20.7379935615
 30
0.0
 10
-17.56560337
 20
20.5492862362
 30
0.0
 10
-17.6607639873
 20
20.3988643203
 30
0.0
 10
-17.750428018
 20
20.32942246
 30
0.0
 10
-17.7977207462
 20
20.3057758248
 30
0.0
  0
SPLINE
  5
3AF
100
AcDbEntity
  8
ASSI
100
AcDbSpline
 62
7
  6
CONTINUOUS
 70
0
 71
3
 72
11
 73
7
 74
0
 42
0.0000001
 43
0.0000001
 44
0.0000000001
 40
0.0
 40
0.0
 40
0.0
 40
0.0
 40
0.2892108125
 40
0.548882907
 40
0.7823758826
 40
1.0
 40
1.0
 40
1.0
 40
1.0
 10
-12.4786896266
 20
18.3672327891
 30
0.0
 10
-12.4786896266
 20
18.2942183506
 30
0.0
 10
-12.4905732495
 20
18.1551134616
 30
0.0
 10
-12.5504241768
 20
17.9648413432
 30
0.0
 10
-12.6502478666
 20
17.8124438712
 30
0.0
 10
-12.7432330972
 20
17.7418510836
 30
0.0
 10
-12.7923742467
 20
17.7172802459
 30
0.0
  0
SPLINE
  5
3B0
100
AcDbEntity
  8
ASSI
100
AcDbSpline
 62
7
  6
CONTINUOUS
 70
0
 71
3
 72
11
 73
7
 74
0
 42
0.0000001
 43
0.0000001
 44
0.0000000001
 40
0.0
 40
0.0
 40
0.0
 40
0.0
 40
0.2851134764
 40
0.5431495342
 40
0.778066097
 40
1.0
 40
1.0
 40
1.0
 40
1.0
 10
-7.2424845975
 20
15.8941664791
 30
0.0
 10
-7.2424845975
 20
15.820959609
 30
0.0
 10
-7.2550167612
 20
15.6809243232
 30
0.0
 10
-7.3177908171
 20
15.48908341
 30
0.0
 10
-7.4222702603
 20
15.3347754367
 30
0.0
 10
-7.5185369489
 20
15.2630303395
 30
0.0
 10
-7.5695054409
 20
15.2375458137
 30
0.0
  0
SPLINE
  5
3B1
100
AcDbEntity
  8
ASSI
100
AcDbSpline
 62
7
  6
CONTINUOUS
 70
0
 71
3
 72
11
 73
7
 74
0
 42
0.0000001
 43
0.0000001
 44
0.0000000001
 40
0.0
 40
0.0
 40
0.0
 40
0.0
 40
0.2812173145
 40
0.5377140399
 40
0.7740046579
 40
1.0
 40
1.0
 40
1.0
 40
1.0
 10
-1.7879499899
 20
13.5302649584
 30
0.0
 10
-1.7879499899
 20
13.4568352901
 30
0.0
 10
-1.8011552369
 20
13.3158132145
 30
0.0
 10
-1.8669358292
 20
13.122392346
 30
0.0
 10
-1.9760854458
 20
12.9662271792
 30
0.0
 10
-2.0756105403
 20
12.8933260277
 30
0.0
 10
-2.1283896959
 20
12.8669329399
 30
0.0
  0
SPLINE
  5
3B2
100
AcDbEntity
  8
ASSI
100
AcDbSpline
 62
7
  6
CONTINUOUS
 70
0
 71
3
 72
11
 73
7
 74
0
 42
0.0000001
 43
0.0000001
 44
0.0000000001
 40
0.0
 40
0.0
 40
0.0
 40
0.0
 40
0.2774848319
 40
0.5325322334
 40
0.7701505666
 40
1.0
 40
1.0
 40
1.0
 40
1.0
 10
3.886929031
 20
11.2765356443
 30
0.0
 10
3.886929031
 20
11.2028537733
 30
0.0
 10
3.8730141353
 20
11.0607857325
 30
0.0
 10
3.8041461628
 20
10.8657619524
 30
0.0
 10
3.6902801321
 20
10.7077816986
 30
0.0
 10
3.5874989741
 20
10.6337107125
 30
0.0
 10
3.532909539
 20
10.6064156092
 30
0.0
  0
SPLINE
  5
3B3
100
AcDbEntity
  8
ASSI
100
AcDbSpline
 62
7
  6
CONTINUOUS
 70
0
 71
3
 72
11
 73
7
 74
0
 42
0.0000001
 43
0.0000001
 44
0.0000000001
 40
0.0
 40
0.0
 40
0.0
 40
0.0
 40
0.3029855241
 40
0.5682288658
 40
0.7970176823
 40
1.0
 40
1.0
 40
1.0
 40
1.0
 10
-26.8793126332
 20
32.6758106667
 30
0.0
 10
-26.8793126332
 20
32.6032125691
 30
0.0
 10
-26.889354209
 20
32.4666369507
 30
0.0
 10
-26.9407118921
 20
32.2810801484
 30
0.0
 10
-27.0264266229
 20
32.134860409
 30
0.0
 10
-27.1092518306
 20
32.0677311895
 30
0.0
 10
-27.1527534179
 20
32.0459800309
 30
0.0
  0
SPLINE
  5
3B4
100
AcDbEntity
  8
ASSI
100
AcDbSpline
 62
7
  6
CONTINUOUS
 70
0
 71
3
 72
11
 73
7
 74
0
 42
0.0000001
 43
0.0000001
 44
0.0000000001
 40
0.0
 40
0.0
 40
0.0
 40
0.0
 40
0.2981108358
 40
0.5613742573
 40
0.7918187557
 40
1.0
 40
1.0
 40
1.0
 40
1.0
 10
-22.2981049111
 20
29.8752457032
 30
0.0
 10
-22.2981049111
 20
29.8025348217
 30
0.0
 10
-22.3087478655
 20
29.6651545052
 30
0.0
 10
-22.3629083428
 20
29.4780166811
 30
0.0
 10
-22.4533729738
 20
29.3296485303
 30
0.0
 10
-22.539657061
 20
29.2613578133
 30
0.0
 10
-22.5850736543
 20
29.2386511673
 30
0.0
  0
SPLINE
  5
3B5
100
AcDbEntity
  8
ASSI
100
AcDbSpline
 62
7
  6
CONTINUOUS
 70
0
 71
3
 72
11
 73
7
 74
0
 42
0.0000001
 43
0.0000001
 44
0.0000000001
 40
0.0
 40
0.0
 40
0.0
 40
0.0
 40
0.2935325471
 40
0.5549446555
 40
0.7869508486
 40
1.0
 40
1.0
 40
1.0
 40
1.0
 10
-17.4973624185
 20
27.184448125
 30
0.0
 10
-17.4973624185
 20
27.1115985831
 30
0.0
 10
-17.508618195
 20
26.9733764687
 30
0.0
 10
-17.56560337
 20
26.7846691434
 30
0.0
 10
-17.6607639873
 20
26.6342472276
 30
0.0
 10
-17.750428018
 20
26.5648053673
 30
0.0
 10
-17.7977207462
 20
26.5411587321
 30
0.0
  0
SPLINE
  5
3B6
100
AcDbEntity
  8
ASSI
100
AcDbSpline
 62
7
  6
CONTINUOUS
 70
0
 71
3
 72
11
 73
7
 74
0
 42
0.0000001
 43
0.0000001
 44
0.0000000001
 40
0.0
 40
0.0
 40
0.0
 40
0.0
 40
0.2892108125
 40
0.548882907
 40
0.7823758826
 40
1.0
 40
1.0
 40
1.0
 40
1.0
 10
-12.4786896266
 20
24.6026156964
 30
0.0
 10
-12.4786896266
 20
24.5296012578
 30
0.0
 10
-12.4905732495
 20
24.3904963689
 30
0.0
 10
-12.5504241768
 20
24.2002242504
 30
0.0
 10
-12.6502478666
 20
24.0478267784
 30
0.0
 10
-12.7432330972
 20
23.9772339908
 30
0.0
 10
-12.7923742467
 20
23.9526631532
 30
0.0
  0
SPLINE
  5
3B7
100
AcDbEntity
  8
ASSI
100
AcDbSpline
 62
7
  6
CONTINUOUS
 70
0
 71
3
 72
11
 73
7
 74
0
 42
0.0000001
 43
0.0000001
 44
0.0000000001
 40
0.0
 40
0.0
 40
0.0
 40
0.0
 40
0.2851134764
 40
0.5431495342
 40
0.778066097
 40
1.0
 40
1.0
 40
1.0
 40
1.0
 10
-7.2424845975
 20
22.1295493864
 30
0.0
 10
-7.2424845975
 20
22.0563425163
 30
0.0
 10
-7.2550167612
 20
21.9163072304
 30
0.0
 10
-7.3177908171
 20
21.7244663173
 30
0.0
 10
-7.4222702603
 20
21.570158344
 30
0.0
 10
-7.5185369489
 20
21.4984132468
 30
0.0
 10
-7.5695054409
 20
21.4729287209
 30
0.0
  0
SPLINE
  5
3B8
100
AcDbEntity
  8
ASSI
100
AcDbSpline
 62
7
  6
CONTINUOUS
 70
0
 71
3
 72
11
 73
7
 74
0
 42
0.0000001
 43
0.0000001
 44
0.0000000001
 40
0.0
 40
0.0
 40
0.0
 40
0.0
 40
0.2812173145
 40
0.5377140399
 40
0.7740046579
 40
1.0
 40
1.0
 40
1.0
 40
1.0
 10
-1.7879499899
 20
19.7656478656
 30
0.0
 10
-1.7879499899
 20
19.6922181974
 30
0.0
 10
-1.8011552369
 20
19.5511961218
 30
0.0
 10
-1.8669358292
 20
19.3577752532
 30
0.0
 10
-1.9760854458
 20
19.2016100864
 30
0.0
 10
-2.0756105403
 20
19.128708935
 30
0.0
 10
-2.1283896959
 20
19.1023158472
 30
0.0
  0
SPLINE
  5
3B9
100
AcDbEntity
  8
ASSI
100
AcDbSpline
 62
7
  6
CONTINUOUS
 70
0
 71
3
 72
11
 73
7
 74
0
 42
0.0000001
 43
0.0000001
 44
0.0000000001
 40
0.0
 40
0.0
 40
0.0
 40
0.0
 40
0.2774848319
 40
0.5325322334
 40
0.7701505666
 40
1.0
 40
1.0
 40
1.0
 40
1.0
 10
3.886929031
 20
17.5119185515
 30
0.0
 10
3.886929031
 20
17.4382366806
 30
0.0
 10
3.8730141353
 20
17.2961686398
 30
0.0
 10
3.8041461628
 20
17.1011448596
 30
0.0
 10
3.6902801321
 20
16.9431646059
 30
0.0
 10
3.5874989741
 20
16.8690936198
 30
0.0
 10
3.532909539
 20
16.8417985164
 30
0.0
  0
SPLINE
  5
3BA
100
AcDbEntity
  8
ASSI
100
AcDbSpline
 62
7
  6
CONTINUOUS
 70
0
 71
3
 72
15
 73
11
 74
0
 42
0.0000001
 43
0.0000001
 44
0.0000000001
 40
0.0
 40
0.0
 40
0.0
 40
0.0
 40
0.141721959
 40
0.2792232134
 40
0.4121529016
 40
0.5402101821
 40
0.6631540261
 40
0.7808126341
 40
0.8930940053
 40
1.0
 40
1.0
 40
1.0
 40
1.0
 10
23.0411680681
 20
-92.016407784
 30
0.0
 10
19.7622185798
 20
-91.0914280248
 30
0.0
 10
13.3382457034
 20
-89.1368135856
 30
0.0
 10
3.9917263549
 20
-85.839279103
 30
0.0
 10
-4.8868460662
 20
-82.2325238686
 30
0.0
 10
-13.2566920816
 20
-78.333025733
 30
0.0
 10
-21.0795943082
 20
-74.1584752148
 30
0.0
 10
-28.320017103
 20
-69.727558509
 30
0.0
 10
-34.9444452106
 20
-65.0605198562
 30
0.0
 10
-39.0299780441
 20
-61.7236780327
 30
0.0
 10
-40.9533366
 20
-60.0191554499
 30
0.0
  0
SPLINE
  5
3BB
100
AcDbEntity
  8
ASSI
100
AcDbSpline
 62
7
  6
CONTINUOUS
 70
0
 71
3
 72
9
 73
5
 74
0
 42
0.0000001
 43
0.0000001
 44
0.0000000001
 40
0.0
 40
0.0
 40
0.0
 40
0.0
 40
0.488832727
 40
1.0
 40
1.0
 40
1.0
 40
1.0
 10
9.9701122288
 20
-39.6250288292
 30
0.0
 10
10.4396587632
 20
-39.8265264407
 30
0.0
 10
11.3686132817
 20
-40.3149261032
 30
0.0
 10
12.2206680603
 20
-40.9262267145
 30
0.0
 10
12.6340276943
 20
-41.2647689874
 30
0.0
  0
SPLINE
  5
3BC
100
AcDbEntity
  8
ASSI
100
AcDbSpline
 62
7
  6
CONTINUOUS
 70
0
 71
3
 72
18
 73
14
 74
0
 42
0.0000001
 43
0.0000001
 44
0.0000000001
 40
0.0
 40
0.0
 40
0.0
 40
0.0
 40
0.138273194
 40
0.2779563058
 40
0.4155095335
 40
0.5477151016
 40
0.6722068696
 40
0.731306349
 40
0.7882743246
 40
0.8432855976
 40
0.8966331636
 40
0.948713071
 40
1.0
 40
1.0
 40
1.0
 40
1.0
 10
12.6420979265
 20
-41.2713841702
 30
0.0
 10
13.1704166058
 20
-41.7048178459
 30
0.0
 10
14.1628405126
 20
-42.6645194497
 30
0.0
 10
15.4019438736
 20
-44.3123574177
 30
0.0
 10
16.343071806
 20
-46.1150222719
 30
0.0
 10
16.9270305006
 20
-47.9855362433
 30
0.0
 10
17.0840080665
 20
-49.5523866778
 30
0.0
 10
16.9898898323
 20
-50.7402111232
 30
0.0
 10
16.816950873
 20
-51.5703445932
 30
0.0
 10
16.5431569507
 20
-52.3429568575
 30
0.0
 10
16.1728697601
 20
-53.0473712957
 30
0.0
 10
15.7122891304
 20
-53.6736090937
 30
0.0
 10
15.3479834011
 20
-54.0352163822
 30
0.0
 10
15.1546354695
 20
-54.1991120102
 30
0.0
  0
SPLINE
  5
3BD
100
AcDbEntity
  8
ASSI
100
AcDbSpline
 62
7
  6
CONTINUOUS
 70
0
 71
3
 72
11
 73
7
 74
0
 42
0.0000001
 43
0.0000001
 44
0.0000000001
 40
0.0
 40
0.0
 40
0.0
 40
0.0
 40
0.2300058796
 40
0.4737480441
 40
0.7306911124
 40
1.0
 40
1.0
 40
1.0
 40
1.0
 10
-32.3507922341
 20
-18.5312680249
 30
0.0
 10
-29.4342324611
 20
-20.6198707237
 30
0.0
 10
-23.2288762243
 20
-24.6496878522
 30
0.0
 10
-13.2068425243
 20
-30.0951235676
 30
0.0
 10
-2.2715271309
 20
-35.0800421468
 30
0.0
 10
5.4029425357
 20
-38.0065226202
 30
0.0
 10
9.3685078559
 20
-39.3909180699
 30
0.0
  0
SPLINE
  5
3BE
100
AcDbEntity
  8
ASSI
100
AcDbSpline
 62
7
  6
CONTINUOUS
 70
0
 71
3
 72
17
 73
13
 74
0
 42
0.0000001
 43
0.0000001
 44
0.0000000001
 40
0.0
 40
0.0
 40
0.0
 40
0.0
 40
0.0415953287
 40
0.084548542
 40
0.1304081512
 40
0.1802465411
 40
0.2933985568
 40
0.4240544385
 40
0.5674894598
 40
0.7165892802
 40
0.8633154574
 40
1.0
 40
1.0
 40
1.0
 40
1.0
 10
-23.5663772354
 20
12.7251292599
 30
0.0
 10
-23.5383066353
 20
12.7391667978
 30
0.0
 10
-23.4772964231
 20
12.7604396568
 30
0.0
 10
-23.3783572141
 20
12.7687811757
 30
0.0
 10
-23.2740060323
 20
12.7540721873
 30
0.0
 10
-23.1242636329
 20
12.7025564074
 30
0.0
 10
-22.9359316524
 20
12.580050171
 30
0.0
 10
-22.7313300197
 20
12.3691803475
 30
0.0
 10
-22.5521162702
 20
12.1030706242
 30
0.0
 10
-22.4119732421
 20
11.8012350111
 30
0.0
 10
-22.3216307784
 20
11.486326041
 30
0.0
 10
-22.2981049111
 20
11.2722294461
 30
0.0
 10
-22.2981049111
 20
11.1690969815
 30
0.0
  0
SPLINE
  5
3BF
100
AcDbEntity
  8
ASSI
100
AcDbSpline
 62
7
  6
CONTINUOUS
 70
0
 71
3
 72
17
 73
13
 74
0
 42
0.0000001
 43
0.0000001
 44
0.0000000001
 40
0.0
 40
0.0
 40
0.0
 40
0.0
 40
0.0399582196
 40
0.0812274405
 40
0.1255447027
 40
0.1741061165
 40
0.2857076834
 40
0.4161995042
 40
0.560716867
 40
0.7118423472
 40
0.8610456801
 40
1.0
 40
1.0
 40
1.0
 40
1.0
 10
-28.0874141621
 20
15.5557777445
 30
0.0
 10
-28.0607626337
 20
15.5691037553
 30
0.0
 10
-28.0026250645
 20
15.5889678666
 30
0.0
 10
-27.9082457178
 20
15.5949319937
 30
0.0
 10
-27.8089024597
 20
15.5777068014
 30
0.0
 10
-27.6659411031
 20
15.5224603881
 30
0.0
 10
-27.4866915945
 20
15.3952952423
 30
0.0
 10
-27.2923999525
 20
15.1803089981
 30
0.0
 10
-27.1218443039
 20
14.9105238508
 30
0.0
 10
-26.9881959772
 20
14.605580237
 30
0.0
 10
-26.9018932952
 20
14.2883888356
 30
0.0
 10
-26.8793126332
 20
14.0732821999
 30
0.0
 10
-26.8793126332
 20
13.969661945
 30
0.0
  0
SPLINE
  5
3C0
100
AcDbEntity
  8
ASSI
100
AcDbSpline
 62
7
  6
CONTINUOUS
 70
0
 71
3
 72
16
 73
12
 74
0
 42
0.0000001
 43
0.0000001
 44
0.0000000001
 40
0.0
 40
0.0
 40
0.0
 40
0.0
 40
0.0486522271
 40
0.0988939831
 40
0.2066448751
 40
0.3266236282
 40
0.4577148403
 40
0.5960758329
 40
0.7363259174
 40
0.8726586962
 40
1.0
 40
1.0
 40
1.0
 40
1.0
 10
2.3209488103
 20
-6.0224366695
 30
0.0
 10
2.3559765606
 20
-6.0049225656
 30
0.0
 10
2.4310900405
 20
-5.9766716695
 30
0.0
 10
2.5960845268
 20
-5.9494440338
 30
0.0
 10
2.8228430611
 20
-5.9749697281
 30
0.0
 10
3.0916270534
 20
-6.088517582
 30
0.0
 10
3.3467411104
 20
-6.2748444087
 30
0.0
 10
3.569995651
 20
-6.520366392
 30
0.0
 10
3.7449497209
 20
-6.8073366896
 30
0.0
 10
3.8579526821
 20
-7.1144039803
 30
0.0
 10
3.886929031
 20
-7.3271104607
 30
0.0
 10
3.886929031
 20
-7.4296130775
 30
0.0
  0
SPLINE
  5
3C1
100
AcDbEntity
  8
ASSI
100
AcDbSpline
 62
7
  6
CONTINUOUS
 70
0
 71
3
 72
16
 73
12
 74
0
 42
0.0000001
 43
0.0000001
 44
0.0000000001
 40
0.0
 40
0.0
 40
0.0
 40
0.0
 40
0.0473561297
 40
0.0962644957
 40
0.2017231734
 40
0.3204613292
 40
0.4515246748
 40
0.5908749
 40
0.7327692062
 40
0.8709850058
 40
1.0
 40
1.0
 40
1.0
 40
1.0
 10
-3.293708991
 20
-3.738596824
 30
0.0
 10
-3.2600858259
 20
-3.7217862843
 30
0.0
 10
-3.1878208646
 20
-3.6949436446
 30
0.0
 10
-3.0285598718
 20
-3.6708342471
 30
0.0
 10
-2.8092533957
 20
-3.7013163585
 30
0.0
 10
-2.5505875267
 20
-3.8208249077
 30
0.0
 10
-2.305439374
 20
-4.0126413264
 30
0.0
 10
-2.0912530287
 20
-4.2626787914
 30
0.0
 10
-1.9237112847
 20
-4.5526609553
 30
0.0
 10
-1.8157055068
 20
-4.8609301432
 30
0.0
 10
-1.7879499899
 20
-5.073471445
 30
0.0
 10
-1.7879499899
 20
-5.1758837633
 30
0.0
  0
SPLINE
  5
3C2
100
AcDbEntity
  8
ASSI
100
AcDbSpline
 62
7
  6
CONTINUOUS
 70
0
 71
3
 72
16
 73
12
 74
0
 42
0.0000001
 43
0.0000001
 44
0.0000000001
 40
0.0
 40
0.0
 40
0.0
 40
0.0
 40
0.0460199288
 40
0.0935497868
 40
0.1966471025
 40
0.3141164413
 40
0.4451413256
 40
0.5854920909
 40
0.7290755433
 40
0.8692448372
 40
1.0
 40
1.0
 40
1.0
 40
1.0
 10
-8.6886937863
 20
-1.3449203331
 30
0.0
 10
-8.656456192
 20
-1.3288013648
 30
0.0
 10
-8.5869976669
 20
-1.3033535286
 30
0.0
 10
-8.4334011828
 20
-1.2823576956
 30
0.0
 10
-8.2215695781
 20
-1.3178296854
 30
0.0
 10
-7.9731350369
 20
-1.4431499961
 30
0.0
 10
-7.7379540604
 20
-1.6401906049
 30
0.0
 10
-7.5327083594
 20
-1.8945195809
 30
0.0
 10
-7.3723447614
 20
-2.18743632
 30
0.0
 10
-7.2690860582
 20
-2.4970188837
 30
0.0
 10
-7.2424845975
 20
-2.7095748148
 30
0.0
 10
-7.2424845975
 20
-2.8119822426
 30
0.0
  0
SPLINE
  5
3C3
100
AcDbEntity
  8
ASSI
100
AcDbSpline
 62
7
  6
CONTINUOUS
 70
0
 71
3
 72
16
 73
12
 74
0
 42
0.0000001
 43
0.0000001
 44
0.0000000001
 40
0.0
 40
0.0
 40
0.0
 40
0.0
 40
0.0446186723
 40
0.0906989674
 40
0.191307692
 40
0.3074206884
 40
0.4383731091
 40
0.5797542493
 40
0.7251188257
 40
0.8673723727
 40
1.0
 40
1.0
 40
1.0
 40
1.0
 10
-13.8656849368
 20
1.1577529203
 30
0.0
 10
-13.8348324462
 20
1.1731793321
 30
0.0
 10
-13.768185028
 20
1.1972378965
 30
0.0
 10
-13.6202833282
 20
1.215113341
 30
0.0
 10
-13.4161004532
 20
1.1746485414
 30
0.0
 10
-13.1781089087
 20
1.0437945085
 30
0.0
 10
-12.952923288
 20
0.8418535362
 30
0.0
 10
-12.7564579943
 20
0.5834442941
 30
0.0
 10
-12.6029914419
 20
0.2875849371
 30
0.0
 10
-12.5042156439
 20
-0.0235484261
 30
0.0
 10
-12.4786896266
 20
-0.2363829641
 30
0.0
 10
-12.4786896266
 20
-0.3389159326
 30
0.0
  0
SPLINE
  5
3C4
100
AcDbEntity
  8
ASSI
100
AcDbSpline
 62
7
  6
CONTINUOUS
 70
0
 71
3
 72
17
 73
13
 74
0
 42
0.0000001
 43
0.0000001
 44
0.0000000001
 40
0.0
 40
0.0
 40
0.0
 40
0.0
 40
0.0431323105
 40
0.0876745487
 40
0.1350007639
 40
0.1860639059
 40
0.3007055308
 40
0.4315011893
 40
0.5738732822
 40
0.7210365565
 40
0.8654348297
 40
1.0
 40
1.0
 40
1.0
 40
1.0
 10
-18.8251537905
 20
3.7691873286
 30
0.0
 10
-18.7956892416
 20
3.7839197809
 30
0.0
 10
-18.731859827
 20
3.8065930924
 30
0.0
 10
-18.6284584518
 20
3.8172818459
 30
0.0
 10
-18.5192307002
 20
3.8050901319
 30
0.0
 10
-18.362907527
 20
3.757310528
 30
0.0
 10
-18.1657548278
 20
3.6396202714
 30
0.0
 10
-17.9509594193
 20
3.4331020014
 30
0.0
 10
-17.7630882992
 20
3.1707668819
 30
0.0
 10
-17.6163590003
 20
2.8719449873
 30
0.0
 10
-17.5218669191
 20
2.5590396638
 30
0.0
 10
-17.4973624185
 20
2.3456910956
 30
0.0
 10
-17.4973624185
 20
2.242916496
 30
0.0
  0
SPLINE
  5
3C5
100
AcDbEntity
  8
ASSI
100
AcDbSpline
 62
7
  6
CONTINUOUS
 70
0
 71
3
 72
17
 73
13
 74
0
 42
0.0000001
 43
0.0000001
 44
0.0000000001
 40
0.0
 40
0.0
 40
0.0
 40
0.0
 40
0.0415953287
 40
0.084548542
 40
0.1304081512
 40
0.1802465411
 40
0.2933985568
 40
0.4240544385
 40
0.5674894598
 40
0.7165892802
 40
0.8633154574
 40
1.0
 40
1.0
 40
1.0
 40
1.0
 10
-23.5663772354
 20
6.4897463527
 30
0.0
 10
-23.5383066353
 20
6.5037838906
 30
0.0
 10
-23.4772964231
 20
6.5250567495
 30
0.0
 10
-23.3783572141
 20
6.5333982685
 30
0.0
 10
-23.2740060323
 20
6.51868928
 30
0.0
 10
-23.1242636329
 20
6.4671735002
 30
0.0
 10
-22.9359316524
 20
6.3446672638
 30
0.0
 10
-22.7313300197
 20
6.1337974402
 30
0.0
 10
-22.5521162702
 20
5.8676877169
 30
0.0
 10
-22.4119732421
 20
5.5658521039
 30
0.0
 10
-22.3216307784
 20
5.2509431338
 30
0.0
 10
-22.2981049111
 20
5.0368465388
 30
0.0
 10
-22.2981049111
 20
4.9337140742
 30
0.0
  0
SPLINE
  5
3C6
100
AcDbEntity
  8
ASSI
100
AcDbSpline
 62
7
  6
CONTINUOUS
 70
0
 71
3
 72
17
 73
13
 74
0
 42
0.0000001
 43
0.0000001
 44
0.0000000001
 40
0.0
 40
0.0
 40
0.0
 40
0.0
 40
0.0399582196
 40
0.0812274405
 40
0.1255447027
 40
0.1741061165
 40
0.2857076834
 40
0.4161995042
 40
0.560716867
 40
0.7118423472
 40
0.8610456801
 40
1.0
 40
1.0
 40
1.0
 40
1.0
 10
-28.0874141621
 20
9.3203948373
 30
0.0
 10
-28.0607626337
 20
9.333720848
 30
0.0
 10
-28.0026250645
 20
9.3535849594
 30
0.0
 10
-27.9082457178
 20
9.3595490864
 30
0.0
 10
-27.8089024597
 20
9.3423238942
 30
0.0
 10
-27.6659411031
 20
9.2870774809
 30
0.0
 10
-27.4866915945
 20
9.159912335
 30
0.0
 10
-27.2923999525
 20
8.9449260908
 30
0.0
 10
-27.1218443039
 20
8.6751409435
 30
0.0
 10
-26.9881959772
 20
8.3701973297
 30
0.0
 10
-26.9018932952
 20
8.0530059284
 30
0.0
 10
-26.8793126332
 20
7.8378992927
 30
0.0
 10
-26.8793126332
 20
7.7342790377
 30
0.0
  0
SPLINE
  5
3C7
100
AcDbEntity
  8
ASSI
100
AcDbSpline
 62
7
  6
CONTINUOUS
 70
0
 71
3
 72
16
 73
12
 74
0
 42
0.0000001
 43
0.0000001
 44
0.0000000001
 40
0.0
 40
0.0
 40
0.0
 40
0.0
 40
0.0486522271
 40
0.0988939831
 40
0.2066448751
 40
0.3266236282
 40
0.4577148403
 40
0.5960758329
 40
0.7363259174
 40
0.8726586962
 40
1.0
 40
1.0
 40
1.0
 40
1.0
 10
2.3209488103
 20
-12.2578195767
 30
0.0
 10
2.3559765606
 20
-12.2403054729
 30
0.0
 10
2.4310900405
 20
-12.2120545768
 30
0.0
 10
2.5960845268
 20
-12.184826941
 30
0.0
 10
2.8228430611
 20
-12.2103526354
 30
0.0
 10
3.0916270534
 20
-12.3239004892
 30
0.0
 10
3.3467411104
 20
-12.5102273159
 30
0.0
 10
3.569995651
 20
-12.7557492993
 30
0.0
 10
3.7449497209
 20
-13.0427195968
 30
0.0
 10
3.8579526821
 20
-13.3497868875
 30
0.0
 10
3.886929031
 20
-13.562493368
 30
0.0
 10
3.886929031
 20
-13.6649959847
 30
0.0
  0
SPLINE
  5
3C8
100
AcDbEntity
  8
ASSI
100
AcDbSpline
 62
7
  6
CONTINUOUS
 70
0
 71
3
 72
16
 73
12
 74
0
 42
0.0000001
 43
0.0000001
 44
0.0000000001
 40
0.0
 40
0.0
 40
0.0
 40
0.0
 40
0.0473561297
 40
0.0962644957
 40
0.2017231734
 40
0.3204613292
 40
0.4515246748
 40
0.5908749
 40
0.7327692062
 40
0.8709850058
 40
1.0
 40
1.0
 40
1.0
 40
1.0
 10
-3.293708991
 20
-9.9739797313
 30
0.0
 10
-3.2600858259
 20
-9.9571691916
 30
0.0
 10
-3.1878208646
 20
-9.9303265518
 30
0.0
 10
-3.0285598718
 20
-9.9062171544
 30
0.0
 10
-2.8092533957
 20
-9.9366992657
 30
0.0
 10
-2.5505875267
 20
-10.0562078149
 30
0.0
 10
-2.305439374
 20
-10.2480242337
 30
0.0
 10
-2.0912530287
 20
-10.4980616986
 30
0.0
 10
-1.9237112847
 20
-10.7880438625
 30
0.0
 10
-1.8157055068
 20
-11.0963130504
 30
0.0
 10
-1.7879499899
 20
-11.3088543523
 30
0.0
 10
-1.7879499899
 20
-11.4112666706
 30
0.0
  0
SPLINE
  5
3C9
100
AcDbEntity
  8
ASSI
100
AcDbSpline
 62
7
  6
CONTINUOUS
 70
0
 71
3
 72
11
 73
7
 74
0
 42
0.0000001
 43
0.0000001
 44
0.0000000001
 40
0.0
 40
0.0
 40
0.0
 40
0.0
 40
0.2261459658
 40
0.4645281438
 40
0.7212028941
 40
1.0
 40
1.0
 40
1.0
 40
1.0
 10
-41.7157614335
 20
-58.7339020428
 30
0.0
 10
-41.7013618432
 20
-58.8479755208
 30
0.0
 10
-41.6448210098
 20
-59.0795580367
 30
0.0
 10
-41.4850139679
 20
-59.4120361351
 30
0.0
 10
-41.2522973991
 20
-59.7315272858
 30
0.0
 10
-41.0594207313
 20
-59.9251413635
 30
0.0
 10
-40.9533366
 20
-60.0191554499
 30
0.0
  0
SPLINE
  5
3CA
100
AcDbEntity
  8
ASSI
100
AcDbSpline
 62
7
  6
CONTINUOUS
 70
0
 71
3
 72
16
 73
12
 74
0
 42
0.0000001
 43
0.0000001
 44
0.0000000001
 40
0.0
 40
0.0
 40
0.0
 40
0.0
 40
0.0460199288
 40
0.0935497868
 40
0.1966471025
 40
0.3141164413
 40
0.4451413256
 40
0.5854920909
 40
0.7290755433
 40
0.8692448372
 40
1.0
 40
1.0
 40
1.0
 40
1.0
 10
-8.6886937863
 20
-7.5803032404
 30
0.0
 10
-8.656456192
 20
-7.564184272
 30
0.0
 10
-8.5869976669
 20
-7.5387364358
 30
0.0
 10
-8.4334011828
 20
-7.5177406029
 30
0.0
 10
-8.2215695781
 20
-7.5532125926
 30
0.0
 10
-7.9731350369
 20
-7.6785329033
 30
0.0
 10
-7.7379540604
 20
-7.8755735121
 30
0.0
 10
-7.5327083594
 20
-8.1299024881
 30
0.0
 10
-7.3723447614
 20
-8.4228192273
 30
0.0
 10
-7.2690860582
 20
-8.732401791
 30
0.0
 10
-7.2424845975
 20
-8.9449577221
 30
0.0
 10
-7.2424845975
 20
-9.0473651499
 30
0.0
  0
SPLINE
  5
3CB
100
AcDbEntity
  8
ASSI
100
AcDbSpline
 62
7
  6
CONTINUOUS
 70
0
 71
3
 72
17
 73
13
 74
0
 42
0.0000001
 43
0.0000001
 44
0.0000000001
 40
0.0
 40
0.0
 40
0.0
 40
0.0
 40
0.0399582196
 40
0.0812274405
 40
0.1255447027
 40
0.1741061165
 40
0.2857076834
 40
0.4161995042
 40
0.560716867
 40
0.7118423472
 40
0.8610456801
 40
1.0
 40
1.0
 40
1.0
 40
1.0
 10
-28.0874141621
 20
-3.1503709772
 30
0.0
 10
-28.0607626337
 20
-3.1370449665
 30
0.0
 10
-28.0026250645
 20
-3.1171808551
 30
0.0
 10
-27.9082457178
 20
-3.1112167281
 30
0.0
 10
-27.8089024597
 20
-3.1284419203
 30
0.0
 10
-27.6659411031
 20
-3.1836883336
 30
0.0
 10
-27.4866915945
 20
-3.3108534795
 30
0.0
 10
-27.2923999525
 20
-3.5258397237
 30
0.0
 10
-27.1218443039
 20
-3.795624871
 30
0.0
 10
-26.9881959772
 20
-4.1005684848
 30
0.0
 10
-26.9018932952
 20
-4.4177598861
 30
0.0
 10
-26.8793126332
 20
-4.6328665218
 30
0.0
 10
-26.8793126332
 20
-4.7364867768
 30
0.0
  0
SPLINE
  5
3CC
100
AcDbEntity
  8
ASSI
100
AcDbSpline
 62
7
  6
CONTINUOUS
 70
0
 71
3
 72
16
 73
12
 74
0
 42
0.0000001
 43
0.0000001
 44
0.0000000001
 40
0.0
 40
0.0
 40
0.0
 40
0.0
 40
0.0446186723
 40
0.0906989674
 40
0.191307692
 40
0.3074206884
 40
0.4383731091
 40
0.5797542493
 40
0.7251188257
 40
0.8673723727
 40
1.0
 40
1.0
 40
1.0
 40
1.0
 10
-13.8656849368
 20
-5.077629987
 30
0.0
 10
-13.8348324462
 20
-5.0622035751
 30
0.0
 10
-13.768185028
 20
-5.0381450107
 30
0.0
 10
-13.6202833282
 20
-5.0202695663
 30
0.0
 10
-13.4161004532
 20
-5.0607343659
 30
0.0
 10
-13.1781089087
 20
-5.1915883988
 30
0.0
 10
-12.952923288
 20
-5.3935293711
 30
0.0
 10
-12.7564579943
 20
-5.6519386132
 30
0.0
 10
-12.6029914419
 20
-5.9477979702
 30
0.0
 10
-12.5042156439
 20
-6.2589313333
 30
0.0
 10
-12.4786896266
 20
-6.4717658713
 30
0.0
 10
-12.4786896266
 20
-6.5742988398
 30
0.0
  0
SPLINE
  5
3CD
100
AcDbEntity
  8
ASSI
100
AcDbSpline
 62
7
  6
CONTINUOUS
 70
0
 71
3
 72
17
 73
13
 74
0
 42
0.0000001
 43
0.0000001
 44
0.0000000001
 40
0.0
 40
0.0
 40
0.0
 40
0.0
 40
0.0415953287
 40
0.084548542
 40
0.1304081512
 40
0.1802465411
 40
0.2933985568
 40
0.4240544385
 40
0.5674894598
 40
0.7165892802
 40
0.8633154574
 40
1.0
 40
1.0
 40
1.0
 40
1.0
 10
-23.5663772354
 20
-5.9810194618
 30
0.0
 10
-23.5383066353
 20
-5.9669819239
 30
0.0
 10
-23.4772964231
 20
-5.945709065
 30
0.0
 10
-23.3783572141
 20
-5.937367546
 30
0.0
 10
-23.2740060323
 20
-5.9520765345
 30
0.0
 10
-23.1242636329
 20
-6.0035923143
 30
0.0
 10
-22.9359316524
 20
-6.1260985507
 30
0.0
 10
-22.7313300197
 20
-6.3369683743
 30
0.0
 10
-22.5521162702
 20
-6.6030780976
 30
0.0
 10
-22.4119732421
 20
-6.9049137106
 30
0.0
 10
-22.3216307784
 20
-7.2198226807
 30
0.0
 10
-22.2981049111
 20
-7.4339192757
 30
0.0
 10
-22.2981049111
 20
-7.5370517403
 30
0.0
  0
SPLINE
  5
3CE
100
AcDbEntity
  8
ASSI
100
AcDbSpline
 62
7
  6
CONTINUOUS
 70
0
 71
3
 72
17
 73
13
 74
0
 42
0.0000001
 43
0.0000001
 44
0.0000000001
 40
0.0
 40
0.0
 40
0.0
 40
0.0
 40
0.0431323105
 40
0.0876745487
 40
0.1350007639
 40
0.1860639059
 40
0.3007055308
 40
0.4315011893
 40
0.5738732822
 40
0.7210365565
 40
0.8654348297
 40
1.0
 40
1.0
 40
1.0
 40
1.0
 10
-18.8251537905
 20
-2.4661955786
 30
0.0
 10
-18.7956892416
 20
-2.4514631263
 30
0.0
 10
-18.731859827
 20
-2.4287898148
 30
0.0
 10
-18.6284584518
 20
-2.4181010614
 30
0.0
 10
-18.5192307002
 20
-2.4302927754
 30
0.0
 10
-18.362907527
 20
-2.4780723793
 30
0.0
 10
-18.1657548278
 20
-2.5957626358
 30
0.0
 10
-17.9509594193
 20
-2.8022809059
 30
0.0
 10
-17.7630882992
 20
-3.0646160254
 30
0.0
 10
-17.6163590003
 20
-3.3634379199
 30
0.0
 10
-17.5218669191
 20
-3.6763432435
 30
0.0
 10
-17.4973624185
 20
-3.8896918117
 30
0.0
 10
-17.4973624185
 20
-3.9924664113
 30
0.0
  0
SPLINE
  5
3CF
100
AcDbEntity
  8
ASSI
100
AcDbSpline
 62
7
  6
CONTINUOUS
 70
0
 71
3
 72
17
 73
13
 74
0
 42
0.0000001
 43
0.0000001
 44
0.0000000001
 40
0.0
 40
0.0
 40
0.0
 40
0.0
 40
0.0431323105
 40
0.0876745487
 40
0.1350007639
 40
0.1860639059
 40
0.3007055308
 40
0.4315011893
 40
0.5738732822
 40
0.7210365565
 40
0.8654348297
 40
1.0
 40
1.0
 40
1.0
 40
1.0
 10
-18.8251537905
 20
-8.7015784859
 30
0.0
 10
-18.7956892416
 20
-8.6868460336
 30
0.0
 10
-18.731859827
 20
-8.6641727221
 30
0.0
 10
-18.6284584518
 20
-8.6534839686
 30
0.0
 10
-18.5192307002
 20
-8.6656756826
 30
0.0
 10
-18.362907527
 20
-8.7134552865
 30
0.0
 10
-18.1657548278
 20
-8.8311455431
 30
0.0
 10
-17.9509594193
 20
-9.0376638131
 30
0.0
 10
-17.7630882992
 20
-9.2999989326
 30
0.0
 10
-17.6163590003
 20
-9.5988208272
 30
0.0
 10
-17.5218669191
 20
-9.9117261507
 30
0.0
 10
-17.4973624185
 20
-10.1250747189
 30
0.0
 10
-17.4973624185
 20
-10.2278493185
 30
0.0
  0
SPLINE
  5
3D0
100
AcDbEntity
  8
ASSI
100
AcDbSpline
 62
7
  6
CONTINUOUS
 70
0
 71
3
 72
17
 73
13
 74
0
 42
0.0000001
 43
0.0000001
 44
0.0000000001
 40
0.0
 40
0.0
 40
0.0
 40
0.0
 40
0.0415953287
 40
0.084548542
 40
0.1304081512
 40
0.1802465411
 40
0.2933985568
 40
0.4240544385
 40
0.5674894598
 40
0.7165892802
 40
0.8633154574
 40
1.0
 40
1.0
 40
1.0
 40
1.0
 10
-23.5663772354
 20
0.2543634454
 30
0.0
 10
-23.5383066353
 20
0.2684009834
 30
0.0
 10
-23.4772964231
 20
0.2896738423
 30
0.0
 10
-23.3783572141
 20
0.2980153612
 30
0.0
 10
-23.2740060323
 20
0.2833063728
 30
0.0
 10
-23.1242636329
 20
0.2317905929
 30
0.0
 10
-22.9359316524
 20
0.1092843565
 30
0.0
 10
-22.7313300197
 20
-0.101585467
 30
0.0
 10
-22.5521162702
 20
-0.3676951903
 30
0.0
 10
-22.4119732421
 20
-0.6695308034
 30
0.0
 10
-22.3216307784
 20
-0.9844397735
 30
0.0
 10
-22.2981049111
 20
-1.1985363684
 30
0.0
 10
-22.2981049111
 20
-1.301668833
 30
0.0
  0
SPLINE
  5
3D1
100
AcDbEntity
  8
ASSI
100
AcDbSpline
 62
7
  6
CONTINUOUS
 70
0
 71
3
 72
16
 73
12
 74
0
 42
0.0000001
 43
0.0000001
 44
0.0000000001
 40
0.0
 40
0.0
 40
0.0
 40
0.0
 40
0.0446186723
 40
0.0906989674
 40
0.191307692
 40
0.3074206884
 40
0.4383731091
 40
0.5797542493
 40
0.7251188257
 40
0.8673723727
 40
1.0
 40
1.0
 40
1.0
 40
1.0
 10
-13.8656849368
 20
-11.3130128942
 30
0.0
 10
-13.8348324462
 20
-11.2975864824
 30
0.0
 10
-13.768185028
 20
-11.273527918
 30
0.0
 10
-13.6202833282
 20
-11.2556524735
 30
0.0
 10
-13.4161004532
 20
-11.2961172731
 30
0.0
 10
-13.1781089087
 20
-11.426971306
 30
0.0
 10
-12.952923288
 20
-11.6289122783
 30
0.0
 10
-12.7564579943
 20
-11.8873215204
 30
0.0
 10
-12.6029914419
 20
-12.1831808774
 30
0.0
 10
-12.5042156439
 20
-12.4943142406
 30
0.0
 10
-12.4786896266
 20
-12.7071487786
 30
0.0
 10
-12.4786896266
 20
-12.8096817471
 30
0.0
  0
SPLINE
  5
3D2
100
AcDbEntity
  8
ASSI
100
AcDbSpline
 62
7
  6
CONTINUOUS
 70
0
 71
3
 72
17
 73
13
 74
0
 42
0.0000001
 43
0.0000001
 44
0.0000000001
 40
0.0
 40
0.0
 40
0.0
 40
0.0
 40
0.0399582196
 40
0.0812274405
 40
0.1255447027
 40
0.1741061165
 40
0.2857076834
 40
0.4161995042
 40
0.560716867
 40
0.7118423472
 40
0.8610456801
 40
1.0
 40
1.0
 40
1.0
 40
1.0
 10
-28.0874141621
 20
3.08501193
 30
0.0
 10
-28.0607626337
 20
3.0983379408
 30
0.0
 10
-28.0026250645
 20
3.1182020521
 30
0.0
 10
-27.9082457178
 20
3.1241661792
 30
0.0
 10
-27.8089024597
 20
3.1069409869
 30
0.0
 10
-27.6659411031
 20
3.0516945736
 30
0.0
 10
-27.4866915945
 20
2.9245294278
 30
0.0
 10
-27.2923999525
 20
2.7095431836
 30
0.0
 10
-27.1218443039
 20
2.4397580363
 30
0.0
 10
-26.9881959772
 20
2.1348144225
 30
0.0
 10
-26.9018932952
 20
1.8176230211
 30
0.0
 10
-26.8793126332
 20
1.6025163854
 30
0.0
 10
-26.8793126332
 20
1.4988961305
 30
0.0
  0
SPLINE
  5
3D3
100
AcDbEntity
  8
ASSI
100
AcDbSpline
 62
7
  6
CONTINUOUS
 70
0
 71
3
 72
16
 73
12
 74
0
 42
0.0000001
 43
0.0000001
 44
0.0000000001
 40
0.0
 40
0.0
 40
0.0
 40
0.0
 40
0.0460199288
 40
0.0935497868
 40
0.1966471025
 40
0.3141164413
 40
0.4451413256
 40
0.5854920909
 40
0.7290755433
 40
0.8692448372
 40
1.0
 40
1.0
 40
1.0
 40
1.0
 10
-8.6886937863
 20
-13.8156861476
 30
0.0
 10
-8.656456192
 20
-13.7995671793
 30
0.0
 10
-8.5869976669
 20
-13.7741193431
 30
0.0
 10
-8.4334011828
 20
-13.7531235101
 30
0.0
 10
-8.2215695781
 20
-13.7885954999
 30
0.0
 10
-7.9731350369
 20
-13.9139158106
 30
0.0
 10
-7.7379540604
 20
-14.1109564194
 30
0.0
 10
-7.5327083594
 20
-14.3652853954
 30
0.0
 10
-7.3723447614
 20
-14.6582021345
 30
0.0
 10
-7.2690860582
 20
-14.9677846982
 30
0.0
 10
-7.2424845975
 20
-15.1803406293
 30
0.0
 10
-7.2424845975
 20
-15.2827480571
 30
0.0
  0
SPLINE
  5
3D4
100
AcDbEntity
  8
ASSI
100
AcDbSpline
 62
7
  6
CONTINUOUS
 70
0
 71
3
 72
16
 73
12
 74
0
 42
0.0000001
 43
0.0000001
 44
0.0000000001
 40
0.0
 40
0.0
 40
0.0
 40
0.0
 40
0.0486522271
 40
0.0988939831
 40
0.2066448751
 40
0.3266236282
 40
0.4577148403
 40
0.5960758329
 40
0.7363259174
 40
0.8726586962
 40
1.0
 40
1.0
 40
1.0
 40
1.0
 10
2.3209488103
 20
-18.493202484
 30
0.0
 10
2.3559765606
 20
-18.4756883801
 30
0.0
 10
2.4310900405
 20
-18.447437484
 30
0.0
 10
2.5960845268
 20
-18.4202098483
 30
0.0
 10
2.8228430611
 20
-18.4457355426
 30
0.0
 10
3.0916270534
 20
-18.5592833965
 30
0.0
 10
3.3467411104
 20
-18.7456102232
 30
0.0
 10
3.569995651
 20
-18.9911322065
 30
0.0
 10
3.7449497209
 20
-19.2781025041
 30
0.0
 10
3.8579526821
 20
-19.5851697948
 30
0.0
 10
3.886929031
 20
-19.7978762752
 30
0.0
 10
3.886929031
 20
-19.900378892
 30
0.0
  0
SPLINE
  5
3D5
100
AcDbEntity
  8
ASSI
100
AcDbSpline
 62
7
  6
CONTINUOUS
 70
0
 71
3
 72
16
 73
12
 74
0
 42
0.0000001
 43
0.0000001
 44
0.0000000001
 40
0.0
 40
0.0
 40
0.0
 40
0.0
 40
0.0473561297
 40
0.0962644957
 40
0.2017231734
 40
0.3204613292
 40
0.4515246748
 40
0.5908749
 40
0.7327692062
 40
0.8709850058
 40
1.0
 40
1.0
 40
1.0
 40
1.0
 10
-3.293708991
 20
-16.2093626385
 30
0.0
 10
-3.2600858259
 20
-16.1925520988
 30
0.0
 10
-3.1878208646
 20
-16.1657094591
 30
0.0
 10
-3.0285598718
 20
-16.1416000616
 30
0.0
 10
-2.8092533957
 20
-16.172082173
 30
0.0
 10
-2.5505875267
 20
-16.2915907222
 30
0.0
 10
-2.305439374
 20
-16.4834071409
 30
0.0
 10
-2.0912530287
 20
-16.7334446059
 30
0.0
 10
-1.9237112847
 20
-17.0234267698
 30
0.0
 10
-1.8157055068
 20
-17.3316959577
 30
0.0
 10
-1.7879499899
 20
-17.5442372595
 30
0.0
 10
-1.7879499899
 20
-17.6466495778
 30
0.0
  0
SPLINE
  5
3D6
100
AcDbEntity
  8
ASSI
100
AcDbSpline
 62
7
  6
CONTINUOUS
 70
0
 71
3
 72
11
 73
7
 74
0
 42
0.0000001
 43
0.0000001
 44
0.0000000001
 40
0.0
 40
0.0
 40
0.0
 40
0.0
 40
0.234623285
 40
0.4774758341
 40
0.7319545636
 40
1.0
 40
1.0
 40
1.0
 40
1.0
 10
14.1803509347
 20
-54.8415302806
 30
0.0
 10
13.8350159086
 20
-55.0142029661
 30
0.0
 10
13.0884971791
 20
-55.283759569
 30
0.0
 10
11.8852457248
 20
-55.4371833052
 30
0.0
 10
10.6216515003
 20
-55.3436730988
 30
0.0
 10
9.784958516
 20
-55.1247600063
 30
0.0
 10
9.3685078559
 20
-54.979375338
 30
0.0
  0
SPLINE
  5
3D7
100
AcDbEntity
  8
ASSI
100
AcDbSpline
 62
7
  6
CONTINUOUS
 70
0
 71
3
 72
11
 73
7
 74
0
 42
0.0000001
 43
0.0000001
 44
0.0000000001
 40
0.0
 40
0.0
 40
0.0
 40
0.0
 40
0.2946827987
 40
0.5564479142
 40
0.7879613559
 40
1.0
 40
1.0
 40
1.0
 40
1.0
 10
-19.1218785214
 20
28.0692463484
 30
0.0
 10
-19.1218785214
 20
28.1420451722
 30
0.0
 10
-19.1108296503
 20
28.2799931213
 30
0.0
 10
-19.0547406617
 20
28.4682547073
 30
0.0
 10
-18.9608517563
 20
28.6181826204
 30
0.0
 10
-18.8720058343
 20
28.6872926529
 30
0.0
 10
-18.8251537905
 20
28.7107189576
 30
0.0
  0
SPLINE
  5
3D8
100
AcDbEntity
  8
ASSI
100
AcDbSpline
 62
7
  6
CONTINUOUS
 70
0
 71
3
 72
16
 73
12
 74
0
 42
0.0000001
 43
0.0000001
 44
0.0000000001
 40
0.0
 40
0.0
 40
0.0
 40
0.0
 40
0.0489543726
 40
0.0994312213
 40
0.2073730067
 40
0.3272215086
 40
0.4580498002
 40
0.5961927069
 40
0.7363489938
 40
0.8726821156
 40
1.0
 40
1.0
 40
1.0
 40
1.0
 10
3.532909539
 20
10.6064156092
 30
0.0
 10
3.4976401682
 20
10.5887806745
 30
0.0
 10
3.4221050399
 20
10.5602849544
 30
0.0
 10
3.2564925526
 20
10.5325517969
 30
0.0
 10
3.0292388663
 20
10.5574415654
 30
0.0
 10
2.7603029903
 20
10.6709483927
 30
0.0
 10
2.5059122676
 20
10.8578967477
 30
0.0
 10
2.2840838513
 20
11.1044316122
 30
0.0
 10
2.1108365034
 20
11.3924014724
 30
0.0
 10
1.9992469696
 20
11.7000769909
 30
0.0
 10
1.9706440392
 20
11.9128955965
 30
0.0
 10
1.9706440392
 20
12.0154494232
 30
0.0
  0
SPLINE
  5
3D9
100
AcDbEntity
  8
ASSI
100
AcDbSpline
 62
7
  6
CONTINUOUS
 70
0
 71
3
 72
11
 73
7
 74
0
 42
0.0000001
 43
0.0000001
 44
0.0000000001
 40
0.0
 40
0.0
 40
0.0
 40
0.0
 40
0.2902982209
 40
0.5502984987
 40
0.7833208263
 40
1.0
 40
1.0
 40
1.0
 40
1.0
 10
-14.1757459014
 20
25.4511438338
 30
0.0
 10
-14.1757459014
 20
25.5241006821
 30
0.0
 10
-14.1640744244
 20
25.6629203952
 30
0.0
 10
-14.1051303167
 20
25.8527497334
 30
0.0
 10
-14.0065690745
 20
26.0046699059
 30
0.0
 10
-13.9143909875
 20
26.074931261
 30
0.0
 10
-13.8656849368
 20
26.0992845493
 30
0.0
  0
SPLINE
  5
3DA
100
AcDbEntity
  8
ASSI
100
AcDbSpline
 62
7
  6
CONTINUOUS
 70
0
 71
3
 72
17
 73
13
 74
0
 42
0.0000001
 43
0.0000001
 44
0.0000000001
 40
0.0
 40
0.0
 40
0.0
 40
0.0
 40
0.0403538781
 40
0.0819391841
 40
0.1264621694
 40
0.1751156134
 40
0.2866187765
 40
0.4168088309
 40
0.561014359
 40
0.7119507658
 40
0.8610980828
 40
1.0
 40
1.0
 40
1.0
 40
1.0
 10
-27.1527534179
 20
25.8105971237
 30
0.0
 10
-27.1796982159
 20
25.7971244987
 30
0.0
 10
-27.2383650699
 20
25.7769838912
 30
0.0
 10
-27.3335101194
 20
25.7706499638
 30
0.0
 10
-27.4334806872
 20
25.7876328703
 30
0.0
 10
-27.5768706744
 20
25.8426896227
 30
0.0
 10
-27.7561049374
 20
25.9700281789
 30
0.0
 10
-27.9493828635
 20
26.185695454
 30
0.0
 10
-28.1182235114
 20
26.4562747735
 30
0.0
 10
-28.250027085
 20
26.7619476522
 30
0.0
 10
-28.334926757
 20
27.0796247541
 30
0.0
 10
-28.3571401911
 20
27.2948760812
 30
0.0
 10
-28.3571401911
 20
27.3985702553
 30
0.0
  0
SPLINE
  5
3DB
100
AcDbEntity
  8
ASSI
100
AcDbSpline
 62
7
  6
CONTINUOUS
 70
0
 71
3
 72
11
 73
7
 74
0
 42
0.0000001
 43
0.0000001
 44
0.0000000001
 40
0.0
 40
0.0
 40
0.0
 40
0.0
 40
0.2861458721
 40
0.5444868587
 40
0.7789513902
 40
1.0
 40
1.0
 40
1.0
 40
1.0
 10
-9.0120810443
 20
22.9418074379
 30
0.0
 10
-9.0120810443
 20
23.0149494118
 30
0.0
 10
-8.9997679606
 20
23.1546866082
 30
0.0
 10
-8.9379166527
 20
23.3460853765
 30
0.0
 10
-8.8346970536
 20
23.4999295598
 30
0.0
 10
-8.7392309717
 20
23.5713424348
 30
0.0
 10
-8.6886937863
 20
23.5966112959
 30
0.0
  0
SPLINE
  5
3DC
100
AcDbEntity
  8
ASSI
100
AcDbSpline
 62
7
  6
CONTINUOUS
 70
0
 71
3
 72
16
 73
12
 74
0
 42
0.0000001
 43
0.0000001
 44
0.0000000001
 40
0.0
 40
0.0
 40
0.0
 40
0.0
 40
0.0449628673
 40
0.0913166333
 40
0.1921652519
 40
0.3081596594
 40
0.4388273955
 40
0.579947883
 40
0.7251780947
 40
0.8674078426
 40
1.0
 40
1.0
 40
1.0
 40
1.0
 10
-12.7923742467
 20
11.4818973387
 30
0.0
 10
-12.8234914006
 20
11.4663385953
 30
0.0
 10
-12.8906114004
 20
11.4420231929
 30
0.0
 10
-13.0392421525
 20
11.4236495624
 30
0.0
 10
-13.2440706205
 20
11.4635676125
 30
0.0
 10
-13.4822145302
 20
11.5945670825
 30
0.0
 10
-13.7065350352
 20
11.7971619017
 30
0.0
 10
-13.9014415683
 20
12.0564646638
 30
0.0
 10
-14.0531660302
 20
12.3531639054
 30
0.0
 10
-14.1505763221
 20
12.664824764
 30
0.0
 10
-14.1757459014
 20
12.8777845676
 30
0.0
 10
-14.1757459014
 20
12.9803780193
 30
0.0
  0
SPLINE
  5
3DD
100
AcDbEntity
  8
ASSI
100
AcDbSpline
 62
7
  6
CONTINUOUS
 70
0
 71
3
 72
11
 73
7
 74
0
 42
0.0000001
 43
0.0000001
 44
0.0000000001
 40
0.0
 40
0.0
 40
0.0
 40
0.0
 40
0.2821963946
 40
0.5389738194
 40
0.7748267566
 40
1.0
 40
1.0
 40
1.0
 40
1.0
 10
-3.6304858878
 20
20.5414361916
 30
0.0
 10
-3.6304858878
 20
20.6147918639
 30
0.0
 10
-3.6175071367
 20
20.7554985032
 30
0.0
 10
-3.552677544
 20
20.9484760084
 30
0.0
 10
-3.444790811
 20
21.1041887098
 30
0.0
 10
-3.3460629352
 20
21.1767594566
 30
0.0
 10
-3.293708991
 20
21.202934805
 30
0.0
  0
SPLINE
  5
3DE
100
AcDbEntity
  8
ASSI
100
AcDbSpline
 62
7
  6
CONTINUOUS
 70
0
 71
3
 72
17
 73
13
 74
0
 42
0.0000001
 43
0.0000001
 44
0.0000000001
 40
0.0
 40
0.0
 40
0.0
 40
0.0
 40
0.0419599577
 40
0.0852018845
 40
0.1312436666
 40
0.1811547556
 40
0.2941796444
 40
0.4245341863
 40
0.5676838516
 40
0.7166322715
 40
0.8633374449
 40
1.0
 40
1.0
 40
1.0
 40
1.0
 10
-22.5850736543
 20
29.2386511673
 30
0.0
 10
-22.6134201488
 20
29.2244789502
 30
0.0
 10
-22.6749171202
 20
29.2029335475
 30
0.0
 10
-22.774557279
 20
29.1942138829
 30
0.0
 10
-22.8794758093
 20
29.2086462301
 30
0.0
 10
-23.0295879798
 20
29.2599149421
 30
0.0
 10
-23.2179087029
 20
29.3824985818
 30
0.0
 10
-23.4215589048
 20
29.5940178521
 30
0.0
 10
-23.5991444057
 20
29.8609508149
 30
0.0
 10
-23.737522324
 20
30.1635738774
 30
0.0
 10
-23.8265073712
 20
30.4790241473
 30
0.0
 10
-23.8496815629
 20
30.693293963
 30
0.0
 10
-23.8496815629
 20
30.7965136522
 30
0.0
  0
SPLINE
  5
3DF
100
AcDbEntity
  8
ASSI
100
AcDbSpline
 62
7
  6
CONTINUOUS
 70
0
 71
3
 72
11
 73
7
 74
0
 42
0.0000001
 43
0.0000001
 44
0.0000000001
 40
0.0
 40
0.0
 40
0.0
 40
0.0
 40
0.2784263049
 40
0.5337353223
 40
0.7709300756
 40
1.0
 40
1.0
 40
1.0
 40
1.0
 10
1.9706440392
 20
18.2508323305
 30
0.0
 10
1.9706440392
 20
18.3244327833
 30
0.0
 10
1.9843201552
 20
18.4661701288
 30
0.0
 10
2.0522160509
 20
18.6607461095
 30
0.0
 10
2.1648074836
 20
18.818281142
 30
0.0
 10
2.2667883741
 20
18.8920143877
 30
0.0
 10
2.3209488103
 20
18.9190949595
 30
0.0
  0
SPLINE
  5
3E0
100
AcDbEntity
  8
ASSI
100
AcDbSpline
 62
7
  6
CONTINUOUS
 70
0
 71
3
 72
16
 73
12
 74
0
 42
0.0000001
 43
0.0000001
 44
0.0000000001
 40
0.0
 40
0.0
 40
0.0
 40
0.0
 40
0.0476855869
 40
0.0968552718
 40
0.2025460143
 40
0.3211751526
 40
0.4519695961
 40
0.5910783196
 40
0.7328486008
 40
0.8710350199
 40
1.0
 40
1.0
 40
1.0
 40
1.0
 10
-2.1283896959
 20
0.3961671254
 30
0.0
 10
-2.1622704249
 20
0.3792245078
 30
0.0
 10
-2.2349990784
 20
0.3521349289
 30
0.0
 10
-2.39495733
 20
0.327532235
 30
0.0
 10
-2.6148523816
 20
0.3574354671
 30
0.0
 10
-2.8736850926
 20
0.4770250918
 30
0.0
 10
-3.1180493354
 20
0.669503952
 30
0.0
 10
-3.3307306364
 20
0.9205159064
 30
0.0
 10
-3.4965158822
 20
1.2114163528
 30
0.0
 10
-3.6031056493
 20
1.5202176335
 30
0.0
 10
-3.6304858878
 20
1.7328393557
 30
0.0
 10
-3.6304858878
 20
1.8352874698
 30
0.0
  0
SPLINE
  5
3E1
100
AcDbEntity
  8
ASSI
100
AcDbSpline
 62
7
  6
CONTINUOUS
 70
0
 71
3
 72
9
 73
5
 74
0
 42
0.0000001
 43
0.0000001
 44
0.0000000001
 40
0.0
 40
0.0
 40
0.0
 40
0.0
 40
0.4759583247
 40
1.0
 40
1.0
 40
1.0
 40
1.0
 10
-32.5455249411
 20
-33.9745551808
 30
0.0
 10
-32.8629709863
 20
-33.7285606451
 30
0.0
 10
-33.4842727304
 20
-33.1519334417
 30
0.0
 10
-34.0207143618
 20
-32.4977714499
 30
0.0
 10
-34.2821385472
 20
-32.1411536897
 30
0.0
  0
SPLINE
  5
3E2
100
AcDbEntity
  8
ASSI
100
AcDbSpline
 62
7
  6
CONTINUOUS
 70
0
 71
3
 72
15
 73
11
 74
0
 42
0.0000001
 43
0.0000001
 44
0.0000000001
 40
0.0
 40
0.0
 40
0.0
 40
0.0
 40
0.1624179515
 40
0.3142431517
 40
0.4546760619
 40
0.5834164178
 40
0.7007862815
 40
0.807870905
 40
0.9066452714
 40
1.0
 40
1.0
 40
1.0
 40
1.0
 10
-37.4039358577
 20
-22.4609043355
 30
0.0
 10
-37.4033243527
 20
-22.1817283705
 30
0.0
 10
-37.3840117331
 20
-21.6413628013
 30
0.0
 10
-37.2951239114
 20
-20.8640163372
 30
0.0
 10
-37.1481655866
 20
-20.1542707535
 30
0.0
 10
-36.9445331496
 20
-19.5202544437
 30
0.0
 10
-36.6859445223
 20
-18.9688119219
 30
0.0
 10
-36.3740848323
 20
-18.5057677568
 30
0.0
 10
-36.0112439335
 20
-18.1367402611
 30
0.0
 10
-35.7323165345
 20
-17.9539570094
 30
0.0
 10
-35.5887932584
 20
-17.882192055
 30
0.0
  0
SPLINE
  5
3E3
100
AcDbEntity
  8
ASSI
100
AcDbSpline
 62
7
  6
CONTINUOUS
 70
0
 71
3
 72
11
 73
7
 74
0
 42
0.0000001
 43
0.0000001
 44
0.0000000001
 40
0.0
 40
0.0
 40
0.0
 40
0.0
 40
0.2300448408
 40
0.4737972574
 40
0.7307254791
 40
1.0
 40
1.0
 40
1.0
 40
1.0
 10
-32.3507922341
 20
-34.119725293
 30
0.0
 10
-29.4414379257
 20
-36.2031680246
 30
0.0
 10
-23.2523045241
 20
-40.2234306224
 30
0.0
 10
-13.2577843135
 20
-45.6574868654
 30
0.0
 10
-2.3539364214
 20
-50.633419911
 30
0.0
 10
5.2980392462
 20
-53.5558367442
 30
0.0
 10
9.2518591274
 20
-54.938616142
 30
0.0
  0
SPLINE
  5
3E4
100
AcDbEntity
  8
ASSI
100
AcDbSpline
 62
7
  6
CONTINUOUS
 70
0
 71
3
 72
17
 73
13
 74
0
 42
0.0000001
 43
0.0000001
 44
0.0000000001
 40
0.0
 40
0.0
 40
0.0
 40
0.0
 40
0.0419599577
 40
0.0852018845
 40
0.1312436666
 40
0.1811547556
 40
0.2941796444
 40
0.4245341863
 40
0.5676838516
 40
0.7166322715
 40
0.8633374449
 40
1.0
 40
1.0
 40
1.0
 40
1.0
 10
-22.5850736543
 20
10.5325024455
 30
0.0
 10
-22.6134201488
 20
10.5183302285
 30
0.0
 10
-22.6749171202
 20
10.4967848258
 30
0.0
 10
-22.774557279
 20
10.4880651612
 30
0.0
 10
-22.8794758093
 20
10.5024975084
 30
0.0
 10
-23.0295879798
 20
10.5537662204
 30
0.0
 10
-23.2179087029
 20
10.67634986
 30
0.0
 10
-23.4215589048
 20
10.8878691303
 30
0.0
 10
-23.5991444057
 20
11.1548020931
 30
0.0
 10
-23.737522324
 20
11.4574251556
 30
0.0
 10
-23.8265073712
 20
11.7728754256
 30
0.0
 10
-23.8496815629
 20
11.9871452412
 30
0.0
 10
-23.8496815629
 20
12.0903649304
 30
0.0
  0
SPLINE
  5
3E5
100
AcDbEntity
  8
ASSI
100
AcDbSpline
 62
7
  6
CONTINUOUS
 70
0
 71
3
 72
11
 73
7
 74
0
 42
0.0000001
 43
0.0000001
 44
0.0000000001
 40
0.0
 40
0.0
 40
0.0
 40
0.0
 40
0.3042908913
 40
0.5699433065
 40
0.7981824121
 40
1.0
 40
1.0
 40
1.0
 40
1.0
 10
-28.3571401911
 20
-3.7783442809
 30
0.0
 10
-28.3571401911
 20
-3.705783939
 30
0.0
 10
-28.3472997432
 20
-3.5694654729
 30
0.0
 10
-28.2968321431
 20
-3.3843676137
 30
0.0
 10
-28.2124286515
 20
-3.2386867664
 30
0.0
 10
-28.1304581762
 20
-3.1718933825
 30
0.0
 10
-28.0874141621
 20
-3.1503709772
 30
0.0
  0
SPLINE
  5
3E6
100
AcDbEntity
  8
ASSI
100
AcDbSpline
 62
7
  6
CONTINUOUS
 70
0
 71
3
 72
16
 73
12
 74
0
 42
0.0000001
 43
0.0000001
 44
0.0000000001
 40
0.0
 40
0.0
 40
0.0
 40
0.0
 40
0.0449628673
 40
0.0913166333
 40
0.1921652519
 40
0.3081596594
 40
0.4388273955
 40
0.579947883
 40
0.7251780947
 40
0.8674078426
 40
1.0
 40
1.0
 40
1.0
 40
1.0
 10
-12.7923742467
 20
17.7172802459
 30
0.0
 10
-12.8234914006
 20
17.7017215025
 30
0.0
 10
-12.8906114004
 20
17.6774061001
 30
0.0
 10
-13.0392421525
 20
17.6590324697
 30
0.0
 10
-13.2440706205
 20
17.6989505197
 30
0.0
 10
-13.4822145302
 20
17.8299499897
 30
0.0
 10
-13.7065350352
 20
18.0325448089
 30
0.0
 10
-13.9014415683
 20
18.2918475711
 30
0.0
 10
-14.0531660302
 20
18.5885468126
 30
0.0
 10
-14.1505763221
 20
18.9002076712
 30
0.0
 10
-14.1757459014
 20
19.1131674748
 30
0.0
 10
-14.1757459014
 20
19.2157609266
 30
0.0
  0
SPLINE
  5
3E7
100
AcDbEntity
  8
ASSI
100
AcDbSpline
 62
7
  6
CONTINUOUS
 70
0
 71
3
 72
11
 73
7
 74
0
 42
0.0000001
 43
0.0000001
 44
0.0000000001
 40
0.0
 40
0.0
 40
0.0
 40
0.0
 40
0.2993383578
 40
0.5629827689
 40
0.7929091521
 40
1.0
 40
1.0
 40
1.0
 40
1.0
 10
-23.8496815629
 20
-6.6157837913
 30
0.0
 10
-23.8496815629
 20
-6.543115864
 30
0.0
 10
-23.8392431409
 20
-6.4059985065
 30
0.0
 10
-23.7859676625
 20
-6.2193121148
 30
0.0
 10
-23.6967915116
 20
-6.0714587511
 30
0.0
 10
-23.6113420132
 20
-6.0035054355
 30
0.0
 10
-23.5663772354
 20
-5.9810194618
 30
0.0
  0
SPLINE
  5
3E8
100
AcDbEntity
  8
ASSI
100
AcDbSpline
 62
7
  6
CONTINUOUS
 70
0
 71
3
 72
11
 73
7
 74
0
 42
0.0000001
 43
0.0000001
 44
0.0000000001
 40
0.0
 40
0.0
 40
0.0
 40
0.0
 40
0.2946827987
 40
0.5564479142
 40
0.7879613559
 40
1.0
 40
1.0
 40
1.0
 40
1.0
 10
-19.1218785214
 20
-9.3430510951
 30
0.0
 10
-19.1218785214
 20
-9.2702522713
 30
0.0
 10
-19.1108296503
 20
-9.1323043222
 30
0.0
 10
-19.0547406617
 20
-8.9440427362
 30
0.0
 10
-18.9608517563
 20
-8.7941148231
 30
0.0
 10
-18.8720058343
 20
-8.7250047906
 30
0.0
 10
-18.8251537905
 20
-8.7015784859
 30
0.0
  0
SPLINE
  5
3E9
100
AcDbEntity
  8
ASSI
100
AcDbSpline
 62
7
  6
CONTINUOUS
 70
0
 71
3
 72
16
 73
12
 74
0
 42
0.0000001
 43
0.0000001
 44
0.0000000001
 40
0.0
 40
0.0
 40
0.0
 40
0.0
 40
0.046349267
 40
0.094139428
 40
0.197460096
 40
0.3148061791
 40
0.4455531995
 40
0.5856582373
 40
0.7291219529
 40
0.8692759895
 40
1.0
 40
1.0
 40
1.0
 40
1.0
 10
-7.5695054409
 20
21.4729287209
 30
0.0
 10
-7.6019995563
 20
21.4566814848
 30
0.0
 10
-7.671913246
 20
21.4309813578
 30
0.0
 10
-7.8262008803
 20
21.4094866888
 30
0.0
 10
-8.0386261849
 20
21.4443822495
 30
0.0
 10
-8.2872154501
 20
21.5697861084
 30
0.0
 10
-8.5215791938
 20
21.7674719586
 30
0.0
 10
-8.7253119047
 20
22.0227316591
 30
0.0
 10
-8.8839517538
 20
22.3165350651
 30
0.0
 10
-8.9858385119
 20
22.6266667822
 30
0.0
 10
-9.0120810443
 20
22.8393429976
 30
0.0
 10
-9.0120810443
 20
22.9418074379
 30
0.0
  0
SPLINE
  5
3EA
100
AcDbEntity
  8
ASSI
100
AcDbSpline
 62
7
  6
CONTINUOUS
 70
0
 71
3
 72
17
 73
13
 74
0
 42
0.0000001
 43
0.0000001
 44
0.0000000001
 40
0.0
 40
0.0
 40
0.0
 40
0.0
 40
0.0403538781
 40
0.0819391841
 40
0.1264621694
 40
0.1751156134
 40
0.2866187765
 40
0.4168088309
 40
0.561014359
 40
0.7119507658
 40
0.8610980828
 40
1.0
 40
1.0
 40
1.0
 40
1.0
 10
-27.1527534179
 20
13.3398313092
 30
0.0
 10
-27.1796982159
 20
13.3263586842
 30
0.0
 10
-27.2383650699
 20
13.3062180767
 30
0.0
 10
-27.3335101194
 20
13.2998841493
 30
0.0
 10
-27.4334806872
 20
13.3168670558
 30
0.0
 10
-27.5768706744
 20
13.3719238082
 30
0.0
 10
-27.7561049374
 20
13.4992623644
 30
0.0
 10
-27.9493828635
 20
13.7149296395
 30
0.0
 10
-28.1182235114
 20
13.9855089591
 30
0.0
 10
-28.250027085
 20
14.2911818377
 30
0.0
 10
-28.334926757
 20
14.6088589396
 30
0.0
 10
-28.3571401911
 20
14.8241102667
 30
0.0
 10
-28.3571401911
 20
14.9278044408
 30
0.0
  0
SPLINE
  5
3EB
100
AcDbEntity
  8
ASSI
100
AcDbSpline
 62
7
  6
CONTINUOUS
 70
0
 71
3
 72
11
 73
7
 74
0
 42
0.0000001
 43
0.0000001
 44
0.0000000001
 40
0.0
 40
0.0
 40
0.0
 40
0.0
 40
0.2902982209
 40
0.5502984987
 40
0.7833208263
 40
1.0
 40
1.0
 40
1.0
 40
1.0
 10
-14.1757459014
 20
-11.9611536097
 30
0.0
 10
-14.1757459014
 20
-11.8881967613
 30
0.0
 10
-14.1640744244
 20
-11.7493770483
 30
0.0
 10
-14.1051303167
 20
-11.5595477101
 30
0.0
 10
-14.0065690745
 20
-11.4076275376
 30
0.0
 10
-13.9143909875
 20
-11.3373661825
 30
0.0
 10
-13.8656849368
 20
-11.3130128942
 30
0.0
  0
SPLINE
  5
3EC
100
AcDbEntity
  8
ASSI
100
AcDbSpline
 62
7
  6
CONTINUOUS
 70
0
 71
3
 72
11
 73
7
 74
0
 42
0.0000001
 43
0.0000001
 44
0.0000000001
 40
0.0
 40
0.0
 40
0.0
 40
0.0
 40
0.2861458721
 40
0.5444868587
 40
0.7789513902
 40
1.0
 40
1.0
 40
1.0
 40
1.0
 10
-9.0120810443
 20
-14.4704900056
 30
0.0
 10
-9.0120810443
 20
-14.3973480317
 30
0.0
 10
-8.9997679606
 20
-14.2576108353
 30
0.0
 10
-8.9379166527
 20
-14.066212067
 30
0.0
 10
-8.8346970536
 20
-13.9123678837
 30
0.0
 10
-8.7392309717
 20
-13.8409550087
 30
0.0
 10
-8.6886937863
 20
-13.8156861476
 30
0.0
  0
SPLINE
  5
3ED
100
AcDbEntity
  8
ASSI
100
AcDbSpline
 62
7
  6
CONTINUOUS
 70
0
 71
3
 72
16
 73
12
 74
0
 42
0.0000001
 43
0.0000001
 44
0.0000000001
 40
0.0
 40
0.0
 40
0.0
 40
0.0
 40
0.0435106388
 40
0.0883588226
 40
0.1866246612
 40
0.3012017276
 40
0.4317616265
 40
0.5739173188
 40
0.7209922251
 40
0.8654182941
 40
1.0
 40
1.0
 40
1.0
 40
1.0
 10
-17.7977207462
 20
14.0703929176
 30
0.0
 10
-17.8274587148
 20
14.0555237628
 30
0.0
 10
-17.8917802639
 20
14.032592776
 30
0.0
 10
-18.0347289197
 20
14.0173666487
 30
0.0
 10
-18.2317802541
 20
14.0623518765
 30
0.0
 10
-18.4592468621
 20
14.1987155276
 30
0.0
 10
-18.6734604033
 20
14.4059440469
 30
0.0
 10
-18.8596231659
 20
14.6691229743
 30
0.0
 10
-19.0046133455
 20
14.9687475275
 30
0.0
 10
-19.0977293825
 20
15.2821617938
 30
0.0
 10
-19.1218785214
 20
15.4956415278
 30
0.0
 10
-19.1218785214
 20
15.5984805339
 30
0.0
  0
SPLINE
  5
3EE
100
AcDbEntity
  8
ASSI
100
AcDbSpline
 62
7
  6
CONTINUOUS
 70
0
 71
3
 72
11
 73
7
 74
0
 42
0.0000001
 43
0.0000001
 44
0.0000000001
 40
0.0
 40
0.0
 40
0.0
 40
0.0
 40
0.2821963946
 40
0.5389738194
 40
0.7748267566
 40
1.0
 40
1.0
 40
1.0
 40
1.0
 10
-3.6304858878
 20
-16.8708612519
 30
0.0
 10
-3.6304858878
 20
-16.7975055796
 30
0.0
 10
-3.6175071367
 20
-16.6567989403
 30
0.0
 10
-3.552677544
 20
-16.4638214351
 30
0.0
 10
-3.444790811
 20
-16.3081087337
 30
0.0
 10
-3.3460629352
 20
-16.2355379868
 30
0.0
 10
-3.293708991
 20
-16.2093626385
 30
0.0
  0
SPLINE
  5
3EF
100
AcDbEntity
  8
ASSI
100
AcDbSpline
 62
7
  6
CONTINUOUS
 70
0
 71
3
 72
16
 73
12
 74
0
 42
0.0000001
 43
0.0000001
 44
0.0000000001
 40
0.0
 40
0.0
 40
0.0
 40
0.0
 40
0.0489543726
 40
0.0994312213
 40
0.2073730067
 40
0.3272215086
 40
0.4580498002
 40
0.5961927069
 40
0.7363489938
 40
0.8726821156
 40
1.0
 40
1.0
 40
1.0
 40
1.0
 10
3.532909539
 20
4.3710327019
 30
0.0
 10
3.4976401682
 20
4.3533977672
 30
0.0
 10
3.4221050399
 20
4.3249020471
 30
0.0
 10
3.2564925526
 20
4.2971688897
 30
0.0
 10
3.0292388663
 20
4.3220586582
 30
0.0
 10
2.7603029903
 20
4.4355654855
 30
0.0
 10
2.5059122676
 20
4.6225138404
 30
0.0
 10
2.2840838513
 20
4.869048705
 30
0.0
 10
2.1108365034
 20
5.1570185651
 30
0.0
 10
1.9992469696
 20
5.4646940837
 30
0.0
 10
1.9706440392
 20
5.6775126893
 30
0.0
 10
1.9706440392
 20
5.780066516
 30
0.0
  0
SPLINE
  5
3F0
100
AcDbEntity
  8
ASSI
100
AcDbSpline
 62
7
  6
CONTINUOUS
 70
0
 71
3
 72
16
 73
12
 74
0
 42
0.0000001
 43
0.0000001
 44
0.0000000001
 40
0.0
 40
0.0
 40
0.0
 40
0.0
 40
0.0489543726
 40
0.0994312213
 40
0.2073730067
 40
0.3272215086
 40
0.4580498002
 40
0.5961927069
 40
0.7363489938
 40
0.8726821156
 40
1.0
 40
1.0
 40
1.0
 40
1.0
 10
3.532909539
 20
-8.0997331126
 30
0.0
 10
3.4976401682
 20
-8.1173680472
 30
0.0
 10
3.4221050399
 20
-8.1458637673
 30
0.0
 10
3.2564925526
 20
-8.1735969248
 30
0.0
 10
3.0292388663
 20
-8.1487071563
 30
0.0
 10
2.7603029903
 20
-8.035200329
 30
0.0
 10
2.5059122676
 20
-7.8482519741
 30
0.0
 10
2.2840838513
 20
-7.6017171095
 30
0.0
 10
2.1108365034
 20
-7.3137472494
 30
0.0
 10
1.9992469696
 20
-7.0060717308
 30
0.0
 10
1.9706440392
 20
-6.7932531252
 30
0.0
 10
1.9706440392
 20
-6.6906992985
 30
0.0
  0
SPLINE
  5
3F1
100
AcDbEntity
  8
ASSI
100
AcDbSpline
 62
7
  6
CONTINUOUS
 70
0
 71
3
 72
11
 73
7
 74
0
 42
0.0000001
 43
0.0000001
 44
0.0000000001
 40
0.0
 40
0.0
 40
0.0
 40
0.0
 40
0.2784263049
 40
0.5337353223
 40
0.7709300756
 40
1.0
 40
1.0
 40
1.0
 40
1.0
 10
1.9706440392
 20
-19.161465113
 30
0.0
 10
1.9706440392
 20
-19.0878646602
 30
0.0
 10
1.9843201552
 20
-18.9461273147
 30
0.0
 10
2.0522160509
 20
-18.751551334
 30
0.0
 10
2.1648074836
 20
-18.5940163015
 30
0.0
 10
2.2667883741
 20
-18.5202830558
 30
0.0
 10
2.3209488103
 20
-18.493202484
 30
0.0
  0
SPLINE
  5
3F2
100
AcDbEntity
  8
ASSI
100
AcDbSpline
 62
7
  6
CONTINUOUS
 70
0
 71
3
 72
11
 73
7
 74
0
 42
0.0000001
 43
0.0000001
 44
0.0000000001
 40
0.0
 40
0.0
 40
0.0
 40
0.0
 40
0.3042908913
 40
0.5699433065
 40
0.7981824121
 40
1.0
 40
1.0
 40
1.0
 40
1.0
 10
-28.3571401911
 20
2.4570386263
 30
0.0
 10
-28.3571401911
 20
2.5295989682
 30
0.0
 10
-28.3472997432
 20
2.6659174343
 30
0.0
 10
-28.2968321431
 20
2.8510152935
 30
0.0
 10
-28.2124286515
 20
2.9966961409
 30
0.0
 10
-28.1304581762
 20
3.0634895248
 30
0.0
 10
-28.0874141621
 20
3.08501193
 30
0.0
  0
SPLINE
  5
3F3
100
AcDbEntity
  8
ASSI
100
AcDbSpline
 62
7
  6
CONTINUOUS
 70
0
 71
3
 72
16
 73
12
 74
0
 42
0.0000001
 43
0.0000001
 44
0.0000000001
 40
0.0
 40
0.0
 40
0.0
 40
0.0
 40
0.0476855869
 40
0.0968552718
 40
0.2025460143
 40
0.3211751526
 40
0.4519695961
 40
0.5910783196
 40
0.7328486008
 40
0.8710350199
 40
1.0
 40
1.0
 40
1.0
 40
1.0
 10
-2.1283896959
 20
-5.8392157818
 30
0.0
 10
-2.1622704249
 20
-5.8561583995
 30
0.0
 10
-2.2349990784
 20
-5.8832479783
 30
0.0
 10
-2.39495733
 20
-5.9078506723
 30
0.0
 10
-2.6148523816
 20
-5.8779474402
 30
0.0
 10
-2.8736850926
 20
-5.7583578155
 30
0.0
 10
-3.1180493354
 20
-5.5658789552
 30
0.0
 10
-3.3307306364
 20
-5.3148670009
 30
0.0
 10
-3.4965158822
 20
-5.0239665544
 30
0.0
 10
-3.6031056493
 20
-4.7151652738
 30
0.0
 10
-3.6304858878
 20
-4.5025435516
 30
0.0
 10
-3.6304858878
 20
-4.4000954374
 30
0.0
  0
SPLINE
  5
3F4
100
AcDbEntity
  8
ASSI
100
AcDbSpline
 62
7
  6
CONTINUOUS
 70
0
 71
3
 72
16
 73
12
 74
0
 42
0.0000001
 43
0.0000001
 44
0.0000000001
 40
0.0
 40
0.0
 40
0.0
 40
0.0
 40
0.046349267
 40
0.094139428
 40
0.197460096
 40
0.3148061791
 40
0.4455531995
 40
0.5856582373
 40
0.7291219529
 40
0.8692759895
 40
1.0
 40
1.0
 40
1.0
 40
1.0
 10
-7.5695054409
 20
2.7667799992
 30
0.0
 10
-7.6019995563
 20
2.750532763
 30
0.0
 10
-7.671913246
 20
2.7248326361
 30
0.0
 10
-7.8262008803
 20
2.703337967
 30
0.0
 10
-8.0386261849
 20
2.7382335277
 30
0.0
 10
-8.2872154501
 20
2.8636373867
 30
0.0
 10
-8.5215791938
 20
3.0613232369
 30
0.0
 10
-8.7253119047
 20
3.3165829373
 30
0.0
 10
-8.8839517538
 20
3.6103863434
 30
0.0
 10
-8.9858385119
 20
3.9205180604
 30
0.0
 10
-9.0120810443
 20
4.1331942759
 30
0.0
 10
-9.0120810443
 20
4.2356587161
 30
0.0
  0
SPLINE
  5
3F5
100
AcDbEntity
  8
ASSI
100
AcDbSpline
 62
7
  6
CONTINUOUS
 70
0
 71
3
 72
11
 73
7
 74
0
 42
0.0000001
 43
0.0000001
 44
0.0000000001
 40
0.0
 40
0.0
 40
0.0
 40
0.0
 40
0.2993383578
 40
0.5629827689
 40
0.7929091521
 40
1.0
 40
1.0
 40
1.0
 40
1.0
 10
-23.8496815629
 20
-0.3804008841
 30
0.0
 10
-23.8496815629
 20
-0.3077329567
 30
0.0
 10
-23.8392431409
 20
-0.1706155992
 30
0.0
 10
-23.7859676625
 20
0.0160707925
 30
0.0
 10
-23.6967915116
 20
0.1639241562
 30
0.0
 10
-23.6113420132
 20
0.2318774717
 30
0.0
 10
-23.5663772354
 20
0.2543634454
 30
0.0
  0
SPLINE
  5
3F6
100
AcDbEntity
  8
ASSI
100
AcDbSpline
 62
7
  6
CONTINUOUS
 70
0
 71
3
 72
16
 73
12
 74
0
 42
0.0000001
 43
0.0000001
 44
0.0000000001
 40
0.0
 40
0.0
 40
0.0
 40
0.0
 40
0.0476855869
 40
0.0968552718
 40
0.2025460143
 40
0.3211751526
 40
0.4519695961
 40
0.5910783196
 40
0.7328486008
 40
0.8710350199
 40
1.0
 40
1.0
 40
1.0
 40
1.0
 10
-2.1283896959
 20
12.8669329399
 30
0.0
 10
-2.1622704249
 20
12.8499903223
 30
0.0
 10
-2.2349990784
 20
12.8229007434
 30
0.0
 10
-2.39495733
 20
12.7982980495
 30
0.0
 10
-2.6148523816
 20
12.8282012816
 30
0.0
 10
-2.8736850926
 20
12.9477909063
 30
0.0
 10
-3.1180493354
 20
13.1402697665
 30
0.0
 10
-3.3307306364
 20
13.3912817209
 30
0.0
 10
-3.4965158822
 20
13.6821821673
 30
0.0
 10
-3.6031056493
 20
13.990983448
 30
0.0
 10
-3.6304858878
 20
14.2036051702
 30
0.0
 10
-3.6304858878
 20
14.3060532843
 30
0.0
  0
SPLINE
  5
3F7
100
AcDbEntity
  8
ASSI
100
AcDbSpline
 62
7
  6
CONTINUOUS
 70
0
 71
3
 72
11
 73
7
 74
0
 42
0.0000001
 43
0.0000001
 44
0.0000000001
 40
0.0
 40
0.0
 40
0.0
 40
0.0
 40
0.2946827987
 40
0.5564479142
 40
0.7879613559
 40
1.0
 40
1.0
 40
1.0
 40
1.0
 10
-19.1218785214
 20
-3.1076681879
 30
0.0
 10
-19.1218785214
 20
-3.034869364
 30
0.0
 10
-19.1108296503
 20
-2.896921415
 30
0.0
 10
-19.0547406617
 20
-2.708659829
 30
0.0
 10
-18.9608517563
 20
-2.5587319158
 30
0.0
 10
-18.8720058343
 20
-2.4896218833
 30
0.0
 10
-18.8251537905
 20
-2.4661955786
 30
0.0
  0
SPLINE
  5
3F8
100
AcDbEntity
  8
ASSI
100
AcDbSpline
 62
7
  6
CONTINUOUS
 70
0
 71
3
 72
16
 73
12
 74
0
 42
0.0000001
 43
0.0000001
 44
0.0000000001
 40
0.0
 40
0.0
 40
0.0
 40
0.0
 40
0.0435106388
 40
0.0883588226
 40
0.1866246612
 40
0.3012017276
 40
0.4317616265
 40
0.5739173188
 40
0.7209922251
 40
0.8654182941
 40
1.0
 40
1.0
 40
1.0
 40
1.0
 10
-17.7977207462
 20
20.3057758248
 30
0.0
 10
-17.8274587148
 20
20.29090667
 30
0.0
 10
-17.8917802639
 20
20.2679756832
 30
0.0
 10
-18.0347289197
 20
20.2527495559
 30
0.0
 10
-18.2317802541
 20
20.2977347837
 30
0.0
 10
-18.4592468621
 20
20.4340984348
 30
0.0
 10
-18.6734604033
 20
20.6413269542
 30
0.0
 10
-18.8596231659
 20
20.9045058816
 30
0.0
 10
-19.0046133455
 20
21.2041304348
 30
0.0
 10
-19.0977293825
 20
21.517544701
 30
0.0
 10
-19.1218785214
 20
21.731024435
 30
0.0
 10
-19.1218785214
 20
21.8338634411
 30
0.0
  0
SPLINE
  5
3F9
100
AcDbEntity
  8
ASSI
100
AcDbSpline
 62
7
  6
CONTINUOUS
 70
0
 71
3
 72
11
 73
7
 74
0
 42
0.0000001
 43
0.0000001
 44
0.0000000001
 40
0.0
 40
0.0
 40
0.0
 40
0.0
 40
0.2902982209
 40
0.5502984987
 40
0.7833208263
 40
1.0
 40
1.0
 40
1.0
 40
1.0
 10
-14.1757459014
 20
-5.7257707024
 30
0.0
 10
-14.1757459014
 20
-5.6528138541
 30
0.0
 10
-14.1640744244
 20
-5.5139941411
 30
0.0
 10
-14.1051303167
 20
-5.3241648029
 30
0.0
 10
-14.0065690745
 20
-5.1722446303
 30
0.0
 10
-13.9143909875
 20
-5.1019832752
 30
0.0
 10
-13.8656849368
 20
-5.077629987
 30
0.0
  0
SPLINE
  5
3FA
100
AcDbEntity
  8
ASSI
100
AcDbSpline
 62
7
  6
CONTINUOUS
 70
0
 71
3
 72
16
 73
12
 74
0
 42
0.0000001
 43
0.0000001
 44
0.0000000001
 40
0.0
 40
0.0
 40
0.0
 40
0.0
 40
0.046349267
 40
0.094139428
 40
0.197460096
 40
0.3148061791
 40
0.4455531995
 40
0.5856582373
 40
0.7291219529
 40
0.8692759895
 40
1.0
 40
1.0
 40
1.0
 40
1.0
 10
-7.5695054409
 20
-3.4686029081
 30
0.0
 10
-7.6019995563
 20
-3.4848501442
 30
0.0
 10
-7.671913246
 20
-3.5105502712
 30
0.0
 10
-7.8262008803
 20
-3.5320449402
 30
0.0
 10
-8.0386261849
 20
-3.4971493795
 30
0.0
 10
-8.2872154501
 20
-3.3717455206
 30
0.0
 10
-8.5215791938
 20
-3.1740596704
 30
0.0
 10
-8.7253119047
 20
-2.9187999699
 30
0.0
 10
-8.8839517538
 20
-2.6249965639
 30
0.0
 10
-8.9858385119
 20
-2.3148648468
 30
0.0
 10
-9.0120810443
 20
-2.1021886314
 30
0.0
 10
-9.0120810443
 20
-1.9997241911
 30
0.0
  0
SPLINE
  5
3FB
100
AcDbEntity
  8
ASSI
100
AcDbSpline
 62
7
  6
CONTINUOUS
 70
0
 71
3
 72
16
 73
12
 74
0
 42
0.0000001
 43
0.0000001
 44
0.0000000001
 40
0.0
 40
0.0
 40
0.0
 40
0.0
 40
0.0449628673
 40
0.0913166333
 40
0.1921652519
 40
0.3081596594
 40
0.4388273955
 40
0.579947883
 40
0.7251780947
 40
0.8674078426
 40
1.0
 40
1.0
 40
1.0
 40
1.0
 10
-12.7923742467
 20
5.2465144314
 30
0.0
 10
-12.8234914006
 20
5.230955688
 30
0.0
 10
-12.8906114004
 20
5.2066402856
 30
0.0
 10
-13.0392421525
 20
5.1882666552
 30
0.0
 10
-13.2440706205
 20
5.2281847052
 30
0.0
 10
-13.4822145302
 20
5.3591841752
 30
0.0
 10
-13.7065350352
 20
5.5617789944
 30
0.0
 10
-13.9014415683
 20
5.8210817566
 30
0.0
 10
-14.0531660302
 20
6.1177809981
 30
0.0
 10
-14.1505763221
 20
6.4294418567
 30
0.0
 10
-14.1757459014
 20
6.6424016603
 30
0.0
 10
-14.1757459014
 20
6.7449951121
 30
0.0
  0
SPLINE
  5
3FC
100
AcDbEntity
  8
ASSI
100
AcDbSpline
 62
7
  6
CONTINUOUS
 70
0
 71
3
 72
11
 73
7
 74
0
 42
0.0000001
 43
0.0000001
 44
0.0000000001
 40
0.0
 40
0.0
 40
0.0
 40
0.0
 40
0.2861458721
 40
0.5444868587
 40
0.7789513902
 40
1.0
 40
1.0
 40
1.0
 40
1.0
 10
-9.0120810443
 20
-8.2351070984
 30
0.0
 10
-9.0120810443
 20
-8.1619651244
 30
0.0
 10
-8.9997679606
 20
-8.0222279281
 30
0.0
 10
-8.9379166527
 20
-7.8308291598
 30
0.0
 10
-8.8346970536
 20
-7.6769849765
 30
0.0
 10
-8.7392309717
 20
-7.6055721014
 30
0.0
 10
-8.6886937863
 20
-7.5803032404
 30
0.0
  0
SPLINE
  5
3FD
100
AcDbEntity
  8
ASSI
100
AcDbSpline
 62
7
  6
CONTINUOUS
 70
0
 71
3
 72
16
 73
12
 74
0
 42
0.0000001
 43
0.0000001
 44
0.0000000001
 40
0.0
 40
0.0
 40
0.0
 40
0.0
 40
0.0489543726
 40
0.0994312213
 40
0.2073730067
 40
0.3272215086
 40
0.4580498002
 40
0.5961927069
 40
0.7363489938
 40
0.8726821156
 40
1.0
 40
1.0
 40
1.0
 40
1.0
 10
3.532909539
 20
16.8417985164
 30
0.0
 10
3.4976401682
 20
16.8241635817
 30
0.0
 10
3.4221050399
 20
16.7956678616
 30
0.0
 10
3.2564925526
 20
16.7679347042
 30
0.0
 10
3.0292388663
 20
16.7928244727
 30
0.0
 10
2.7603029903
 20
16.9063313
 30
0.0
 10
2.5059122676
 20
17.0932796549
 30
0.0
 10
2.2840838513
 20
17.3398145195
 30
0.0
 10
2.1108365034
 20
17.6277843796
 30
0.0
 10
1.9992469696
 20
17.9354598982
 30
0.0
 10
1.9706440392
 20
18.1482785038
 30
0.0
 10
1.9706440392
 20
18.2508323305
 30
0.0
  0
SPLINE
  5
3FE
100
AcDbEntity
  8
ASSI
100
AcDbSpline
 62
7
  6
CONTINUOUS
 70
0
 71
3
 72
11
 73
7
 74
0
 42
0.0000001
 43
0.0000001
 44
0.0000000001
 40
0.0
 40
0.0
 40
0.0
 40
0.0
 40
0.2821963946
 40
0.5389738194
 40
0.7748267566
 40
1.0
 40
1.0
 40
1.0
 40
1.0
 10
-3.6304858878
 20
-10.6354783447
 30
0.0
 10
-3.6304858878
 20
-10.5621226723
 30
0.0
 10
-3.6175071367
 20
-10.421416033
 30
0.0
 10
-3.552677544
 20
-10.2284385278
 30
0.0
 10
-3.444790811
 20
-10.0727258264
 30
0.0
 10
-3.3460629352
 20
-10.0001550796
 30
0.0
 10
-3.293708991
 20
-9.9739797313
 30
0.0
  0
SPLINE
  5
3FF
100
AcDbEntity
  8
ASSI
100
AcDbSpline
 62
7
  6
CONTINUOUS
 70
0
 71
3
 72
17
 73
13
 74
0
 42
0.0000001
 43
0.0000001
 44
0.0000000001
 40
0.0
 40
0.0
 40
0.0
 40
0.0
 40
0.0419599577
 40
0.0852018845
 40
0.1312436666
 40
0.1811547556
 40
0.2941796444
 40
0.4245341863
 40
0.5676838516
 40
0.7166322715
 40
0.8633374449
 40
1.0
 40
1.0
 40
1.0
 40
1.0
 10
-22.5850736543
 20
16.7678853528
 30
0.0
 10
-22.6134201488
 20
16.7537131357
 30
0.0
 10
-22.6749171202
 20
16.732167733
 30
0.0
 10
-22.774557279
 20
16.7234480684
 30
0.0
 10
-22.8794758093
 20
16.7378804156
 30
0.0
 10
-23.0295879798
 20
16.7891491276
 30
0.0
 10
-23.2179087029
 20
16.9117327673
 30
0.0
 10
-23.4215589048
 20
17.1232520376
 30
0.0
 10
-23.5991444057
 20
17.3901850004
 30
0.0
 10
-23.737522324
 20
17.6928080629
 30
0.0
 10
-23.8265073712
 20
18.0082583328
 30
0.0
 10
-23.8496815629
 20
18.2225281485
 30
0.0
 10
-23.8496815629
 20
18.3257478377
 30
0.0
  0
SPLINE
  5
400
100
AcDbEntity
  8
ASSI
100
AcDbSpline
 62
7
  6
CONTINUOUS
 70
0
 71
3
 72
11
 73
7
 74
0
 42
0.0000001
 43
0.0000001
 44
0.0000000001
 40
0.0
 40
0.0
 40
0.0
 40
0.0
 40
0.2784263049
 40
0.5337353223
 40
0.7709300756
 40
1.0
 40
1.0
 40
1.0
 40
1.0
 10
1.9706440392
 20
-12.9260822057
 30
0.0
 10
1.9706440392
 20
-12.8524817529
 30
0.0
 10
1.9843201552
 20
-12.7107444074
 30
0.0
 10
2.0522160509
 20
-12.5161684267
 30
0.0
 10
2.1648074836
 20
-12.3586333942
 30
0.0
 10
2.2667883741
 20
-12.2849001486
 30
0.0
 10
2.3209488103
 20
-12.2578195767
 30
0.0
  0
SPLINE
  5
401
100
AcDbEntity
  8
ASSI
100
AcDbSpline
 62
7
  6
CONTINUOUS
 70
0
 71
3
 72
16
 73
12
 74
0
 42
0.0000001
 43
0.0000001
 44
0.0000000001
 40
0.0
 40
0.0
 40
0.0
 40
0.0
 40
0.0449628673
 40
0.0913166333
 40
0.1921652519
 40
0.3081596594
 40
0.4388273955
 40
0.579947883
 40
0.7251780947
 40
0.8674078426
 40
1.0
 40
1.0
 40
1.0
 40
1.0
 10
-12.7923742467
 20
-0.9888684758
 30
0.0
 10
-12.8234914006
 20
-1.0044272192
 30
0.0
 10
-12.8906114004
 20
-1.0287426216
 30
0.0
 10
-13.0392421525
 20
-1.0471162521
 30
0.0
 10
-13.2440706205
 20
-1.007198202
 30
0.0
 10
-13.4822145302
 20
-0.876198732
 30
0.0
 10
-13.7065350352
 20
-0.6736039128
 30
0.0
 10
-13.9014415683
 20
-0.4143011507
 30
0.0
 10
-14.0531660302
 20
-0.1176019091
 30
0.0
 10
-14.1505763221
 20
0.1940589495
 30
0.0
 10
-14.1757459014
 20
0.4070187531
 30
0.0
 10
-14.1757459014
 20
0.5096122048
 30
0.0
  0
SPLINE
  5
402
100
AcDbEntity
  8
ASSI
100
AcDbSpline
 62
7
  6
CONTINUOUS
 70
0
 71
3
 72
11
 73
7
 74
0
 42
0.0000001
 43
0.0000001
 44
0.0000000001
 40
0.0
 40
0.0
 40
0.0
 40
0.0
 40
0.3042908913
 40
0.5699433065
 40
0.7981824121
 40
1.0
 40
1.0
 40
1.0
 40
1.0
 10
-28.3571401911
 20
8.6924215336
 30
0.0
 10
-28.3571401911
 20
8.7649818755
 30
0.0
 10
-28.3472997432
 20
8.9013003416
 30
0.0
 10
-28.2968321431
 20
9.0863982008
 30
0.0
 10
-28.2124286515
 20
9.2320790481
 30
0.0
 10
-28.1304581762
 20
9.298872432
 30
0.0
 10
-28.0874141621
 20
9.3203948373
 30
0.0
  0
SPLINE
  5
403
100
AcDbEntity
  8
ASSI
100
AcDbSpline
 62
7
  6
CONTINUOUS
 70
0
 71
3
 72
11
 73
7
 74
0
 42
0.0000001
 43
0.0000001
 44
0.0000000001
 40
0.0
 40
0.0
 40
0.0
 40
0.0
 40
0.2993383578
 40
0.5629827689
 40
0.7929091521
 40
1.0
 40
1.0
 40
1.0
 40
1.0
 10
-23.8496815629
 20
5.8549820232
 30
0.0
 10
-23.8496815629
 20
5.9276499505
 30
0.0
 10
-23.8392431409
 20
6.064767308
 30
0.0
 10
-23.7859676625
 20
6.2514536997
 30
0.0
 10
-23.6967915116
 20
6.3993070634
 30
0.0
 10
-23.6113420132
 20
6.467260379
 30
0.0
 10
-23.5663772354
 20
6.4897463527
 30
0.0
  0
SPLINE
  5
404
100
AcDbEntity
  8
ASSI
100
AcDbSpline
 62
7
  6
CONTINUOUS
 70
0
 71
3
 72
16
 73
12
 74
0
 42
0.0000001
 43
0.0000001
 44
0.0000000001
 40
0.0
 40
0.0
 40
0.0
 40
0.0
 40
0.0435106388
 40
0.0883588226
 40
0.1866246612
 40
0.3012017276
 40
0.4317616265
 40
0.5739173188
 40
0.7209922251
 40
0.8654182941
 40
1.0
 40
1.0
 40
1.0
 40
1.0
 10
-17.7977207462
 20
1.5996271031
 30
0.0
 10
-17.8274587148
 20
1.5847579483
 30
0.0
 10
-17.8917802639
 20
1.5618269615
 30
0.0
 10
-18.0347289197
 20
1.5466008342
 30
0.0
 10
-18.2317802541
 20
1.591586062
 30
0.0
 10
-18.4592468621
 20
1.7279497131
 30
0.0
 10
-18.6734604033
 20
1.9351782324
 30
0.0
 10
-18.8596231659
 20
2.1983571599
 30
0.0
 10
-19.0046133455
 20
2.497981713
 30
0.0
 10
-19.0977293825
 20
2.8113959793
 30
0.0
 10
-19.1218785214
 20
3.0248757133
 30
0.0
 10
-19.1218785214
 20
3.1277147194
 30
0.0
  0
SPLINE
  5
405
100
AcDbEntity
  8
ASSI
100
AcDbSpline
 62
7
  6
CONTINUOUS
 70
0
 71
3
 72
11
 73
7
 74
0
 42
0.0000001
 43
0.0000001
 44
0.0000000001
 40
0.0
 40
0.0
 40
0.0
 40
0.0
 40
0.2946827987
 40
0.5564479142
 40
0.7879613559
 40
1.0
 40
1.0
 40
1.0
 40
1.0
 10
-19.1218785214
 20
3.1277147194
 30
0.0
 10
-19.1218785214
 20
3.2005135432
 30
0.0
 10
-19.1108296503
 20
3.3384614923
 30
0.0
 10
-19.0547406617
 20
3.5267230783
 30
0.0
 10
-18.9608517563
 20
3.6766509914
 30
0.0
 10
-18.8720058343
 20
3.7457610239
 30
0.0
 10
-18.8251537905
 20
3.7691873286
 30
0.0
  0
SPLINE
  5
406
100
AcDbEntity
  8
ASSI
100
AcDbSpline
 62
7
  6
CONTINUOUS
 70
0
 71
3
 72
11
 73
7
 74
0
 42
0.0000001
 43
0.0000001
 44
0.0000000001
 40
0.0
 40
0.0
 40
0.0
 40
0.0
 40
0.2902982209
 40
0.5502984987
 40
0.7833208263
 40
1.0
 40
1.0
 40
1.0
 40
1.0
 10
-14.1757459014
 20
0.5096122048
 30
0.0
 10
-14.1757459014
 20
0.5825690532
 30
0.0
 10
-14.1640744244
 20
0.7213887662
 30
0.0
 10
-14.1051303167
 20
0.9112181044
 30
0.0
 10
-14.0065690745
 20
1.0631382769
 30
0.0
 10
-13.9143909875
 20
1.133399632
 30
0.0
 10
-13.8656849368
 20
1.1577529203
 30
0.0
  0
SPLINE
  5
407
100
AcDbEntity
  8
ASSI
100
AcDbSpline
 62
7
  6
CONTINUOUS
 70
0
 71
3
 72
17
 73
13
 74
0
 42
0.0000001
 43
0.0000001
 44
0.0000000001
 40
0.0
 40
0.0
 40
0.0
 40
0.0
 40
0.0419599577
 40
0.0852018845
 40
0.1312436666
 40
0.1811547556
 40
0.2941796444
 40
0.4245341863
 40
0.5676838516
 40
0.7166322715
 40
0.8633374449
 40
1.0
 40
1.0
 40
1.0
 40
1.0
 10
-22.5850736543
 20
4.2971195383
 30
0.0
 10
-22.6134201488
 20
4.2829473212
 30
0.0
 10
-22.6749171202
 20
4.2614019185
 30
0.0
 10
-22.774557279
 20
4.2526822539
 30
0.0
 10
-22.8794758093
 20
4.2671146011
 30
0.0
 10
-23.0295879798
 20
4.3183833131
 30
0.0
 10
-23.2179087029
 20
4.4409669528
 30
0.0
 10
-23.4215589048
 20
4.6524862231
 30
0.0
 10
-23.5991444057
 20
4.9194191859
 30
0.0
 10
-23.737522324
 20
5.2220422484
 30
0.0
 10
-23.8265073712
 20
5.5374925183
 30
0.0
 10
-23.8496815629
 20
5.751762334
 30
0.0
 10
-23.8496815629
 20
5.8549820232
 30
0.0
  0
SPLINE
  5
408
100
AcDbEntity
  8
ASSI
100
AcDbSpline
 62
7
  6
CONTINUOUS
 70
0
 71
3
 72
11
 73
7
 74
0
 42
0.0000001
 43
0.0000001
 44
0.0000000001
 40
0.0
 40
0.0
 40
0.0
 40
0.0
 40
0.2861458721
 40
0.5444868587
 40
0.7789513902
 40
1.0
 40
1.0
 40
1.0
 40
1.0
 10
-9.0120810443
 20
-1.9997241911
 30
0.0
 10
-9.0120810443
 20
-1.9265822172
 30
0.0
 10
-8.9997679606
 20
-1.7868450208
 30
0.0
 10
-8.9379166527
 20
-1.5954462525
 30
0.0
 10
-8.8346970536
 20
-1.4416020692
 30
0.0
 10
-8.7392309717
 20
-1.3701891942
 30
0.0
 10
-8.6886937863
 20
-1.3449203331
 30
0.0
  0
SPLINE
  5
409
100
AcDbEntity
  8
ASSI
100
AcDbSpline
 62
7
  6
CONTINUOUS
 70
0
 71
3
 72
11
 73
7
 74
0
 42
0.0000001
 43
0.0000001
 44
0.0000000001
 40
0.0
 40
0.0
 40
0.0
 40
0.0
 40
0.2821963946
 40
0.5389738194
 40
0.7748267566
 40
1.0
 40
1.0
 40
1.0
 40
1.0
 10
-3.6304858878
 20
-4.4000954374
 30
0.0
 10
-3.6304858878
 20
-4.3267397651
 30
0.0
 10
-3.6175071367
 20
-4.1860331258
 30
0.0
 10
-3.552677544
 20
-3.9930556206
 30
0.0
 10
-3.444790811
 20
-3.8373429192
 30
0.0
 10
-3.3460629352
 20
-3.7647721724
 30
0.0
 10
-3.293708991
 20
-3.738596824
 30
0.0
  0
SPLINE
  5
40A
100
AcDbEntity
  8
ASSI
100
AcDbSpline
 62
7
  6
CONTINUOUS
 70
0
 71
3
 72
11
 73
7
 74
0
 42
0.0000001
 43
0.0000001
 44
0.0000000001
 40
0.0
 40
0.0
 40
0.0
 40
0.0
 40
0.2784263049
 40
0.5337353223
 40
0.7709300756
 40
1.0
 40
1.0
 40
1.0
 40
1.0
 10
1.9706440392
 20
-6.6906992985
 30
0.0
 10
1.9706440392
 20
-6.6170988457
 30
0.0
 10
1.9843201552
 20
-6.4753615002
 30
0.0
 10
2.0522160509
 20
-6.2807855195
 30
0.0
 10
2.1648074836
 20
-6.123250487
 30
0.0
 10
2.2667883741
 20
-6.0495172413
 30
0.0
 10
2.3209488103
 20
-6.0224366695
 30
0.0
  0
SPLINE
  5
40B
100
AcDbEntity
  8
ASSI
100
AcDbSpline
 62
7
  6
CONTINUOUS
 70
0
 71
3
 72
16
 73
12
 74
0
 42
0.0000001
 43
0.0000001
 44
0.0000000001
 40
0.0
 40
0.0
 40
0.0
 40
0.0
 40
0.0476855869
 40
0.0968552718
 40
0.2025460143
 40
0.3211751526
 40
0.4519695961
 40
0.5910783196
 40
0.7328486008
 40
0.8710350199
 40
1.0
 40
1.0
 40
1.0
 40
1.0
 10
-2.1283896959
 20
6.6315500327
 30
0.0
 10
-2.1622704249
 20
6.614607415
 30
0.0
 10
-2.2349990784
 20
6.5875178362
 30
0.0
 10
-2.39495733
 20
6.5629151422
 30
0.0
 10
-2.6148523816
 20
6.5928183743
 30
0.0
 10
-2.8736850926
 20
6.712407999
 30
0.0
 10
-3.1180493354
 20
6.9048868592
 30
0.0
 10
-3.3307306364
 20
7.1558988136
 30
0.0
 10
-3.4965158822
 20
7.44679926
 30
0.0
 10
-3.6031056493
 20
7.7556005407
 30
0.0
 10
-3.6304858878
 20
7.9682222629
 30
0.0
 10
-3.6304858878
 20
8.0706703771
 30
0.0
  0
SPLINE
  5
40C
100
AcDbEntity
  8
ASSI
100
AcDbSpline
 62
7
  6
CONTINUOUS
 70
0
 71
3
 72
11
 73
7
 74
0
 42
0.0000001
 43
0.0000001
 44
0.0000000001
 40
0.0
 40
0.0
 40
0.0
 40
0.0
 40
0.3042908913
 40
0.5699433065
 40
0.7981824121
 40
1.0
 40
1.0
 40
1.0
 40
1.0
 10
-28.3571401911
 20
14.9278044408
 30
0.0
 10
-28.3571401911
 20
15.0003647827
 30
0.0
 10
-28.3472997432
 20
15.1366832488
 30
0.0
 10
-28.2968321431
 20
15.321781108
 30
0.0
 10
-28.2124286515
 20
15.4674619554
 30
0.0
 10
-28.1304581762
 20
15.5342553393
 30
0.0
 10
-28.0874141621
 20
15.5557777445
 30
0.0
  0
SPLINE
  5
40D
100
AcDbEntity
  8
ASSI
100
AcDbSpline
 62
7
  6
CONTINUOUS
 70
0
 71
3
 72
11
 73
7
 74
0
 42
0.0000001
 43
0.0000001
 44
0.0000000001
 40
0.0
 40
0.0
 40
0.0
 40
0.0
 40
0.2993383578
 40
0.5629827689
 40
0.7929091521
 40
1.0
 40
1.0
 40
1.0
 40
1.0
 10
-23.8496815629
 20
12.0903649304
 30
0.0
 10
-23.8496815629
 20
12.1630328578
 30
0.0
 10
-23.8392431409
 20
12.3001502153
 30
0.0
 10
-23.7859676625
 20
12.486836607
 30
0.0
 10
-23.6967915116
 20
12.6346899707
 30
0.0
 10
-23.6113420132
 20
12.7026432862
 30
0.0
 10
-23.5663772354
 20
12.7251292599
 30
0.0
  0
SPLINE
  5
40E
100
AcDbEntity
  8
ASSI
100
AcDbSpline
 62
7
  6
CONTINUOUS
 70
0
 71
3
 72
11
 73
7
 74
0
 42
0.0000001
 43
0.0000001
 44
0.0000000001
 40
0.0
 40
0.0
 40
0.0
 40
0.0
 40
0.2946827987
 40
0.5564479142
 40
0.7879613559
 40
1.0
 40
1.0
 40
1.0
 40
1.0
 10
-19.1218785214
 20
9.3630976266
 30
0.0
 10
-19.1218785214
 20
9.4358964505
 30
0.0
 10
-19.1108296503
 20
9.5738443995
 30
0.0
 10
-19.0547406617
 20
9.7621059855
 30
0.0
 10
-18.9608517563
 20
9.9120338987
 30
0.0
 10
-18.8720058343
 20
9.9811439312
 30
0.0
 10
-18.8251537905
 20
10.0045702359
 30
0.0
  0
SPLINE
  5
40F
100
AcDbEntity
  8
ASSI
100
AcDbSpline
 62
7
  6
CONTINUOUS
 70
0
 71
3
 72
11
 73
7
 74
0
 42
0.0000001
 43
0.0000001
 44
0.0000000001
 40
0.0
 40
0.0
 40
0.0
 40
0.0
 40
0.2902982209
 40
0.5502984987
 40
0.7833208263
 40
1.0
 40
1.0
 40
1.0
 40
1.0
 10
-14.1757459014
 20
6.7449951121
 30
0.0
 10
-14.1757459014
 20
6.8179519604
 30
0.0
 10
-14.1640744244
 20
6.9567716734
 30
0.0
 10
-14.1051303167
 20
7.1466010116
 30
0.0
 10
-14.0065690745
 20
7.2985211842
 30
0.0
 10
-13.9143909875
 20
7.3687825393
 30
0.0
 10
-13.8656849368
 20
7.3931358275
 30
0.0
  0
SPLINE
  5
410
100
AcDbEntity
  8
ASSI
100
AcDbSpline
 62
7
  6
CONTINUOUS
 70
0
 71
3
 72
17
 73
13
 74
0
 42
0.0000001
 43
0.0000001
 44
0.0000000001
 40
0.0
 40
0.0
 40
0.0
 40
0.0
 40
0.0403538781
 40
0.0819391841
 40
0.1264621694
 40
0.1751156134
 40
0.2866187765
 40
0.4168088309
 40
0.561014359
 40
0.7119507658
 40
0.8610980828
 40
1.0
 40
1.0
 40
1.0
 40
1.0
 10
-27.1527534179
 20
7.1044484019
 30
0.0
 10
-27.1796982159
 20
7.0909757769
 30
0.0
 10
-27.2383650699
 20
7.0708351694
 30
0.0
 10
-27.3335101194
 20
7.0645012421
 30
0.0
 10
-27.4334806872
 20
7.0814841485
 30
0.0
 10
-27.5768706744
 20
7.136540901
 30
0.0
 10
-27.7561049374
 20
7.2638794572
 30
0.0
 10
-27.9493828635
 20
7.4795467322
 30
0.0
 10
-28.1182235114
 20
7.7501260518
 30
0.0
 10
-28.250027085
 20
8.0557989304
 30
0.0
 10
-28.334926757
 20
8.3734760323
 30
0.0
 10
-28.3571401911
 20
8.5887273595
 30
0.0
 10
-28.3571401911
 20
8.6924215336
 30
0.0
  0
SPLINE
  5
411
100
AcDbEntity
  8
ASSI
100
AcDbSpline
 62
7
  6
CONTINUOUS
 70
0
 71
3
 72
11
 73
7
 74
0
 42
0.0000001
 43
0.0000001
 44
0.0000000001
 40
0.0
 40
0.0
 40
0.0
 40
0.0
 40
0.2861458721
 40
0.5444868587
 40
0.7789513902
 40
1.0
 40
1.0
 40
1.0
 40
1.0
 10
-9.0120810443
 20
4.2356587161
 30
0.0
 10
-9.0120810443
 20
4.3088006901
 30
0.0
 10
-8.9997679606
 20
4.4485378864
 30
0.0
 10
-8.9379166527
 20
4.6399366547
 30
0.0
 10
-8.8346970536
 20
4.793780838
 30
0.0
 10
-8.7392309717
 20
4.8651937131
 30
0.0
 10
-8.6886937863
 20
4.8904625741
 30
0.0
  0
SPLINE
  5
412
100
AcDbEntity
  8
ASSI
100
AcDbSpline
 62
7
  6
CONTINUOUS
 70
0
 71
3
 72
16
 73
12
 74
0
 42
0.0000001
 43
0.0000001
 44
0.0000000001
 40
0.0
 40
0.0
 40
0.0
 40
0.0
 40
0.0489543726
 40
0.0994312213
 40
0.2073730067
 40
0.3272215086
 40
0.4580498002
 40
0.5961927069
 40
0.7363489938
 40
0.8726821156
 40
1.0
 40
1.0
 40
1.0
 40
1.0
 10
3.532909539
 20
-14.3351160198
 30
0.0
 10
3.4976401682
 20
-14.3527509545
 30
0.0
 10
3.4221050399
 20
-14.3812466746
 30
0.0
 10
3.2564925526
 20
-14.408979832
 30
0.0
 10
3.0292388663
 20
-14.3840900636
 30
0.0
 10
2.7603029903
 20
-14.2705832363
 30
0.0
 10
2.5059122676
 20
-14.0836348813
 30
0.0
 10
2.2840838513
 20
-13.8371000168
 30
0.0
 10
2.1108365034
 20
-13.5491301566
 30
0.0
 10
1.9992469696
 20
-13.2414546381
 30
0.0
 10
1.9706440392
 20
-13.0286360325
 30
0.0
 10
1.9706440392
 20
-12.9260822057
 30
0.0
  0
SPLINE
  5
413
100
AcDbEntity
  8
ASSI
100
AcDbSpline
 62
7
  6
CONTINUOUS
 70
0
 71
3
 72
11
 73
7
 74
0
 42
0.0000001
 43
0.0000001
 44
0.0000000001
 40
0.0
 40
0.0
 40
0.0
 40
0.0
 40
0.2821963946
 40
0.5389738194
 40
0.7748267566
 40
1.0
 40
1.0
 40
1.0
 40
1.0
 10
-3.6304858878
 20
1.8352874698
 30
0.0
 10
-3.6304858878
 20
1.9086431422
 30
0.0
 10
-3.6175071367
 20
2.0493497815
 30
0.0
 10
-3.552677544
 20
2.2423272867
 30
0.0
 10
-3.444790811
 20
2.3980399881
 30
0.0
 10
-3.3460629352
 20
2.4706107349
 30
0.0
 10
-3.293708991
 20
2.4967860832
 30
0.0
  0
SPLINE
  5
414
100
AcDbEntity
  8
ASSI
100
AcDbSpline
 62
7
  6
CONTINUOUS
 70
0
 71
3
 72
16
 73
12
 74
0
 42
0.0000001
 43
0.0000001
 44
0.0000000001
 40
0.0
 40
0.0
 40
0.0
 40
0.0
 40
0.0476855869
 40
0.0968552718
 40
0.2025460143
 40
0.3211751526
 40
0.4519695961
 40
0.5910783196
 40
0.7328486008
 40
0.8710350199
 40
1.0
 40
1.0
 40
1.0
 40
1.0
 10
-2.1283896959
 20
-12.0745986891
 30
0.0
 10
-2.1622704249
 20
-12.0915413067
 30
0.0
 10
-2.2349990784
 20
-12.1186308856
 30
0.0
 10
-2.39495733
 20
-12.1432335795
 30
0.0
 10
-2.6148523816
 20
-12.1133303474
 30
0.0
 10
-2.8736850926
 20
-11.9937407227
 30
0.0
 10
-3.1180493354
 20
-11.8012618625
 30
0.0
 10
-3.3307306364
 20
-11.5502499081
 30
0.0
 10
-3.4965158822
 20
-11.2593494617
 30
0.0
 10
-3.6031056493
 20
-10.950548181
 30
0.0
 10
-3.6304858878
 20
-10.7379264588
 30
0.0
 10
-3.6304858878
 20
-10.6354783447
 30
0.0
  0
SPLINE
  5
415
100
AcDbEntity
  8
ASSI
100
AcDbSpline
 62
7
  6
CONTINUOUS
 70
0
 71
3
 72
17
 73
13
 74
0
 42
0.0000001
 43
0.0000001
 44
0.0000000001
 40
0.0
 40
0.0
 40
0.0
 40
0.0
 40
0.0403538781
 40
0.0819391841
 40
0.1264621694
 40
0.1751156134
 40
0.2866187765
 40
0.4168088309
 40
0.561014359
 40
0.7119507658
 40
0.8610980828
 40
1.0
 40
1.0
 40
1.0
 40
1.0
 10
-27.1527534179
 20
32.0459800309
 30
0.0
 10
-27.1796982159
 20
32.0325074059
 30
0.0
 10
-27.2383650699
 20
32.0123667984
 30
0.0
 10
-27.3335101194
 20
32.0060328711
 30
0.0
 10
-27.4334806872
 20
32.0230157775
 30
0.0
 10
-27.5768706744
 20
32.0780725299
 30
0.0
 10
-27.7561049374
 20
32.2054110862
 30
0.0
 10
-27.9493828635
 20
32.4210783612
 30
0.0
 10
-28.1182235114
 20
32.6916576808
 30
0.0
 10
-28.250027085
 20
32.9973305594
 30
0.0
 10
-28.334926757
 20
33.3150076613
 30
0.0
 10
-28.3571401911
 20
33.5302589885
 30
0.0
 10
-28.3571401911
 20
33.6339531626
 30
0.0
  0
SPLINE
  5
416
100
AcDbEntity
  8
ASSI
100
AcDbSpline
 62
7
  6
CONTINUOUS
 70
0
 71
3
 72
11
 73
7
 74
0
 42
0.0000001
 43
0.0000001
 44
0.0000000001
 40
0.0
 40
0.0
 40
0.0
 40
0.0
 40
0.2784263049
 40
0.5337353223
 40
0.7709300756
 40
1.0
 40
1.0
 40
1.0
 40
1.0
 10
1.9706440392
 20
-0.4553163913
 30
0.0
 10
1.9706440392
 20
-0.3817159384
 30
0.0
 10
1.9843201552
 20
-0.239978593
 30
0.0
 10
2.0522160509
 20
-0.0454026122
 30
0.0
 10
2.1648074836
 20
0.1121324203
 30
0.0
 10
2.2667883741
 20
0.1858656659
 30
0.0
 10
2.3209488103
 20
0.2129462377
 30
0.0
  0
SPLINE
  5
417
100
AcDbEntity
  8
ASSI
100
AcDbSpline
 62
7
  6
CONTINUOUS
 70
0
 71
3
 72
11
 73
7
 74
0
 42
0.0000001
 43
0.0000001
 44
0.0000000001
 40
0.0
 40
0.0
 40
0.0
 40
0.0
 40
0.3042908913
 40
0.5699433065
 40
0.7981824121
 40
1.0
 40
1.0
 40
1.0
 40
1.0
 10
-28.3571401911
 20
21.1631873481
 30
0.0
 10
-28.3571401911
 20
21.2357476899
 30
0.0
 10
-28.3472997432
 20
21.3720661561
 30
0.0
 10
-28.2968321431
 20
21.5571640153
 30
0.0
 10
-28.2124286515
 20
21.7028448626
 30
0.0
 10
-28.1304581762
 20
21.7696382465
 30
0.0
 10
-28.0874141621
 20
21.7911606518
 30
0.0
  0
SPLINE
  5
418
100
AcDbEntity
  8
ASSI
100
AcDbSpline
 62
7
  6
CONTINUOUS
 70
0
 71
3
 72
11
 73
7
 74
0
 42
0.0000001
 43
0.0000001
 44
0.0000000001
 40
0.0
 40
0.0
 40
0.0
 40
0.0
 40
0.2993383578
 40
0.5629827689
 40
0.7929091521
 40
1.0
 40
1.0
 40
1.0
 40
1.0
 10
-23.8496815629
 20
18.3257478377
 30
0.0
 10
-23.8496815629
 20
18.398415765
 30
0.0
 10
-23.8392431409
 20
18.5355331225
 30
0.0
 10
-23.7859676625
 20
18.7222195142
 30
0.0
 10
-23.6967915116
 20
18.8700728779
 30
0.0
 10
-23.6113420132
 20
18.9380261935
 30
0.0
 10
-23.5663772354
 20
18.9605121672
 30
0.0
  0
SPLINE
  5
419
100
AcDbEntity
  8
ASSI
100
AcDbSpline
 62
7
  6
CONTINUOUS
 70
0
 71
3
 72
16
 73
12
 74
0
 42
0.0000001
 43
0.0000001
 44
0.0000000001
 40
0.0
 40
0.0
 40
0.0
 40
0.0
 40
0.0435106388
 40
0.0883588226
 40
0.1866246612
 40
0.3012017276
 40
0.4317616265
 40
0.5739173188
 40
0.7209922251
 40
0.8654182941
 40
1.0
 40
1.0
 40
1.0
 40
1.0
 10
-17.7977207462
 20
26.5411587321
 30
0.0
 10
-17.8274587148
 20
26.5262895773
 30
0.0
 10
-17.8917802639
 20
26.5033585905
 30
0.0
 10
-18.0347289197
 20
26.4881324632
 30
0.0
 10
-18.2317802541
 20
26.5331176909
 30
0.0
 10
-18.4592468621
 20
26.6694813421
 30
0.0
 10
-18.6734604033
 20
26.8767098614
 30
0.0
 10
-18.8596231659
 20
27.1398887888
 30
0.0
 10
-19.0046133455
 20
27.439513342
 30
0.0
 10
-19.0977293825
 20
27.7529276083
 30
0.0
 10
-19.1218785214
 20
27.9664073423
 30
0.0
 10
-19.1218785214
 20
28.0692463484
 30
0.0
  0
SPLINE
  5
41A
100
AcDbEntity
  8
ASSI
100
AcDbSpline
 62
7
  6
CONTINUOUS
 70
0
 71
3
 72
11
 73
7
 74
0
 42
0.0000001
 43
0.0000001
 44
0.0000000001
 40
0.0
 40
0.0
 40
0.0
 40
0.0
 40
0.2946827987
 40
0.5564479142
 40
0.7879613559
 40
1.0
 40
1.0
 40
1.0
 40
1.0
 10
-19.1218785214
 20
15.5984805339
 30
0.0
 10
-19.1218785214
 20
15.6712793577
 30
0.0
 10
-19.1108296503
 20
15.8092273068
 30
0.0
 10
-19.0547406617
 20
15.9974888928
 30
0.0
 10
-18.9608517563
 20
16.1474168059
 30
0.0
 10
-18.8720058343
 20
16.2165268384
 30
0.0
 10
-18.8251537905
 20
16.2399531431
 30
0.0
  0
SPLINE
  5
41B
100
AcDbEntity
  8
ASSI
100
AcDbSpline
 62
7
  6
CONTINUOUS
 70
0
 71
3
 72
16
 73
12
 74
0
 42
0.0000001
 43
0.0000001
 44
0.0000000001
 40
0.0
 40
0.0
 40
0.0
 40
0.0
 40
0.046349267
 40
0.094139428
 40
0.197460096
 40
0.3148061791
 40
0.4455531995
 40
0.5856582373
 40
0.7291219529
 40
0.8692759895
 40
1.0
 40
1.0
 40
1.0
 40
1.0
 10
-7.5695054409
 20
-9.7039858153
 30
0.0
 10
-7.6019995563
 20
-9.7202330515
 30
0.0
 10
-7.671913246
 20
-9.7459331784
 30
0.0
 10
-7.8262008803
 20
-9.7674278475
 30
0.0
 10
-8.0386261849
 20
-9.7325322868
 30
0.0
 10
-8.2872154501
 20
-9.6071284278
 30
0.0
 10
-8.5215791938
 20
-9.4094425776
 30
0.0
 10
-8.7253119047
 20
-9.1541828772
 30
0.0
 10
-8.8839517538
 20
-8.8603794711
 30
0.0
 10
-8.9858385119
 20
-8.5502477541
 30
0.0
 10
-9.0120810443
 20
-8.3375715386
 30
0.0
 10
-9.0120810443
 20
-8.2351070984
 30
0.0
  0
SPLINE
  5
41C
100
AcDbEntity
  8
ASSI
100
AcDbSpline
 62
7
  6
CONTINUOUS
 70
0
 71
3
 72
11
 73
7
 74
0
 42
0.0000001
 43
0.0000001
 44
0.0000000001
 40
0.0
 40
0.0
 40
0.0
 40
0.0
 40
0.2902982209
 40
0.5502984987
 40
0.7833208263
 40
1.0
 40
1.0
 40
1.0
 40
1.0
 10
-14.1757459014
 20
12.9803780193
 30
0.0
 10
-14.1757459014
 20
13.0533348676
 30
0.0
 10
-14.1640744244
 20
13.1921545807
 30
0.0
 10
-14.1051303167
 20
13.3819839189
 30
0.0
 10
-14.0065690745
 20
13.5339040914
 30
0.0
 10
-13.9143909875
 20
13.6041654465
 30
0.0
 10
-13.8656849368
 20
13.6285187348
 30
0.0
  0
SPLINE
  5
41D
100
AcDbEntity
  8
ASSI
100
AcDbSpline
 62
7
  6
CONTINUOUS
 70
0
 71
3
 72
11
 73
7
 74
0
 42
0.0000001
 43
0.0000001
 44
0.0000000001
 40
0.0
 40
0.0
 40
0.0
 40
0.0
 40
0.2861458721
 40
0.5444868587
 40
0.7789513902
 40
1.0
 40
1.0
 40
1.0
 40
1.0
 10
-9.0120810443
 20
10.4710416234
 30
0.0
 10
-9.0120810443
 20
10.5441835973
 30
0.0
 10
-8.9997679606
 20
10.6839207937
 30
0.0
 10
-8.9379166527
 20
10.875319562
 30
0.0
 10
-8.8346970536
 20
11.0291637453
 30
0.0
 10
-8.7392309717
 20
11.1005766203
 30
0.0
 10
-8.6886937863
 20
11.1258454814
 30
0.0
  0
SPLINE
  5
41E
100
AcDbEntity
  8
ASSI
100
AcDbSpline
 62
7
  6
CONTINUOUS
 70
0
 71
3
 72
17
 73
13
 74
0
 42
0.0000001
 43
0.0000001
 44
0.0000000001
 40
0.0
 40
0.0
 40
0.0
 40
0.0
 40
0.0403538781
 40
0.0819391841
 40
0.1264621694
 40
0.1751156134
 40
0.2866187765
 40
0.4168088309
 40
0.561014359
 40
0.7119507658
 40
0.8610980828
 40
1.0
 40
1.0
 40
1.0
 40
1.0
 10
-27.1527534179
 20
19.5752142164
 30
0.0
 10
-27.1796982159
 20
19.5617415914
 30
0.0
 10
-27.2383650699
 20
19.5416009839
 30
0.0
 10
-27.3335101194
 20
19.5352670566
 30
0.0
 10
-27.4334806872
 20
19.552249963
 30
0.0
 10
-27.5768706744
 20
19.6073067155
 30
0.0
 10
-27.7561049374
 20
19.7346452717
 30
0.0
 10
-27.9493828635
 20
19.9503125467
 30
0.0
 10
-28.1182235114
 20
20.2208918663
 30
0.0
 10
-28.250027085
 20
20.5265647449
 30
0.0
 10
-28.334926757
 20
20.8442418468
 30
0.0
 10
-28.3571401911
 20
21.059493174
 30
0.0
 10
-28.3571401911
 20
21.1631873481
 30
0.0
  0
SPLINE
  5
41F
100
AcDbEntity
  8
ASSI
100
AcDbSpline
 62
7
  6
CONTINUOUS
 70
0
 71
3
 72
11
 73
7
 74
0
 42
0.0000001
 43
0.0000001
 44
0.0000000001
 40
0.0
 40
0.0
 40
0.0
 40
0.0
 40
0.2821963946
 40
0.5389738194
 40
0.7748267566
 40
1.0
 40
1.0
 40
1.0
 40
1.0
 10
-3.6304858878
 20
8.0706703771
 30
0.0
 10
-3.6304858878
 20
8.1440260494
 30
0.0
 10
-3.6175071367
 20
8.2847326887
 30
0.0
 10
-3.552677544
 20
8.4777101939
 30
0.0
 10
-3.444790811
 20
8.6334228953
 30
0.0
 10
-3.3460629352
 20
8.7059936421
 30
0.0
 10
-3.293708991
 20
8.7321689905
 30
0.0
  0
SPLINE
  5
420
100
AcDbEntity
  8
ASSI
100
AcDbSpline
 62
7
  6
CONTINUOUS
 70
0
 71
3
 72
16
 73
12
 74
0
 42
0.0000001
 43
0.0000001
 44
0.0000000001
 40
0.0
 40
0.0
 40
0.0
 40
0.0
 40
0.0449628673
 40
0.0913166333
 40
0.1921652519
 40
0.3081596594
 40
0.4388273955
 40
0.579947883
 40
0.7251780947
 40
0.8674078426
 40
1.0
 40
1.0
 40
1.0
 40
1.0
 10
-12.7923742467
 20
-7.2242513831
 30
0.0
 10
-12.8234914006
 20
-7.2398101265
 30
0.0
 10
-12.8906114004
 20
-7.2641255289
 30
0.0
 10
-13.0392421525
 20
-7.2824991593
 30
0.0
 10
-13.2440706205
 20
-7.2425811093
 30
0.0
 10
-13.4822145302
 20
-7.1115816393
 30
0.0
 10
-13.7065350352
 20
-6.90898682
 30
0.0
 10
-13.9014415683
 20
-6.6496840579
 30
0.0
 10
-14.0531660302
 20
-6.3529848164
 30
0.0
 10
-14.1505763221
 20
-6.0413239577
 30
0.0
 10
-14.1757459014
 20
-5.8283641542
 30
0.0
 10
-14.1757459014
 20
-5.7257707024
 30
0.0
  0
SPLINE
  5
421
100
AcDbEntity
  8
ASSI
100
AcDbSpline
 62
7
  6
CONTINUOUS
 70
0
 71
3
 72
17
 73
13
 74
0
 42
0.0000001
 43
0.0000001
 44
0.0000000001
 40
0.0
 40
0.0
 40
0.0
 40
0.0
 40
0.0403538781
 40
0.0819391841
 40
0.1264621694
 40
0.1751156134
 40
0.2866187765
 40
0.4168088309
 40
0.561014359
 40
0.7119507658
 40
0.8610980828
 40
1.0
 40
1.0
 40
1.0
 40
1.0
 10
-27.1527534179
 20
-5.3663174126
 30
0.0
 10
-27.1796982159
 20
-5.3797900376
 30
0.0
 10
-27.2383650699
 20
-5.3999306451
 30
0.0
 10
-27.3335101194
 20
-5.4062645724
 30
0.0
 10
-27.4334806872
 20
-5.3892816659
 30
0.0
 10
-27.5768706744
 20
-5.3342249135
 30
0.0
 10
-27.7561049374
 20
-5.2068863573
 30
0.0
 10
-27.9493828635
 20
-4.9912190823
 30
0.0
 10
-28.1182235114
 20
-4.7206397627
 30
0.0
 10
-28.250027085
 20
-4.4149668841
 30
0.0
 10
-28.334926757
 20
-4.0972897822
 30
0.0
 10
-28.3571401911
 20
-3.882038455
 30
0.0
 10
-28.3571401911
 20
-3.7783442809
 30
0.0
  0
SPLINE
  5
422
100
AcDbEntity
  8
ASSI
100
AcDbSpline
 62
7
  6
CONTINUOUS
 70
0
 71
3
 72
11
 73
7
 74
0
 42
0.0000001
 43
0.0000001
 44
0.0000000001
 40
0.0
 40
0.0
 40
0.0
 40
0.0
 40
0.2784263049
 40
0.5337353223
 40
0.7709300756
 40
1.0
 40
1.0
 40
1.0
 40
1.0
 10
1.9706440392
 20
5.780066516
 30
0.0
 10
1.9706440392
 20
5.8536669688
 30
0.0
 10
1.9843201552
 20
5.9954043143
 30
0.0
 10
2.0522160509
 20
6.189980295
 30
0.0
 10
2.1648074836
 20
6.3475153275
 30
0.0
 10
2.2667883741
 20
6.4212485732
 30
0.0
 10
2.3209488103
 20
6.448329145
 30
0.0
  0
SPLINE
  5
423
100
AcDbEntity
  8
ASSI
100
AcDbSpline
 62
7
  6
CONTINUOUS
 70
0
 71
3
 72
11
 73
7
 74
0
 42
0.0000001
 43
0.0000001
 44
0.0000000001
 40
0.0
 40
0.0
 40
0.0
 40
0.0
 40
0.3042908913
 40
0.5699433065
 40
0.7981824121
 40
1.0
 40
1.0
 40
1.0
 40
1.0
 10
-28.3571401911
 20
27.3985702553
 30
0.0
 10
-28.3571401911
 20
27.4711305972
 30
0.0
 10
-28.3472997432
 20
27.6074490633
 30
0.0
 10
-28.2968321431
 20
27.7925469225
 30
0.0
 10
-28.2124286515
 20
27.9382277699
 30
0.0
 10
-28.1304581762
 20
28.0050211537
 30
0.0
 10
-28.0874141621
 20
28.026543559
 30
0.0
  0
SPLINE
  5
424
100
AcDbEntity
  8
ASSI
100
AcDbSpline
 62
7
  6
CONTINUOUS
 70
0
 71
3
 72
16
 73
12
 74
0
 42
0.0000001
 43
0.0000001
 44
0.0000000001
 40
0.0
 40
0.0
 40
0.0
 40
0.0
 40
0.0435106388
 40
0.0883588226
 40
0.1866246612
 40
0.3012017276
 40
0.4317616265
 40
0.5739173188
 40
0.7209922251
 40
0.8654182941
 40
1.0
 40
1.0
 40
1.0
 40
1.0
 10
-17.7977207462
 20
-4.6357558042
 30
0.0
 10
-17.8274587148
 20
-4.6506249589
 30
0.0
 10
-17.8917802639
 20
-4.6735559458
 30
0.0
 10
-18.0347289197
 20
-4.6887820731
 30
0.0
 10
-18.2317802541
 20
-4.6437968453
 30
0.0
 10
-18.4592468621
 20
-4.5074331942
 30
0.0
 10
-18.6734604033
 20
-4.3002046748
 30
0.0
 10
-18.8596231659
 20
-4.0370257474
 30
0.0
 10
-19.0046133455
 20
-3.7374011942
 30
0.0
 10
-19.0977293825
 20
-3.423986928
 30
0.0
 10
-19.1218785214
 20
-3.210507194
 30
0.0
 10
-19.1218785214
 20
-3.1076681879
 30
0.0
  0
SPLINE
  5
425
100
AcDbEntity
  8
ASSI
100
AcDbSpline
 62
7
  6
CONTINUOUS
 70
0
 71
3
 72
17
 73
13
 74
0
 42
0.0000001
 43
0.0000001
 44
0.0000000001
 40
0.0
 40
0.0
 40
0.0
 40
0.0
 40
0.0419599577
 40
0.0852018845
 40
0.1312436666
 40
0.1811547556
 40
0.2941796444
 40
0.4245341863
 40
0.5676838516
 40
0.7166322715
 40
0.8633374449
 40
1.0
 40
1.0
 40
1.0
 40
1.0
 10
-22.5850736543
 20
23.00326826
 30
0.0
 10
-22.6134201488
 20
22.9890960429
 30
0.0
 10
-22.6749171202
 20
22.9675506403
 30
0.0
 10
-22.774557279
 20
22.9588309757
 30
0.0
 10
-22.8794758093
 20
22.9732633229
 30
0.0
 10
-23.0295879798
 20
23.0245320349
 30
0.0
 10
-23.2179087029
 20
23.1471156745
 30
0.0
 10
-23.4215589048
 20
23.3586349448
 30
0.0
 10
-23.5991444057
 20
23.6255679076
 30
0.0
 10
-23.737522324
 20
23.9281909701
 30
0.0
 10
-23.8265073712
 20
24.2436412401
 30
0.0
 10
-23.8496815629
 20
24.4579110557
 30
0.0
 10
-23.8496815629
 20
24.5611307449
 30
0.0
  0
SPLINE
  5
426
100
AcDbEntity
  8
ASSI
100
AcDbSpline
 62
7
  6
CONTINUOUS
 70
0
 71
3
 72
17
 73
13
 74
0
 42
0.0000001
 43
0.0000001
 44
0.0000000001
 40
0.0
 40
0.0
 40
0.0
 40
0.0
 40
0.0419599577
 40
0.0852018845
 40
0.1312436666
 40
0.1811547556
 40
0.2941796444
 40
0.4245341863
 40
0.5676838516
 40
0.7166322715
 40
0.8633374449
 40
1.0
 40
1.0
 40
1.0
 40
1.0
 10
-22.5850736543
 20
-8.1736462762
 30
0.0
 10
-22.6134201488
 20
-8.1878184933
 30
0.0
 10
-22.6749171202
 20
-8.209363896
 30
0.0
 10
-22.774557279
 20
-8.2180835606
 30
0.0
 10
-22.8794758093
 20
-8.2036512134
 30
0.0
 10
-23.0295879798
 20
-8.1523825014
 30
0.0
 10
-23.2179087029
 20
-8.0297988617
 30
0.0
 10
-23.4215589048
 20
-7.8182795914
 30
0.0
 10
-23.5991444057
 20
-7.5513466286
 30
0.0
 10
-23.737522324
 20
-7.2487235661
 30
0.0
 10
-23.8265073712
 20
-6.9332732962
 30
0.0
 10
-23.8496815629
 20
-6.7190034805
 30
0.0
 10
-23.8496815629
 20
-6.6157837913
 30
0.0
  0
SPLINE
  5
427
100
AcDbEntity
  8
ASSI
100
AcDbSpline
 62
7
  6
CONTINUOUS
 70
0
 71
3
 72
11
 73
7
 74
0
 42
0.0000001
 43
0.0000001
 44
0.0000000001
 40
0.0
 40
0.0
 40
0.0
 40
0.0
 40
0.2993383578
 40
0.5629827689
 40
0.7929091521
 40
1.0
 40
1.0
 40
1.0
 40
1.0
 10
-23.8496815629
 20
24.5611307449
 30
0.0
 10
-23.8496815629
 20
24.6337986723
 30
0.0
 10
-23.8392431409
 20
24.7709160298
 30
0.0
 10
-23.7859676625
 20
24.9576024215
 30
0.0
 10
-23.6967915116
 20
25.1054557852
 30
0.0
 10
-23.6113420132
 20
25.1734091007
 30
0.0
 10
-23.5663772354
 20
25.1958950744
 30
0.0
  0
SPLINE
  5
428
100
AcDbEntity
  8
ASSI
100
AcDbSpline
 62
7
  6
CONTINUOUS
 70
0
 71
3
 72
11
 73
7
 74
0
 42
0.0000001
 43
0.0000001
 44
0.0000000001
 40
0.0
 40
0.0
 40
0.0
 40
0.0
 40
0.2946827987
 40
0.5564479142
 40
0.7879613559
 40
1.0
 40
1.0
 40
1.0
 40
1.0
 10
-19.1218785214
 20
21.8338634411
 30
0.0
 10
-19.1218785214
 20
21.906662265
 30
0.0
 10
-19.1108296503
 20
22.044610214
 30
0.0
 10
-19.0547406617
 20
22.2328718
 30
0.0
 10
-18.9608517563
 20
22.3827997132
 30
0.0
 10
-18.8720058343
 20
22.4519097457
 30
0.0
 10
-18.8251537905
 20
22.4753360504
 30
0.0
  0
SPLINE
  5
429
100
AcDbEntity
  8
ASSI
100
AcDbSpline
 62
7
  6
CONTINUOUS
 70
0
 71
3
 72
17
 73
13
 74
0
 42
0.0000001
 43
0.0000001
 44
0.0000000001
 40
0.0
 40
0.0
 40
0.0
 40
0.0
 40
0.0419599577
 40
0.0852018845
 40
0.1312436666
 40
0.1811547556
 40
0.2941796444
 40
0.4245341863
 40
0.5676838516
 40
0.7166322715
 40
0.8633374449
 40
1.0
 40
1.0
 40
1.0
 40
1.0
 10
-22.5850736543
 20
-1.938263369
 30
0.0
 10
-22.6134201488
 20
-1.952435586
 30
0.0
 10
-22.6749171202
 20
-1.9739809887
 30
0.0
 10
-22.774557279
 20
-1.9827006533
 30
0.0
 10
-22.8794758093
 20
-1.9682683061
 30
0.0
 10
-23.0295879798
 20
-1.9169995941
 30
0.0
 10
-23.2179087029
 20
-1.7944159545
 30
0.0
 10
-23.4215589048
 20
-1.5828966842
 30
0.0
 10
-23.5991444057
 20
-1.3159637214
 30
0.0
 10
-23.737522324
 20
-1.0133406589
 30
0.0
 10
-23.8265073712
 20
-0.6978903889
 30
0.0
 10
-23.8496815629
 20
-0.4836205733
 30
0.0
 10
-23.8496815629
 20
-0.3804008841
 30
0.0
  0
SPLINE
  5
42A
100
AcDbEntity
  8
ASSI
100
AcDbSpline
 62
7
  6
CONTINUOUS
 70
0
 71
3
 72
16
 73
12
 74
0
 42
0.0000001
 43
0.0000001
 44
0.0000000001
 40
0.0
 40
0.0
 40
0.0
 40
0.0
 40
0.046349267
 40
0.094139428
 40
0.197460096
 40
0.3148061791
 40
0.4455531995
 40
0.5856582373
 40
0.7291219529
 40
0.8692759895
 40
1.0
 40
1.0
 40
1.0
 40
1.0
 10
-7.5695054409
 20
15.2375458137
 30
0.0
 10
-7.6019995563
 20
15.2212985775
 30
0.0
 10
-7.671913246
 20
15.1955984506
 30
0.0
 10
-7.8262008803
 20
15.1741037815
 30
0.0
 10
-8.0386261849
 20
15.2089993422
 30
0.0
 10
-8.2872154501
 20
15.3344032012
 30
0.0
 10
-8.5215791938
 20
15.5320890514
 30
0.0
 10
-8.7253119047
 20
15.7873487518
 30
0.0
 10
-8.8839517538
 20
16.0811521578
 30
0.0
 10
-8.9858385119
 20
16.3912838749
 30
0.0
 10
-9.0120810443
 20
16.6039600904
 30
0.0
 10
-9.0120810443
 20
16.7064245306
 30
0.0
  0
SPLINE
  5
42B
100
AcDbEntity
  8
ASSI
100
AcDbSpline
 62
7
  6
CONTINUOUS
 70
0
 71
3
 72
16
 73
12
 74
0
 42
0.0000001
 43
0.0000001
 44
0.0000000001
 40
0.0
 40
0.0
 40
0.0
 40
0.0
 40
0.0435106388
 40
0.0883588226
 40
0.1866246612
 40
0.3012017276
 40
0.4317616265
 40
0.5739173188
 40
0.7209922251
 40
0.8654182941
 40
1.0
 40
1.0
 40
1.0
 40
1.0
 10
-17.7977207462
 20
-10.8711387114
 30
0.0
 10
-17.8274587148
 20
-10.8860078662
 30
0.0
 10
-17.8917802639
 20
-10.908938853
 30
0.0
 10
-18.0347289197
 20
-10.9241649803
 30
0.0
 10
-18.2317802541
 20
-10.8791797525
 30
0.0
 10
-18.4592468621
 20
-10.7428161014
 30
0.0
 10
-18.6734604033
 20
-10.5355875821
 30
0.0
 10
-18.8596231659
 20
-10.2724086546
 30
0.0
 10
-19.0046133455
 20
-9.9727841015
 30
0.0
 10
-19.0977293825
 20
-9.6593698352
 30
0.0
 10
-19.1218785214
 20
-9.4458901012
 30
0.0
 10
-19.1218785214
 20
-9.3430510951
 30
0.0
  0
SPLINE
  5
42C
100
AcDbEntity
  8
ASSI
100
AcDbSpline
 62
7
  6
CONTINUOUS
 70
0
 71
3
 72
11
 73
7
 74
0
 42
0.0000001
 43
0.0000001
 44
0.0000000001
 40
0.0
 40
0.0
 40
0.0
 40
0.0
 40
0.2902982209
 40
0.5502984987
 40
0.7833208263
 40
1.0
 40
1.0
 40
1.0
 40
1.0
 10
-14.1757459014
 20
19.2157609266
 30
0.0
 10
-14.1757459014
 20
19.2887177749
 30
0.0
 10
-14.1640744244
 20
19.4275374879
 30
0.0
 10
-14.1051303167
 20
19.6173668261
 30
0.0
 10
-14.0065690745
 20
19.7692869987
 30
0.0
 10
-13.9143909875
 20
19.8395483537
 30
0.0
 10
-13.8656849368
 20
19.863901642
 30
0.0
  0
SPLINE
  5
42D
100
AcDbEntity
  8
ASSI
100
AcDbSpline
 62
7
  6
CONTINUOUS
 70
0
 71
3
 72
16
 73
12
 74
0
 42
0.0000001
 43
0.0000001
 44
0.0000000001
 40
0.0
 40
0.0
 40
0.0
 40
0.0
 40
0.046349267
 40
0.094139428
 40
0.197460096
 40
0.3148061791
 40
0.4455531995
 40
0.5856582373
 40
0.7291219529
 40
0.8692759895
 40
1.0
 40
1.0
 40
1.0
 40
1.0
 10
-7.5695054409
 20
9.0021629064
 30
0.0
 10
-7.6019995563
 20
8.9859156703
 30
0.0
 10
-7.671913246
 20
8.9602155433
 30
0.0
 10
-7.8262008803
 20
8.9387208743
 30
0.0
 10
-8.0386261849
 20
8.973616435
 30
0.0
 10
-8.2872154501
 20
9.0990202939
 30
0.0
 10
-8.5215791938
 20
9.2967061441
 30
0.0
 10
-8.7253119047
 20
9.5519658446
 30
0.0
 10
-8.8839517538
 20
9.8457692506
 30
0.0
 10
-8.9858385119
 20
10.1559009677
 30
0.0
 10
-9.0120810443
 20
10.3685771831
 30
0.0
 10
-9.0120810443
 20
10.4710416234
 30
0.0
  0
SPLINE
  5
42E
100
AcDbEntity
  8
ASSI
100
AcDbSpline
 62
7
  6
CONTINUOUS
 70
0
 71
3
 72
11
 73
7
 74
0
 42
0.0000001
 43
0.0000001
 44
0.0000000001
 40
0.0
 40
0.0
 40
0.0
 40
0.0
 40
0.2861458721
 40
0.5444868587
 40
0.7789513902
 40
1.0
 40
1.0
 40
1.0
 40
1.0
 10
-9.0120810443
 20
16.7064245306
 30
0.0
 10
-9.0120810443
 20
16.7795665046
 30
0.0
 10
-8.9997679606
 20
16.9193037009
 30
0.0
 10
-8.9379166527
 20
17.1107024692
 30
0.0
 10
-8.8346970536
 20
17.2645466525
 30
0.0
 10
-8.7392309717
 20
17.3359595276
 30
0.0
 10
-8.6886937863
 20
17.3612283886
 30
0.0
  0
SPLINE
  5
42F
100
AcDbEntity
  8
ASSI
100
AcDbSpline
 62
7
  6
CONTINUOUS
 70
0
 71
3
 72
17
 73
13
 74
0
 42
0.0000001
 43
0.0000001
 44
0.0000000001
 40
0.0
 40
0.0
 40
0.0
 40
0.0
 40
0.0403538781
 40
0.0819391841
 40
0.1264621694
 40
0.1751156134
 40
0.2866187765
 40
0.4168088309
 40
0.561014359
 40
0.7119507658
 40
0.8610980828
 40
1.0
 40
1.0
 40
1.0
 40
1.0
 10
-27.1527534179
 20
0.8690654947
 30
0.0
 10
-27.1796982159
 20
0.8555928697
 30
0.0
 10
-27.2383650699
 20
0.8354522622
 30
0.0
 10
-27.3335101194
 20
0.8291183348
 30
0.0
 10
-27.4334806872
 20
0.8461012413
 30
0.0
 10
-27.5768706744
 20
0.9011579937
 30
0.0
 10
-27.7561049374
 20
1.0284965499
 30
0.0
 10
-27.9493828635
 20
1.244163825
 30
0.0
 10
-28.1182235114
 20
1.5147431446
 30
0.0
 10
-28.250027085
 20
1.8204160232
 30
0.0
 10
-28.334926757
 20
2.1380931251
 30
0.0
 10
-28.3571401911
 20
2.3533444522
 30
0.0
 10
-28.3571401911
 20
2.4570386263
 30
0.0
  0
SPLINE
  5
430
100
AcDbEntity
  8
ASSI
100
AcDbSpline
 62
7
  6
CONTINUOUS
 70
0
 71
3
 72
16
 73
12
 74
0
 42
0.0000001
 43
0.0000001
 44
0.0000000001
 40
0.0
 40
0.0
 40
0.0
 40
0.0
 40
0.0476855869
 40
0.0968552718
 40
0.2025460143
 40
0.3211751526
 40
0.4519695961
 40
0.5910783196
 40
0.7328486008
 40
0.8710350199
 40
1.0
 40
1.0
 40
1.0
 40
1.0
 10
-2.1283896959
 20
19.1023158472
 30
0.0
 10
-2.1622704249
 20
19.0853732295
 30
0.0
 10
-2.2349990784
 20
19.0582836507
 30
0.0
 10
-2.39495733
 20
19.0336809567
 30
0.0
 10
-2.6148523816
 20
19.0635841888
 30
0.0
 10
-2.8736850926
 20
19.1831738135
 30
0.0
 10
-3.1180493354
 20
19.3756526737
 30
0.0
 10
-3.3307306364
 20
19.6266646281
 30
0.0
 10
-3.4965158822
 20
19.9175650745
 30
0.0
 10
-3.6031056493
 20
20.2263663552
 30
0.0
 10
-3.6304858878
 20
20.4389880774
 30
0.0
 10
-3.6304858878
 20
20.5414361916
 30
0.0
  0
SPLINE
  5
431
100
AcDbEntity
  8
ASSI
100
AcDbSpline
 62
7
  6
CONTINUOUS
 70
0
 71
3
 72
16
 73
12
 74
0
 42
0.0000001
 43
0.0000001
 44
0.0000000001
 40
0.0
 40
0.0
 40
0.0
 40
0.0
 40
0.0449628673
 40
0.0913166333
 40
0.1921652519
 40
0.3081596594
 40
0.4388273955
 40
0.579947883
 40
0.7251780947
 40
0.8674078426
 40
1.0
 40
1.0
 40
1.0
 40
1.0
 10
-12.7923742467
 20
-13.4596342903
 30
0.0
 10
-12.8234914006
 20
-13.4751930337
 30
0.0
 10
-12.8906114004
 20
-13.4995084361
 30
0.0
 10
-13.0392421525
 20
-13.5178820666
 30
0.0
 10
-13.2440706205
 20
-13.4779640165
 30
0.0
 10
-13.4822145302
 20
-13.3469645465
 30
0.0
 10
-13.7065350352
 20
-13.1443697273
 30
0.0
 10
-13.9014415683
 20
-12.8850669652
 30
0.0
 10
-14.0531660302
 20
-12.5883677236
 30
0.0
 10
-14.1505763221
 20
-12.276706865
 30
0.0
 10
-14.1757459014
 20
-12.0637470614
 30
0.0
 10
-14.1757459014
 20
-11.9611536097
 30
0.0
  0
SPLINE
  5
432
100
AcDbEntity
  8
ASSI
100
AcDbSpline
 62
7
  6
CONTINUOUS
 70
0
 71
3
 72
11
 73
7
 74
0
 42
0.0000001
 43
0.0000001
 44
0.0000000001
 40
0.0
 40
0.0
 40
0.0
 40
0.0
 40
0.2821963946
 40
0.5389738194
 40
0.7748267566
 40
1.0
 40
1.0
 40
1.0
 40
1.0
 10
-3.6304858878
 20
14.3060532843
 30
0.0
 10
-3.6304858878
 20
14.3794089567
 30
0.0
 10
-3.6175071367
 20
14.5201155959
 30
0.0
 10
-3.552677544
 20
14.7130931012
 30
0.0
 10
-3.444790811
 20
14.8688058026
 30
0.0
 10
-3.3460629352
 20
14.9413765494
 30
0.0
 10
-3.293708991
 20
14.9675518977
 30
0.0
  0
SPLINE
  5
433
100
AcDbEntity
  8
ASSI
100
AcDbSpline
 62
7
  6
CONTINUOUS
 70
0
 71
3
 72
16
 73
12
 74
0
 42
0.0000001
 43
0.0000001
 44
0.0000000001
 40
0.0
 40
0.0
 40
0.0
 40
0.0
 40
0.0449628673
 40
0.0913166333
 40
0.1921652519
 40
0.3081596594
 40
0.4388273955
 40
0.579947883
 40
0.7251780947
 40
0.8674078426
 40
1.0
 40
1.0
 40
1.0
 40
1.0
 10
-12.7923742467
 20
23.9526631532
 30
0.0
 10
-12.8234914006
 20
23.9371044098
 30
0.0
 10
-12.8906114004
 20
23.9127890074
 30
0.0
 10
-13.0392421525
 20
23.8944153769
 30
0.0
 10
-13.2440706205
 20
23.934333427
 30
0.0
 10
-13.4822145302
 20
24.065332897
 30
0.0
 10
-13.7065350352
 20
24.2679277162
 30
0.0
 10
-13.9014415683
 20
24.5272304783
 30
0.0
 10
-14.0531660302
 20
24.8239297199
 30
0.0
 10
-14.1505763221
 20
25.1355905785
 30
0.0
 10
-14.1757459014
 20
25.3485503821
 30
0.0
 10
-14.1757459014
 20
25.4511438338
 30
0.0
  0
SPLINE
  5
434
100
AcDbEntity
  8
ASSI
100
AcDbSpline
 62
7
  6
CONTINUOUS
 70
0
 71
3
 72
11
 73
7
 74
0
 42
0.0000001
 43
0.0000001
 44
0.0000000001
 40
0.0
 40
0.0
 40
0.0
 40
0.0
 40
0.2784263049
 40
0.5337353223
 40
0.7709300756
 40
1.0
 40
1.0
 40
1.0
 40
1.0
 10
1.9706440392
 20
12.0154494232
 30
0.0
 10
1.9706440392
 20
12.0890498761
 30
0.0
 10
1.9843201552
 20
12.2307872215
 30
0.0
 10
2.0522160509
 20
12.4253632023
 30
0.0
 10
2.1648074836
 20
12.5828982348
 30
0.0
 10
2.2667883741
 20
12.6566314804
 30
0.0
 10
2.3209488103
 20
12.6837120522
 30
0.0
  0
SPLINE
  5
435
100
AcDbEntity
  8
ASSI
100
AcDbSpline
 62
7
  6
CONTINUOUS
 70
0
 71
3
 72
16
 73
12
 74
0
 42
0.0000001
 43
0.0000001
 44
0.0000000001
 40
0.0
 40
0.0
 40
0.0
 40
0.0
 40
0.0489543726
 40
0.0994312213
 40
0.2073730067
 40
0.3272215086
 40
0.4580498002
 40
0.5961927069
 40
0.7363489938
 40
0.8726821156
 40
1.0
 40
1.0
 40
1.0
 40
1.0
 10
3.532909539
 20
-20.5704989271
 30
0.0
 10
3.4976401682
 20
-20.5881338617
 30
0.0
 10
3.4221050399
 20
-20.6166295818
 30
0.0
 10
3.2564925526
 20
-20.6443627393
 30
0.0
 10
3.0292388663
 20
-20.6194729708
 30
0.0
 10
2.7603029903
 20
-20.5059661435
 30
0.0
 10
2.5059122676
 20
-20.3190177885
 30
0.0
 10
2.2840838513
 20
-20.072482924
 30
0.0
 10
2.1108365034
 20
-19.7845130639
 30
0.0
 10
1.9992469696
 20
-19.4768375453
 30
0.0
 10
1.9706440392
 20
-19.2640189397
 30
0.0
 10
1.9706440392
 20
-19.161465113
 30
0.0
  0
SPLINE
  5
436
100
AcDbEntity
  8
ASSI
100
AcDbSpline
 62
7
  6
CONTINUOUS
 70
0
 71
3
 72
16
 73
12
 74
0
 42
0.0000001
 43
0.0000001
 44
0.0000000001
 40
0.0
 40
0.0
 40
0.0
 40
0.0
 40
0.0435106388
 40
0.0883588226
 40
0.1866246612
 40
0.3012017276
 40
0.4317616265
 40
0.5739173188
 40
0.7209922251
 40
0.8654182941
 40
1.0
 40
1.0
 40
1.0
 40
1.0
 10
-17.7977207462
 20
7.8350100103
 30
0.0
 10
-17.8274587148
 20
7.8201408556
 30
0.0
 10
-17.8917802639
 20
7.7972098687
 30
0.0
 10
-18.0347289197
 20
7.7819837414
 30
0.0
 10
-18.2317802541
 20
7.8269689692
 30
0.0
 10
-18.4592468621
 20
7.9633326203
 30
0.0
 10
-18.6734604033
 20
8.1705611397
 30
0.0
 10
-18.8596231659
 20
8.4337400671
 30
0.0
 10
-19.0046133455
 20
8.7333646203
 30
0.0
 10
-19.0977293825
 20
9.0467788865
 30
0.0
 10
-19.1218785214
 20
9.2602586205
 30
0.0
 10
-19.1218785214
 20
9.3630976266
 30
0.0
  0
SPLINE
  5
437
100
AcDbEntity
  8
ASSI
100
AcDbSpline
 62
7
  6
CONTINUOUS
 70
0
 71
3
 72
16
 73
12
 74
0
 42
0.0000001
 43
0.0000001
 44
0.0000000001
 40
0.0
 40
0.0
 40
0.0
 40
0.0
 40
0.046349267
 40
0.094139428
 40
0.197460096
 40
0.3148061791
 40
0.4455531995
 40
0.5856582373
 40
0.7291219529
 40
0.8692759895
 40
1.0
 40
1.0
 40
1.0
 40
1.0
 10
-7.5695054409
 20
-15.9393687226
 30
0.0
 10
-7.6019995563
 20
-15.9556159587
 30
0.0
 10
-7.671913246
 20
-15.9813160857
 30
0.0
 10
-7.8262008803
 20
-16.0028107547
 30
0.0
 10
-8.0386261849
 20
-15.967915194
 30
0.0
 10
-8.2872154501
 20
-15.8425113351
 30
0.0
 10
-8.5215791938
 20
-15.6448254849
 30
0.0
 10
-8.7253119047
 20
-15.3895657844
 30
0.0
 10
-8.8839517538
 20
-15.0957623784
 30
0.0
 10
-8.9858385119
 20
-14.7856306613
 30
0.0
 10
-9.0120810443
 20
-14.5729544459
 30
0.0
 10
-9.0120810443
 20
-14.4704900056
 30
0.0
  0
SPLINE
  5
438
100
AcDbEntity
  8
ASSI
100
AcDbSpline
 62
7
  6
CONTINUOUS
 70
0
 71
3
 72
11
 73
7
 74
0
 42
0.0000001
 43
0.0000001
 44
0.0000000001
 40
0.0
 40
0.0
 40
0.0
 40
0.0
 40
0.3042908913
 40
0.5699433065
 40
0.7981824121
 40
1.0
 40
1.0
 40
1.0
 40
1.0
 10
-28.3571401911
 20
33.6339531626
 30
0.0
 10
-28.3571401911
 20
33.7065135044
 30
0.0
 10
-28.3472997432
 20
33.8428319706
 30
0.0
 10
-28.2968321431
 20
34.0279298298
 30
0.0
 10
-28.2124286515
 20
34.1736106771
 30
0.0
 10
-28.1304581762
 20
34.240404061
 30
0.0
 10
-28.0874141621
 20
34.2619264663
 30
0.0
  0
SPLINE
  5
439
100
AcDbEntity
  8
ASSI
100
AcDbSpline
 62
7
  6
CONTINUOUS
 70
0
 71
3
 72
16
 73
12
 74
0
 42
0.0000001
 43
0.0000001
 44
0.0000000001
 40
0.0
 40
0.0
 40
0.0
 40
0.0
 40
0.0489543726
 40
0.0994312213
 40
0.2073730067
 40
0.3272215086
 40
0.4580498002
 40
0.5961927069
 40
0.7363489938
 40
0.8726821156
 40
1.0
 40
1.0
 40
1.0
 40
1.0
 10
3.532909539
 20
-1.8643502053
 30
0.0
 10
3.4976401682
 20
-1.88198514
 30
0.0
 10
3.4221050399
 20
-1.9104808601
 30
0.0
 10
3.2564925526
 20
-1.9382140175
 30
0.0
 10
3.0292388663
 20
-1.9133242491
 30
0.0
 10
2.7603029903
 20
-1.7998174218
 30
0.0
 10
2.5059122676
 20
-1.6128690668
 30
0.0
 10
2.2840838513
 20
-1.3663342023
 30
0.0
 10
2.1108365034
 20
-1.0783643421
 30
0.0
 10
1.9992469696
 20
-0.7706888236
 30
0.0
 10
1.9706440392
 20
-0.557870218
 30
0.0
 10
1.9706440392
 20
-0.4553163913
 30
0.0
  0
SPLINE
  5
43A
100
AcDbEntity
  8
ASSI
100
AcDbSpline
 62
7
  6
CONTINUOUS
 70
0
 71
3
 72
11
 73
7
 74
0
 42
0.0000001
 43
0.0000001
 44
0.0000000001
 40
0.0
 40
0.0
 40
0.0
 40
0.0
 40
0.2993383578
 40
0.5629827689
 40
0.7929091521
 40
1.0
 40
1.0
 40
1.0
 40
1.0
 10
-23.8496815629
 20
30.7965136522
 30
0.0
 10
-23.8496815629
 20
30.8691815795
 30
0.0
 10
-23.8392431409
 20
31.006298937
 30
0.0
 10
-23.7859676625
 20
31.1929853287
 30
0.0
 10
-23.6967915116
 20
31.3408386924
 30
0.0
 10
-23.6113420132
 20
31.408792008
 30
0.0
 10
-23.5663772354
 20
31.4312779817
 30
0.0
  0
SPLINE
  5
43B
100
AcDbEntity
  8
ASSI
100
AcDbSpline
 62
7
  6
CONTINUOUS
 70
0
 71
3
 72
16
 73
12
 74
0
 42
0.0000001
 43
0.0000001
 44
0.0000000001
 40
0.0
 40
0.0
 40
0.0
 40
0.0
 40
0.0476855869
 40
0.0968552718
 40
0.2025460143
 40
0.3211751526
 40
0.4519695961
 40
0.5910783196
 40
0.7328486008
 40
0.8710350199
 40
1.0
 40
1.0
 40
1.0
 40
1.0
 10
-2.1283896959
 20
-18.3099815963
 30
0.0
 10
-2.1622704249
 20
-18.326924214
 30
0.0
 10
-2.2349990784
 20
-18.3540137928
 30
0.0
 10
-2.39495733
 20
-18.3786164868
 30
0.0
 10
-2.6148523816
 20
-18.3487132547
 30
0.0
 10
-2.8736850926
 20
-18.22912363
 30
0.0
 10
-3.1180493354
 20
-18.0366447697
 30
0.0
 10
-3.3307306364
 20
-17.7856328154
 30
0.0
 10
-3.4965158822
 20
-17.4947323689
 30
0.0
 10
-3.6031056493
 20
-17.1859310883
 30
0.0
 10
-3.6304858878
 20
-16.9733093661
 30
0.0
 10
-3.6304858878
 20
-16.8708612519
 30
0.0
  0
SPLINE
  5
43C
100
AcDbEntity
  8
RACCORDO
100
AcDbSpline
 62
7
  6
CONTINUOUS
 70
0
 71
3
 72
9
 73
5
 74
0
 42
0.0000001
 43
0.0000001
 44
0.0000000001
 40
0.0
 40
0.0
 40
0.0
 40
0.0
 40
0.2579954017
 40
1.0
 40
1.0
 40
1.0
 40
1.0
 10
3.3221272216
 20
77.8912387745
 30
0.0
 10
0.4578738017
 20
79.2452736357
 30
0.0
 10
-10.7486354802
 20
84.2666631867
 30
0.0
 10
-22.3856236959
 20
88.3496572597
 30
0.0
 10
-31.1853055116
 20
90.7140939165
 30
0.0
  0
SPLINE
  5
43D
100
AcDbEntity
  8
RACCORDO
100
AcDbSpline
 62
7
  6
CONTINUOUS
 70
0
 71
3
 72
9
 73
5
 74
0
 42
0.0000001
 43
0.0000001
 44
0.0000000001
 40
0.0
 40
0.0
 40
0.0
 40
0.0
 40
0.5093016586
 40
1.0
 40
1.0
 40
1.0
 40
1.0
 10
37.8295599548
 20
56.2066611833
 30
0.0
 10
32.241010875
 20
60.2935911615
 30
0.0
 10
20.9968865556
 20
67.9553513339
 30
0.0
 10
9.2227599772
 20
74.7800458074
 30
0.0
 10
3.3221272216
 20
77.8912387745
 30
0.0
  0
SPLINE
  5
43E
100
AcDbEntity
  8
ASSI
100
AcDbSpline
 62
7
  6
CONTINUOUS
 70
0
 71
3
 72
11
 73
7
 74
0
 42
0.0000001
 43
0.0000001
 44
0.0000000001
 40
0.0
 40
0.0
 40
0.0
 40
0.0
 40
0.2185656667
 40
0.4587327303
 40
0.719622997
 40
1.0
 40
1.0
 40
1.0
 40
1.0
 10
-42.8186036741
 20
81.2384137456
 30
0.0
 10
-40.8206628521
 20
80.0866443688
 30
0.0
 10
-36.5885619121
 20
77.7362902997
 30
0.0
 10
-29.8637291148
 20
74.2096033292
 30
0.0
 10
-22.487889394
 20
70.5235754324
 30
0.0
 10
-17.3375279463
 20
68.0551533688
 30
0.0
 10
-14.6608552795
 20
66.7953057928
 30
0.0
  0
SPLINE
  5
43F
100
AcDbEntity
  8
ASSI
100
AcDbSpline
 62
7
  6
CONTINUOUS
 70
0
 71
3
 72
11
 73
7
 74
0
 42
0.0000001
 43
0.0000001
 44
0.0000000001
 40
0.0
 40
0.0
 40
0.0
 40
0.0
 40
0.2338183059
 40
0.4794849456
 40
0.735424824
 40
1.0
 40
1.0
 40
1.0
 40
1.0
 10
-14.6608552795
 20
66.7953057928
 30
0.0
 10
-11.8287950379
 20
65.2959089714
 30
0.0
 10
-5.9941901393
 20
62.2718956985
 30
0.0
 10
3.0243399141
 20
57.7708126041
 30
0.0
 10
12.4856073669
 20
53.215276218
 30
0.0
 10
18.9549734103
 20
50.2085489581
 30
0.0
 10
22.2533891773
 20
48.7024173198
 30
0.0
  0
SPLINE
  5
440
100
AcDbEntity
  8
ASSI
100
AcDbSpline
 62
7
  6
CONTINUOUS
 70
0
 71
3
 72
15
 73
11
 74
0
 42
0.0000001
 43
0.0000001
 44
0.0000000001
 40
0.0
 40
0.0
 40
0.0
 40
0.0
 40
0.1285476625
 40
0.2606734256
 40
0.3940594464
 40
0.5262832116
 40
0.6549607204
 40
0.7779018267
 40
0.8933051106
 40
1.0
 40
1.0
 40
1.0
 40
1.0
 10
22.2533891773
 20
48.7024173198
 30
0.0
 10
22.5526492149
 20
48.5677683117
 30
0.0
 10
23.174989493
 20
48.328090562
 30
0.0
 10
24.1469963977
 20
48.0629463913
 30
0.0
 10
25.1498071099
 20
47.8934577849
 30
0.0
 10
26.1558368917
 20
47.8258392107
 30
0.0
 10
27.1369367782
 20
47.8635872903
 30
0.0
 10
28.0651949015
 20
48.0072732968
 30
0.0
 10
28.9134352515
 20
48.254048311
 30
0.0
 10
29.4307273166
 20
48.4936068416
 30
0.0
 10
29.6661692297
 20
48.6305487519
 30
0.0
  0
SPLINE
  5
441
100
AcDbEntity
  8
RACCORDO
100
AcDbSpline
 62
7
  6
CONTINUOUS
 70
0
 71
3
 72
9
 73
5
 74
0
 42
0.0000001
 43
0.0000001
 44
0.0000000001
 40
0.0
 40
0.0
 40
0.0
 40
0.0
 40
0.4784683175
 40
1.0
 40
1.0
 40
1.0
 40
1.0
 10
-31.3357546229
 20
90.7070149345
 30
0.0
 10
-31.3134297251
 20
90.7167988527
 30
0.0
 10
-31.2623388499
 20
90.7279649905
 30
0.0
 10
-31.2109639051
 20
90.7209882165
 30
0.0
 10
-31.1853055116
 20
90.7140939165
 30
0.0
  0
SPLINE
  5
442
100
AcDbEntity
  8
ASSI
100
AcDbSpline
 62
7
  6
CONTINUOUS
 70
0
 71
3
 72
12
 73
8
 74
0
 42
0.0000001
 43
0.0000001
 44
0.0000000001
 40
0.0
 40
0.0
 40
0.0
 40
0.0
 40
0.1082246489
 40
0.2170370939
 40
0.4457166416
 40
0.7033383912
 40
1.0
 40
1.0
 40
1.0
 40
1.0
 10
-43.5751732881
 20
82.280815898
 30
0.0
 10
-43.5751733747
 20
82.2322409344
 30
0.0
 10
-43.5670485927
 20
82.1346148682
 30
0.0
 10
-43.5169918402
 20
81.940060609
 30
0.0
 10
-43.3862986097
 20
81.7019666614
 30
0.0
 10
-43.1394840558
 20
81.4477693627
 30
0.0
 10
-42.9332834833
 20
81.3060746099
 30
0.0
 10
-42.8186036741
 20
81.2384137456
 30
0.0
  0
SPLINE
  5
443
100
AcDbEntity
  8
RACCORDO
100
AcDbSpline
 62
7
  6
CONTINUOUS
 70
0
 71
3
 72
11
 73
7
 74
0
 42
0.0000001
 43
0.0000001
 44
0.0000000001
 40
0.0
 40
0.0
 40
0.0
 40
0.0
 40
0.2401219043
 40
0.4991160408
 40
0.7586343124
 40
1.0
 40
1.0
 40
1.0
 40
1.0
 10
37.8295599548
 20
56.2066611833
 30
0.0
 10
37.8721779428
 20
56.1754944654
 30
0.0
 10
37.9513353382
 20
56.0975121076
 30
0.0
 10
38.0422166466
 20
55.9562914425
 30
0.0
 10
38.1026004458
 20
55.799291513
 30
0.0
 10
38.1188519262
 20
55.6889723337
 30
0.0
 10
38.1188519262
 20
55.6359005803
 30
0.0
  0
SPLINE
  5
444
100
AcDbEntity
  8
RACCORDO
100
AcDbSpline
 62
250
  6
CONTINUOUS
 70
0
 71
3
 72
9
 73
5
 74
0
 42
0.0000001
 43
0.0000001
 44
0.0000000001
 40
0.0
 40
0.0
 40
0.0
 40
0.0
 40
0.4746681997
 40
1.0
 40
1.0
 40
1.0
 40
1.0
 10
-41.4242171539
 20
86.2846508611
 30
0.0
 10
-41.4042361267
 20
86.2934169537
 30
0.0
 10
-41.3576787226
 20
86.3025949417
 30
0.0
 10
-41.311614642
 20
86.2937410398
 30
0.0
 10
-41.2886909153
 20
86.2861487993
 30
0.0
  0
SPLINE
  5
445
100
AcDbEntity
  8
RACCORDO
100
AcDbSpline
 62
250
  6
CONTINUOUS
 70
0
 71
3
 72
12
 73
8
 74
0
 42
0.0000001
 43
0.0000001
 44
0.0000000001
 40
0.0
 40
0.0
 40
0.0
 40
0.0
 40
0.1088830197
 40
0.2184194014
 40
0.4481303764
 40
0.7054342183
 40
1.0
 40
1.0
 40
1.0
 40
1.0
 10
-43.5751753141
 20
84.0320266062
 30
0.0
 10
-43.5751600319
 20
83.9820661718
 30
0.0
 10
-43.5669929832
 20
83.8816440745
 30
0.0
 10
-43.5170238747
 20
83.6813596271
 30
0.0
 10
-43.3868791695
 20
83.4355905245
 30
0.0
 10
-43.140357479
 20
83.1711765177
 30
0.0
 10
-42.9335568159
 20
83.0225579002
 30
0.0
 10
-42.8185811745
 20
82.9515026909
 30
0.0
  0
LINE
  5
446
100
AcDbEntity
  8
RACCORDO
100
AcDbLine
 62
250
  6
CONTINUOUS
 10
30.1659341224
 20
51.4668118177
 11
31.5106271889
 21
52.298726144
  0
SPLINE
  5
447
100
AcDbEntity
  8
RACCORDO
100
AcDbSpline
 62
250
  6
CONTINUOUS
 70
0
 71
3
 72
8
 73
4
 74
0
 42
0.0000001
 43
0.0000001
 44
0.0000000001
 40
0.0
 40
0.0
 40
0.0
 40
0.0
 40
1.0
 40
1.0
 40
1.0
 40
1.0
 10
31.5106271889
 20
52.298726144
 30
0.0
 10
33.6167701119
 20
53.6016427638
 30
0.0
 10
35.7230811356
 20
54.9042876906
 30
0.0
 10
37.8295599548
 20
56.2066611833
 30
0.0
  0
SPLINE
  5
448
100
AcDbEntity
  8
RACCORDO
100
AcDbSpline
 62
250
  6
CONTINUOUS
 70
0
 71
3
 72
15
 73
11
 74
0
 42
0.0000001
 43
0.0000001
 44
0.0000000001
 40
0.0
 40
0.0
 40
0.0
 40
0.0
 40
0.1284717732
 40
0.2605350162
 40
0.3938872926
 40
0.5261112179
 40
0.6548200346
 40
0.7778131062
 40
0.8932702194
 40
1.0
 40
1.0
 40
1.0
 40
1.0
 10
22.5596691161
 20
51.0287245052
 30
0.0
 10
22.8338742063
 20
50.9056289146
 30
0.0
 10
23.4041130938
 20
50.6865754192
 30
0.0
 10
24.2947235636
 20
50.4443861139
 30
0.0
 10
25.21363423
 20
50.2896507355
 30
0.0
 10
26.1356432379
 20
50.2280855922
 30
0.0
 10
27.034970154
 20
50.262832096
 30
0.0
 10
27.8860142538
 20
50.3944311653
 30
0.0
 10
28.6638320552
 20
50.6202317829
 30
0.0
 10
29.1383134807
 20
50.8393744721
 30
0.0
 10
29.3543182755
 20
50.9646442039
 30
0.0
  0
SPLINE
  5
449
100
AcDbEntity
  8
RACCORDO
100
AcDbSpline
 62
250
  6
CONTINUOUS
 70
0
 71
3
 72
11
 73
7
 74
0
 42
0.0000001
 43
0.0000001
 44
0.0000000001
 40
0.0
 40
0.0
 40
0.0
 40
0.0
 40
0.2353623371
 40
0.4814003538
 40
0.7367490628
 40
1.0
 40
1.0
 40
1.0
 40
1.0
 10
-12.0723873432
 20
67.9001426225
 30
0.0
 10
-9.3944752971
 20
66.4983182391
 30
0.0
 10
-3.8942403539
 20
63.6747552082
 30
0.0
 10
4.5837493939
 20
59.4732801221
 30
0.0
 10
13.4399333146
 20
55.2303295533
 30
0.0
 10
19.4831652952
 20
52.4304708183
 30
0.0
 10
22.5596691161
 20
51.0287245052
 30
0.0
  0
LINE
  5
44A
100
AcDbEntity
  8
RACCORDO
100
AcDbLine
 62
250
  6
CONTINUOUS
 10
-14.3073162163
 20
69.0765170556
 11
-14.2994203469
 21
69.0723681559
  0
SPLINE
  5
44B
100
AcDbEntity
  8
RACCORDO
100
AcDbSpline
 62
250
  6
CONTINUOUS
 70
0
 71
3
 72
19
 73
15
 74
0
 42
0.0000001
 43
0.0000001
 44
0.0000000001
 40
0.0
 40
0.0
 40
0.0
 40
0.0
 40
0.1825913832
 40
0.3408253955
 40
0.4739427926
 40
0.5318106041
 40
0.584696554
 40
0.6336968661
 40
0.6802766528
 40
0.7261762174
 40
0.7732066598
 40
0.8230028034
 40
0.8768666596
 40
1.0
 40
1.0
 40
1.0
 40
1.0
 10
-41.4526217748
 20
86.2090387923
 30
0.0
 10
-41.6583117699
 20
86.1092772745
 30
0.0
 10
-42.0343521701
 20
85.9053832113
 30
0.0
 10
-42.5185899639
 20
85.5596860082
 30
0.0
 10
-42.8296434678
 20
85.2472644929
 30
0.0
 10
-43.0003862393
 20
84.9930241004
 30
0.0
 10
-43.0861863998
 20
84.8113604667
 30
0.0
 10
-43.1349026132
 20
84.6308071655
 30
0.0
 10
-43.1456378468
 20
84.4526645404
 30
0.0
 10
-43.1180076226
 20
84.2787887846
 30
0.0
 10
-43.0525898636
 20
84.1111466494
 30
0.0
 10
-42.9507438686
 20
83.9510893661
 30
0.0
 10
-42.7598247076
 20
83.7395459159
 30
0.0
 10
-42.5769770414
 20
83.6093770677
 30
0.0
 10
-42.4443735351
 20
83.5307458568
 30
0.0
  0
SPLINE
  5
44C
100
AcDbEntity
  8
RACCORDO
100
AcDbSpline
 62
250
  6
CONTINUOUS
 70
0
 71
3
 72
8
 73
4
 74
0
 42
0.0000001
 43
0.0000001
 44
0.0000000001
 40
0.0
 40
0.0
 40
0.0
 40
0.0
 40
1.0
 40
1.0
 40
1.0
 40
1.0
 10
-31.3141323935
 20
90.657659299
 30
0.0
 10
-34.6392271994
 20
89.2010413539
 30
0.0
 10
-37.9640802754
 20
87.743871475
 30
0.0
 10
-41.2886909153
 20
86.2861487993
 30
0.0
  0
LINE
  5
44D
100
AcDbEntity
  8
RACCORDO
100
AcDbLine
 62
250
  6
CONTINUOUS
 10
-14.3151838738
 20
69.0802499194
 11
-14.3073162163
 21
69.0765170556
  0
SPLINE
  5
44E
100
AcDbEntity
  8
RACCORDO
100
AcDbSpline
 62
250
  6
CONTINUOUS
 70
0
 71
3
 72
11
 73
7
 74
0
 42
0.0000001
 43
0.0000001
 44
0.0000000001
 40
0.0
 40
0.0
 40
0.0
 40
0.0
 40
0.218720964
 40
0.4589372872
 40
0.7197730806
 40
1.0
 40
1.0
 40
1.0
 40
1.0
 10
-42.4443735351
 20
83.5307458568
 30
0.0
 10
-40.4478562383
 20
82.3764136813
 30
0.0
 10
-36.2192962025
 20
80.0220774986
 30
0.0
 10
-29.5003359995
 20
76.4920226955
 30
0.0
 10
-22.1327707722
 20
72.8057819617
 30
0.0
 10
-16.9884405639
 20
70.3388528429
 30
0.0
 10
-14.3151838738
 20
69.0802499194
 30
0.0
  0
SPLINE
  5
44F
100
AcDbEntity
  8
RACCORDO
100
AcDbSpline
 62
250
  6
CONTINUOUS
 70
0
 71
3
 72
11
 73
7
 74
0
 42
0.0000001
 43
0.0000001
 44
0.0000000001
 40
0.0
 40
0.0
 40
0.0
 40
0.0
 40
0.2280477356
 40
0.4710739379
 40
0.7285945061
 40
1.0
 40
1.0
 40
1.0
 40
1.0
 10
-38.8430372253
 20
80.6996860516
 30
0.0
 10
-37.3290349245
 20
79.8610538626
 30
0.0
 10
-34.1845008054
 20
78.1594518702
 30
0.0
 10
-29.2789257412
 20
75.6071634323
 30
0.0
 10
-24.0436912963
 20
72.976865979
 30
0.0
 10
-20.4343105397
 20
71.2197526882
 30
0.0
 10
-18.5773438324
 20
70.3284003964
 30
0.0
  0
SPLINE
  5
450
100
AcDbEntity
  8
RACCORDO
100
AcDbSpline
 62
250
  6
CONTINUOUS
 70
0
 71
3
 72
9
 73
5
 74
0
 42
0.0000001
 43
0.0000001
 44
0.0000000001
 40
0.0
 40
0.0
 40
0.0
 40
0.0
 40
0.4862833241
 40
1.0
 40
1.0
 40
1.0
 40
1.0
 10
-14.6608550111
 20
68.4666179494
 30
0.0
 10
-11.4170376762
 20
66.7499168345
 30
0.0
 10
-4.7101800148
 20
63.2878757382
 30
0.0
 10
2.0563576859
 20
59.9442533204
 30
0.0
 10
5.5458508575
 20
58.2544442834
 30
0.0
  0
SPLINE
  5
451
100
AcDbEntity
  8
RACCORDO
100
AcDbSpline
 62
250
  6
CONTINUOUS
 70
0
 71
3
 72
15
 73
11
 74
0
 42
0.0000001
 43
0.0000001
 44
0.0000000001
 40
0.0
 40
0.0
 40
0.0
 40
0.0
 40
0.1282285967
 40
0.2602028789
 40
0.3935737462
 40
0.5258780368
 40
0.6546915984
 40
0.7777824122
 40
0.8932973823
 40
1.0
 40
1.0
 40
1.0
 40
1.0
 10
22.2533234722
 20
50.4155486546
 30
0.0
 10
22.5532427346
 20
50.2852711615
 30
0.0
 10
23.176852135
 20
50.0543922594
 30
0.0
 10
24.1498622241
 20
49.8021221813
 30
0.0
 10
25.1532685875
 20
49.6446398142
 30
0.0
 10
26.1593388838
 20
49.5876294922
 30
0.0
 10
27.1398862527
 20
49.6339669902
 30
0.0
 10
28.0670989492
 20
49.7837234708
 30
0.0
 10
28.914039342
 20
50.0336157367
 30
0.0
 10
29.4308075232
 20
50.2732896337
 30
0.0
 10
29.6661709012
 20
50.4098256568
 30
0.0
  0
SPLINE
  5
452
100
AcDbEntity
  8
RACCORDO
100
AcDbSpline
 62
250
  6
CONTINUOUS
 70
0
 71
3
 72
8
 73
4
 74
0
 42
0.0000001
 43
0.0000001
 44
0.0000000001
 40
0.0
 40
0.0
 40
0.0
 40
0.0
 40
1.0
 40
1.0
 40
1.0
 40
1.0
 10
29.6661708517
 20
50.4096668139
 30
0.0
 10
31.579550045
 20
51.5931514238
 30
0.0
 10
33.493067769
 20
52.7764120956
 30
0.0
 10
35.4067237938
 20
53.9594490257
 30
0.0
  0
LINE
  5
453
100
AcDbEntity
  8
RACCORDO
100
AcDbLine
 62
250
  6
CONTINUOUS
 10
35.4067237938
 20
53.9594490257
 11
38.1188519262
 21
55.6359005803
  0
SPLINE
  5
454
100
AcDbEntity
  8
RACCORDO
100
AcDbSpline
 62
250
  6
CONTINUOUS
 70
0
 71
3
 72
11
 73
7
 74
0
 42
0.0000001
 43
0.0000001
 44
0.0000000001
 40
0.0
 40
0.0
 40
0.0
 40
0.0
 40
0.217164381
 40
0.4503599113
 40
0.7104514294
 40
1.0
 40
1.0
 40
1.0
 40
1.0
 10
36.5133941828
 20
-88.8639113895
 30
0.0
 10
36.5052428189
 20
-88.8598286458
 30
0.0
 10
36.4898095901
 20
-88.8481032989
 30
0.0
 10
36.4732672222
 20
-88.822736186
 30
0.0
 10
36.4633896753
 20
-88.7910561624
 30
0.0
 10
36.4614132475
 20
-88.767896606
 30
0.0
 10
36.4614132475
 20
-88.7557412217
 30
0.0
  0
SPLINE
  5
455
100
AcDbEntity
  8
RACCORDO
100
AcDbSpline
 62
250
  6
CONTINUOUS
 70
0
 71
3
 72
13
 73
9
 74
0
 42
0.0000001
 43
0.0000001
 44
0.0000000001
 40
0.0
 40
0.0
 40
0.0
 40
0.0
 40
0.2835194441
 40
0.4063553505
 40
0.5199092593
 40
0.6300271759
 40
0.7435727287
 40
1.0
 40
1.0
 40
1.0
 40
1.0
 10
36.67403169
 20
-88.6025984935
 30
0.0
 10
36.6740298972
 20
-88.6335231145
 30
0.0
 10
36.6676604129
 20
-88.678960093
 30
0.0
 10
36.6402317812
 20
-88.7292500256
 30
0.0
 10
36.6131270909
 20
-88.7564501946
 30
0.0
 10
36.5796138567
 20
-88.7731703342
 30
0.0
 10
36.527013176
 20
-88.7806169705
 30
0.0
 10
36.4864308735
 20
-88.7682478235
 30
0.0
 10
36.4614132475
 20
-88.7557412217
 30
0.0
  0
SPLINE
  5
456
100
AcDbEntity
  8
RACCORDO
100
AcDbSpline
 62
7
  6
CONTINUOUS
 70
0
 71
3
 72
11
 73
7
 74
0
 42
0.0000001
 43
0.0000001
 44
0.0000000001
 40
0.0
 40
0.0
 40
0.0
 40
0.0
 40
0.2290548404
 40
0.4867310488
 40
0.7516518795
 40
1.0
 40
1.0
 40
1.0
 40
1.0
 10
-14.3073162163
 20
69.0765170556
 30
0.0
 10
-14.3565747869
 20
69.0518877703
 30
0.0
 10
-14.4508794151
 20
68.978669063
 30
0.0
 10
-14.5606523801
 20
68.8331907931
 30
0.0
 10
-14.6366769697
 20
68.6624759647
 30
0.0
 10
-14.6592600776
 20
68.5393475758
 30
0.0
 10
-14.6606977335
 20
68.479653353
 30
0.0
  0
SPLINE
  5
457
100
AcDbEntity
  8
RACCORDO
100
AcDbSpline
 62
250
  6
CONTINUOUS
 70
0
 71
3
 72
11
 73
7
 74
0
 42
0.0000001
 43
0.0000001
 44
0.0000000001
 40
0.0
 40
0.0
 40
0.0
 40
0.0
 40
0.2303142706
 40
0.4894866331
 40
0.7543678284
 40
1.0
 40
1.0
 40
1.0
 40
1.0
 10
-14.2994203473
 20
69.0723681295
 30
0.0
 10
-14.3498194434
 20
69.0472260404
 30
0.0
 10
-14.4463383881
 20
68.9724553311
 30
0.0
 10
-14.5589632027
 20
68.8244234779
 30
0.0
 10
-14.6369731976
 20
68.6514455218
 30
0.0
 10
-14.6600203614
 20
68.5268000228
 30
0.0
 10
-14.6610821315
 20
68.4667412603
 30
0.0
  0
SPLINE
  5
458
100
AcDbEntity
  8
RACCORDO
100
AcDbSpline
 62
250
  6
CONTINUOUS
 70
0
 71
3
 72
11
 73
7
 74
0
 42
0.0000001
 43
0.0000001
 44
0.0000000001
 40
0.0
 40
0.0
 40
0.0
 40
0.0
 40
0.21785542
 40
0.4790283116
 40
0.751241386
 40
1.0
 40
1.0
 40
1.0
 40
1.0
 10
22.5586928235
 20
51.0291158455
 30
0.0
 10
22.5224691934
 20
50.9941433029
 30
0.0
 10
22.4536914379
 20
50.9062393615
 30
0.0
 10
22.3670935906
 20
50.75538285
 30
0.0
 10
22.2965711584
 20
50.5884841361
 30
0.0
 10
22.2637065567
 20
50.4720817423
 30
0.0
 10
22.2533904004
 20
50.4155213767
 30
0.0
  0
SPLINE
  5
459
100
AcDbEntity
  8
RACCORDO
100
AcDbSpline
 62
250
  6
CONTINUOUS
 70
0
 71
3
 72
11
 73
7
 74
0
 42
0.0000001
 43
0.0000001
 44
0.0000000001
 40
0.0
 40
0.0
 40
0.0
 40
0.0
 40
0.2383594172
 40
0.495839785
 40
0.7555406435
 40
1.0
 40
1.0
 40
1.0
 40
1.0
 10
29.6661690362
 20
50.4098247958
 30
0.0
 10
29.6654055941
 20
50.4620919442
 30
0.0
 10
29.6465842465
 20
50.5707574528
 30
0.0
 10
29.5807711066
 20
50.7241507525
 30
0.0
 10
29.4831087134
 20
50.8611777017
 30
0.0
 10
29.3992015485
 20
50.9353257456
 30
0.0
 10
29.3543182776
 20
50.9646442159
 30
0.0
  0
SPLINE
  5
45A
100
AcDbEntity
  8
RACCORDO
100
AcDbSpline
 62
250
  6
CONTINUOUS
 70
0
 71
3
 72
11
 73
7
 74
0
 42
0.0000001
 43
0.0000001
 44
0.0000000001
 40
0.0
 40
0.0
 40
0.0
 40
0.0
 40
0.2285242307
 40
0.4854743721
 40
0.7503057056
 40
1.0
 40
1.0
 40
1.0
 40
1.0
 10
-14.3151838738
 20
69.0802499194
 30
0.0
 10
-14.3643934677
 20
69.0557060215
 30
0.0
 10
-14.4584300804
 20
68.9823139379
 30
0.0
 10
-14.5667562622
 20
68.8358702873
 30
0.0
 10
-14.6405124134
 20
68.6638097841
 30
0.0
 10
-14.660795345
 20
68.5397383099
 30
0.0
 10
-14.6606977335
 20
68.479653353
 30
0.0
  0
SPLINE
  5
45B
100
AcDbEntity
  8
RACCORDO
100
AcDbSpline
 62
250
  6
CONTINUOUS
 70
0
 71
3
 72
9
 73
5
 74
0
 42
0.0000001
 43
0.0000001
 44
0.0000000001
 40
0.0
 40
0.0
 40
0.0
 40
0.0
 40
0.4968520323
 40
1.0
 40
1.0
 40
1.0
 40
1.0
 10
-42.4459489091
 20
83.5316101303
 30
0.0
 10
-42.56010695
 20
83.4933510892
 30
0.0
 10
-42.7614211577
 20
83.324683787
 30
0.0
 10
-42.829581345
 20
83.0723250297
 30
0.0
 10
-42.8186036195
 20
82.9508960322
 30
0.0
  0
SPLINE
  5
45C
100
AcDbEntity
  8
RACCORDO
100
AcDbSpline
 62
250
  6
CONTINUOUS
 70
0
 71
3
 72
11
 73
7
 74
0
 42
0.0000001
 43
0.0000001
 44
0.0000000001
 40
0.0
 40
0.0
 40
0.0
 40
0.0
 40
0.2851218654
 40
0.5440401367
 40
0.7795575661
 40
1.0
 40
1.0
 40
1.0
 40
1.0
 10
36.9686619349
 20
-88.5961665764
 30
0.0
 10
36.968809175
 20
-88.6245978023
 30
0.0
 10
36.9645902725
 20
-88.6790565343
 30
0.0
 10
36.9425489607
 20
-88.7543015704
 30
0.0
 10
36.905496068
 20
-88.8162475304
 30
0.0
 10
36.8707454908
 20
-88.8469885087
 30
0.0
 10
36.8520712417
 20
-88.8585849846
 30
0.0
  0
SPLINE
  5
45D
100
AcDbEntity
  8
RACCORDO
100
AcDbSpline
 62
250
  6
CONTINUOUS
 70
0
 71
3
 72
11
 73
7
 74
0
 42
0.0000001
 43
0.0000001
 44
0.0000000001
 40
0.0
 40
0.0
 40
0.0
 40
0.0
 40
0.2288739526
 40
0.4933314436
 40
0.7614136331
 40
1.0
 40
1.0
 40
1.0
 40
1.0
 10
36.9686619349
 20
-88.5961665764
 30
0.0
 10
36.948742184
 20
-88.6080362987
 30
0.0
 10
36.9008980282
 20
-88.6252305664
 30
0.0
 10
36.8238679491
 20
-88.634459076
 30
0.0
 10
36.7455162765
 20
-88.6284067461
 30
0.0
 10
36.6956518494
 20
-88.6134085776
 30
0.0
 10
36.67403169
 20
-88.6025984935
 30
0.0
  0
ELLIPSE
  5
45E
100
AcDbEntity
  8
RACCORDO
100
AcDbEllipse
 62
7
  6
CONTINUOUS
 10
36.0774983436
 20
-89.0562156426
 30
0.0
 11
-0.2255903321
 21
0.4470755342
 31
0.0
 40
0.6128301338
 41
-3.0986085887
 42
-2.2596307213
  0
ELLIPSE
  5
45F
100
AcDbEntity
  8
DRAFT
100
AcDbEllipse
 62
7
  6
CONTINUOUS
 10
25.9713640261
 20
-89.5355653342
 30
0.0
 11
5.9998364732
 21
0.0867546561
 31
0.0
 40
0.5106100819
 41
-2.0918372599
 42
-0.698922906
  0
ELLIPSE
  5
460
100
AcDbEntity
  8
RACCORDO
100
AcDbEllipse
 62
7
  6
CONTINUOUS
 10
105.8675382367
 20
-16.359334934
 30
0.0
 11
168.595404896
 21
2.4378058355
 31
0.0
 40
0.5106100819
 41
-2.6353177887
 42
-2.0918372599
  0
ELLIPSE
  5
461
100
AcDbEntity
  8
DRAFT
100
AcDbEllipse
 62
7
  6
CONTINUOUS
 10
-35.7494146556
 20
-58.6751759934
 30
0.0
 11
5.9998364732
 21
0.0867546561
 31
0.0
 40
0.5106100819
 41
9.3337448871
 42
9.9310528257
  0
ELLIPSE
  5
462
100
AcDbEntity
  8
CURVE
100
AcDbEllipse
 62
250
  6
CONTINUOUS
 10
105.8879658327
 20
-59.7738502944
 30
0.0
 11
166.0804374482
 21
149.6097354861
 31
0.0
 40
0.1940965792
 41
1.9502159828
 42
1.9568526208
  0
ELLIPSE
  5
463
100
AcDbEntity
  8
CURVE
100
AcDbEllipse
 62
250
  6
CONTINUOUS
 10
105.8879658327
 20
32.8002227561
 30
0.0
 11
-116.7866798287
 21
261.3260848882
 31
0.0
 40
0.4653232993
 41
-4.4659516671
 42
-4.4593150291
  0
ELLIPSE
  5
464
100
AcDbEntity
  8
CURVE
100
AcDbEllipse
 62
250
  6
CONTINUOUS
 10
105.8879658327
 20
33.9861394758
 30
0.0
 11
-116.7906309685
 21
261.281825315
 31
0.0
 40
0.4653875984
 41
-4.4598622707
 42
-4.4562828872
  0
ELLIPSE
  5
465
100
AcDbEntity
  8
CURVE
100
AcDbEllipse
 62
250
  6
CONTINUOUS
 10
105.8879658327
 20
-64.7834138696
 30
0.0
 11
161.4229399072
 21
199.4458486834
 31
0.0
 40
0.2440171522
 41
-4.4257868201
 42
-4.4179604898
  0
ELLIPSE
  5
466
100
AcDbEntity
  8
CURVE
100
AcDbEllipse
 62
250
  6
CONTINUOUS
 10
105.8879658327
 20
-59.7637668788
 30
0.0
 11
166.0833209196
 21
149.5717545459
 31
0.0
 40
0.1940355769
 41
1.943668207
 42
1.9472506735
  0
ELLIPSE
  5
467
100
AcDbEntity
  8
CURVE
100
AcDbEllipse
 62
250
  6
CONTINUOUS
 10
105.8879658327
 20
35.1954466141
 30
0.0
 11
-113.4721416297
 21
315.9951184414
 31
0.0
 40
0.394625627
 41
-4.4749565382
 42
-4.4671410974
  0
ELLIPSE
  5
468
100
AcDbEntity
  8
CURVE
100
AcDbEllipse
 62
250
  6
CONTINUOUS
 10
105.8879658327
 20
-60.9795797321
 30
0.0
 11
166.0775629444
 21
149.6475806001
 31
0.0
 40
0.1941573197
 41
1.9373298395
 42
1.9439854926
  0
ELLIPSE
  5
469
100
AcDbEntity
  8
CURVE
100
AcDbEllipse
 62
250
  6
CONTINUOUS
 10
105.8879658327
 20
36.5457582125
 30
0.0
 11
-113.4729923672
 21
315.9730884346
 31
0.0
 40
0.3946506907
 41
-4.4721334919
 42
-4.4671479198
  0
ELLIPSE
  5
46A
100
AcDbEntity
  8
CURVE
100
AcDbEllipse
 62
250
  6
CONTINUOUS
 10
105.8879658327
 20
34.0059521938
 30
0.0
 11
-116.7827459087
 21
261.3701807005
 31
0.0
 40
0.4652592493
 41
-4.4531511489
 42
-4.4464954958
  0
ELLIPSE
  5
46B
100
AcDbEntity
  8
CURVE
100
AcDbEllipse
 62
250
  6
CONTINUOUS
 10
105.8879658327
 20
-63.4296527976
 30
0.0
 11
161.4225114076
 21
199.4499182967
 31
0.0
 40
0.244019299
 41
-4.422958463
 42
-4.4179692942
  0
ELLIPSE
  5
46C
100
AcDbEntity
  8
CURVE
100
AcDbEllipse
 62
250
  6
CONTINUOUS
 10
105.8879658327
 20
32.3760582961
 30
0.0
 11
-116.7582008838
 21
261.6459679872
 31
0.0
 40
0.4648589158
 41
-4.4682224503
 42
-4.4649073311
  0
ELLIPSE
  5
46D
100
AcDbEntity
  8
CURVE
100
AcDbEllipse
 62
250
  6
CONTINUOUS
 10
105.8879658327
 20
-60.9728839391
 30
0.0
 11
166.0794561907
 21
149.6226565014
 31
0.0
 40
0.194117322
 41
1.9471175598
 42
1.9506969433
  0
ELLIPSE
  5
46E
100
AcDbEntity
  8
CURVE
100
AcDbEllipse
 62
250
  6
CONTINUOUS
 10
105.8879658327
 20
32.8036529053
 30
0.0
 11
-116.7853363697
 21
261.3411406214
 31
0.0
 40
0.4653014293
 41
-4.4562393461
 42
-4.4526568796
  0
ELLIPSE
  5
46F
100
AcDbEntity
  8
RACCORDO
100
AcDbEllipse
 62
7
  6
CONTINUOUS
 10
450.09532929
 20
46.9038442998
 30
0.0
 11
2185.9913031128
 21
1315.9359580705
 31
0.0
 40
0.0864236397
 41
1.7086891768
 42
1.7120874193
  0
ELLIPSE
  5
470
100
AcDbEntity
  8
RACCORDO
100
AcDbEllipse
 62
7
  6
CONTINUOUS
 10
37.763948019
 20
-87.7057380946
 30
0.0
 11
-0.2258414867
 21
0.4474182535
 31
0.0
 40
0.6118980814
 41
-3.0882487731
 42
-2.2605477526
  0
ENDSEC
  0
SECTION
  2
OBJECTS
  0
DICTIONARY
  5
C
100
AcDbDictionary
280
0
281
1
  3
ACAD_GROUP
350
D
  3
ACAD_MLINESTYLE
350
17
  3
ACAD_LAYOUT
350
1A
  3
ACAD_PLOTSETTINGS
350
19
  3
ACAD_PLOTSTYLENAME
350
E
  0
DICTIONARY
  5
D
102
{ACAD_REACTORS
330
C
102
}
100
AcDbDictionary
280
0
281
1
  0
ACDBDICTIONARYWDFLT
  5
E
102
{ACAD_REACTORS
330
C
102
}
100
AcDbDictionary
281
1
  3
Normal
350
F
100
AcDbDictionaryWithDefault
340
F
  0
DICTIONARY
  5
17
102
{ACAD_REACTORS
330
C
102
}
100
AcDbDictionary
280
0
281
1
  3
Standard
350
18
  0
DICTIONARY
  5
19
102
{ACAD_REACTORS
330
C
102
}
100
AcDbDictionary
281
1
  0
DICTIONARY
  5
1A
102
{ACAD_REACTORS
330
C
102
}
100
AcDbDictionary
281
1
  3
Model
350
471
  3
Layout1
350
472
  0
ACDBPLACEHOLDER
  5
F
102
{ACAD_REACTORS
330
E
102
}
  0
MLINESTYLE
  5
18
102
{ACAD_REACTORS
330
17
102
}
100
AcDbMlineStyle
  2
STANDARD
 70
0
  3

 62
256
 51
90.0
 52
90.0
 71
2
 49
0.5
 62
256
  6
BYLAYER
 49
-0.5
 62
256
  6
BYLAYER
  0
LAYOUT
  5
471
102
{ACAD_REACTORS
330
1A
102
}
100
AcDbPlotSettings
  1

  2
none_device
  4
ISO_A4_(297.00_x_210.00_MM)
  6

 40
0.0
 41
0.0
 42
0.0
 43
0.0
 44
297.0
 45
210.0
 46
0.0
 47
0.0
 48
0.0
 49
0.0
140
0.0
141
0.0
142
1.0
143
1.0
 70
1024
 72
1
 73
0
 74
0
  7

 75
0
147
1.0
148
0.0
149
0.0
100
AcDbLayout
  1
Model
 70
0
 71
0
 10
0.0
 20
0.0
 11
297.0
 21
210.0
 12
0.0
 22
0.0
 32
0.0
 14
0.0
 24
0.0
 34
0.0
 15
0.0
 25
0.0
 35
0.0
146
0.0
 13
0.0
 23
0.0
 33
0.0
 16
1.0
 26
0.0
 36
0.0
 17
0.0
 27
1.0
 37
0.0
 76
0
330
216
345
0
346
0
  0
LAYOUT
  5
472
102
{ACAD_REACTORS
330
1A
102
}
100
AcDbPlotSettings
  1

  2
none_device
  4
ISO_A4_(297.00_x_210.00_MM)
  6

 40
0.0
 41
0.0
 42
0.0
 43
0.0
 44
297.0
 45
210.0
 46
0.0
 47
0.0
 48
0.0
 49
0.0
140
0.0
141
0.0
142
1.0
143
1.0
 70
0
 72
1
 73
0
 74
0
  7

 75
0
147
1.0
148
0.0
149
0.0
100
AcDbLayout
  1
Layout1
 70
0
 71
1
 10
0.0
 20
0.0
 11
297.0
 21
210.0
 12
0.0
 22
0.0
 32
0.0
 14
0.0
 24
0.0
 34
0.0
 15
0.0
 25
0.0
 35
0.0
146
0.0
 13
0.0
 23
0.0
 33
0.0
 16
1.0
 26
0.0
 36
0.0
 17
0.0
 27
1.0
 37
0.0
 76
0
330
217
345
0
346
0
  0
ENDSEC
  0
EOF
