  0
SECTION
  2
HEADER
  9
$ACADVER
  1
AC1024
  9
$DWGCODEPAGE
  3
ANSI_1252
  9
$EXTMAX
 10
420.0
 20
297.0
 30
0.0
  9
$EXTMIN
 10
0.0
 20
0.0
 30
0.0
  9
$LIMMIN
 10
0.0
 20
0.0
  9
$LIMMAX
 10
420.0
 20
297.0
  9
$VIEWCTR
 10
210.0
 20
148.5
  9
$VIEWSIZE
 40
297.0
  9
$CLAYER
  8
0
  9
$LTSCALE
 40
23.1
  9
$CELTYPE
  6
BYLAYER
  9
$DIMSCALE
 40
1.0
  9
$DIMASZ
 40
3.0
  9
$DIMEXO
 40
0.5
  9
$DIMDLI
 40
15.96
  9
$DIMEXE
 40
1.5
  9
$DIMCEN
 40
3.78
  9
$DIMLFAC
 40
1.0
  9
$DIMBLK
  1
_FILLED
  9
$DIMALT
 70
0
  9
$DIMALTF
 40
0.0393700787
  9
$DIMTXT
 40
3.0
  9
$DIMTOL
 70
1
  9
$DIMLIM
 70
0
  9
$DIMTFAC
 40
1.0
  9
$DIMTP
 40
0.01
  9
$DIMTM
 40
0.01
  9
$DIMGAP
 40
0.625
  9
$DIMDSEP
 70
44
  9
$AUNITS
 70
0
  9
$PDMODE
 70
3
  9
$PDSIZE
 40
3.0
  9
$HANDSEED
  5
2DB
  9
$TILEMODE
 70
1
  9
$MEASUREMENT
 70
1
  9
$INSUNITS
 70
4
  0
ENDSEC
  0
SECTION
  2
CLASSES
  0
CLASS
  1
ACDBDICTIONARYWDFLT
  2
AcDbDictionaryWithDefault
  3
AutoCAD 2000
 90
0
 91
1
280
0
281
0
  0
CLASS
  1
ACDBPLACEHOLDER
  2
AcDbPlaceHolder
  3
AutoCAD 2000
 90
0
 91
1
280
0
281
0
  0
CLASS
  1
LAYOUT
  2
AcDbLayout
  3
AutoCAD 2000
 90
0
 91
0
280
0
281
0
  0
ENDSEC
  0
SECTION
  2
TABLES
  0
TABLE
  2
VPORT
  5
8
100
AcDbSymbolTable
 70
2
  0
VPORT
  5
1F4
100
AcDbSymbolTableRecord
100
AcDbViewportTableRecord
  2
*ACTIVE
 70
0
 10
0.0
 20
0.0
 11
1.0
 21
1.0
 12
210.0
 22
148.5
 13
0.0
 23
0.0
 14
1.0
 24
1.0
 15
0.0
 25
0.0
 16
0.0
 26
0.0
 36
1.0
 17
0.0
 27
0.0
 37
0.0
 40
297.0
 41
1.4141414141
 42
50.0
 43
0.0
 44
0.0
 50
0.0
 51
0.0
 71
0
 72
100
 73
1
 74
1
 75
0
 76
0
 77
0
 78
0
  0
ENDTAB
  0
TABLE
  2
LTYPE
  5
5
100
AcDbSymbolTable
 70
6
  0
LTYPE
  5
14
100
AcDbSymbolTableRecord
100
AcDbLinetypeTableRecord
  2
BYBLOCK
 70
0
  3

 72
65
 73
0
 40
0.0
  0
LTYPE
  5
15
100
AcDbSymbolTableRecord
100
AcDbLinetypeTableRecord
  2
BYLAYER
 70
0
  3

 72
65
 73
0
 40
0.0
  0
LTYPE
  5
16
100
AcDbSymbolTableRecord
100
AcDbLinetypeTableRecord
  2
CONTINUOUS
 70
64
  3
Solid line
 72
65
 73
0
 40
0.0
  0
LTYPE
  5
1F5
100
AcDbSymbolTableRecord
100
AcDbLinetypeTableRecord
  2
CENTER
 70
64
  3
____ _ ____ _ ____ _ ____ _ ____ _ ____ _ ____
 72
65
 73
4
 40
0.6
 49
0.375
 74
0
 49
-0.075
 74
0
 49
0.075
 74
0
 49
-0.075
 74
0
  0
LTYPE
  5
1F6
100
AcDbSymbolTableRecord
100
AcDbLinetypeTableRecord
  2
HIDDEN
 70
64
  3
- - - - - - - - - - - - - - - - - - - -
 72
65
 73
2
 40
0.2
 49
0.1
 74
0
 49
-0.1
 74
0
  0
LTYPE
  5
1F7
100
AcDbSymbolTableRecord
100
AcDbLinetypeTableRecord
  2
PHANTOM
 70
64
  3
_____ _ _ _____ _ _ _____ _ _ _____
 72
65
 73
6
 40
0.8
 49
0.45
 74
0
 49
-0.05
 74
0
 49
0.1
 74
0
 49
-0.05
 74
0
 49
0.1
 74
0
 49
-0.05
 74
0
  0
LTYPE
  5
1F8
100
AcDbSymbolTableRecord
100
AcDbLinetypeTableRecord
  2
DOT
 70
64
  3
. . . . . . . . . . . . . . . . . . . .
 72
65
 73
2
 40
0.2
 49
0.1
 74
0
 49
-0.1
 74
0
  0
LTYPE
  5
1F9
100
AcDbSymbolTableRecord
100
AcDbLinetypeTableRecord
  2
DASHED
 70
64
  3
- - - - - - - - - - - - - - - - - - - -
 72
65
 73
2
 40
0.2
 49
0.1
 74
0
 49
-0.1
 74
0
  0
ENDTAB
  0
TABLE
  2
LAYER
  5
2
100
AcDbSymbolTable
 70
36
  0
LAYER
  5
10
100
AcDbSymbolTableRecord
100
AcDbLayerTableRecord
  2
0
 70
0
 62
7
  6
CONTINUOUS
370
-3
390
F
  0
LAYER
  5
1FA
100
AcDbSymbolTableRecord
100
AcDbLayerTableRecord
  2
DEFAULT_1
 70
0
 62
7
  6
CENTER
370
-3
390
F
  0
LAYER
  5
1FB
100
AcDbSymbolTableRecord
100
AcDbLayerTableRecord
  2
DEFAULT_2
 70
0
 62
7
  6
HIDDEN
370
-3
390
F
  0
LAYER
  5
1FC
100
AcDbSymbolTableRecord
100
AcDbLayerTableRecord
  2
DEFAULT_3
 70
0
 62
7
  6
PHANTOM
370
-3
390
F
  0
LAYER
  5
1FD
100
AcDbSymbolTableRecord
100
AcDbLayerTableRecord
  2
ASSI
 70
0
 62
7
  6
CONTINUOUS
370
-3
390
F
  0
LAYER
  5
1FE
100
AcDbSymbolTableRecord
100
AcDbLayerTableRecord
  2
COORDINATE
 70
0
 62
7
  6
CONTINUOUS
370
-3
390
F
  0
LAYER
  5
1FF
100
AcDbSymbolTableRecord
100
AcDbLayerTableRecord
  2
COPY_PUBLISH
 70
0
 62
7
  6
CONTINUOUS
370
-3
390
F
  0
LAYER
  5
200
100
AcDbSymbolTableRecord
100
AcDbLayerTableRecord
  2
COSMETICI
 70
0
 62
7
  6
CONTINUOUS
370
-3
390
F
  0
LAYER
  5
201
100
AcDbSymbolTableRecord
100
AcDbLayerTableRecord
  2
CURVE
 70
0
 62
7
  6
CONTINUOUS
370
-3
390
F
  0
LAYER
  5
202
100
AcDbSymbolTableRecord
100
AcDbLayerTableRecord
  2
DRAFT
 70
0
 62
7
  6
CONTINUOUS
370
-3
390
F
  0
LAYER
  5
203
100
AcDbSymbolTableRecord
100
AcDbLayerTableRecord
  2
IMPORT_IGES
 70
0
 62
7
  6
CONTINUOUS
370
-3
390
F
  0
LAYER
  5
204
100
AcDbSymbolTableRecord
100
AcDbLayerTableRecord
  2
NOTE
 70
0
 62
7
  6
CONTINUOUS
370
-3
390
F
  0
LAYER
  5
205
100
AcDbSymbolTableRecord
100
AcDbLayerTableRecord
  2
PIANI
 70
0
 62
7
  6
CONTINUOUS
370
-3
390
F
  0
LAYER
  5
206
100
AcDbSymbolTableRecord
100
AcDbLayerTableRecord
  2
PUNTI
 70
0
 62
7
  6
CONTINUOUS
370
-3
390
F
  0
LAYER
  5
207
100
AcDbSymbolTableRecord
100
AcDbLayerTableRecord
  2
RACCORDO
 70
0
 62
7
  6
CONTINUOUS
370
-3
390
F
  0
LAYER
  5
208
100
AcDbSymbolTableRecord
100
AcDbLayerTableRecord
  2
SIMBOLI
 70
0
 62
7
  6
CONTINUOUS
370
-3
390
F
  0
LAYER
  5
209
100
AcDbSymbolTableRecord
100
AcDbLayerTableRecord
  2
SMUSSO
 70
0
 62
7
  6
CONTINUOUS
370
-3
390
F
  0
LAYER
  5
20A
100
AcDbSymbolTableRecord
100
AcDbLayerTableRecord
  2
SUPERFICI
 70
0
 62
7
  6
CONTINUOUS
370
-3
390
F
  0
LAYER
  5
20B
100
AcDbSymbolTableRecord
100
AcDbLayerTableRecord
  2
TRASH
 70
0
 62
7
  6
CONTINUOUS
370
-3
390
F
  0
ENDTAB
  0
TABLE
  2
STYLE
  5
3
100
AcDbSymbolTable
 70
1
  0
STYLE
  5
11
100
AcDbSymbolTableRecord
100
AcDbTextStyleTableRecord
  2
STANDARD
 70
0
 40
0.0
 41
0.8
 50
0.0
 71
0
 42
0.2
  3
txt
  4

  0
STYLE
  5
20C
100
AcDbSymbolTableRecord
100
AcDbTextStyleTableRecord
  2
TEXTSTYLE_1
 70
0
 40
0.0
 41
0.8
 50
0.0
 71
0
 42
0.2
  3
gdt
  4

  0
ENDTAB
  0
TABLE
  2
VIEW
  5
6
100
AcDbSymbolTable
 70
0
  0
ENDTAB
  0
TABLE
  2
UCS
  5
7
100
AcDbSymbolTable
 70
0
  0
ENDTAB
  0
TABLE
  2
APPID
  5
9
100
AcDbSymbolTable
 70
1
  0
APPID
  5
20D
100
AcDbSymbolTableRecord
100
AcDbRegAppTableRecord
  2
ACAD
 70
0
  0
ENDTAB
  0
TABLE
  2
BLOCK_RECORD
  5
1
100
AcDbSymbolTable
 70
0
  0
BLOCK_RECORD
  5
20E
100
AcDbSymbolTableRecord
100
AcDbBlockTableRecord
  2
*Model_Space
  0
BLOCK_RECORD
  5
20F
100
AcDbSymbolTableRecord
100
AcDbBlockTableRecord
  2
*Paper_Space
  0
BLOCK_RECORD
  5
210
100
AcDbSymbolTableRecord
100
AcDbBlockTableRecord
  2
_FILLED
  0
ENDTAB
  0
TABLE
  2
DIMSTYLE
  5
A
100
AcDbSymbolTable
 70
1
100
AcDbDimStyleTable
 71
0
  0
DIMSTYLE
105
211
100
AcDbSymbolTableRecord
100
AcDbDimStyleTableRecord
  2
STANDARD
 70
0
  3

  4

 40
1.0
 41
3.0
 42
0.5
 43
0.38
 44
1.5
 45
0.0
 46
0.0
 47
0.01
 48
0.01
140
3.0
141
0.09
142
0.0
143
25.4
144
1.0
145
0.0
146
1.0
147
0.625
 71
1
 72
0
 73
0
 74
0
 75
0
 76
0
 77
1
 78
8
 79
2
170
0
171
1
172
0
173
0
174
0
175
0
176
0
177
0
178
0
270
2
179
2
271
2
272
2
273
2
274
2
275
0
280
0
281
0
282
0
283
1
284
8
285
0
286
0
287
3
288
0
340
11
278
44
341
210
342
210
343
210
344
210
  0
ENDTAB
  0
ENDSEC
  0
SECTION
  2
BLOCKS
  0
BLOCK
  5
20
100
AcDbEntity
  8
0
100
AcDbBlockBegin
  2
*Model_Space
 70
0
 10
0.0
 20
0.0
 30
0.0
  3
*Model_Space
  1

  0
ENDBLK
  5
21
100
AcDbEntity
  8
0
100
AcDbBlockEnd
  0
BLOCK
  5
1C
100
AcDbEntity
  8
0
100
AcDbBlockBegin
  2
*Paper_Space
 70
0
 10
0.0
 20
0.0
 30
0.0
  3
*Paper_Space
  1

  0
ENDBLK
  5
1D
100
AcDbEntity
  8
0
100
AcDbBlockEnd
  0
BLOCK
  5
212
100
AcDbEntity
  8
0
100
AcDbBlockBegin
  2
_FILLED
 70
64
 10
0.0
 20
0.0
  3
_FILLED
  1

  0
SOLID
  5
213
100
AcDbEntity
  8
0
  6
BYBLOCK
 62
0
100
AcDbTrace
 10
0.0
 20
0.0
 11
-1.0
 21
0.3166666667
 12
-1.0
 22
-0.3166666667
 13
-1.0
 23
-0.3166666667
  0
ENDBLK
  5
214
100
AcDbEntity
  8
0
  6
BYBLOCK
 62
0
100
AcDbBlockEnd
  0
ENDSEC
  0
SECTION
  2
ENTITIES
  0
LINE
  5
215
100
AcDbEntity
  8
0
100
AcDbLine
 62
7
  6
CONTINUOUS
 10
-50.808248647
 20
87.9798562544
 11
-24.8648927394
 21
102.9592248088
  0
LINE
  5
216
100
AcDbEntity
  8
0
100
AcDbLine
 62
250
  6
CONTINUOUS
 10
-24.8648927394
 20
102.9592248088
 11
-24.7854540974
 21
103.0035000849
  0
LWPOLYLINE
  5
217
100
AcDbEntity
  8
ASSI
100
AcDbPolyline
 62
7
  6
CONTINUOUS
 90
24
 70
0
 10
-50.8082364328
 20
87.979876092
 10
-50.790128907
 20
87.989853154
 10
-50.7187189742
 20
88.02096
 10
-50.6406286318
 20
88.0426964637
 10
-50.5558553846
 20
88.0550177229
 10
-50.4648192649
 20
88.0577423938
 10
-50.3676231598
 20
88.0514331272
 10
-50.2647418075
 20
88.0363993045
 10
-50.1563994593
 20
88.0127719247
 10
-50.0424474655
 20
87.9811505199
 10
-49.9233250591
 20
87.9418964658
 10
-49.7992554102
 20
87.8951980424
 10
-49.6697329198
 20
87.8413459207
 10
-49.5349622077
 20
87.7805213709
 10
-49.3952804943
 20
87.7129212256
 10
-49.2503242019
 20
87.6387111542
 10
-49.1001476686
 20
87.5579722133
 10
-48.9451775405
 20
87.4709070024
 10
-48.7855899719
 20
87.3778246461
 10
-48.6215814262
 20
87.2789465453
 10
-48.4534250131
 20
87.1744283273
 10
-48.2814092047
 20
87.0645147314
 10
-48.1057778418
 20
86.9494345946
 10
-47.9267287133
 20
86.8293898501
  0
LWPOLYLINE
  5
218
100
AcDbEntity
  8
0
100
AcDbPolyline
 62
7
  6
CONTINUOUS
 90
25
 70
0
 10
-24.8648927394
 20
102.9592248088
 10
-24.6692457999
 20
103.0662489324
 10
-24.4678865508
 20
103.1645992182
 10
-24.26111547
 20
103.2539865116
 10
-24.0494576508
 20
103.3340696693
 10
-23.8330456062
 20
103.4046954882
 10
-23.6115684445
 20
103.465807927
 10
-23.3853136722
 20
103.5171302174
 10
-23.1546348999
 20
103.5583947664
 10
-22.9192501286
 20
103.5894331811
 10
-22.6794600621
 20
103.6099522362
 10
-22.4355862994
 20
103.6196783555
 10
-22.1873004802
 20
103.6183425211
 10
-21.9347061774
 20
103.605612345
 10
-21.6782818917
 20
103.5811823747
 10
-21.4181804698
 20
103.544743371
 10
-21.1543245934
 20
103.4959281408
 10
-20.8873291957
 20
103.434491501
 10
-20.61830272
 20
103.3604062965
 10
-20.3472264059
 20
103.2734186133
 10
-20.0745878613
 20
103.1734265222
 10
-19.8021678352
 20
103.0609383329
 10
-19.5306654248
 20
102.9362273313
 10
-19.2597498528
 20
102.7991092721
 10
-18.9896088578
 20
102.6495924483
  0
LWPOLYLINE
  5
219
100
AcDbEntity
  8
0
100
AcDbPolyline
 62
7
  6
CONTINUOUS
 90
11
 70
0
 10
-20.3646752982
 20
102.5133542097
 10
-20.2624451656
 20
102.5692335009
 10
-20.1610472838
 20
102.6185649384
 10
-20.0604816528
 20
102.6613485222
 10
-19.9604776866
 20
102.6976654762
 10
-19.8613059712
 20
102.7274345765
 10
-19.7637782646
 20
102.7504121518
 10
-19.6679080604
 20
102.7665424588
 10
-19.573681865
 20
102.7758812408
 10
-19.4818709555
 20
102.7783520563
 10
-19.392495156
 20
102.7738985346
  0
LWPOLYLINE
  5
21A
100
AcDbEntity
  8
ASSI
100
AcDbPolyline
 62
7
  6
CONTINUOUS
 90
22
 70
0
 10
-49.8081918439
 20
86.2478481888
 10
-49.7995867402
 20
86.2524448914
 10
-49.7648194238
 20
86.2646446065
 10
-49.7245969187
 20
86.2697059713
 10
-49.6789292024
 20
86.2675872429
 10
-49.6281310485
 20
86.2581542264
 10
-49.571912137
 20
86.2420583706
 10
-49.5105688665
 20
86.2195823636
 10
-49.4443484967
 20
86.1907860356
 10
-49.3729835945
 20
86.1562233463
 10
-49.296776025
 20
86.1161983228
 10
-49.2159391254
 20
86.0708344482
 10
-49.1300471154
 20
86.020376586
 10
-49.039258022
 20
85.9649663719
 10
-48.9438352494
 20
85.9047562502
 10
-48.8434668436
 20
85.8398919181
 10
-48.7381987615
 20
85.7704342868
 10
-48.6283591449
 20
85.6965430666
 10
-48.5140447502
 20
85.6184819289
 10
-48.3953963291
 20
85.5364300339
 10
-48.2726383533
 20
85.4505014657
 10
-48.1459910962
 20
85.3608889408
  0
LWPOLYLINE
  5
21B
100
AcDbEntity
  8
0
100
AcDbPolyline
 62
250
  6
CONTINUOUS
 90
23
 70
0
 10
-24.7854540974
 20
103.0035000849
 10
-24.6229964015
 20
103.0846239065
 10
-24.4553505972
 20
103.1560990346
 10
-24.2827209352
 20
103.2178383878
 10
-24.1053177382
 20
103.2697667461
 10
-23.9233571445
 20
103.3118208429
 10
-23.7370608452
 20
103.3439494417
 10
-23.5466558135
 20
103.3661133988
 10
-23.3523740288
 20
103.3782857108
 10
-23.1544521933
 20
103.3804515476
 10
-22.9531314445
 20
103.3726082705
 10
-22.7486570605
 20
103.3547654352
 10
-22.541278162
 20
103.3269447807
 10
-22.3312474082
 20
103.2891802019
 10
-22.1188206892
 20
103.2415177093
 10
-21.9042568142
 20
103.1840153723
 10
-21.6878171964
 20
103.1167432486
 10
-21.4697655339
 20
103.0397832989
 10
-21.2503674892
 20
102.953229287
 10
-21.029890365
 20
102.8571866658
 10
-20.8086027787
 20
102.7517724483
 10
-20.5867743352
 20
102.6371150654
 10
-20.3646752982
 20
102.5133542097
  0
LINE
  5
21C
100
AcDbEntity
  8
ASSI
100
AcDbLine
 62
250
  6
CONTINUOUS
 10
-47.7444740168
 20
86.7046015791
 11
-20.3646752982
 21
102.5133542097
  0
LINE
  5
21D
100
AcDbEntity
  8
ASSI
100
AcDbLine
 62
250
  6
CONTINUOUS
 10
-49.8863834127
 20
83.8355017537
 11
-47.7447132073
 21
85.0720752889
  0
LINE
  5
21E
100
AcDbEntity
  8
RACCORDO
100
AcDbLine
 62
250
  6
CONTINUOUS
 10
-14.2560680453
 20
99.9165053084
 11
-13.0461201129
 21
100.6151140803
  0
LWPOLYLINE
  5
21F
100
AcDbEntity
  8
0
100
AcDbPolyline
 62
7
  6
CONTINUOUS
 90
21
 70
0
 10
39.5373774878
 20
-103.3871329094
 10
39.5884129587
 20
-103.4153985101
 10
39.6930054995
 20
-103.466440109
 10
39.8014151694
 20
-103.5103027076
 10
39.9136235039
 20
-103.5470210324
 10
40.0290859687
 20
-103.5764168934
 10
40.1478183812
 20
-103.5984546981
 10
40.2698049239
 20
-103.613170039
 10
40.3944536099
 20
-103.6204915044
 10
40.5217773791
 20
-103.6203831543
 10
40.6517632916
 20
-103.6128809286
 10
40.7837805402
 20
-103.5980212348
 10
40.9178389988
 20
-103.57576831
 10
41.0539287937
 20
-103.5461579171
 10
41.1913894962
 20
-103.5093337519
 10
41.3302277701
 20
-103.4652607501
 10
41.4704369517
 20
-103.4139739761
 10
41.6113366216
 20
-103.3557223188
 10
41.7526999733
 20
-103.2905887412
 10
41.8947538133
 20
-103.2184902803
 10
42.0374981415
 20
-103.1394269362
  0
LWPOLYLINE
  5
220
100
AcDbEntity
  8
0
100
AcDbPolyline
 62
7
  6
CONTINUOUS
 90
21
 70
0
 10
-35.4159413179
 20
-60.1100260167
 10
-35.3649058471
 20
-60.1382916174
 10
-35.2603133062
 20
-60.1893332163
 10
-35.1519036364
 20
-60.2331958148
 10
-35.0396953018
 20
-60.2699141396
 10
-34.9242328371
 20
-60.2993100007
 10
-34.8055004246
 20
-60.3213478053
 10
-34.6835138818
 20
-60.3360631463
 10
-34.5588651959
 20
-60.3433846116
 10
-34.4315414267
 20
-60.3432762616
 10
-34.3015555142
 20
-60.3357740359
 10
-34.1695382656
 20
-60.3209143421
 10
-34.0354798069
 20
-60.2986614173
 10
-33.8993900121
 20
-60.2690510243
 10
-33.7619293095
 20
-60.2322268592
 10
-33.6230910357
 20
-60.1881538574
 10
-33.4828818541
 20
-60.1368670834
 10
-33.3419821842
 20
-60.0786154261
 10
-33.2006188325
 20
-60.0134818485
 10
-33.0585649925
 20
-59.9413833876
 10
-32.9158206642
 20
-59.8623200434
  0
LINE
  5
221
100
AcDbEntity
  8
0
100
AcDbLine
 62
7
  6
CONTINUOUS
 10
-35.4159414649
 20
-60.1100259318
 11
-36.8301550273
 21
-59.2934767452
  0
LINE
  5
222
100
AcDbEntity
  8
0
100
AcDbLine
 62
7
  6
CONTINUOUS
 10
38.1231637785
 20
-102.5705836379
 11
39.5373773408
 21
-103.3871328246
  0
LWPOLYLINE
  5
223
100
AcDbEntity
  8
0
100
AcDbPolyline
 62
7
  6
CONTINUOUS
 90
21
 70
0
 10
-36.8301548803
 20
-59.2934768301
 10
-36.8799132856
 20
-59.263556558
 10
-36.9764193557
 20
-59.198508781
 10
-37.0686167779
 20
-59.1265657457
 10
-37.1565263939
 20
-59.047760806
 10
-37.2397215885
 20
-58.9624763936
 10
-37.3181794459
 20
-58.8706810134
 10
-37.3919228818
 20
-58.7724061603
 10
-37.4605940275
 20
-58.6681287513
 10
-37.524168228
 20
-58.5578196094
 10
-37.5826701383
 20
-58.4415079116
 10
-37.6358158552
 20
-58.3197581054
 10
-37.6835793437
 20
-58.1925437576
 10
-37.7259866389
 20
-58.0598913014
 10
-37.7628319428
 20
-57.9224444844
 10
-37.7940882201
 20
-57.7801800023
 10
-37.8197825062
 20
-57.6331211594
 10
-37.8397901097
 20
-57.4819816156
 10
-37.8540694667
 20
-57.3269992577
 10
-37.8626621409
 20
-57.167936199
 10
-37.8655681325
 20
-57.0047924395
  0
LWPOLYLINE
  5
224
100
AcDbEntity
  8
ASSI
100
AcDbPolyline
 62
7
  6
CONTINUOUS
 90
3
 70
0
 10
14.2187153908
 20
-60.3986240498
 10
14.2902140563
 20
-60.380531454
 10
14.3592410617
 20
-60.3568257982
  0
LINE
  5
225
100
AcDbEntity
  8
0
100
AcDbLine
 62
250
  6
CONTINUOUS
 10
-36.4513545702
 20
-57.8213416261
 11
-37.8655681325
 21
-57.0047924395
  0
LINE
  5
226
100
AcDbEntity
  8
0
100
AcDbLine
 62
250
  6
CONTINUOUS
 10
37.0877506732
 20
-100.2818993322
 11
38.5019642356
 21
-101.0984485189
  0
LINE
  5
227
100
AcDbEntity
  8
RACCORDO
100
AcDbLine
 62
7
  6
CONTINUOUS
 10
-23.5113004745
 20
-57.5351548615
 11
37.0877506732
 21
-92.5242875097
  0
LWPOLYLINE
  5
228
100
AcDbEntity
  8
0
100
AcDbPolyline
 62
7
  6
CONTINUOUS
 90
21
 70
0
 10
38.1231639255
 20
-102.5705837228
 10
38.0734055202
 20
-102.5406634507
 10
37.9768994501
 20
-102.4756156737
 10
37.8847020279
 20
-102.4036726384
 10
37.7967924118
 20
-102.3248676988
 10
37.7135972173
 20
-102.2395832864
 10
37.6351393599
 20
-102.1477879061
 10
37.561395924
 20
-102.049513053
 10
37.4927247783
 20
-101.945235644
 10
37.4291505778
 20
-101.8349265021
 10
37.3706486675
 20
-101.7186148043
 10
37.3175029506
 20
-101.5968649981
 10
37.2697394621
 20
-101.4696506503
 10
37.2273321669
 20
-101.3369981942
 10
37.190486863
 20
-101.1995513771
 10
37.1592305857
 20
-101.0572868951
 10
37.1335362995
 20
-100.9102280521
 10
37.1135286961
 20
-100.7590885083
 10
37.0992493391
 20
-100.6041061504
 10
37.0906566648
 20
-100.4450430917
 10
37.0877506732
 20
-100.2818993322
  0
LINE
  5
229
100
AcDbEntity
  8
RACCORDO
100
AcDbLine
 62
250
  6
CONTINUOUS
 10
-14.1774909628
 20
59.6482208101
 11
-12.7632774004
 21
60.4647699968
  0
LWPOLYLINE
  5
22A
100
AcDbEntity
  8
RACCORDO
100
AcDbPolyline
 62
7
  6
CONTINUOUS
 90
21
 70
0
 10
-13.1420777106
 20
61.9369052007
 10
-13.0910422397
 20
61.9651708014
 10
-12.9864496989
 20
62.0162124003
 10
-12.878040029
 20
62.0600749989
 10
-12.7658316945
 20
62.0967933236
 10
-12.6503692297
 20
62.1261891847
 10
-12.5316368172
 20
62.1482269893
 10
-12.4096502745
 20
62.1629423303
 10
-12.2850015885
 20
62.1702637956
 10
-12.1576778193
 20
62.1701554456
 10
-12.0276919068
 20
62.1626532199
 10
-11.8956746582
 20
62.1477935261
 10
-11.7616161996
 20
62.1255406013
 10
-11.6255264047
 20
62.0959302084
 10
-11.4880657022
 20
62.0591060432
 10
-11.3492274283
 20
62.0150330414
 10
-11.2090182467
 20
61.9637462674
 10
-11.0681185768
 20
61.9054946101
 10
-10.9267552251
 20
61.8403610325
 10
-10.7847013851
 20
61.7682625716
 10
-10.6419570569
 20
61.6891992275
  0
LWPOLYLINE
  5
22B
100
AcDbEntity
  8
ASSI
100
AcDbPolyline
 62
7
  6
CONTINUOUS
 90
3
 70
0
 10
14.2187153908
 20
-54.7241556261
 10
14.2902140563
 20
-54.7060630303
 10
14.3592410617
 20
-54.6823573745
  0
LINE
  5
22C
100
AcDbEntity
  8
ASSI
100
AcDbLine
 62
7
  6
CONTINUOUS
 10
-49.9062563515
 20
84.9777324483
 11
-49.9232742722
 21
85.4380187538
  0
LWPOLYLINE
  5
22D
100
AcDbEntity
  8
ASSI
100
AcDbPolyline
 62
7
  6
CONTINUOUS
 90
14
 70
0
 10
-49.9232742722
 20
85.4380187538
 10
-49.9265644779
 20
85.5397893526
 10
-49.9290990965
 20
85.6357097722
 10
-49.9302311254
 20
85.725863364
 10
-49.9299323015
 20
85.8099517632
 10
-49.9279725471
 20
85.8875310832
 10
-49.923443355
 20
85.9584899417
 10
-49.9163873943
 20
86.0224572037
 10
-49.9066660349
 20
86.0791512188
 10
-49.8932107192
 20
86.1287151856
 10
-49.876097185
 20
86.1708562757
 10
-49.8553217064
 20
86.2053600911
 10
-49.8297966498
 20
86.2326147478
 10
-49.8081918439
 20
86.2478481888
  0
LWPOLYLINE
  5
22E
100
AcDbEntity
  8
ASSI
100
AcDbPolyline
 62
7
  6
CONTINUOUS
 90
3
 70
0
 10
-49.8947102322
 20
84.581628027
 10
-49.8981380889
 20
84.7184472801
 10
-49.9062563515
 20
84.9777324483
  0
LWPOLYLINE
  5
22F
100
AcDbEntity
  8
ASSI
100
AcDbPolyline
 62
7
  6
CONTINUOUS
 90
4
 70
0
 10
-49.8865946951
 20
83.9923416626
 10
-49.8876441292
 20
84.1455725183
 10
-49.8894255163
 20
84.2950006518
 10
-49.8947102322
 20
84.581628027
  0
LINE
  5
230
100
AcDbEntity
  8
ASSI
100
AcDbLine
 62
7
  6
CONTINUOUS
 10
-49.8863834127
 20
28.4404329957
 11
-49.8865946951
 21
83.9923416626
  0
LINE
  5
231
100
AcDbEntity
  8
ASSI
100
AcDbLine
 62
250
  6
CONTINUOUS
 10
-47.7444740168
 20
86.7046015791
 11
-47.7444740168
 21
85.0716610255
  0
LINE
  5
232
100
AcDbEntity
  8
ASSI
100
AcDbLine
 62
7
  6
CONTINUOUS
 10
-51.3005969751
 20
29.2569821824
 11
-51.2996426986
 21
85.0522002388
  0
LINE
  5
233
100
AcDbEntity
  8
ASSI
100
AcDbLine
 62
7
  6
CONTINUOUS
 10
-51.2996426986
 20
85.0522002388
 11
-51.2969961872
 21
85.4359021575
  0
LWPOLYLINE
  5
234
100
AcDbEntity
  8
ASSI
100
AcDbPolyline
 62
7
  6
CONTINUOUS
 90
21
 70
0
 10
-51.2969961872
 20
85.4359021575
 10
-51.2916976428
 20
85.8011311264
 10
-51.287896946
 20
85.9760068665
 10
-51.2831327305
 20
86.1454696796
 10
-51.2771674127
 20
86.3097967368
 10
-51.2698775119
 20
86.4687154673
 10
-51.2610454692
 20
86.621772836
 10
-51.25022954
 20
86.7688975919
 10
-51.2373453334
 20
86.9096271858
 10
-51.2221517738
 20
87.043607598
 10
-51.2039437523
 20
87.17087281
 10
-51.1826251035
 20
87.2910737531
 10
-51.1579598404
 20
87.4036051727
 10
-51.1290861152
 20
87.5081470482
 10
-51.0960278058
 20
87.6042400943
 10
-51.0586376557
 20
87.6915043006
 10
-51.0159409851
 20
87.7698932982
 10
-50.9680319182
 20
87.8390324714
 10
-50.9149089176
 20
87.8986442876
 10
-50.8555825354
 20
87.9489916372
 10
-50.8082364328
 20
87.979876092
  0
LWPOLYLINE
  5
235
100
AcDbEntity
  8
ASSI
100
AcDbPolyline
 62
7
  6
CONTINUOUS
 90
13
 70
0
 10
13.2228968082
 20
-60.1783280708
 10
13.3113747534
 20
-60.226824403
 10
13.399198751
 20
-60.2699334631
 10
13.4863688009
 20
-60.3076552514
 10
13.5730980164
 20
-60.3400566518
 10
13.6591732842
 20
-60.3670707802
 10
13.7439552647
 20
-60.3884969844
 10
13.8274343281
 20
-60.404293656
 10
13.9096201043
 20
-60.4145024033
 10
13.9899021436
 20
-60.4190473991
 10
14.0682662706
 20
-60.4178864704
 10
14.1447266608
 20
-60.4110617901
 10
14.2187153908
 20
-60.3986240498
  0
LINE
  5
236
100
AcDbEntity
  8
SMUSSO
100
AcDbLine
 62
7
  6
CONTINUOUS
 10
11.8086832458
 20
-62.3828767281
 11
9.3338095117
 21
-60.9539156514
  0
LINE
  5
237
100
AcDbEntity
  8
SMUSSO
100
AcDbLine
 62
7
  6
CONTINUOUS
 10
13.0107647738
 20
-60.3008104488
 11
10.5358910397
 21
-58.8718493722
  0
LINE
  5
238
100
AcDbEntity
  8
ASSI
100
AcDbLine
 62
7
  6
CONTINUOUS
 10
10.748023074
 20
-58.7493669942
 11
13.2228968082
 21
-60.1783280708
  0
LWPOLYLINE
  5
239
100
AcDbEntity
  8
SMUSSO
100
AcDbPolyline
 62
7
  6
CONTINUOUS
 90
58
 70
0
 10
9.3338095117
 20
-60.9539156514
 10
9.2008051025
 20
-60.873646197
 10
9.0685892692
 20
-60.7870657453
 10
8.9371620117
 20
-60.6941742964
 10
8.8062646546
 20
-60.5947618071
 10
8.6761558732
 20
-60.4890383205
 10
8.5476116941
 20
-60.3776339664
 10
8.4206413741
 20
-60.2605146239
 10
8.2952356563
 20
-60.1377144139
 10
8.1721427966
 20
-60.0099658287
 10
8.0513767112
 20
-59.8772392967
 10
7.9329234839
 20
-59.7395643894
 10
7.8174896214
 20
-59.5977623142
 10
7.7050933016
 20
-59.4518085438
 10
7.5957163466
 20
-59.3017276055
 10
7.490010729
 20
-59.1484142886
 10
7.3879984392
 20
-58.9918494027
 10
7.2896574868
 20
-58.8320521383
 10
7.1955738731
 20
-58.6699748566
 10
7.105772985
 20
-58.5056039146
 10
7.0202294356
 20
-58.3389529553
 10
6.9394530654
 20
-58.1710152685
 10
6.8634723103
 20
-58.0017830962
 10
6.7922587343
 20
-57.8312641965
 10
6.7262368707
 20
-57.660475133
 10
6.665437738
 20
-57.4894142856
 10
6.6098303176
 20
-57.3180832744
 10
6.5597460868
 20
-57.1475035238
 10
6.5152180515
 20
-56.9776795473
 10
6.4762132058
 20
-56.8086068314
 10
6.4429640088
 20
-56.6412932599
 10
6.415504845
 20
-56.4757493608
 10
6.3938013298
 20
-56.3119646061
 10
6.3779827693
 20
-56.1509152946
 10
6.3680843135
 20
-55.9926177733
 10
6.3640708122
 20
-55.8370556952
 10
6.3659661215
 20
-55.6851563183
 10
6.373805532
 20
-55.5369415237
 10
6.3875537531
 20
-55.3923894303
 10
6.407128768
 20
-55.2523616528
 10
6.4325653803
 20
-55.1168852115
 10
6.4638287864
 20
-54.985933086
 10
6.5007325589
 20
-54.8602858297
 10
6.543310398
 20
-54.7399751223
 10
6.5915286034
 20
-54.6249692842
 10
6.645099647
 20
-54.5159538303
 10
6.7040555087
 20
-54.4129645585
 10
6.7683642086
 20
-54.3159656711
 10
6.8376422786
 20
-54.2255352893
 10
6.911919369
 20
-54.1417126821
 10
6.9911658296
 20
-54.0644585805
 10
7.0749092417
 20
-53.994233299
 10
7.1631772472
 20
-53.9310774141
 10
7.2559422043
 20
-53.8749503493
 10
7.3526487689
 20
-53.8261906903
 10
7.4531118262
 20
-53.784911299
 10
7.5575164911
 20
-53.7509993136
 10
7.6658627634
 20
-53.7244547339
  0
LWPOLYLINE
  5
23A
100
AcDbEntity
  8
RACCORDO
100
AcDbPolyline
 62
7
  6
CONTINUOUS
 90
22
 70
0
 10
-25.2958687077
 20
-55.3796081727
 10
-25.2393080414
 20
-55.5087290247
 10
-25.178710857
 20
-55.6371851849
 10
-25.1144874212
 20
-55.7641069548
 10
-25.0466131272
 20
-55.8894839225
 10
-24.9751125818
 20
-56.0133264998
 10
-24.9004698716
 20
-56.1347962241
 10
-24.8226636748
 20
-56.2538769938
 10
-24.7417153133
 20
-56.3705849105
 10
-24.6581728391
 20
-56.4841298159
 10
-24.5720186493
 20
-56.5944902466
 10
-24.4832703469
 20
-56.7016876661
 10
-24.3925287926
 20
-56.8049963057
 10
-24.2997804607
 20
-56.9043897774
 10
-24.2050388769
 20
-56.9998944692
 10
-24.1089454787
 20
-57.0908637771
 10
-24.0114910933
 20
-57.1772669253
 10
-23.9126848935
 20
-57.2591346894
 10
-23.8131958361
 20
-57.3359127928
 10
-23.7132469065
 20
-57.4074164765
 10
-23.6126151193
 20
-57.4738304994
 10
-23.5113004745
 20
-57.5351548615
  0
LINE
  5
23B
100
AcDbEntity
  8
0
100
AcDbLine
 62
7
  6
CONTINUOUS
 10
-37.8655681325
 20
-57.0047924395
 11
-37.8655681325
 21
9.7107900981
  0
LWPOLYLINE
  5
23C
100
AcDbEntity
  8
RACCORDO
100
AcDbPolyline
 62
7
  6
CONTINUOUS
 90
14
 70
0
 10
-12.3323731475
 20
62.1674813417
 10
-12.3583032954
 20
62.1281063086
 10
-12.4218774958
 20
62.0177971667
 10
-12.4803794061
 20
61.9014854689
 10
-12.5335251231
 20
61.7797356627
 10
-12.5812886116
 20
61.6525213149
 10
-12.6236959067
 20
61.5198688587
 10
-12.6605412107
 20
61.3824220417
 10
-12.691797488
 20
61.2401575596
 10
-12.7174917741
 20
61.0930987167
 10
-12.7374993776
 20
60.9419591729
 10
-12.7517787345
 20
60.786976815
 10
-12.7603714088
 20
60.6279137563
 10
-12.7632774004
 20
60.4647699968
  0
LINE
  5
23D
100
AcDbEntity
  8
0
100
AcDbLine
 62
7
  6
CONTINUOUS
 10
43.4600525714
 20
65.865316412
 11
43.3678067664
 21
65.8196727896
  0
LWPOLYLINE
  5
23E
100
AcDbEntity
  8
ASSI
100
AcDbPolyline
 62
7
  6
CONTINUOUS
 90
10
 70
0
 10
-22.7249448007
 20
-34.544262043
 10
-22.689835298
 20
-34.5511122323
 10
-22.6382944554
 20
-34.5572104894
 10
-22.5878558623
 20
-34.5591755321
 10
-22.5390286503
 20
-34.556987525
 10
-22.4918291398
 20
-34.5506044055
 10
-22.4462410105
 20
-34.5400682363
 10
-22.4027244328
 20
-34.5254853704
 10
-22.3613003877
 20
-34.5068148222
 10
-22.3412931943
 20
-34.4959542844
  0
LWPOLYLINE
  5
23F
100
AcDbEntity
  8
0
100
AcDbPolyline
 62
7
  6
CONTINUOUS
 90
5
 70
0
 10
-23.5466558135
 20
-34.2453974256
 10
-23.4295194654
 20
-34.295072764
 10
-23.325612731
 20
-34.3160842233
 10
-23.2349356102
 20
-34.3084318036
 10
-23.1701757651
 20
-34.2817026023
  0
LWPOLYLINE
  5
240
100
AcDbEntity
  8
0
100
AcDbPolyline
 62
7
  6
CONTINUOUS
 90
5
 70
0
 10
-23.5466558135
 20
-33.0206920104
 10
-23.6637921616
 20
-32.9710166721
 10
-23.767698896
 20
-32.9500052127
 10
-23.8583760168
 20
-32.9576576324
 10
-23.9231358619
 20
-32.9843868338
  0
LWPOLYLINE
  5
241
100
AcDbEntity
  8
ASSI
100
AcDbPolyline
 62
7
  6
CONTINUOUS
 90
13
 70
0
 10
13.2228968082
 20
-54.5038596471
 10
13.3113747534
 20
-54.5523559793
 10
13.399198751
 20
-54.5954650394
 10
13.4863688009
 20
-54.6331868277
 10
13.5730980164
 20
-54.665588228
 10
13.6591732842
 20
-54.6926023565
 10
13.7439552647
 20
-54.7140285607
 10
13.8274343281
 20
-54.7298252323
 10
13.9096201043
 20
-54.7400339796
 10
13.9899021436
 20
-54.7445789754
 10
14.0682662706
 20
-54.7434180467
 10
14.1447266608
 20
-54.7365933664
 10
14.2187153908
 20
-54.7241556261
  0
LWPOLYLINE
  5
242
100
AcDbEntity
  8
SMUSSO
100
AcDbPolyline
 62
7
  6
CONTINUOUS
 90
19
 70
0
 10
9.846461928
 20
-54.3915071969
 10
9.7558739944
 20
-54.3410614484
 10
9.6625265374
 20
-54.2927001566
 10
9.5661961396
 20
-54.2462528375
 10
9.4664838348
 20
-54.2014950566
 10
9.3633486964
 20
-54.1583944864
 10
9.257118929
 20
-54.1170538435
 10
9.1477941393
 20
-54.0774175522
 10
9.0349895019
 20
-54.03929846
 10
8.9184704715
 20
-54.0025799131
 10
8.798042644
 20
-53.967200221
 10
8.6735503595
 20
-53.9331076556
 10
8.5448163307
 20
-53.9002081905
 10
8.4119929959
 20
-53.8685621677
 10
8.2746236168
 20
-53.8380489226
 10
8.1315839165
 20
-53.808346314
 10
7.9823749594
 20
-53.7794049468
 10
7.8271672121
 20
-53.7514049369
 10
7.6658204529
 20
-53.7244302993
  0
LINE
  5
243
100
AcDbEntity
  8
SMUSSO
100
AcDbLine
 62
7
  6
CONTINUOUS
 10
9.846461928
 20
-54.3915071969
 11
12.3213356622
 21
-55.8204682735
  0
LINE
  5
244
100
AcDbEntity
  8
SMUSSO
100
AcDbLine
 62
7
  6
CONTINUOUS
 10
13.0107647738
 20
-54.6263420251
 11
10.5358910397
 21
-53.1973809485
  0
LINE
  5
245
100
AcDbEntity
  8
ASSI
100
AcDbLine
 62
7
  6
CONTINUOUS
 10
10.748023074
 20
-53.0748985705
 11
13.2228968082
 21
-54.5038596471
  0
LWPOLYLINE
  5
246
100
AcDbEntity
  8
SMUSSO
100
AcDbPolyline
 62
7
  6
CONTINUOUS
 90
49
 70
0
 10
10.5358910397
 20
-58.8718493722
 10
10.4477847568
 20
-58.8184411212
 10
10.3598950289
 20
-58.7600903547
 10
10.2724403557
 20
-58.6969417115
 10
10.1856377718
 20
-58.6291514427
 10
10.0997035567
 20
-58.5568879891
 10
10.0148526512
 20
-58.4803317754
 10
9.9312961685
 20
-58.3996730737
 10
9.8492418064
 20
-58.3151121725
 10
9.7688944914
 20
-58.2268601245
 10
9.6904540645
 20
-58.1351363888
 10
9.6141155259
 20
-58.040168944
 10
9.5400693378
 20
-57.9421947564
 10
9.4684996193
 20
-57.8414575554
 10
9.3995842179
 20
-57.7382077842
 10
9.3334948488
 20
-57.6327028841
 10
9.2703957429
 20
-57.5252052853
 10
9.2104436418
 20
-57.4159822816
 10
9.1537877734
 20
-57.3053060766
 10
9.1005692482
 20
-57.1934528455
 10
9.0509196816
 20
-57.0806997659
 10
9.0049614137
 20
-56.9673248737
 10
8.9628086474
 20
-56.8536097979
 10
8.9245662832
 20
-56.7398374192
 10
8.8903289389
 20
-56.6262888799
 10
8.8601817335
 20
-56.513245655
 10
8.8342000962
 20
-56.4009896461
 10
8.8124489797
 20
-56.2898007724
 10
8.7949825953
 20
-56.1799555229
 10
8.7818445006
 20
-56.0717270407
 10
8.7730675405
 20
-55.9653851894
 10
8.7686735837
 20
-55.8611943929
 10
8.7686736015
 20
-55.7594137339
 10
8.7730675949
 20
-55.6602969745
 10
8.7818445948
 20
-55.564090529
 10
8.7949827348
 20
-55.4710335703
 10
8.8124491717
 20
-55.3813580363
 10
8.8342003502
 20
-55.2952867717
 10
8.8601820604
 20
-55.2130336671
 10
8.8903293497
 20
-55.1348036425
 10
8.9245668016
 20
-55.0607914745
 10
8.9628092887
 20
-54.9911803727
 10
9.0049621479
 20
-54.9261422843
 10
9.0509204335
 20
-54.8658389824
 10
9.1005699609
 20
-54.8104201547
 10
9.1537884417
 20
-54.7600224939
 10
9.2104442825
 20
-54.7147711789
 10
9.2703963578
 20
-54.6747794543
 10
9.2858306393
 20
-54.665645044
  0
LWPOLYLINE
  5
247
100
AcDbEntity
  8
SMUSSO
100
AcDbPolyline
 62
7
  6
CONTINUOUS
 90
49
 70
0
 10
10.5358910397
 20
-53.1973809485
 10
10.4477847568
 20
-53.1439726975
 10
10.3598950289
 20
-53.0856219309
 10
10.2724403557
 20
-53.0224732878
 10
10.1856377718
 20
-52.954683019
 10
10.0997035567
 20
-52.8824195654
 10
10.0148526512
 20
-52.8058633517
 10
9.9312961685
 20
-52.72520465
 10
9.8492418064
 20
-52.6406437488
 10
9.7688944914
 20
-52.5523917008
 10
9.6904540645
 20
-52.4606679651
 10
9.6141155259
 20
-52.3657005203
 10
9.5400693378
 20
-52.2677263327
 10
9.4684996193
 20
-52.1669891317
 10
9.3995842179
 20
-52.0637393604
 10
9.3334948488
 20
-51.9582344604
 10
9.2703957429
 20
-51.8507368616
 10
9.2104436418
 20
-51.7415138579
 10
9.1537877734
 20
-51.6308376529
 10
9.1005692482
 20
-51.5189844218
 10
9.0509196816
 20
-51.4062313422
 10
9.0049614137
 20
-51.29285645
 10
8.9628086474
 20
-51.1791413742
 10
8.9245662832
 20
-51.0653689955
 10
8.8903289389
 20
-50.9518204562
 10
8.8601817335
 20
-50.8387772313
 10
8.8342000962
 20
-50.7265212224
 10
8.8124489797
 20
-50.6153323487
 10
8.7949825953
 20
-50.5054870992
 10
8.7818445006
 20
-50.397258617
 10
8.7730675405
 20
-50.2909167657
 10
8.7686735837
 20
-50.1867259692
 10
8.7686736015
 20
-50.0849453102
 10
8.7730675949
 20
-49.9858285508
 10
8.7818445948
 20
-49.8896221053
 10
8.7949827348
 20
-49.7965651466
 10
8.8124491717
 20
-49.7068896126
 10
8.8342003502
 20
-49.620818348
 10
8.8601820604
 20
-49.5385652434
 10
8.8903293497
 20
-49.4603352188
 10
8.9245668016
 20
-49.3863230508
 10
8.9628092887
 20
-49.316711949
 10
9.0049621479
 20
-49.2516738606
 10
9.0509204335
 20
-49.1913705587
 10
9.1005699609
 20
-49.135951731
 10
9.1537884417
 20
-49.0855540701
 10
9.2104442825
 20
-49.0403027552
 10
9.2703963578
 20
-49.0003110306
 10
9.2858306393
 20
-48.9911766203
  0
LWPOLYLINE
  5
248
100
AcDbEntity
  8
0
100
AcDbPolyline
 62
7
  6
CONTINUOUS
 90
15
 70
0
 10
-23.5466558135
 20
-34.6128090502
 10
-23.7007084158
 20
-34.5053681763
 10
-23.8421297721
 20
-34.3799587474
 10
-23.9709198822
 20
-34.2365807634
 10
-24.0901609843
 20
-34.0698956315
 10
-24.1967708403
 20
-33.8852419445
 10
-24.2815027363
 20
-33.6986354806
 10
-24.3424026119
 20
-33.5099018249
 10
-24.3814245275
 20
-33.3192153923
 10
-24.3951839509
 20
-33.143115206
 10
-24.3814245275
 20
-32.9829040571
 10
-24.3424026119
 20
-32.8372791545
 10
-24.2815027363
 20
-32.7188711485
 10
-24.1967708403
 20
-32.6301109543
 10
-24.146684145
 20
-32.5938305912
  0
LWPOLYLINE
  5
249
100
AcDbEntity
  8
0
100
AcDbPolyline
 62
7
  6
CONTINUOUS
 90
15
 70
0
 10
-23.5466558135
 20
-32.6532803859
 10
-23.3926032112
 20
-32.7607212597
 10
-23.251181855
 20
-32.8861306886
 10
-23.1223917448
 20
-33.0295086726
 10
-23.0031506427
 20
-33.1961938045
 10
-22.8965407867
 20
-33.3808474915
 10
-22.8118088907
 20
-33.5674539554
 10
-22.7509090151
 20
-33.7561876111
 10
-22.7118870995
 20
-33.9468740437
 10
-22.6981276761
 20
-34.12297423
 10
-22.7118870995
 20
-34.283185379
 10
-22.7509090151
 20
-34.4288102816
 10
-22.8118088907
 20
-34.5472182875
 10
-22.8965407867
 20
-34.6359784817
 10
-22.946627482
 20
-34.6722588448
  0
LWPOLYLINE
  5
24A
100
AcDbEntity
  8
0
100
AcDbPolyline
 62
7
  6
CONTINUOUS
 90
21
 70
0
 10
-36.4513545702
 20
-57.8213416261
 10
-36.4484485786
 20
-57.9844853856
 10
-36.4398559043
 20
-58.1435484444
 10
-36.4255765473
 20
-58.2985308023
 10
-36.4055689439
 20
-58.449670346
 10
-36.3798746577
 20
-58.596729189
 10
-36.3486183804
 20
-58.7389936711
 10
-36.3117730765
 20
-58.8764404881
 10
-36.2693657813
 20
-59.0090929442
 10
-36.2216022928
 20
-59.136307292
 10
-36.1684565759
 20
-59.2580570982
 10
-36.1099546656
 20
-59.3743687961
 10
-36.0463804651
 20
-59.4846779379
 10
-35.9777093194
 20
-59.5889553469
 10
-35.9039658835
 20
-59.6872302
 10
-35.8255080261
 20
-59.7790255803
 10
-35.7423128316
 20
-59.8643099927
 10
-35.6544032155
 20
-59.9431149323
 10
-35.5622057933
 20
-60.0150579676
 10
-35.4656997232
 20
-60.0801057447
 10
-35.4159413179
 20
-60.1100260167
  0
LINE
  5
24B
100
AcDbEntity
  8
0
100
AcDbLine
 62
7
  6
CONTINUOUS
 10
-36.4513545702
 20
-57.8213416261
 11
-36.4513545702
 21
8.8942409114
  0
LWPOLYLINE
  5
24C
100
AcDbEntity
  8
0
100
AcDbPolyline
 62
7
  6
CONTINUOUS
 90
13
 70
0
 10
-23.9231358619
 20
20.0861811578
 10
-23.9385489743
 20
20.0738362583
 10
-24.0054923182
 20
20.0060982785
 10
-24.0510296975
 20
19.917969826
 10
-24.072435662
 20
19.8068547452
 10
-24.072435662
 20
19.6753491918
 10
-24.0510296975
 20
19.5395150396
 10
-24.0054923182
 20
19.398801163
 10
-23.9385489743
 20
19.2537586877
 10
-23.8583760168
 20
19.1221028652
 10
-23.767698896
 20
19.0097387793
 10
-23.6637921616
 20
18.9107613462
 10
-23.5466558135
 20
18.8251705659
  0
LWPOLYLINE
  5
24D
100
AcDbEntity
  8
ASSI
100
AcDbPolyline
 62
7
  6
CONTINUOUS
 90
10
 70
0
 10
-23.691358261
 20
20.9128447299
 10
-23.7107035609
 20
20.9009880228
 10
-23.7475872752
 20
20.874453391
 10
-23.7819772061
 20
20.8440627092
 10
-23.813898358
 20
20.8098546406
 10
-23.8430285158
 20
20.7721744842
 10
-23.869339412
 20
20.7309870744
 10
-23.8928593142
 20
20.6863275769
 10
-23.9133508105
 20
20.6386467885
 10
-23.9250041572
 20
20.604732647
  0
LINE
  5
24E
100
AcDbEntity
  8
RACCORDO
100
AcDbLine
 62
250
  6
CONTINUOUS
 10
43.0195812308
 20
66.8462632489
 11
44.2295291632
 21
67.5448720208
  0
LINE
  5
24F
100
AcDbEntity
  8
ASSI
100
AcDbLine
 62
250
  6
CONTINUOUS
 10
43.2749350086
 20
65.7686408102
 11
15.89513629
 21
49.9598881796
  0
LINE
  5
250
100
AcDbEntity
  8
0
100
AcDbLine
 62
7
  6
CONTINUOUS
 10
-24.1466848057
 20
20.4767370189
 11
-23.3077066546
 21
20.9611524885
  0
LWPOLYLINE
  5
251
100
AcDbEntity
  8
0
100
AcDbPolyline
 62
7
  6
CONTINUOUS
 90
11
 70
0
 10
43.2749350086
 20
65.7686408102
 10
43.3771651412
 20
65.8245201014
 10
43.478563023
 20
65.8738515389
 10
43.579128654
 20
65.9166351227
 10
43.6791326202
 20
65.9529520767
 10
43.7783043356
 20
65.982721177
 10
43.8758320422
 20
66.0056987523
 10
43.9717022464
 20
66.0218290593
 10
44.0659284418
 20
66.0311678413
 10
44.1577393513
 20
66.0336386568
 10
44.2471151508
 20
66.0291851351
  0
LWPOLYLINE
  5
252
100
AcDbEntity
  8
RACCORDO
100
AcDbPolyline
 62
7
  6
CONTINUOUS
 90
14
 70
0
 10
33.1986633767
 20
-57.8035141672
 10
33.341407705
 20
-57.8825775114
 10
33.483461545
 20
-57.9546759722
 10
33.6248248967
 20
-58.0198095498
 10
33.7657245665
 20
-58.0780612071
 10
33.9059337481
 20
-58.1293479811
 10
34.044772022
 20
-58.1734209829
 10
34.1822327246
 20
-58.2102451481
 10
34.3183225194
 20
-58.239855541
 10
34.4523809781
 20
-58.2621084658
 10
34.5843982267
 20
-58.2769681597
 10
34.7143841391
 20
-58.2844703853
 10
34.8417079083
 20
-58.2845787354
 10
34.8890794674
 20
-58.2817962814
  0
LINE
  5
253
100
AcDbEntity
  8
SMUSSO
100
AcDbLine
 62
7
  6
CONTINUOUS
 10
9.3338095117
 20
-48.4210969026
 11
11.8086832458
 21
-49.8500579793
  0
LINE
  5
254
100
AcDbEntity
  8
RACCORDO
100
AcDbLine
 62
7
  6
CONTINUOUS
 10
31.7844498143
 20
-58.6200633538
 11
-10.6419570569
 21
-34.1235877542
  0
LINE
  5
255
100
AcDbEntity
  8
RACCORDO
100
AcDbLine
 62
7
  6
CONTINUOUS
 10
33.1986633767
 20
-57.8035141672
 11
-9.2277434945
 21
-33.3070385675
  0
LWPOLYLINE
  5
256
100
AcDbEntity
  8
RACCORDO
100
AcDbPolyline
 62
7
  6
CONTINUOUS
 90
40
 70
0
 10
-10.6419570569
 20
-34.1235877542
 10
-10.7847013851
 20
-34.0378135261
 10
-10.9267552251
 20
-33.9458717732
 10
-11.0681185768
 20
-33.8477624957
 10
-11.2090182467
 20
-33.743306746
 10
-11.3492274283
 20
-33.6326834716
 10
-11.4880657022
 20
-33.5164295148
 10
-11.6255264047
 20
-33.3945175062
 10
-11.7616161996
 20
-33.2669748153
 10
-11.8956746582
 20
-33.1344203923
 10
-12.0276919068
 20
-32.9968298766
 10
-12.1576778193
 20
-32.8542276287
 10
-12.2850015885
 20
-32.7073056816
 10
-12.4096502745
 20
-32.5560430381
 10
-12.5316368172
 20
-32.4004606953
 10
-12.6503692297
 20
-32.2413136769
 10
-12.7658316945
 20
-32.0785846557
 10
-12.878040029
 20
-31.9122909588
 10
-12.9864496989
 20
-31.7432395908
 10
-13.0910422397
 20
-31.5714171475
 10
-13.1918361158
 20
-31.3968370331
 10
-13.288342186
 20
-31.2203464653
 10
-13.3805396081
 20
-31.0419361579
 10
-13.4684492242
 20
-30.8616153971
 10
-13.5516444188
 20
-30.6802592594
 10
-13.6301022762
 20
-30.497862712
 10
-13.703845712
 20
-30.3144307876
 10
-13.7725168578
 20
-30.1308536609
 10
-13.8360910582
 20
-29.9471306258
 10
-13.8945929685
 20
-29.7632623884
 10
-13.9477386855
 20
-29.5801412404
 10
-13.995502174
 20
-29.3977708133
 10
-14.0379094691
 20
-29.2161474757
 10
-14.0747547731
 20
-29.0361526253
 10
-14.1060110504
 20
-28.8577941776
 10
-14.1317053365
 20
-28.6810642171
 10
-14.15171294
 20
-28.5068203944
 10
-14.1659922969
 20
-28.335348593
 10
-14.1745849712
 20
-28.1663629294
 10
-14.1774909628
 20
-27.9998634036
  0
LWPOLYLINE
  5
257
100
AcDbEntity
  8
SMUSSO
100
AcDbPolyline
 62
7
  6
CONTINUOUS
 90
37
 70
0
 10
11.8086832458
 20
-49.8500579793
 10
11.9416876549
 20
-49.9303274337
 10
12.0739034882
 20
-50.0169078854
 10
12.2053307457
 20
-50.1097993343
 10
12.3362281029
 20
-50.2092118236
 10
12.4663368843
 20
-50.3149353102
 10
12.5948810634
 20
-50.4263396643
 10
12.7218513834
 20
-50.5434590068
 10
12.8472571012
 20
-50.6662592168
 10
12.9703499609
 20
-50.7940078019
 10
13.0911160462
 20
-50.926734334
 10
13.2095692735
 20
-51.0644092413
 10
13.3250031361
 20
-51.2062113165
 10
13.4373994559
 20
-51.3521650869
 10
13.5467764108
 20
-51.5022460252
 10
13.6524820285
 20
-51.655559342
 10
13.7544943183
 20
-51.812124228
 10
13.8528352707
 20
-51.9719214924
 10
13.9469188844
 20
-52.1339987741
 10
14.0367197725
 20
-52.2983697161
 10
14.1222633219
 20
-52.4650206754
 10
14.203039692
 20
-52.6329583622
 10
14.2790204472
 20
-52.8021905345
 10
14.3502340232
 20
-52.9727094342
 10
14.4162558868
 20
-53.1434984977
 10
14.4770550195
 20
-53.3145593451
 10
14.5326624399
 20
-53.4858903563
 10
14.5827466707
 20
-53.6564701069
 10
14.627274706
 20
-53.8262940834
 10
14.6662795517
 20
-53.9953667993
 10
14.6995287487
 20
-54.1626803708
 10
14.7269879125
 20
-54.3282242699
 10
14.7486914276
 20
-54.4920090246
 10
14.7645099882
 20
-54.6530583361
 10
14.774408444
 20
-54.8113558574
 10
14.7784219453
 20
-54.9669179355
 10
14.7785317249
 20
-54.9938629065
  0
LWPOLYLINE
  5
258
100
AcDbEntity
  8
ASSI
100
AcDbPolyline
 62
7
  6
CONTINUOUS
 90
42
 70
0
 10
-22.061731573
 20
-33.878009474
 10
-22.0633919152
 20
-33.8126042737
 10
-22.0682260585
 20
-33.7460127408
 10
-22.0762340032
 20
-33.6782348754
 10
-22.0874642142
 20
-33.6090338454
 10
-22.1018682265
 20
-33.538646483
 10
-22.1193006447
 20
-33.4677832841
 10
-22.139792141
 20
-33.3964394294
 10
-22.1633120432
 20
-33.3246197383
 10
-22.1896229394
 20
-33.2530491651
 10
-22.2187530973
 20
-33.1817302326
 10
-22.2506742491
 20
-33.110660418
 10
-22.2850641801
 20
-33.040557106
 10
-22.3219478943
 20
-32.9714300854
 10
-22.3613003877
 20
-32.9032695676
 10
-22.4027244328
 20
-32.8367635704
 10
-22.4462410105
 20
-32.7719288514
 10
-22.4918291398
 20
-32.7087486531
 10
-22.5390286503
 20
-32.647860722
 10
-22.5878558623
 20
-32.5892882745
 10
-22.6382944554
 20
-32.5330080942
 10
-22.689835298
 20
-32.479588278
 10
-22.7424895541
 20
-32.4290577963
 10
-22.7962460598
 20
-32.3813876787
 10
-22.8505621923
 20
-32.3370591116
 10
-22.9054436195
 20
-32.2961059387
 10
-22.9608846736
 20
-32.2584943163
 10
-23.0163257276
 20
-32.2246038993
 10
-23.0717667817
 20
-32.1944723768
 10
-23.1272078357
 20
-32.1680620596
 10
-23.182089263
 20
-32.145639536
 10
-23.2364053955
 20
-32.1272451948
 10
-23.2901619011
 20
-32.112838647
 10
-23.3428161572
 20
-32.1025653137
 10
-23.3943569999
 20
-32.0964670566
 10
-23.444795593
 20
-32.094502014
 10
-23.4936228049
 20
-32.096690021
 10
-23.5408223154
 20
-32.1030731405
 10
-23.5864104448
 20
-32.1136093097
 10
-23.6299270225
 20
-32.1281921756
 10
-23.6713510675
 20
-32.1468627238
 10
-23.691358261
 20
-32.1577232617
  0
LWPOLYLINE
  5
259
100
AcDbEntity
  8
RACCORDO
100
AcDbPolyline
 62
7
  6
CONTINUOUS
 90
13
 70
0
 10
-25.632620818
 20
-53.8609202511
 10
-25.6301728699
 20
-53.9793179718
 10
-25.6229755424
 20
-54.0996694538
 10
-25.6110288356
 20
-54.2219746973
 10
-25.5942842419
 20
-54.3465191831
 10
-25.5727902688
 20
-54.4730174303
 10
-25.5466924389
 20
-54.6006129963
 10
-25.5159595118
 20
-54.7293133271
 10
-25.480622728
 20
-54.8591109767
 10
-25.4409213314
 20
-54.9891271641
 10
-25.3968257048
 20
-55.1193633723
 10
-25.3483654653
 20
-55.2498181184
 10
-25.2958687077
 20
-55.3796081727
  0
LINE
  5
25A
100
AcDbEntity
  8
RACCORDO
100
AcDbLine
 62
7
  6
CONTINUOUS
 10
-25.632620818
 20
-53.8609202511
 11
-25.632620818
 21
70.765137569
  0
LINE
  5
25B
100
AcDbEntity
  8
0
100
AcDbLine
 62
250
  6
CONTINUOUS
 10
-25.3144227665
 20
-55.3337361531
 11
-25.3144227665
 21
-55.4733681652
  0
LWPOLYLINE
  5
25C
100
AcDbEntity
  8
0
100
AcDbPolyline
 62
7
  6
CONTINUOUS
 90
13
 70
0
 10
-23.1701757651
 20
18.7888653893
 10
-23.1547626527
 20
18.8012102887
 10
-23.0878193089
 20
18.8689482686
 10
-23.0422819295
 20
18.957076721
 10
-23.020875965
 20
19.0681918019
 10
-23.020875965
 20
19.1996973553
 10
-23.0422819295
 20
19.3355315074
 10
-23.0878193089
 20
19.4762453841
 10
-23.1547626527
 20
19.6212878594
 10
-23.2349356102
 20
19.7529436819
 10
-23.325612731
 20
19.8653077678
 10
-23.4295194654
 20
19.9642852008
 10
-23.5466558135
 20
20.0498759811
  0
LWPOLYLINE
  5
25D
100
AcDbEntity
  8
ASSI
100
AcDbPolyline
 62
7
  6
CONTINUOUS
 90
15
 70
0
 10
-22.3412931943
 20
18.5746137072
 10
-22.3219478943
 20
18.5864704143
 10
-22.2850641801
 20
18.6130050461
 10
-22.2506742491
 20
18.6433957278
 10
-22.2187530973
 20
18.6776037965
 10
-22.1896229394
 20
18.7152839528
 10
-22.1633120432
 20
18.7564713627
 10
-22.139792141
 20
18.8011308602
 10
-22.1193006447
 20
18.8488116485
 10
-22.1018682265
 20
18.8995443279
 10
-22.0874642142
 20
18.953298298
 10
-22.0762340032
 20
19.0095309618
 10
-22.0682260585
 20
19.0680614534
 10
-22.0633919152
 20
19.1290706387
 10
-22.061731573
 20
19.1925585175
  0
LINE
  5
25E
100
AcDbEntity
  8
0
100
AcDbLine
 62
7
  6
CONTINUOUS
 10
-22.9466268213
 20
18.3983095282
 11
-22.1076472981
 21
18.88272579
  0
LINE
  5
25F
100
AcDbEntity
  8
ASSI
100
AcDbLine
 62
250
  6
CONTINUOUS
 10
49.6388960393
 20
54.7459369791
 11
25.0669353931
 21
40.558394861
  0
LINE
  5
260
100
AcDbEntity
  8
RACCORDO
100
AcDbLine
 62
250
  6
CONTINUOUS
 10
50.444352391
 20
54.803038428
 11
51.3005969751
 21
55.2974233196
  0
LWPOLYLINE
  5
261
100
AcDbEntity
  8
0
100
AcDbPolyline
 62
7
  6
CONTINUOUS
 90
6
 70
0
 10
-24.146684145
 20
20.4767374003
 10
-24.0901609843
 20
20.5020003348
 10
-23.9709198822
 20
20.5309888309
 10
-23.8421297721
 20
20.5256432239
 10
-23.7007084158
 20
20.4877428155
 10
-23.5466558135
 20
20.4172876057
  0
LWPOLYLINE
  5
262
100
AcDbEntity
  8
0
100
AcDbPolyline
 62
7
  6
CONTINUOUS
 90
6
 70
0
 10
-22.946627482
 20
18.3983091467
 10
-23.0031506427
 20
18.3730462123
 10
-23.1223917448
 20
18.3440577162
 10
-23.251181855
 20
18.3494033231
 10
-23.3926032112
 20
18.3873037315
 10
-23.5466558135
 20
18.4577589414
  0
LWPOLYLINE
  5
263
100
AcDbEntity
  8
SMUSSO
100
AcDbPolyline
 62
7
  6
CONTINUOUS
 90
58
 70
0
 10
7.6658627634
 20
-53.7244547339
 10
7.5575165778
 20
-53.5727947232
 10
7.453111978
 20
-53.4183189491
 10
7.3526489638
 20
-53.2610274117
 10
7.2559424184
 20
-53.1005934849
 10
7.1631774586
 20
-52.9373437947
 10
7.0749094359
 20
-52.7722582194
 10
6.9911659882
 20
-52.6053280911
 10
6.9119194775
 20
-52.4365620777
 10
6.8376423411
 20
-52.2669660607
 10
6.768364234
 20
-52.0965350148
 10
6.7040555011
 20
-51.9252739654
 10
6.645099615
 20
-51.7542038698
 10
6.5915285591
 20
-51.58332587
 10
6.5433103499
 20
-51.4126388241
 10
6.5007325098
 20
-51.2431602641
 10
6.463828737
 20
-51.074897423
 10
6.4325653332
 20
-50.9078430677
 10
6.4071287258
 20
-50.7429930308
 10
6.3875537178
 20
-50.5803604812
 10
6.3738055061
 20
-50.41993225
 10
6.3659661084
 20
-50.2626646628
 10
6.3640708155
 20
-50.1085765909
 10
6.3680843366
 20
-49.9576491631
 10
6.377982817
 20
-49.810782091
 10
6.3938014068
 20
-49.6679996176
 10
6.4155049559
 20
-49.5292775
 10
6.4429641586
 20
-49.395442721
 10
6.4762134002
 20
-49.266524458
 10
6.5152182954
 20
-49.1424935337
 10
6.5597463827
 20
-49.0240893987
 10
6.6098306693
 20
-48.9113456545
 10
6.6654381481
 20
-48.8042286997
 10
6.7262373355
 20
-48.7033771802
 10
6.7922592444
 20
-48.6088285417
 10
6.8634728619
 20
-48.5205453385
 10
6.939453666
 20
-48.4390538799
 10
7.0202300905
 20
-48.3643947559
 10
7.1057737016
 20
-48.2965273764
 10
7.1955746758
 20
-48.2358562807
 10
7.2896584087
 20
-48.1824244224
 10
7.3879995047
 20
-48.1361888478
 10
7.4900119532
 20
-48.0974252351
 10
7.5957177589
 20
-48.0661781737
 10
7.705094917
 20
-48.0424030741
 10
7.8174914029
 20
-48.0262418455
 10
7.9329253798
 20
-48.0177400151
 10
8.0513786844
 20
-48.0168520556
 10
8.1721448025
 20
-48.0235832947
 10
8.2952376524
 20
-48.0379793753
 10
8.4206433157
 20
-48.0599946544
 10
8.5476135238
 20
-48.0894975311
 10
8.6761575264
 20
-48.1265328139
 10
8.8062660737
 20
-48.1710556944
 10
8.9371631477
 20
-48.2228001462
 10
9.0685900757
 20
-48.2816774937
 10
9.2008055303
 20
-48.3477764125
 10
9.3338095117
 20
-48.4210969026
  0
LWPOLYLINE
  5
264
100
AcDbEntity
  8
SMUSSO
100
AcDbPolyline
 62
7
  6
CONTINUOUS
 90
23
 70
0
 10
13.476629994
 20
-57.0795188967
 10
13.5849761796
 20
-57.2311789075
 10
13.6893807795
 20
-57.3856546816
 10
13.7898437936
 20
-57.542946219
 10
13.8865503391
 20
-57.7033801458
 10
13.9793152989
 20
-57.866629836
 10
14.0675833216
 20
-58.0317154113
 10
14.1513267693
 20
-58.1986455396
 10
14.23057328
 20
-58.367411553
 10
14.3048504164
 20
-58.53700757
 10
14.3741285235
 20
-58.7074386159
 10
14.4384372564
 20
-58.8786996653
 10
14.4973931424
 20
-59.0497697609
 10
14.5509641984
 20
-59.2206477607
 10
14.5991824076
 20
-59.3913348066
 10
14.6417602477
 20
-59.5608133666
 10
14.6786640205
 20
-59.7290762077
 10
14.7099274243
 20
-59.896130563
 10
14.7353640317
 20
-60.0609805999
 10
14.7549390397
 20
-60.2236131495
 10
14.7686872514
 20
-60.3840413807
 10
14.7765266491
 20
-60.5413089679
 10
14.7785317249
 20
-60.6685783829
  0
LWPOLYLINE
  5
265
100
AcDbEntity
  8
ASSI
100
AcDbPolyline
 62
7
  6
CONTINUOUS
 90
40
 70
0
 10
-17.3241161391
 20
-52.8203842436
 10
-17.3224561606
 20
-52.8820342965
 10
-17.3176402259
 20
-52.9448253646
 10
-17.3096683351
 20
-53.0087574482
 10
-17.2984864417
 20
-53.0740810852
 10
-17.2841485921
 20
-53.1405457375
 10
-17.2668169257
 20
-53.2073997911
 10
-17.2464574587
 20
-53.2746476663
 10
-17.2231041749
 20
-53.3422849427
 10
-17.1970211642
 20
-53.4095467457
 10
-17.168177441
 20
-53.4764288133
 10
-17.1366039909
 20
-53.5429354074
 10
-17.1026578617
 20
-53.6083144398
 10
-17.0663121205
 20
-53.6725531112
 10
-17.0275937002
 20
-53.7356642208
 10
-16.9869404472
 20
-53.7969340781
 10
-16.9443303987
 20
-53.8563417824
 10
-16.8997855175
 20
-53.9139082343
 10
-16.8538095385
 20
-53.9689824448
 10
-16.8063862168
 20
-54.0215361239
 10
-16.7575317972
 20
-54.0715975617
 10
-16.7077987489
 20
-54.1186006394
 10
-16.6571770983
 20
-54.1625106408
 10
-16.6056768191
 20
-54.2033622821
 10
-16.5538803008
 20
-54.2406935935
 10
-16.501784181
 20
-54.2744646148
 10
-16.4493918223
 20
-54.3047153061
 10
-16.3972957024
 20
-54.3311035782
 10
-16.3454991842
 20
-54.3535855877
 10
-16.293998905
 20
-54.3722051779
 10
-16.2433772544
 20
-54.3867517897
 10
-16.1936442061
 20
-54.3971791896
 10
-16.1447897865
 20
-54.403533611
 10
-16.0973664648
 20
-54.4057431951
 10
-16.0513904858
 20
-54.4037608927
 10
-16.0068456046
 20
-54.397633753
 10
-15.9642355561
 20
-54.3874310647
 10
-15.9235823031
 20
-54.373106565
 10
-15.8848638828
 20
-54.3547065167
 10
-15.8756182767
 20
-54.3495617144
  0
LWPOLYLINE
  5
266
100
AcDbEntity
  8
ASSI
100
AcDbPolyline
 62
7
  6
CONTINUOUS
 90
40
 70
0
 10
-15.6270598642
 20
-53.8002432676
 10
-15.6287198427
 20
-53.7385932148
 10
-15.6335357774
 20
-53.6758021466
 10
-15.6415076682
 20
-53.6118700631
 10
-15.6526895616
 20
-53.5465464261
 10
-15.6670274112
 20
-53.4800817737
 10
-15.6843590776
 20
-53.4132277201
 10
-15.7047185446
 20
-53.345979845
 10
-15.7280718284
 20
-53.2783425686
 10
-15.7541548391
 20
-53.2110807655
 10
-15.7829985623
 20
-53.144198698
 10
-15.8145720124
 20
-53.0776921038
 10
-15.8485181416
 20
-53.0123130714
 10
-15.8848638828
 20
-52.9480744001
 10
-15.9235823031
 20
-52.8849632904
 10
-15.9642355561
 20
-52.8236934332
 10
-16.0068456046
 20
-52.7642857289
 10
-16.0513904858
 20
-52.706719277
 10
-16.0973664648
 20
-52.6516450664
 10
-16.1447897865
 20
-52.5990913873
 10
-16.1936442061
 20
-52.5490299496
 10
-16.2433772544
 20
-52.5020268719
 10
-16.293998905
 20
-52.4581168705
 10
-16.3454991842
 20
-52.4172652291
 10
-16.3972957024
 20
-52.3799339177
 10
-16.4493918223
 20
-52.3461628965
 10
-16.501784181
 20
-52.3159122051
 10
-16.5538803008
 20
-52.2895239331
 10
-16.6056768191
 20
-52.2670419236
 10
-16.6571770983
 20
-52.2484223333
 10
-16.7077987489
 20
-52.2338757215
 10
-16.7575317972
 20
-52.2234483217
 10
-16.8063862168
 20
-52.2170939003
 10
-16.8538095385
 20
-52.2148843162
 10
-16.8997855175
 20
-52.2168666186
 10
-16.9443303987
 20
-52.2229937582
 10
-16.9869404472
 20
-52.2331964466
 10
-17.0275937002
 20
-52.2475209463
 10
-17.0663121205
 20
-52.2659209946
 10
-17.0755577266
 20
-52.2710657969
  0
LWPOLYLINE
  5
267
100
AcDbEntity
  8
ASSI
100
AcDbPolyline
 62
7
  6
CONTINUOUS
 90
42
 70
0
 10
-22.061731573
 20
19.1925585175
 10
-22.0633919152
 20
19.2579637179
 10
-22.0682260585
 20
19.3245552507
 10
-22.0762340032
 20
19.3923331161
 10
-22.0874642142
 20
19.4615341461
 10
-22.1018682265
 20
19.5319215086
 10
-22.1193006447
 20
19.6027847075
 10
-22.139792141
 20
19.6741285621
 10
-22.1633120432
 20
19.7459482532
 10
-22.1896229394
 20
19.8175188265
 10
-22.2187530973
 20
19.8888377589
 10
-22.2506742491
 20
19.9599075735
 10
-22.2850641801
 20
20.0300108856
 10
-22.3219478943
 20
20.0991379061
 10
-22.3613003877
 20
20.167298424
 10
-22.4027244328
 20
20.2338044211
 10
-22.4462410105
 20
20.2986391402
 10
-22.4918291398
 20
20.3618193384
 10
-22.5390286503
 20
20.4227072696
 10
-22.5878558623
 20
20.4812797171
 10
-22.6382944554
 20
20.5375598974
 10
-22.689835298
 20
20.5909797135
 10
-22.7424895541
 20
20.6415101953
 10
-22.7962460598
 20
20.6891803128
 10
-22.8505621923
 20
20.7335088799
 10
-22.9054436195
 20
20.7744620528
 10
-22.9608846736
 20
20.8120736752
 10
-23.0163257276
 20
20.8459640922
 10
-23.0717667817
 20
20.8760956148
 10
-23.1272078357
 20
20.9025059319
 10
-23.182089263
 20
20.9249284556
 10
-23.2364053955
 20
20.9433227968
 10
-23.2901619011
 20
20.9577293445
 10
-23.3428161572
 20
20.9680026778
 10
-23.3943569999
 20
20.9741009349
 10
-23.444795593
 20
20.9760659776
 10
-23.4936228049
 20
20.9738779706
 10
-23.5408223154
 20
20.967494851
 10
-23.5864104448
 20
20.9569586818
 10
-23.6299270225
 20
20.9423758159
 10
-23.6713510675
 20
20.9237052677
 10
-23.691358261
 20
20.9128447299
  0
LWPOLYLINE
  5
268
100
AcDbEntity
  8
RACCORDO
100
AcDbPolyline
 62
7
  6
CONTINUOUS
 90
21
 70
0
 10
-14.1774909628
 20
59.6482208101
 10
-14.1745849712
 20
59.8113645697
 10
-14.1659922969
 20
59.9704276284
 10
-14.15171294
 20
60.1254099863
 10
-14.1317053365
 20
60.27654953
 10
-14.1060110504
 20
60.423608373
 10
-14.0747547731
 20
60.5658728551
 10
-14.0379094691
 20
60.7033196721
 10
-13.995502174
 20
60.8359721282
 10
-13.9477386855
 20
60.9631864761
 10
-13.8945929685
 20
61.0849362822
 10
-13.8360910582
 20
61.2012479801
 10
-13.7725168578
 20
61.311557122
 10
-13.703845712
 20
61.415834531
 10
-13.6301022762
 20
61.514109384
 10
-13.5516444188
 20
61.6059047643
 10
-13.4684492242
 20
61.6911891767
 10
-13.3805396081
 20
61.7699941163
 10
-13.288342186
 20
61.8419371517
 10
-13.1918361158
 20
61.9069849287
 10
-13.1420777106
 20
61.9369052007
  0
LINE
  5
269
100
AcDbEntity
  8
0
100
AcDbLine
 62
7
  6
CONTINUOUS
 10
49.8151720994
 20
54.8579265126
 11
49.7295238447
 21
54.8008555982
  0
LWPOLYLINE
  5
26A
100
AcDbEntity
  8
0
100
AcDbPolyline
 62
7
  6
CONTINUOUS
 90
16
 70
0
 10
49.6388960393
 20
54.7459369791
 10
49.7384006102
 20
54.8065370816
 10
49.8318183056
 20
54.8696906073
 10
49.9191491256
 20
54.9353975563
 10
50.0005986941
 20
55.0038516697
 10
50.0759613871
 20
55.0748592064
 10
50.1446203326
 20
55.1478389428
 10
50.2065205075
 20
55.2228070663
 10
50.2617169348
 20
55.2997473895
 10
50.3097578108
 20
55.3780301267
 10
50.3505844045
 20
55.4576662963
 10
50.3842554468
 20
55.5386448798
 10
50.4104953277
 20
55.6203030371
 10
50.4292430537
 20
55.7026463459
 10
50.4405596183
 20
55.7856692283
 10
50.444352391
 20
55.8686921108
  0
LINE
  5
26B
100
AcDbEntity
  8
ASSI
100
AcDbLine
 62
7
  6
CONTINUOUS
 10
-39.144356291
 20
13.6555149599
 11
-50.0218088166
 21
25.3122573206
  0
LINE
  5
26C
100
AcDbEntity
  8
ASSI
100
AcDbLine
 62
7
  6
CONTINUOUS
 10
-37.7301427286
 20
12.8389657732
 11
-48.6075952542
 21
24.495708134
  0
LWPOLYLINE
  5
26D
100
AcDbEntity
  8
ASSI
100
AcDbPolyline
 62
7
  6
CONTINUOUS
 90
19
 70
0
 10
-50.0218088166
 20
25.3122573206
 10
-50.1563197674
 20
25.464679927
 10
-50.2837255849
 20
25.6257837679
 10
-50.4040262689
 20
25.7955688434
 10
-50.5173439003
 20
25.9742505084
 10
-50.6235563982
 20
26.1616134079
 10
-50.7222975209
 20
26.3570114773
 10
-50.8135414759
 20
26.5604724554
 10
-50.8973140555
 20
26.7719686032
 10
-50.9733263953
 20
26.99077064
 10
-51.0415517055
 20
27.2169037867
 10
-51.1020167758
 20
27.4503428223
 10
-51.1545131106
 20
27.6902828023
 10
-51.1990132005
 20
27.9367461691
 10
-51.2355445548
 20
28.1897104803
 10
-51.2639812061
 20
28.4483034643
 10
-51.2842811654
 20
28.7122343641
 10
-51.2964864217
 20
28.9817939368
 10
-51.3005969751
 20
29.2569821824
  0
LWPOLYLINE
  5
26E
100
AcDbEntity
  8
ASSI
100
AcDbPolyline
 62
7
  6
CONTINUOUS
 90
19
 70
0
 10
-39.144356291
 20
13.6555149599
 10
-39.0098453402
 20
13.5030923535
 10
-38.8824395228
 20
13.3419885126
 10
-38.7621388387
 20
13.1722034371
 10
-38.6488212074
 20
12.9935217721
 10
-38.5426087094
 20
12.8061588726
 10
-38.4438675867
 20
12.6107608032
 10
-38.3526236318
 20
12.4072998251
 10
-38.2688510521
 20
12.1958036773
 10
-38.1928387123
 20
11.9770016405
 10
-38.1246134021
 20
11.7508684938
 10
-38.0641483318
 20
11.5174294582
 10
-38.011651997
 20
11.2774894782
 10
-37.9671519071
 20
11.0310261114
 10
-37.9306205528
 20
10.7780618002
 10
-37.9021839015
 20
10.5194688162
 10
-37.8818839422
 20
10.2555379164
 10
-37.8696786859
 20
9.9859783437
 10
-37.8655681325
 20
9.7107900981
  0
LWPOLYLINE
  5
26F
100
AcDbEntity
  8
ASSI
100
AcDbPolyline
 62
7
  6
CONTINUOUS
 90
19
 70
0
 10
-48.6075952542
 20
24.495708134
 10
-48.742106205
 20
24.6481307403
 10
-48.8695120225
 20
24.8092345812
 10
-48.9898127066
 20
24.9790196567
 10
-49.1031303379
 20
25.1577013217
 10
-49.2093428359
 20
25.3450642213
 10
-49.3080839585
 20
25.5404622907
 10
-49.3993279135
 20
25.7439232687
 10
-49.4831004931
 20
25.9554194166
 10
-49.5591128329
 20
26.1742214533
 10
-49.6273381431
 20
26.4003546001
 10
-49.6878032135
 20
26.6337936357
 10
-49.7402995483
 20
26.8737336157
 10
-49.7847996381
 20
27.1201969824
 10
-49.8213309924
 20
27.3731612936
 10
-49.8497676438
 20
27.6317542777
 10
-49.870067603
 20
27.8956851775
 10
-49.8822728593
 20
28.1652447502
 10
-49.8863834127
 20
28.4404329957
  0
LWPOLYLINE
  5
270
100
AcDbEntity
  8
ASSI
100
AcDbPolyline
 62
7
  6
CONTINUOUS
 90
19
 70
0
 10
-37.7301427286
 20
12.8389657732
 10
-37.5956317778
 20
12.6865431669
 10
-37.4682259604
 20
12.525439326
 10
-37.3479252763
 20
12.3556542505
 10
-37.234607645
 20
12.1769725855
 10
-37.128395147
 20
11.9896096859
 10
-37.0296540243
 20
11.7942116165
 10
-36.9384100694
 20
11.5907506385
 10
-36.8546374897
 20
11.3792544906
 10
-36.77862515
 20
11.1604524539
 10
-36.7103998397
 20
10.9343193071
 10
-36.6499347694
 20
10.7008802715
 10
-36.5974384346
 20
10.4609402915
 10
-36.5529383448
 20
10.2144769248
 10
-36.5164069905
 20
9.9615126136
 10
-36.4879703391
 20
9.7029196295
 10
-36.4676703798
 20
9.4389887297
 10
-36.4554651235
 20
9.169429157
 10
-36.4513545702
 20
8.8942409114
  0
LWPOLYLINE
  5
271
100
AcDbEntity
  8
RACCORDO
100
AcDbPolyline
 62
7
  6
CONTINUOUS
 90
40
 70
0
 10
-12.7632774004
 20
-27.1833142169
 10
-12.7603714088
 20
-27.3498137427
 10
-12.7517787345
 20
-27.5187994063
 10
-12.7374993776
 20
-27.6902712077
 10
-12.7174917741
 20
-27.8645150304
 10
-12.691797488
 20
-28.0412449909
 10
-12.6605412107
 20
-28.2196034386
 10
-12.6236959067
 20
-28.3995982891
 10
-12.5812886116
 20
-28.5812216267
 10
-12.5335251231
 20
-28.7635920538
 10
-12.4803794061
 20
-28.9467132017
 10
-12.4218774958
 20
-29.1305814392
 10
-12.3583032954
 20
-29.3143044742
 10
-12.2896321497
 20
-29.497881601
 10
-12.2158887138
 20
-29.6813135254
 10
-12.1374308564
 20
-29.8637100727
 10
-12.0542356618
 20
-30.0450662105
 10
-11.9663260457
 20
-30.2253869712
 10
-11.8741286236
 20
-30.4037972786
 10
-11.7776225535
 20
-30.5802878464
 10
-11.6768286773
 20
-30.7548679608
 10
-11.5722361365
 20
-30.9266904042
 10
-11.4638264666
 20
-31.0957417721
 10
-11.3516181321
 20
-31.262035469
 10
-11.2361556673
 20
-31.4247644902
 10
-11.1174232548
 20
-31.5839115087
 10
-10.9954367121
 20
-31.7394938515
 10
-10.8707880261
 20
-31.8907564949
 10
-10.7434642569
 20
-32.0376784421
 10
-10.6134783445
 20
-32.1802806899
 10
-10.4814610958
 20
-32.3178712057
 10
-10.3474026372
 20
-32.4504256286
 10
-10.2113128423
 20
-32.5779683196
 10
-10.0738521398
 20
-32.6998803281
 10
-9.9350138659
 20
-32.8161342849
 10
-9.7948046843
 20
-32.9267575593
 10
-9.6539050144
 20
-33.0312133091
 10
-9.5125416627
 20
-33.1293225866
 10
-9.3704878228
 20
-33.2212643394
 10
-9.2277434945
 20
-33.3070385675
  0
LINE
  5
272
100
AcDbEntity
  8
RACCORDO
100
AcDbLine
 62
7
  6
CONTINUOUS
 10
-14.1774909628
 20
59.6482208101
 11
-14.1774909628
 21
-27.9998634036
  0
LINE
  5
273
100
AcDbEntity
  8
RACCORDO
100
AcDbLine
 62
7
  6
CONTINUOUS
 10
-12.7632774004
 20
60.4647699968
 11
-12.7632774004
 21
-27.1833142169
  0
LINE
  5
274
100
AcDbEntity
  8
ASSI
100
AcDbLine
 62
250
  6
CONTINUOUS
 10
-37.8655681325
 20
9.7107900981
 11
-36.4513545702
 21
8.8942409114
  0
LINE
  5
275
100
AcDbEntity
  8
ASSI
100
AcDbLine
 62
250
  6
CONTINUOUS
 10
38.5019642356
 20
-34.3828659813
 11
37.0877506732
 21
-33.5663167946
  0
LINE
  5
276
100
AcDbEntity
  8
ASSI
100
AcDbLine
 62
250
  6
CONTINUOUS
 10
-39.144356291
 20
13.6555149599
 11
-37.7301427286
 21
12.8389657732
  0
LINE
  5
277
100
AcDbEntity
  8
ASSI
100
AcDbLine
 62
250
  6
CONTINUOUS
 10
37.2231760771
 20
-30.4381411195
 11
35.8089625148
 21
-29.6215919329
  0
LWPOLYLINE
  5
278
100
AcDbEntity
  8
SMUSSO
100
AcDbPolyline
 62
7
  6
CONTINUOUS
 90
19
 70
0
 10
13.4766723045
 20
-57.0795433314
 10
13.4296284303
 20
-56.9863564249
 10
13.3813262317
 20
-56.8969557088
 10
13.3316279501
 20
-56.8111052886
 10
13.2803810852
 20
-56.7286317799
 10
13.2274159022
 20
-56.6492200302
 10
13.1725859405
 20
-56.5724954764
 10
13.1157003007
 20
-56.4982177093
 10
13.056644286
 20
-56.4263296082
 10
12.9954167488
 20
-56.3568079894
 10
12.9318884826
 20
-56.2895386483
 10
12.8658406938
 20
-56.2243537628
 10
12.7971388901
 20
-56.1611618609
 10
12.7254895422
 20
-56.0997606854
 10
12.6508009145
 20
-56.0401538629
 10
12.5732259282
 20
-55.9825185325
 10
12.492664631
 20
-55.9268074202
 10
12.4087758707
 20
-55.8728193206
 10
12.3213356622
 20
-55.8204682735
  0
LINE
  5
279
100
AcDbEntity
  8
ASSI
100
AcDbLine
 62
250
  6
CONTINUOUS
 10
-50.0218088166
 20
25.3122573206
 11
-48.6075952542
 21
24.495708134
  0
LINE
  5
27A
100
AcDbEntity
  8
ASSI
100
AcDbLine
 62
250
  6
CONTINUOUS
 10
26.3457235515
 20
-18.7813987588
 11
24.9315099892
 21
-17.9648495721
  0
LINE
  5
27B
100
AcDbEntity
  8
ASSI
100
AcDbLine
 62
250
  6
CONTINUOUS
 10
-51.3005969751
 20
29.2569821824
 11
-49.8863834127
 21
28.4404329957
  0
LINE
  5
27C
100
AcDbEntity
  8
ASSI
100
AcDbLine
 62
250
  6
CONTINUOUS
 10
25.0669353931
 20
-14.836673897
 11
23.6527218307
 21
-14.0201247103
  0
LWPOLYLINE
  5
27D
100
AcDbEntity
  8
0
100
AcDbPolyline
 62
7
  6
CONTINUOUS
 90
5
 70
0
 10
-23.5466558135
 20
18.8251705659
 10
-23.4295194654
 20
18.7754952276
 10
-23.325612731
 20
18.7544837682
 10
-23.2349356102
 20
18.7621361879
 10
-23.1701757651
 20
18.7888653893
  0
LWPOLYLINE
  5
27E
100
AcDbEntity
  8
0
100
AcDbPolyline
 62
7
  6
CONTINUOUS
 90
15
 70
0
 10
-23.5466558135
 20
18.4577589414
 10
-23.7007084158
 20
18.5651998152
 10
-23.8421297721
 20
18.6906092441
 10
-23.9709198822
 20
18.8339872282
 10
-24.0901609843
 20
19.00067236
 10
-24.1967708403
 20
19.185326047
 10
-24.2815027363
 20
19.3719325109
 10
-24.3424026119
 20
19.5606661666
 10
-24.3814245275
 20
19.7513525992
 10
-24.3951839509
 20
19.9274527855
 10
-24.3814245275
 20
20.0876639345
 10
-24.3424026119
 20
20.2332888371
 10
-24.2815027363
 20
20.3516968431
 10
-24.1967708403
 20
20.4404570372
 10
-24.146684145
 20
20.4767374003
  0
LWPOLYLINE
  5
27F
100
AcDbEntity
  8
0
100
AcDbPolyline
 62
7
  6
CONTINUOUS
 90
15
 70
0
 10
-23.5466558135
 20
20.4172876057
 10
-23.3926032112
 20
20.3098467319
 10
-23.251181855
 20
20.1844373029
 10
-23.1223917448
 20
20.0410593189
 10
-23.0031506427
 20
19.874374187
 10
-22.8965407867
 20
19.6897205
 10
-22.8118088907
 20
19.5031140362
 10
-22.7509090151
 20
19.3143803804
 10
-22.7118870995
 20
19.1236939478
 10
-22.6981276761
 20
18.9475937615
 10
-22.7118870995
 20
18.7873826126
 10
-22.7509090151
 20
18.64175771
 10
-22.8118088907
 20
18.523349704
 10
-22.8965407867
 20
18.4345895098
 10
-22.946627482
 20
18.3983091467
  0
LINE
  5
280
100
AcDbEntity
  8
ASSI
100
AcDbLine
 62
7
  6
CONTINUOUS
 10
35.8089625148
 20
-29.6215919329
 11
24.9315099892
 21
-17.9648495721
  0
LINE
  5
281
100
AcDbEntity
  8
ASSI
100
AcDbLine
 62
7
  6
CONTINUOUS
 10
37.2231760771
 20
-30.4381411195
 11
26.3457235515
 21
-18.7813987588
  0
LWPOLYLINE
  5
282
100
AcDbEntity
  8
ASSI
100
AcDbPolyline
 62
7
  6
CONTINUOUS
 90
19
 70
0
 10
24.9315099892
 20
-17.9648495721
 10
24.7969990384
 20
-17.8124269658
 10
24.6695932209
 20
-17.6513231249
 10
24.5492925369
 20
-17.4815380494
 10
24.4359749055
 20
-17.3028563844
 10
24.3297624075
 20
-17.1154934848
 10
24.2310212849
 20
-16.9200954154
 10
24.1397773299
 20
-16.7166344374
 10
24.0560047503
 20
-16.5051382895
 10
23.9799924105
 20
-16.2863362528
 10
23.9117671003
 20
-16.060203106
 10
23.8513020299
 20
-15.8267640704
 10
23.7988056951
 20
-15.5868240904
 10
23.7543056053
 20
-15.3403607236
 10
23.717774251
 20
-15.0873964125
 10
23.6893375996
 20
-14.8288034284
 10
23.6690376404
 20
-14.5648725286
 10
23.6568323841
 20
-14.2953129559
 10
23.6527218307
 20
-14.0201247103
  0
LWPOLYLINE
  5
283
100
AcDbEntity
  8
ASSI
100
AcDbPolyline
 62
7
  6
CONTINUOUS
 90
19
 70
0
 10
35.8089625148
 20
-29.6215919329
 10
35.9434734656
 20
-29.7740145392
 10
36.070879283
 20
-29.9351183801
 10
36.1911799671
 20
-30.1049034556
 10
36.3044975984
 20
-30.2835851206
 10
36.4107100964
 20
-30.4709480202
 10
36.5094512191
 20
-30.6663460896
 10
36.600695174
 20
-30.8698070676
 10
36.6844677537
 20
-31.0813032155
 10
36.7604800934
 20
-31.3001052522
 10
36.8287054037
 20
-31.5262383989
 10
36.889170474
 20
-31.7596774346
 10
36.9416668088
 20
-31.9996174146
 10
36.9861668986
 20
-32.2460807813
 10
37.0226982529
 20
-32.4990450925
 10
37.0511349043
 20
-32.7576380766
 10
37.0714348636
 20
-33.0215689764
 10
37.0836401199
 20
-33.291128549
 10
37.0877506732
 20
-33.5663167946
  0
LWPOLYLINE
  5
284
100
AcDbEntity
  8
ASSI
100
AcDbPolyline
 62
7
  6
CONTINUOUS
 90
19
 70
0
 10
26.3457235515
 20
-18.7813987588
 10
26.2112126007
 20
-18.6289761524
 10
26.0838067833
 20
-18.4678723115
 10
25.9635060992
 20
-18.298087236
 10
25.8501884679
 20
-18.119405571
 10
25.7439759699
 20
-17.9320426715
 10
25.6452348472
 20
-17.7366446021
 10
25.5539908923
 20
-17.533183624
 10
25.4702183126
 20
-17.3216874762
 10
25.3942059729
 20
-17.1028854394
 10
25.3259806626
 20
-16.8767522927
 10
25.2655155923
 20
-16.6433132571
 10
25.2130192575
 20
-16.4033732771
 10
25.1685191677
 20
-16.1569099103
 10
25.1319878134
 20
-15.9039455991
 10
25.103551162
 20
-15.6453526151
 10
25.0832512027
 20
-15.3814217153
 10
25.0710459464
 20
-15.1118621426
 10
25.0669353931
 20
-14.836673897
  0
LWPOLYLINE
  5
285
100
AcDbEntity
  8
ASSI
100
AcDbPolyline
 62
7
  6
CONTINUOUS
 90
19
 70
0
 10
37.2231760771
 20
-30.4381411195
 10
37.3576870279
 20
-30.5905637259
 10
37.4850928454
 20
-30.7516675668
 10
37.6053935294
 20
-30.9214526423
 10
37.7187111608
 20
-31.1001343073
 10
37.8249236588
 20
-31.2874972068
 10
37.9236647814
 20
-31.4828952762
 10
38.0149087364
 20
-31.6863562543
 10
38.098681316
 20
-31.8978524021
 10
38.1746936558
 20
-32.1166544389
 10
38.242918966
 20
-32.3427875856
 10
38.3033840364
 20
-32.5762266212
 10
38.3558803712
 20
-32.8161666012
 10
38.400380461
 20
-33.062629968
 10
38.4369118153
 20
-33.3155942792
 10
38.4653484667
 20
-33.5741872632
 10
38.4856484259
 20
-33.838118163
 10
38.4978536822
 20
-34.1076777357
 10
38.5019642356
 20
-34.3828659813
  0
LINE
  5
286
100
AcDbEntity
  8
ASSI
100
AcDbLine
 62
250
  6
CONTINUOUS
 10
15.89513629
 20
49.9598881796
 11
15.89513629
 21
48.326947626
  0
LWPOLYLINE
  5
287
100
AcDbEntity
  8
SMUSSO
100
AcDbPolyline
 62
7
  6
CONTINUOUS
 90
37
 70
0
 10
14.7785317249
 20
-60.6685783829
 10
14.7784219419
 20
-60.6953970398
 10
14.7744084208
 20
-60.8463244676
 10
14.7645099405
 20
-60.9931915397
 10
14.7486913506
 20
-61.1359740131
 10
14.7269878016
 20
-61.2746961307
 10
14.6995285989
 20
-61.4085309097
 10
14.6662793573
 20
-61.5374491727
 10
14.6272744621
 20
-61.661480097
 10
14.5827463748
 20
-61.779884232
 10
14.5326620881
 20
-61.8926279762
 10
14.4770546094
 20
-61.999744931
 10
14.416255422
 20
-62.1005964505
 10
14.3502335131
 20
-62.195145089
 10
14.2790198956
 20
-62.2834282922
 10
14.2030390915
 20
-62.3649197508
 10
14.122262667
 20
-62.4395788748
 10
14.0367190559
 20
-62.5074462543
 10
13.9469180817
 20
-62.56811735
 10
13.8528343488
 20
-62.6215492083
 10
13.7544932528
 20
-62.6677847829
 10
13.6524808043
 20
-62.7065483956
 10
13.5467749986
 20
-62.737795457
 10
13.4373978405
 20
-62.7615705565
 10
13.3250013545
 20
-62.7777317851
 10
13.2095673777
 20
-62.7862336156
 10
13.0911140731
 20
-62.7871215751
 10
12.970347955
 20
-62.780390336
 10
12.8472551051
 20
-62.7659942554
 10
12.7218494418
 20
-62.7439789763
 10
12.5948792337
 20
-62.7144760996
 10
12.4663352311
 20
-62.6774408167
 10
12.3362266838
 20
-62.6329179363
 10
12.2053296098
 20
-62.5811734845
 10
12.0739026818
 20
-62.522296137
 10
11.9416872271
 20
-62.4561972181
 10
11.8086832458
 20
-62.3828767281
  0
LWPOLYLINE
  5
288
100
AcDbEntity
  8
SMUSSO
100
AcDbPolyline
 62
7
  6
CONTINUOUS
 90
23
 70
0
 10
14.7785317249
 20
-54.9938629065
 10
14.776526636
 20
-55.1188173124
 10
14.7686872254
 20
-55.267032107
 10
14.7549390044
 20
-55.4115842003
 10
14.7353639895
 20
-55.5516119779
 10
14.7099273772
 20
-55.6870884192
 10
14.678663971
 20
-55.8180405447
 10
14.6417601986
 20
-55.9436878009
 10
14.5991823595
 20
-56.0639985084
 10
14.5509641541
 20
-56.1790043465
 10
14.4973931105
 20
-56.2880198004
 10
14.4384372488
 20
-56.3910090721
 10
14.3741285489
 20
-56.4880079596
 10
14.3048504789
 20
-56.5784383414
 10
14.2305733885
 20
-56.6622609486
 10
14.1513269279
 20
-56.7395150502
 10
14.0675835158
 20
-56.8097403317
 10
13.9793155103
 20
-56.8728962166
 10
13.8865505532
 20
-56.9290232814
 10
13.7898439886
 20
-56.9777829404
 10
13.6893809312
 20
-57.0190623317
 10
13.5849762664
 20
-57.0529743171
 10
13.476629994
 20
-57.0795188967
  0
LWPOLYLINE
  5
289
100
AcDbEntity
  8
0
100
AcDbPolyline
 62
7
  6
CONTINUOUS
 90
9
 70
0
 10
50.3137229019
 20
55.3851729812
 10
50.2709641348
 20
55.3138074577
 10
50.2223377775
 20
55.2437055455
 10
50.1678833775
 20
55.1748587279
 10
50.1079696123
 20
55.1077331248
 10
50.0425594364
 20
55.0423404159
 10
49.9716898953
 20
54.9786689215
 10
49.8958408036
 20
54.9171497225
 10
49.8151720994
 20
54.8579265126
  0
LWPOLYLINE
  5
28A
100
AcDbEntity
  8
0
100
AcDbPolyline
 62
7
  6
CONTINUOUS
 90
13
 70
0
 10
-23.9231358619
 20
-32.9843868338
 10
-23.9385489743
 20
-32.9967317332
 10
-24.0054923182
 20
-33.0644697131
 10
-24.0510296975
 20
-33.1525981655
 10
-24.072435662
 20
-33.2637132463
 10
-24.072435662
 20
-33.3952187998
 10
-24.0510296975
 20
-33.5310529519
 10
-24.0054923182
 20
-33.6717668285
 10
-23.9385489743
 20
-33.8168093039
 10
-23.8583760168
 20
-33.9484651264
 10
-23.767698896
 20
-34.0608292123
 10
-23.6637921616
 20
-34.1598066453
 10
-23.5466558135
 20
-34.2453974256
  0
LWPOLYLINE
  5
28B
100
AcDbEntity
  8
0
100
AcDbPolyline
 62
7
  6
CONTINUOUS
 90
13
 70
0
 10
-23.1701757651
 20
-34.2817026023
 10
-23.1547626527
 20
-34.2693577028
 10
-23.0878193089
 20
-34.201619723
 10
-23.0422819295
 20
-34.1134912705
 10
-23.020875965
 20
-34.0023761897
 10
-23.020875965
 20
-33.8708706362
 10
-23.0422819295
 20
-33.7350364841
 10
-23.0878193089
 20
-33.5943226075
 10
-23.1547626527
 20
-33.4492801322
 10
-23.2349356102
 20
-33.3176243096
 10
-23.325612731
 20
-33.2052602238
 10
-23.4295194654
 20
-33.1062827907
 10
-23.5466558135
 20
-33.0206920104
  0
LWPOLYLINE
  5
28C
100
AcDbEntity
  8
ASSI
100
AcDbPolyline
 62
7
  6
CONTINUOUS
 90
10
 70
0
 10
-23.691358261
 20
-32.1577232617
 10
-23.7107035609
 20
-32.1695799688
 10
-23.7475872752
 20
-32.1961146005
 10
-23.7819772061
 20
-32.2265052823
 10
-23.813898358
 20
-32.260713351
 10
-23.8430285158
 20
-32.2983935073
 10
-23.869339412
 20
-32.3395809172
 10
-23.8928593142
 20
-32.3842404147
 10
-23.9133508105
 20
-32.431921203
 10
-23.9250041572
 20
-32.4658353445
  0
LINE
  5
28D
100
AcDbEntity
  8
0
100
AcDbLine
 62
7
  6
CONTINUOUS
 10
-24.1466848057
 20
-32.5938309726
 11
-23.3077066546
 21
-32.1094155031
  0
LWPOLYLINE
  5
28E
100
AcDbEntity
  8
ASSI
100
AcDbPolyline
 62
7
  6
CONTINUOUS
 90
10
 70
0
 10
-22.7249448007
 20
18.5263059486
 10
-22.689835298
 20
18.5194557592
 10
-22.6382944554
 20
18.5133575021
 10
-22.5878558623
 20
18.5113924595
 10
-22.5390286503
 20
18.5135804665
 10
-22.4918291398
 20
18.519963586
 10
-22.4462410105
 20
18.5304997552
 10
-22.4027244328
 20
18.5450826211
 10
-22.3613003877
 20
18.5637531693
 10
-22.3412931943
 20
18.5746137072
  0
LWPOLYLINE
  5
28F
100
AcDbEntity
  8
0
100
AcDbPolyline
 62
7
  6
CONTINUOUS
 90
5
 70
0
 10
-23.5466558135
 20
20.0498759811
 10
-23.6637921616
 20
20.0995513195
 10
-23.767698896
 20
20.1205627788
 10
-23.8583760168
 20
20.1129103592
 10
-23.9231358619
 20
20.0861811578
  0
LINE
  5
290
100
AcDbEntity
  8
ASSI
100
AcDbLine
 62
7
  6
CONTINUOUS
 10
23.6527218307
 20
-14.0201247103
 11
23.6527218307
 21
41.3749440477
  0
LWPOLYLINE
  5
291
100
AcDbEntity
  8
ASSI
100
AcDbPolyline
 62
7
  6
CONTINUOUS
 90
15
 70
0
 10
-22.3412931943
 20
-34.4959542844
 10
-22.3219478943
 20
-34.4840975773
 10
-22.2850641801
 20
-34.4575629455
 10
-22.2506742491
 20
-34.4271722637
 10
-22.2187530973
 20
-34.392964195
 10
-22.1896229394
 20
-34.3552840387
 10
-22.1633120432
 20
-34.3140966289
 10
-22.139792141
 20
-34.2694371314
 10
-22.1193006447
 20
-34.221756343
 10
-22.1018682265
 20
-34.1710236637
 10
-22.0874642142
 20
-34.1172696935
 10
-22.0762340032
 20
-34.0610370298
 10
-22.0682260585
 20
-34.0025065381
 10
-22.0633919152
 20
-33.9414973529
 10
-22.061731573
 20
-33.878009474
  0
LINE
  5
292
100
AcDbEntity
  8
RACCORDO
100
AcDbLine
 62
250
  6
CONTINUOUS
 10
-12.7632774004
 20
-27.1833142169
 11
-14.1774909628
 21
-27.9998634036
  0
LINE
  5
293
100
AcDbEntity
  8
0
100
AcDbLine
 62
7
  6
CONTINUOUS
 10
-22.9466268213
 20
-34.6722584634
 11
-22.1076472981
 21
-34.1878422015
  0
LWPOLYLINE
  5
294
100
AcDbEntity
  8
0
100
AcDbPolyline
 62
7
  6
CONTINUOUS
 90
6
 70
0
 10
-24.146684145
 20
-32.5938305912
 10
-24.0901609843
 20
-32.5685676567
 10
-23.9709198822
 20
-32.5395791606
 10
-23.8421297721
 20
-32.5449247676
 10
-23.7007084158
 20
-32.582825176
 10
-23.5466558135
 20
-32.6532803859
  0
LWPOLYLINE
  5
295
100
AcDbEntity
  8
0
100
AcDbPolyline
 62
7
  6
CONTINUOUS
 90
6
 70
0
 10
-22.946627482
 20
-34.6722588448
 10
-23.0031506427
 20
-34.6975217793
 10
-23.1223917448
 20
-34.7265102754
 10
-23.251181855
 20
-34.7211646684
 10
-23.3926032112
 20
-34.68326426
 10
-23.5466558135
 20
-34.6128090502
  0
LINE
  5
296
100
AcDbEntity
  8
ASSI
100
AcDbLine
 62
7
  6
CONTINUOUS
 10
25.0669353931
 20
-14.836673897
 11
25.0669353931
 21
40.558394861
  0
LWPOLYLINE
  5
297
100
AcDbEntity
  8
SMUSSO
100
AcDbPolyline
 62
7
  6
CONTINUOUS
 90
12
 70
0
 10
14.6993819268
 20
-54.1619415474
 10
14.6864737531
 20
-54.2028063463
 10
14.6563264638
 20
-54.2810363708
 10
14.6220890119
 20
-54.3550485389
 10
14.5838465249
 20
-54.4246596407
 10
14.5416936656
 20
-54.489697729
 10
14.49573538
 20
-54.550001031
 10
14.4460858526
 20
-54.6054198587
 10
14.3928673718
 20
-54.6558175195
 10
14.336211531
 20
-54.7010688345
 10
14.2762594557
 20
-54.7410605591
 10
14.2608251742
 20
-54.7501949693
  0
LINE
  5
298
100
AcDbEntity
  8
RACCORDO
100
AcDbLine
 62
250
  6
CONTINUOUS
 10
-9.2277434945
 20
-33.3070385675
 11
-10.6419570569
 21
-34.1235877542
  0
LWPOLYLINE
  5
299
100
AcDbEntity
  8
ASSI
100
AcDbPolyline
 62
7
  6
CONTINUOUS
 90
16
 70
0
 10
36.7695526217
 20
-84.0533906332
 10
36.7712126002
 20
-84.115040686
 10
36.7760285349
 20
-84.1778317542
 10
36.7840004257
 20
-84.2417638378
 10
36.7951823191
 20
-84.3070874747
 10
36.8095201687
 20
-84.3735521271
 10
36.8268518351
 20
-84.4404061807
 10
36.8472113021
 20
-84.5076540558
 10
36.8705645859
 20
-84.5752913323
 10
36.8966475965
 20
-84.6425531353
 10
36.9254913198
 20
-84.7094352028
 10
36.9570647699
 20
-84.775941797
 10
36.9910108991
 20
-84.8413208294
 10
37.0273566403
 20
-84.9055595008
 10
37.0660750606
 20
-84.9686706104
 10
37.0877506732
 20
-85.0013386405
  0
LWPOLYLINE
  5
29A
100
AcDbEntity
  8
0
100
AcDbPolyline
 62
7
  6
CONTINUOUS
 90
21
 70
0
 10
38.5019642356
 20
-101.0984485189
 10
38.5048702272
 20
-101.2615922784
 10
38.5134629015
 20
-101.4206553371
 10
38.5277422584
 20
-101.575637695
 10
38.5477498619
 20
-101.7267772388
 10
38.573444148
 20
-101.8738360817
 10
38.6047004253
 20
-102.0161005638
 10
38.6415457293
 20
-102.1535473808
 10
38.6839530244
 20
-102.286199837
 10
38.7317165129
 20
-102.4134141848
 10
38.7848622299
 20
-102.535163991
 10
38.8433641402
 20
-102.6514756888
 10
38.9069383406
 20
-102.7617848307
 10
38.9756094864
 20
-102.8660622397
 10
39.0493529222
 20
-102.9643370927
 10
39.1278107796
 20
-103.056132473
 10
39.2110059742
 20
-103.1414168854
 10
39.2989155903
 20
-103.2202218251
 10
39.3911130124
 20
-103.2921648604
 10
39.4876190825
 20
-103.3572126374
 10
39.5373774878
 20
-103.3871329094
  0
LINE
  5
29B
100
AcDbEntity
  8
RACCORDO
100
AcDbLine
 62
7
  6
CONTINUOUS
 10
35.3199837203
 20
-56.5790849365
 11
35.3199837203
 21
-29.0975813878
  0
LINE
  5
29C
100
AcDbEntity
  8
0
100
AcDbLine
 62
7
  6
CONTINUOUS
 10
37.0877506732
 20
-100.2818993322
 11
37.0877506732
 21
-33.5663167946
  0
LINE
  5
29D
100
AcDbEntity
  8
0
100
AcDbLine
 62
7
  6
CONTINUOUS
 10
38.5019642356
 20
-101.0984485189
 11
38.5019642356
 21
-34.3828659813
  0
LWPOLYLINE
  5
29E
100
AcDbEntity
  8
RACCORDO
100
AcDbPolyline
 62
7
  6
CONTINUOUS
 90
21
 70
0
 10
35.3199837203
 20
-56.5790849365
 10
35.3170777287
 20
-56.7422286961
 10
35.3084850544
 20
-56.9012917548
 10
35.2942056974
 20
-57.0562741127
 10
35.274198094
 20
-57.2074136564
 10
35.2485038078
 20
-57.3544724994
 10
35.2172475305
 20
-57.4967369815
 10
35.1804022266
 20
-57.6341837985
 10
35.1379949314
 20
-57.7668362546
 10
35.0902314429
 20
-57.8940506024
 10
35.037085726
 20
-58.0158004086
 10
34.9785838157
 20
-58.1321121065
 10
34.9150096152
 20
-58.2424212484
 10
34.8463384695
 20
-58.3466986574
 10
34.7725950336
 20
-58.4449735104
 10
34.6941371762
 20
-58.5367688907
 10
34.6109419817
 20
-58.6220533031
 10
34.5230323656
 20
-58.7008582427
 10
34.4308349434
 20
-58.772801278
 10
34.3343288733
 20
-58.8378490551
 10
34.284570468
 20
-58.8677693271
  0
LWPOLYLINE
  5
29F
100
AcDbEntity
  8
SMUSSO
100
AcDbPolyline
 62
7
  6
CONTINUOUS
 90
12
 70
0
 10
14.698985737
 20
-59.837664232
 10
14.6864737531
 20
-59.87727477
 10
14.6563264638
 20
-59.9555047945
 10
14.6220890119
 20
-60.0295169626
 10
14.5838465249
 20
-60.0991280644
 10
14.5416936656
 20
-60.1641661528
 10
14.49573538
 20
-60.2244694547
 10
14.4460858526
 20
-60.2798882824
 10
14.3928673718
 20
-60.3302859432
 10
14.336211531
 20
-60.3755372582
 10
14.2762594557
 20
-60.4155289828
 10
14.2608251742
 20
-60.424663393
  0
LINE
  5
2A0
100
AcDbEntity
  8
SMUSSO
100
AcDbLine
 62
250
  6
CONTINUOUS
 10
9.846461928
 20
-54.3915071969
 11
10.5358910397
 21
-53.1973809485
  0
LINE
  5
2A1
100
AcDbEntity
  8
SMUSSO
100
AcDbLine
 62
250
  6
CONTINUOUS
 10
9.3338095117
 20
-60.9539156514
 11
10.5358910397
 21
-58.8718493722
  0
LINE
  5
2A2
100
AcDbEntity
  8
SMUSSO
100
AcDbLine
 62
250
  6
CONTINUOUS
 10
12.3213356622
 20
-55.8204682735
 11
13.0107647738
 21
-54.6263420251
  0
LWPOLYLINE
  5
2A3
100
AcDbEntity
  8
ASSI
100
AcDbPolyline
 62
7
  6
CONTINUOUS
 90
44
 70
0
 10
9.2630270369
 20
-49.0689537885
 10
9.2170919848
 20
-49.1291946087
 10
9.1749850568
 20
-49.1941977402
 10
9.1366779588
 20
-49.2639279844
 10
9.1024552238
 20
-49.3378674074
 10
9.0723472644
 20
-49.4160473512
 10
9.0463236679
 20
-49.4984364737
 10
9.0245777294
 20
-49.584422815
 10
9.0071413006
 20
-49.6740331603
 10
8.9939825298
 20
-49.7672407243
 10
8.985199156
 20
-49.8633531911
 10
8.980823759
 20
-49.9623921909
 10
8.980823759
 20
-50.0643360935
 10
8.985199156
 20
-50.1684276921
 10
8.9939825298
 20
-50.2746829788
 10
9.0071413006
 20
-50.3830859615
 10
9.0245777294
 20
-50.4928314577
 10
9.0463236679
 20
-50.6039294637
 10
9.0723472644
 20
-50.7163699832
 10
9.1024552238
 20
-50.8293178438
 10
9.1366779588
 20
-50.9427768234
 10
9.1749850568
 20
-51.0567431441
 10
9.2170919848
 20
-51.1703703006
 10
9.2630270369
 20
-51.2836557676
 10
9.3127619191
 20
-51.3966020703
 10
9.3659272165
 20
-51.5083702799
 10
9.4225484726
 20
-51.618951624
 10
9.4826001439
 20
-51.728354875
 10
9.5456361859
 20
-51.8357674205
 10
9.6116788206
 20
-51.9411744374
 10
9.6807058259
 20
-52.0445907488
 10
9.7522044914
 20
-52.1452482114
 10
9.8261932214
 20
-52.2431262824
 10
9.9026536116
 20
-52.3382455047
 10
9.9810177386
 20
-52.4298993631
 10
10.0612997779
 20
-52.5180620539
 10
10.1434855541
 20
-52.6027593809
 10
10.2269646175
 20
-52.6833622392
 10
10.3117465981
 20
-52.759840141
 10
10.3978218659
 20
-52.8322235743
 10
10.4845510813
 20
-52.899974898
 10
10.5717211312
 20
-52.9629148984
 10
10.6595451288
 20
-53.0212227892
 10
10.748023074
 20
-53.0748985705
  0
LWPOLYLINE
  5
2A4
100
AcDbEntity
  8
ASSI
100
AcDbPolyline
 62
7
  6
CONTINUOUS
 90
14
 70
0
 10
-17.0755577266
 20
-52.2710657969
 10
-17.1026578617
 20
-52.2881885151
 10
-17.1366039909
 20
-52.3143674084
 10
-17.168177441
 20
-52.3444137739
 10
-17.1970211642
 20
-52.3779878328
 10
-17.2231041749
 20
-52.4151296289
 10
-17.2464574587
 20
-52.4557991185
 10
-17.2668169257
 20
-52.4995363915
 10
-17.2841485921
 20
-52.5463762712
 10
-17.2984864417
 20
-52.5962839342
 10
-17.3096683351
 20
-52.648695001
 10
-17.3176402259
 20
-52.7034213449
 10
-17.3224561606
 20
-52.7606510924
 10
-17.3241161391
 20
-52.8203842436
  0
LWPOLYLINE
  5
2A5
100
AcDbEntity
  8
ASSI
100
AcDbPolyline
 62
7
  6
CONTINUOUS
 90
14
 70
0
 10
-15.8756182767
 20
-54.3495617144
 10
-15.8485181416
 20
-54.3324389962
 10
-15.8145720124
 20
-54.3062601029
 10
-15.7829985623
 20
-54.2762137374
 10
-15.7541548391
 20
-54.2426396785
 10
-15.7280718284
 20
-54.2054978824
 10
-15.7047185446
 20
-54.1648283928
 10
-15.6843590776
 20
-54.1210911197
 10
-15.6670274112
 20
-54.0742512401
 10
-15.6526895616
 20
-54.024343577
 10
-15.6415076682
 20
-53.9719325103
 10
-15.6335357774
 20
-53.9172061664
 10
-15.6287198427
 20
-53.8599764189
 10
-15.6270598642
 20
-53.8002432676
  0
LINE
  5
2A6
100
AcDbEntity
  8
0
100
AcDbLine
 62
7
  6
CONTINUOUS
 10
-32.9158206642
 20
-59.8623200434
 11
-25.3144227665
 21
-55.4733681652
  0
LWPOLYLINE
  5
2A7
100
AcDbEntity
  8
0
100
AcDbPolyline
 62
7
  6
CONTINUOUS
 90
3
 70
0
 10
-25.2659804533
 20
-55.4478392798
 10
-25.2884821182
 20
-55.4590970673
 10
-25.3144227665
 20
-55.4733681652
  0
LWPOLYLINE
  5
2A8
100
AcDbEntity
  8
0
100
AcDbPolyline
 62
7
  6
CONTINUOUS
 90
5
 70
0
 10
50.4435500877
 20
55.8308488852
 10
50.4373457062
 20
55.7554186475
 10
50.424894842
 20
55.6802463618
 10
50.4062395964
 20
55.6053302896
 10
50.3815062725
 20
55.531177642
  0
LINE
  5
2A9
100
AcDbEntity
  8
SMUSSO
100
AcDbLine
 62
250
  6
CONTINUOUS
 10
11.8086832458
 20
-62.3828767281
 11
13.0107647738
 21
-60.3008104488
  0
LWPOLYLINE
  5
2AA
100
AcDbEntity
  8
ASSI
100
AcDbPolyline
 62
7
  6
CONTINUOUS
 90
44
 70
0
 10
9.2630270369
 20
-54.7434222122
 10
9.2170919848
 20
-54.8036630324
 10
9.1749850568
 20
-54.8686661639
 10
9.1366779588
 20
-54.9383964081
 10
9.1024552238
 20
-55.0123358311
 10
9.0723472644
 20
-55.0905157749
 10
9.0463236679
 20
-55.1729048974
 10
9.0245777294
 20
-55.2588912387
 10
9.0071413006
 20
-55.348501584
 10
8.9939825298
 20
-55.441709148
 10
8.985199156
 20
-55.5378216148
 10
8.980823759
 20
-55.6368606146
 10
8.980823759
 20
-55.7388045172
 10
8.985199156
 20
-55.8428961158
 10
8.9939825298
 20
-55.9491514025
 10
9.0071413006
 20
-56.0575543852
 10
9.0245777294
 20
-56.1672998814
 10
9.0463236679
 20
-56.2783978874
 10
9.0723472644
 20
-56.3908384069
 10
9.1024552238
 20
-56.5037862675
 10
9.1366779588
 20
-56.6172452471
 10
9.1749850568
 20
-56.7312115678
 10
9.2170919848
 20
-56.8448387244
 10
9.2630270369
 20
-56.9581241913
 10
9.3127619191
 20
-57.071070494
 10
9.3659272165
 20
-57.1828387036
 10
9.4225484726
 20
-57.2934200478
 10
9.4826001439
 20
-57.4028232987
 10
9.5456361859
 20
-57.5102358442
 10
9.6116788206
 20
-57.6156428611
 10
9.6807058259
 20
-57.7190591725
 10
9.7522044914
 20
-57.8197166351
 10
9.8261932214
 20
-57.9175947062
 10
9.9026536116
 20
-58.0127139284
 10
9.9810177386
 20
-58.1043677868
 10
10.0612997779
 20
-58.1925304776
 10
10.1434855541
 20
-58.2772278046
 10
10.2269646175
 20
-58.3578306629
 10
10.3117465981
 20
-58.4343085647
 10
10.3978218659
 20
-58.506691998
 10
10.4845510813
 20
-58.5744433217
 10
10.5717211312
 20
-58.6373833221
 10
10.6595451288
 20
-58.6956912129
 10
10.748023074
 20
-58.7493669942
  0
LWPOLYLINE
  5
2AB
100
AcDbEntity
  8
ASSI
100
AcDbPolyline
 62
7
  6
CONTINUOUS
 90
3
 70
0
 10
9.3659272165
 20
-48.9630658244
 10
9.3127619191
 20
-49.0134400811
 10
9.2630270369
 20
-49.0689537885
  0
LWPOLYLINE
  5
2AC
100
AcDbEntity
  8
ASSI
100
AcDbPolyline
 62
7
  6
CONTINUOUS
 90
3
 70
0
 10
9.3659272165
 20
-54.6375342481
 10
9.3127619191
 20
-54.6879085048
 10
9.2630270369
 20
-54.7434222122
  0
LINE
  5
2AD
100
AcDbEntity
  8
ASSI
100
AcDbLine
 62
7
  6
CONTINUOUS
 10
9.3987636894
 20
-48.9368549106
 11
9.3659272165
 21
-48.9630658244
  0
LWPOLYLINE
  5
2AE
100
AcDbEntity
  8
ASSI
100
AcDbPolyline
 62
7
  6
CONTINUOUS
 90
3
 70
0
 10
-48.1459910962
 20
85.3608889408
 10
-47.8817488065
 20
85.1713046091
 10
-47.7444740168
 20
85.0716610255
  0
LINE
  5
2AF
100
AcDbEntity
  8
0
100
AcDbLine
 62
250
  6
CONTINUOUS
 10
49.6388960393
 20
-98.7504750579
 11
49.6388960393
 21
54.7459369791
  0
LINE
  5
2B0
100
AcDbEntity
  8
0
100
AcDbLine
 62
7
  6
CONTINUOUS
 10
50.444352391
 20
55.8686921108
 11
50.444352391
 21
-97.6277199263
  0
LINE
  5
2B1
100
AcDbEntity
  8
RACCORDO
100
AcDbLine
 62
7
  6
CONTINUOUS
 10
51.3005969751
 20
-94.9331076103
 11
51.3005969751
 21
55.2974233196
  0
LINE
  5
2B2
100
AcDbEntity
  8
0
100
AcDbLine
 62
7
  6
CONTINUOUS
 10
50.444352391
 20
55.8686921108
 11
50.4435500877
 21
55.8308488852
  0
LWPOLYLINE
  5
2B3
100
AcDbEntity
  8
0
100
AcDbPolyline
 62
7
  6
CONTINUOUS
 90
18
 70
0
 10
50.444352391
 20
-97.6277199263
 10
50.4435500877
 20
-97.6655631518
 10
50.4373457062
 20
-97.7409933895
 10
50.424894842
 20
-97.8161656752
 10
50.4062395964
 20
-97.8910817474
 10
50.3815062725
 20
-97.9652343951
 10
50.3506536263
 20
-98.0386184378
 10
50.3137229019
 20
-98.1112390558
 10
50.2709641348
 20
-98.1826045793
 10
50.2223377775
 20
-98.2527064915
 10
50.1678833775
 20
-98.3215533091
 10
50.1079696123
 20
-98.3886789122
 10
50.0425594364
 20
-98.4540716211
 10
49.9716898953
 20
-98.5177431156
 10
49.8958408036
 20
-98.5792623146
 10
49.8151720994
 20
-98.6384855245
 10
49.7295238447
 20
-98.6955564389
 10
49.6388960393
 20
-98.7504750579
  0
LINE
  5
2B4
100
AcDbEntity
  8
ASSI
100
AcDbLine
 62
7
  6
CONTINUOUS
 10
9.3987636894
 20
-54.6113233343
 11
9.3659272165
 21
-54.6375342481
  0
LINE
  5
2B5
100
AcDbEntity
  8
SMUSSO
100
AcDbLine
 62
250
  6
CONTINUOUS
 10
10.5358910397
 20
-53.1973809485
 11
10.748023074
 21
-53.0748985705
  0
LINE
  5
2B6
100
AcDbEntity
  8
SMUSSO
100
AcDbLine
 62
250
  6
CONTINUOUS
 10
13.0107647738
 20
-54.6263420251
 11
13.2228968082
 21
-54.5038596471
  0
LWPOLYLINE
  5
2B7
100
AcDbEntity
  8
SMUSSO
100
AcDbPolyline
 62
7
  6
CONTINUOUS
 90
17
 70
0
 10
9.2858306393
 20
-48.9911766203
 10
9.3334954481
 20
-48.9656787744
 10
9.3995848202
 20
-48.9364922815
 10
9.4685002407
 20
-48.9128243395
 10
9.5400699857
 20
-48.8947341042
 10
9.6141162113
 20
-48.8822666467
 10
9.6904547967
 20
-48.8754530829
 10
9.7688952608
 20
-48.8743104402
 10
9.8492425997
 20
-48.8788415131
 10
9.9312969744
 20
-48.8890349871
 10
10.0148534455
 20
-48.9048652664
 10
10.0997043157
 20
-48.9262927908
 10
10.1856384699
 20
-48.9532640398
 10
10.2724409492
 20
-48.9857112184
 10
10.3598954679
 20
-49.0235530031
 10
10.4477849975
 20
-49.0666950136
 10
10.5312319165
 20
-49.112473592
  0
LWPOLYLINE
  5
2B8
100
AcDbEntity
  8
SMUSSO
100
AcDbPolyline
 62
7
  6
CONTINUOUS
 90
17
 70
0
 10
9.2858306393
 20
-54.665645044
 10
9.3334954481
 20
-54.6401471982
 10
9.3995848202
 20
-54.6109607052
 10
9.4685002407
 20
-54.5872927632
 10
9.5400699857
 20
-54.5692025279
 10
9.6141162113
 20
-54.5567350704
 10
9.6904547967
 20
-54.5499215066
 10
9.7688952608
 20
-54.5487788639
 10
9.8492425997
 20
-54.5533099368
 10
9.9312969744
 20
-54.5635034109
 10
10.0148534455
 20
-54.5793336901
 10
10.0997043157
 20
-54.6007612145
 10
10.1856384699
 20
-54.6277324635
 10
10.2724409492
 20
-54.6601796422
 10
10.3598954679
 20
-54.6980214268
 10
10.4477849975
 20
-54.7411634373
 10
10.5358910397
 20
-54.7894979882
  0
LWPOLYLINE
  5
2B9
100
AcDbEntity
  8
ASSI
100
AcDbPolyline
 62
7
  6
CONTINUOUS
 90
49
 70
0
 10
15.89513629
 20
48.326947626
 10
16.072662844
 20
48.2448209264
 10
16.2548100645
 20
48.1588057027
 10
16.4414129695
 20
48.0689192233
 10
16.6323307638
 20
47.9751742992
 10
16.8273606295
 20
47.8776169348
 10
17.0262389359
 20
47.7763343983
 10
17.2288501517
 20
47.6714090856
 10
17.4349443278
 20
47.5628860766
 10
17.6440543445
 20
47.4508270891
 10
17.8558178697
 20
47.3354717318
 10
18.0702231376
 20
47.216792155
 10
18.287314593
 20
47.0944364246
 10
18.5068399711
 20
46.9685506102
 10
18.7286304194
 20
46.8391820196
 10
18.9528116359
 20
46.7057669444
 10
19.1795134296
 20
46.5682310033
 10
19.4080922429
 20
46.42681791
 10
19.6374869601
 20
46.2814306052
 10
19.8681181188
 20
46.131905676
 10
20.0990189619
 20
45.9786888136
 10
20.3271425183
 20
45.8227202527
 10
20.5520775288
 20
45.6645512519
 10
20.7739076574
 20
45.5041799953
 10
20.9904809025
 20
45.3418434829
 10
21.2016084008
 20
45.1779342664
 10
21.407289418
 20
45.0126649363
 10
21.6057521104
 20
44.846042918
 10
21.7969760955
 20
44.678293469
 10
21.9809119685
 20
44.5097824392
 10
22.1558437575
 20
44.3407394125
 10
22.3216938345
 20
44.17141135
 10
22.4786367851
 20
44.0020931592
 10
22.625445545
 20
43.8330772318
 10
22.761932933
 20
43.6647822137
 10
22.8885439923
 20
43.4972331595
 10
23.005040229
 20
43.3301080527
 10
23.1114744085
 20
43.163522477
 10
23.2080457948
 20
42.9977037039
 10
23.2947135463
 20
42.83247797
 10
23.3714940067
 20
42.6680678788
 10
23.4386355546
 20
42.5045090245
 10
23.4963968997
 20
42.3413431825
 10
23.5448739622
 20
42.1785078552
 10
23.5841626368
 20
42.0162855604
 10
23.6144786712
 20
41.8547372767
 10
23.6359595824
 20
41.69394039
 10
23.6486717887
 20
41.5339857051
 10
23.6527218307
 20
41.3749440477
  0
LWPOLYLINE
  5
2BA
100
AcDbEntity
  8
ASSI
100
AcDbPolyline
 62
7
  6
CONTINUOUS
 90
22
 70
0
 10
15.89513629
 20
48.326947626
 10
12.611217905
 20
49.9226112559
 10
9.3516145361
 20
51.5342487703
 10
6.1163261834
 20
53.1618601694
 10
2.905118103
 20
54.8055677037
 10
-0.2817749612
 20
56.4652491226
 10
-3.443648778
 20
58.1405376741
 10
-6.5804978185
 20
59.8314368073
 10
-9.6923276115
 20
61.537943073
 10
-12.7784505133
 20
63.259679372
 10
-15.8388608427
 20
64.9966490701
 10
-18.8735642808
 20
66.7488488015
 10
-21.8818902269
 20
68.5158913697
 10
-24.8638328516
 20
70.297780055
 10
-27.8193979844
 20
72.0945115771
 10
-30.7479325121
 20
73.9056888991
 10
-33.6494304611
 20
75.7313152134
 10
-36.5238978052
 20
77.5713873275
 10
-39.370699352
 20
79.4254986272
 10
-42.1896233708
 20
81.2935135744
 10
-44.9808815924
 20
83.1755677071
 10
-47.7444740168
 20
85.0716610255
  0
LWPOLYLINE
  5
2BB
100
AcDbEntity
  8
ASSI
100
AcDbPolyline
 62
7
  6
CONTINUOUS
 90
49
 70
0
 10
12.611217905
 20
51.5555518095
 10
16.1176285913
 20
49.8509731942
 10
16.3449202474
 20
49.7363995886
 10
16.5767991385
 20
49.6161895653
 10
16.8130825228
 20
49.4903586026
 10
17.0535113539
 20
49.3589668419
 10
17.297751836
 20
49.2221294635
 10
17.5456397485
 20
49.0799433511
 10
17.7968694086
 20
48.9324755182
 10
18.0508924332
 20
48.7798354555
 10
18.3072476905
 20
48.6223339589
 10
18.565915329
 20
48.4599324941
 10
18.8269905204
 20
48.2922005313
 10
19.0901473575
 20
48.1193249699
 10
19.3551703109
 20
47.9413675386
 10
19.6222637201
 20
47.75762814
 10
19.8915449803
 20
47.5679825589
 10
20.1622361623
 20
47.3727727237
 10
20.4331642088
 20
47.1719842599
 10
20.7047747922
 20
46.9653522027
 10
20.9759199579
 20
46.7535044463
 10
21.2431584626
 20
46.5379248684
 10
21.5059753395
 20
46.3193301947
 10
21.7644643616
 20
46.0977101259
 10
22.0162935757
 20
45.8736204853
 10
22.2612288906
 20
45.6475710247
 10
22.4992606293
 20
45.4198300324
 10
22.7285194142
 20
45.1906430378
 10
22.9489826644
 20
44.9603017508
 10
23.1605832342
 20
44.7292744566
 10
23.3615127061
 20
44.4980860378
 10
23.5517022075
 20
44.2670718773
 10
23.7313452708
 20
44.0365932803
 10
23.8991692688
 20
43.8072022979
 10
24.0549930445
 20
43.5794715462
 10
24.1993292919
 20
43.3533988811
 10
24.33199789
 20
43.1286433291
 10
24.4530882453
 20
42.9053659494
 10
24.5628349892
 20
42.6838464965
 10
24.66124743
 20
42.4638972541
 10
24.7483711438
 20
42.2458186088
 10
24.8245009119
 20
42.0296421423
 10
24.8899574911
 20
41.8147718552
 10
24.9448701777
 20
41.6011308407
 10
24.9893562947
 20
41.3890788888
 10
25.0236634517
 20
41.1786772058
 10
25.0479585293
 20
40.9700195563
 10
25.0623368496
 20
40.7632284208
 10
25.0669353931
 20
40.558394861
  0
LWPOLYLINE
  5
2BC
100
AcDbEntity
  8
ASSI
100
AcDbPolyline
 62
7
  6
CONTINUOUS
 90
21
 70
0
 10
12.611217905
 20
51.5555518095
 10
9.3516145361
 20
53.1671893239
 10
6.1163261834
 20
54.794800723
 10
2.905118103
 20
56.4385082573
 10
-0.2817749612
 20
58.0981896762
 10
-3.443648778
 20
59.7734782277
 10
-6.5804978185
 20
61.4643773608
 10
-9.6923276115
 20
63.1708836265
 10
-12.7784505133
 20
64.8926199256
 10
-15.8388608427
 20
66.6295896237
 10
-18.8735642808
 20
68.3817893551
 10
-21.8818902269
 20
70.1488319233
 10
-24.8638328516
 20
71.9307206086
 10
-27.8193979844
 20
73.7274521307
 10
-30.7479325121
 20
75.5386294527
 10
-33.6494304611
 20
77.3642557669
 10
-36.5238978052
 20
79.2043278811
 10
-39.370699352
 20
81.0584391808
 10
-42.1896233708
 20
82.926454128
 10
-44.9808815924
 20
84.8085082607
 10
-47.9267287133
 20
86.8293898501
  0
LINE
  5
2BD
100
AcDbEntity
  8
ASSI
100
AcDbLine
 62
250
  6
CONTINUOUS
 10
-51.3005969751
 20
84.6520509404
 11
-49.8863834127
 21
83.8355017537
  0
LINE
  5
2BE
100
AcDbEntity
  8
ASSI
100
AcDbLine
 62
250
  6
CONTINUOUS
 10
25.0669353931
 20
40.558394861
 11
23.6527218307
 21
41.3749440477
  0
LINE
  5
2BF
100
AcDbEntity
  8
RACCORDO
100
AcDbLine
 62
7
  6
CONTINUOUS
 10
23.6028557657
 20
41.916673492
 11
-10.6419570569
 21
61.6891992275
  0
LINE
  5
2C0
100
AcDbEntity
  8
SMUSSO
100
AcDbLine
 62
250
  6
CONTINUOUS
 10
10.5358910397
 20
-58.8718493722
 11
10.748023074
 21
-58.7493669942
  0
LINE
  5
2C1
100
AcDbEntity
  8
SMUSSO
100
AcDbLine
 62
250
  6
CONTINUOUS
 10
13.0107647738
 20
-60.3008104488
 11
13.2228968082
 21
-60.1783280708
  0
LWPOLYLINE
  5
2C2
100
AcDbEntity
  8
SMUSSO
100
AcDbPolyline
 62
7
  6
CONTINUOUS
 90
17
 70
0
 10
14.2608251742
 20
-54.7501949693
 10
14.2131603655
 20
-54.7756928152
 10
14.1470709933
 20
-54.8048793082
 10
14.0781555728
 20
-54.8285472501
 10
14.0065858278
 20
-54.8466374855
 10
13.9325396022
 20
-54.859104943
 10
13.8562010169
 20
-54.8659185067
 10
13.7777605527
 20
-54.8670611495
 10
13.6974132138
 20
-54.8625300766
 10
13.6153588391
 20
-54.8523366025
 10
13.531802368
 20
-54.8365063233
 10
13.4469514978
 20
-54.8150787989
 10
13.3610173436
 20
-54.7881075499
 10
13.2742148643
 20
-54.7556603712
 10
13.1867603456
 20
-54.7178185866
 10
13.098870816
 20
-54.674676576
 10
13.0107647738
 20
-54.6263420251
  0
LWPOLYLINE
  5
2C3
100
AcDbEntity
  8
SMUSSO
100
AcDbPolyline
 62
7
  6
CONTINUOUS
 90
17
 70
0
 10
14.2608251742
 20
-60.424663393
 10
14.2131603655
 20
-60.4501612389
 10
14.1470709933
 20
-60.4793477319
 10
14.0781555728
 20
-60.5030156739
 10
14.0065858278
 20
-60.5211059092
 10
13.9325396022
 20
-60.5335733667
 10
13.8562010169
 20
-60.5403869305
 10
13.7777605527
 20
-60.5415295732
 10
13.6974132138
 20
-60.5369985003
 10
13.6153588391
 20
-60.5268050262
 10
13.531802368
 20
-60.510974747
 10
13.4469514978
 20
-60.4895472226
 10
13.3610173436
 20
-60.4625759736
 10
13.2742148643
 20
-60.4301287949
 10
13.1867603456
 20
-60.3922870103
 10
13.098870816
 20
-60.3491449997
 10
13.0107647738
 20
-60.3008104488
  0
LINE
  5
2C4
100
AcDbEntity
  8
RACCORDO
100
AcDbLine
 62
250
  6
CONTINUOUS
 10
31.7844498143
 20
-58.6200633538
 11
33.1986633767
 21
-57.8035141672
  0
LWPOLYLINE
  5
2C5
100
AcDbEntity
  8
RACCORDO
100
AcDbPolyline
 62
7
  6
CONTINUOUS
 90
21
 70
0
 10
34.284570468
 20
-58.8677693271
 10
34.2335349972
 20
-58.8960349278
 10
34.1289424563
 20
-58.9470765267
 10
34.0205327865
 20
-58.9909391253
 10
33.9083244519
 20
-59.02765745
 10
33.7928619872
 20
-59.0570533111
 10
33.6741295747
 20
-59.0790911157
 10
33.5521430319
 20
-59.0938064567
 10
33.427494346
 20
-59.101127922
 10
33.3001705768
 20
-59.101019572
 10
33.1701846643
 20
-59.0935173463
 10
33.0381674157
 20
-59.0786576525
 10
32.904108957
 20
-59.0564047277
 10
32.7680191622
 20
-59.0267943348
 10
32.6305584596
 20
-58.9899701696
 10
32.4917201858
 20
-58.9458971678
 10
32.3515110042
 20
-58.8946103938
 10
32.2106113343
 20
-58.8363587365
 10
32.0692479826
 20
-58.7712251589
 10
31.9271941426
 20
-58.699126698
 10
31.7844498143
 20
-58.6200633538
  0
LWPOLYLINE
  5
2C6
100
AcDbEntity
  8
0
100
AcDbPolyline
 62
7
  6
CONTINUOUS
 90
9
 70
0
 10
44.1659073917
 20
66.0335017894
 10
44.0827276335
 20
66.032147476
 10
43.9977083293
 20
66.0250799969
 10
43.9108618775
 20
66.0123378588
 10
43.8227762625
 20
65.9940073308
 10
43.7334430759
 20
65.9700504919
 10
43.6428707261
 20
65.9405052631
 10
43.5516724234
 20
65.9055716773
 10
43.4600525714
 20
65.865316412
  0
LWPOLYLINE
  5
2C7
100
AcDbEntity
  8
0
100
AcDbPolyline
 62
7
  6
CONTINUOUS
 90
6
 70
0
 10
44.2472600023
 20
66.0291814438
 10
44.3340756644
 20
66.017863647
 10
44.4179090875
 20
65.999766863
 10
44.4985897536
 20
65.9748391732
 10
44.5761433291
 20
65.9431361875
 10
44.6500017228
 20
65.9048788908
  0
LWPOLYLINE
  5
2C8
100
AcDbEntity
  8
0
100
AcDbPolyline
 62
7
  6
CONTINUOUS
 90
5
 70
0
 10
44.6167627736
 20
65.9231405476
 10
44.5483402893
 20
65.955475225
 10
44.4770179423
 20
65.9822713387
 10
44.4028152775
 20
66.0035662184
 10
44.3262346762
 20
66.0192156894
  0
LWPOLYLINE
  5
2C9
100
AcDbEntity
  8
0
100
AcDbPolyline
 62
7
  6
CONTINUOUS
 90
5
 70
0
 10
-19.0228475331
 20
102.6678539471
 10
-19.0912700175
 20
102.7001886245
 10
-19.1625923645
 20
102.7269847382
 10
-19.2367950292
 20
102.7482796179
 10
-19.3133756306
 20
102.7639290889
  0
LINE
  5
2CA
100
AcDbEntity
  8
0
100
AcDbLine
 62
7
  6
CONTINUOUS
 10
-19.0634669777
 20
102.687849587
 11
-18.989608584
 21
102.6495922903
  0
LINE
  5
2CB
100
AcDbEntity
  8
0
100
AcDbLine
 62
7
  6
CONTINUOUS
 10
44.6500013361
 20
65.9048791141
 11
44.6167627736
 21
65.9231405476
  0
LINE
  5
2CC
100
AcDbEntity
  8
0
100
AcDbLine
 62
250
  6
CONTINUOUS
 10
43.2749350086
 20
65.7686408102
 11
-20.3646752982
 21
102.5133542097
  0
LINE
  5
2CD
100
AcDbEntity
  8
0
100
AcDbLine
 62
7
  6
CONTINUOUS
 10
-18.9896088578
 20
102.6495924483
 11
44.650001449
 21
65.9048790489
  0
LINE
  5
2CE
100
AcDbEntity
  8
RACCORDO
100
AcDbLine
 62
7
  6
CONTINUOUS
 10
44.2295291632
 20
67.5448720208
 11
-13.0461201129
 21
100.6151140803
  0
LWPOLYLINE
  5
2CF
100
AcDbEntity
  8
0
100
AcDbPolyline
 62
250
  6
CONTINUOUS
 90
46
 70
0
 10
43.2749350086
 20
65.7686408102
 10
43.4970340456
 20
65.6359272651
 10
43.7188624892
 20
65.4944227217
 10
43.9401500754
 20
65.3442995813
 10
44.1606271996
 20
65.185740746
 10
44.3800252443
 20
65.0189393952
 10
44.5980769068
 20
64.8440987508
 10
44.8145165247
 20
64.661431829
 10
45.0290803996
 20
64.4711611815
 10
45.2415071186
 20
64.2735186237
 10
45.4515378724
 20
64.0687449525
 10
45.658916771
 20
63.8570896532
 10
45.8633911549
 20
63.6388105952
 10
46.0647119038
 20
63.4141737178
 10
46.2626337392
 20
63.1834527065
 10
46.456915524
 20
62.9469286594
 10
46.6473205556
 20
62.7048897444
 10
46.8336168549
 20
62.4576308488
 10
47.0155774486
 20
62.2054532195
 10
47.1929806457
 20
61.9486640959
 10
47.3656103077
 20
61.6875763362
 10
47.5332561119
 20
61.4225080355
 10
47.6957138079
 20
61.1537821388
 10
47.8527854658
 20
60.8817260471
 10
48.0042797181
 20
60.6066712189
 10
48.1500119924
 20
60.3289527661
 10
48.2898047363
 20
60.0489090459
 10
48.423487634
 20
59.7668812484
 10
48.5508978133
 20
59.4832129811
 10
48.6718800447
 20
59.19824985
 10
48.7862869299
 20
58.9123390388
 10
48.8939790817
 20
58.6258288858
 10
48.9948252939
 20
58.3390684595
 10
49.0887027008
 20
58.0524071332
 10
49.1754969274
 20
57.7661941598
 10
49.2551022281
 20
57.4807782455
 10
49.3274216163
 20
57.1965071257
 10
49.3923669819
 20
56.913727141
 10
49.4498591989
 20
56.6327828152
 10
49.4998282219
 20
56.3540164357
 10
49.5422131715
 20
56.0777676365
 10
49.576962408
 20
55.804372984
 10
49.6040335949
 20
55.5341655676
 10
49.6233937501
 20
55.2674745935
 10
49.6350192862
 20
55.0046249834
 10
49.6388960393
 20
54.7459369791
  0
LWPOLYLINE
  5
2D0
100
AcDbEntity
  8
RACCORDO
100
AcDbPolyline
 62
7
  6
CONTINUOUS
 90
46
 70
0
 10
44.2295291632
 20
67.5448720208
 10
44.4768048961
 20
67.3970739856
 10
44.7231808467
 20
67.2399105675
 10
44.9686570153
 20
67.0733817664
 10
45.2135300429
 20
66.8972620555
 10
45.4575032885
 20
66.7117769617
 10
45.6996868279
 20
66.5176030659
 10
45.940074125
 20
66.3147086358
 10
46.1786717161
 20
66.1031254038
 10
46.4146092855
 20
65.8836251468
 10
46.6478771186
 20
65.6561789515
 10
46.87848493
 20
65.4208157313
 10
47.105591548
 20
65.1783940041
 10
47.3291841859
 20
64.9288879916
 10
47.5492756302
 20
64.672323472
 10
47.7650630692
 20
64.4096362976
 10
47.9765307841
 20
64.140804108
 10
48.1836944935
 20
63.8658492636
 10
48.385798541
 20
63.5857746977
 10
48.5828244484
 20
63.3005617127
 10
48.7747906939
 20
63.0102290063
 10
48.9609970558
 20
62.7158356045
 10
49.1414224986
 20
62.4173666773
 10
49.3160880578
 20
62.1148370547
 10
49.4843566182
 20
61.8093502527
 10
49.6462048175
 20
61.5008954713
 10
49.801656018
 20
61.1894835104
 10
49.9501431914
 20
60.8762502855
 10
50.0916409045
 20
60.561189145
 10
50.2261745904
 20
60.2443067405
 10
50.3532535202
 20
59.9267589414
 10
50.4728504685
 20
59.6085433177
 10
50.5849926606
 20
59.2896622994
 10
50.6892710434
 20
58.9712790464
 10
50.7856568978
 20
58.6533953763
 10
50.8741789428
 20
58.3360094715
 10
50.9545142829
 20
58.020279038
 10
51.0266330196
 20
57.7062101216
 10
51.0905650515
 20
57.3937966766
 10
51.146077178
 20
57.0841782713
 10
51.1931386492
 20
56.7773651135
 10
51.2317802152
 20
56.4733469954
 10
51.2618609258
 20
56.1732328624
 10
51.2833337976
 20
55.877392363
 10
51.296245814
 20
55.5854558487
 10
51.3005969751
 20
55.2974233196
  0
LWPOLYLINE
  5
2D1
100
AcDbEntity
  8
0
100
AcDbPolyline
 62
7
  6
CONTINUOUS
 90
40
 70
0
 10
44.650001449
 20
65.9048790489
 10
44.9036810512
 20
65.7526380879
 10
45.1545557433
 20
65.5905699126
 10
45.4024872457
 20
65.4188850852
 10
45.6477854239
 20
65.2374410251
 10
45.8898647214
 20
65.0467233372
 10
46.1272712378
 20
64.8480386806
 10
46.3596047277
 20
64.6419840465
 10
46.5870747866
 20
64.4286163247
 10
46.8091683137
 20
64.208649878
 10
47.0256138237
 20
63.9826160793
 10
47.2365031523
 20
63.7506648238
 10
47.441837822
 20
63.5130005697
 10
47.6415124059
 20
63.2699269356
 10
47.8354099944
 20
63.0217530187
 10
48.0234715227
 20
62.7687015013
 10
48.2055539318
 20
62.5110940216
 10
48.3815551469
 20
62.2491896515
 10
48.5514453545
 20
61.9831189686
 10
48.7151011305
 20
61.7131323258
 10
48.8723672463
 20
61.4395261898
 10
49.0231435207
 20
61.1624933287
 10
49.1672743632
 20
60.8823135217
 10
49.304617305
 20
60.599236213
 10
49.4350774056
 20
60.3133930598
 10
49.5584992931
 20
60.0250188605
 10
49.6747063588
 20
59.7343882381
 10
49.78356023
 20
59.4416646456
 10
49.884895608
 20
59.1470500828
 10
49.9785096446
 20
58.8508370102
 10
50.0642079788
 20
58.5532848862
 10
50.1418262497
 20
58.2545116968
 10
50.2111251932
 20
57.9548814867
 10
50.2718318836
 20
57.6549688359
 10
50.3237775685
 20
57.3548826064
 10
50.3667369869
 20
57.054979896
 10
50.4004388198
 20
56.756134679
 10
50.4247113952
 20
56.4587597163
 10
50.4394103173
 20
56.1628657046
 10
50.444352391
 20
55.8686921108
  0
LWPOLYLINE
  5
2D2
100
AcDbEntity
  8
ASSI
100
AcDbPolyline
 62
7
  6
CONTINUOUS
 90
14
 70
0
 10
37.0181110342
 20
-83.5040721864
 10
36.9910108991
 20
-83.5211949047
 10
36.9570647699
 20
-83.547373798
 10
36.9254913198
 20
-83.5774201634
 10
36.8966475965
 20
-83.6109942223
 10
36.8705645859
 20
-83.6481360185
 10
36.8472113021
 20
-83.6888055081
 10
36.8268518351
 20
-83.7325427811
 10
36.8095201687
 20
-83.7793826607
 10
36.7951823191
 20
-83.8292903238
 10
36.7840004257
 20
-83.8817013906
 10
36.7760285349
 20
-83.9364277344
 10
36.7712126002
 20
-83.993657482
 10
36.7695526217
 20
-84.0533906332
  0
LWPOLYLINE
  5
2D3
100
AcDbEntity
  8
ASSI
100
AcDbPolyline
 62
7
  6
CONTINUOUS
 90
4
 70
0
 10
37.0877506732
 20
-83.4728897599
 10
37.0660750606
 20
-83.4805273358
 10
37.0273566403
 20
-83.4989273842
 10
37.0181110342
 20
-83.5040721864
  0
LWPOLYLINE
  5
2D4
100
AcDbEntity
  8
0
100
AcDbPolyline
 62
7
  6
CONTINUOUS
 90
5
 70
0
 10
-19.3923503045
 20
102.7738948432
 10
-19.3055346424
 20
102.7625770465
 10
-19.2217012193
 20
102.7444802625
 10
-19.1410205532
 20
102.7195525727
 10
-19.0634669777
 20
102.687849587
  0
LINE
  5
2D5
100
AcDbEntity
  8
0
100
AcDbLine
 62
7
  6
CONTINUOUS
 10
51.3005969751
 20
-94.9331076103
 11
50.444352391
 21
-95.4274925019
  0
LINE
  5
2D6
100
AcDbEntity
  8
0
100
AcDbLine
 62
7
  6
CONTINUOUS
 10
49.6388960393
 20
-98.7504750579
 11
42.0374981415
 21
-103.1394269362
  0
LWPOLYLINE
  5
2D7
100
AcDbEntity
  8
RACCORDO
100
AcDbPolyline
 62
7
  6
CONTINUOUS
 90
19
 70
0
 10
-17.001869165
 20
101.501896462
 10
-17.0002854431
 20
101.5022623319
 10
-16.7931217337
 20
101.5379897174
 10
-16.5816540188
 20
101.5626242904
 10
-16.3658665799
 20
101.5761255393
 10
-16.1457751355
 20
101.5785339757
 10
-15.9221824977
 20
101.5698408145
 10
-15.6950758797
 20
101.550005512
 10
-15.4644680683
 20
101.5190686119
 10
-15.2312002351
 20
101.4771429606
 10
-14.9952626658
 20
101.4241884264
 10
-14.7566650747
 20
101.360245141
 10
-14.5162777775
 20
101.2855463457
 10
-14.2740942381
 20
101.2000527608
 10
-14.0301209926
 20
101.1038036661
 10
-13.7852479649
 20
100.9971501426
 10
-13.5397717964
 20
100.8802092173
 10
-13.2933958457
 20
100.7528638632
 10
-13.0461201129
 20
100.6151140803
  0
LWPOLYLINE
  5
2D8
100
AcDbEntity
  8
0
100
AcDbPolyline
 62
7
  6
CONTINUOUS
 90
10
 70
0
 10
-19.4737029151
 20
102.7782151889
 10
-19.5568826732
 20
102.7768608755
 10
-19.6419019775
 20
102.7697933964
 10
-19.7287484293
 20
102.7570512583
 10
-19.8168340443
 20
102.7387207303
 10
-19.9061672309
 20
102.7147638914
 10
-19.9967395807
 20
102.6852186626
 10
-20.0879378834
 20
102.6502850768
 10
-20.1795577354
 20
102.6100298115
 10
-20.2718035404
 20
102.5643861891
  0
ENDSEC
  0
SECTION
  2
OBJECTS
  0
DICTIONARY
  5
C
100
AcDbDictionary
280
0
281
1
  3
ACAD_GROUP
350
D
  3
ACAD_MLINESTYLE
350
17
  3
ACAD_LAYOUT
350
1A
  3
ACAD_PLOTSETTINGS
350
19
  3
ACAD_PLOTSTYLENAME
350
E
  0
DICTIONARY
  5
D
102
{ACAD_REACTORS
330
C
102
}
100
AcDbDictionary
280
0
281
1
  0
ACDBDICTIONARYWDFLT
  5
E
102
{ACAD_REACTORS
330
C
102
}
100
AcDbDictionary
281
1
  3
Normal
350
F
100
AcDbDictionaryWithDefault
340
F
  0
DICTIONARY
  5
17
102
{ACAD_REACTORS
330
C
102
}
100
AcDbDictionary
280
0
281
1
  3
Standard
350
18
  0
DICTIONARY
  5
19
102
{ACAD_REACTORS
330
C
102
}
100
AcDbDictionary
281
1
  0
DICTIONARY
  5
1A
102
{ACAD_REACTORS
330
C
102
}
100
AcDbDictionary
281
1
  3
Model
350
2D9
  3
Layout1
350
2DA
  0
ACDBPLACEHOLDER
  5
F
102
{ACAD_REACTORS
330
E
102
}
  0
MLINESTYLE
  5
18
102
{ACAD_REACTORS
330
17
102
}
100
AcDbMlineStyle
  2
STANDARD
 70
0
  3

 62
256
 51
90.0
 52
90.0
 71
2
 49
0.5
 62
256
  6
BYLAYER
 49
-0.5
 62
256
  6
BYLAYER
  0
LAYOUT
  5
2D9
102
{ACAD_REACTORS
330
1A
102
}
100
AcDbPlotSettings
  1

  2
none_device
  4
ISO_A3_(420.00_x_297.00_MM)
  6

 40
0.0
 41
0.0
 42
0.0
 43
0.0
 44
420.0
 45
297.0
 46
0.0
 47
0.0
 48
0.0
 49
0.0
140
0.0
141
0.0
142
1.0
143
1.0
 70
1024
 72
1
 73
0
 74
0
  7

 75
0
147
1.0
148
0.0
149
0.0
100
AcDbLayout
  1
Model
 70
0
 71
0
 10
0.0
 20
0.0
 11
420.0
 21
297.0
 12
0.0
 22
0.0
 32
0.0
 14
0.0
 24
0.0
 34
0.0
 15
0.0
 25
0.0
 35
0.0
146
0.0
 13
0.0
 23
0.0
 33
0.0
 16
1.0
 26
0.0
 36
0.0
 17
0.0
 27
1.0
 37
0.0
 76
0
330
20E
345
0
346
0
  0
LAYOUT
  5
2DA
102
{ACAD_REACTORS
330
1A
102
}
100
AcDbPlotSettings
  1

  2
none_device
  4
ISO_A3_(420.00_x_297.00_MM)
  6

 40
0.0
 41
0.0
 42
0.0
 43
0.0
 44
420.0
 45
297.0
 46
0.0
 47
0.0
 48
0.0
 49
0.0
140
0.0
141
0.0
142
1.0
143
1.0
 70
0
 72
1
 73
0
 74
0
  7

 75
0
147
1.0
148
0.0
149
0.0
100
AcDbLayout
  1
Layout1
 70
0
 71
1
 10
0.0
 20
0.0
 11
420.0
 21
297.0
 12
0.0
 22
0.0
 32
0.0
 14
0.0
 24
0.0
 34
0.0
 15
0.0
 25
0.0
 35
0.0
146
0.0
 13
0.0
 23
0.0
 33
0.0
 16
1.0
 26
0.0
 36
0.0
 17
0.0
 27
1.0
 37
0.0
 76
0
330
20F
345
0
346
0
  0
ENDSEC
  0
EOF
