  0
SECTION
  2
HEADER
  9
$ACADVER
  1
AC1024
  9
$DWGCODEPAGE
  3
ANSI_1252
  9
$EXTMAX
 10
420.0
 20
297.0
 30
0.0
  9
$EXTMIN
 10
0.0
 20
0.0
 30
0.0
  9
$LIMMIN
 10
0.0
 20
0.0
  9
$LIMMAX
 10
420.0
 20
297.0
  9
$VIEWCTR
 10
210.0
 20
148.5
  9
$VIEWSIZE
 40
297.0
  9
$CLAYER
  8
0
  9
$LTSCALE
 40
23.1
  9
$CELTYPE
  6
BYLAYER
  9
$DIMSCALE
 40
1.0
  9
$DIMASZ
 40
3.0
  9
$DIMEXO
 40
0.5
  9
$DIMDLI
 40
15.96
  9
$DIMEXE
 40
1.5
  9
$DIMCEN
 40
3.78
  9
$DIMLFAC
 40
1.0
  9
$DIMBLK
  1
_FILLED
  9
$DIMALT
 70
0
  9
$DIMALTF
 40
0.0393700787
  9
$DIMTXT
 40
3.0
  9
$DIMTOL
 70
1
  9
$DIMLIM
 70
0
  9
$DIMTFAC
 40
1.0
  9
$DIMTP
 40
0.01
  9
$DIMTM
 40
0.01
  9
$DIMGAP
 40
0.625
  9
$DIMDSEP
 70
44
  9
$AUNITS
 70
0
  9
$PDMODE
 70
3
  9
$PDSIZE
 40
3.0
  9
$HANDSEED
  5
2AE
  9
$TILEMODE
 70
1
  9
$MEASUREMENT
 70
1
  9
$INSUNITS
 70
4
  0
ENDSEC
  0
SECTION
  2
CLASSES
  0
CLASS
  1
ACDBDICTIONARYWDFLT
  2
AcDbDictionaryWithDefault
  3
AutoCAD 2000
 90
0
 91
1
280
0
281
0
  0
CLASS
  1
ACDBPLACEHOLDER
  2
AcDbPlaceHolder
  3
AutoCAD 2000
 90
0
 91
1
280
0
281
0
  0
CLASS
  1
LAYOUT
  2
AcDbLayout
  3
AutoCAD 2000
 90
0
 91
0
280
0
281
0
  0
ENDSEC
  0
SECTION
  2
TABLES
  0
TABLE
  2
VPORT
  5
8
100
AcDbSymbolTable
 70
2
  0
VPORT
  5
1F4
100
AcDbSymbolTableRecord
100
AcDbViewportTableRecord
  2
*ACTIVE
 70
0
 10
0.0
 20
0.0
 11
1.0
 21
1.0
 12
210.0
 22
148.5
 13
0.0
 23
0.0
 14
1.0
 24
1.0
 15
0.0
 25
0.0
 16
0.0
 26
0.0
 36
1.0
 17
0.0
 27
0.0
 37
0.0
 40
297.0
 41
1.4141414141
 42
50.0
 43
0.0
 44
0.0
 50
0.0
 51
0.0
 71
0
 72
100
 73
1
 74
1
 75
0
 76
0
 77
0
 78
0
  0
ENDTAB
  0
TABLE
  2
LTYPE
  5
5
100
AcDbSymbolTable
 70
6
  0
LTYPE
  5
14
100
AcDbSymbolTableRecord
100
AcDbLinetypeTableRecord
  2
BYBLOCK
 70
0
  3

 72
65
 73
0
 40
0.0
  0
LTYPE
  5
15
100
AcDbSymbolTableRecord
100
AcDbLinetypeTableRecord
  2
BYLAYER
 70
0
  3

 72
65
 73
0
 40
0.0
  0
LTYPE
  5
16
100
AcDbSymbolTableRecord
100
AcDbLinetypeTableRecord
  2
CONTINUOUS
 70
64
  3
Solid line
 72
65
 73
0
 40
0.0
  0
LTYPE
  5
1F5
100
AcDbSymbolTableRecord
100
AcDbLinetypeTableRecord
  2
CENTER
 70
64
  3
____ _ ____ _ ____ _ ____ _ ____ _ ____ _ ____
 72
65
 73
4
 40
0.6
 49
0.375
 74
0
 49
-0.075
 74
0
 49
0.075
 74
0
 49
-0.075
 74
0
  0
LTYPE
  5
1F6
100
AcDbSymbolTableRecord
100
AcDbLinetypeTableRecord
  2
HIDDEN
 70
64
  3
- - - - - - - - - - - - - - - - - - - -
 72
65
 73
2
 40
0.2
 49
0.1
 74
0
 49
-0.1
 74
0
  0
LTYPE
  5
1F7
100
AcDbSymbolTableRecord
100
AcDbLinetypeTableRecord
  2
PHANTOM
 70
64
  3
_____ _ _ _____ _ _ _____ _ _ _____
 72
65
 73
6
 40
0.8
 49
0.45
 74
0
 49
-0.05
 74
0
 49
0.1
 74
0
 49
-0.05
 74
0
 49
0.1
 74
0
 49
-0.05
 74
0
  0
LTYPE
  5
1F8
100
AcDbSymbolTableRecord
100
AcDbLinetypeTableRecord
  2
DOT
 70
64
  3
. . . . . . . . . . . . . . . . . . . .
 72
65
 73
2
 40
0.2
 49
0.1
 74
0
 49
-0.1
 74
0
  0
LTYPE
  5
1F9
100
AcDbSymbolTableRecord
100
AcDbLinetypeTableRecord
  2
DASHED
 70
64
  3
- - - - - - - - - - - - - - - - - - - -
 72
65
 73
2
 40
0.2
 49
0.1
 74
0
 49
-0.1
 74
0
  0
ENDTAB
  0
TABLE
  2
LAYER
  5
2
100
AcDbSymbolTable
 70
36
  0
LAYER
  5
10
100
AcDbSymbolTableRecord
100
AcDbLayerTableRecord
  2
0
 70
0
 62
7
  6
CONTINUOUS
370
-3
390
F
  0
LAYER
  5
1FA
100
AcDbSymbolTableRecord
100
AcDbLayerTableRecord
  2
DEFAULT_1
 70
0
 62
7
  6
CENTER
370
-3
390
F
  0
LAYER
  5
1FB
100
AcDbSymbolTableRecord
100
AcDbLayerTableRecord
  2
DEFAULT_2
 70
0
 62
7
  6
HIDDEN
370
-3
390
F
  0
LAYER
  5
1FC
100
AcDbSymbolTableRecord
100
AcDbLayerTableRecord
  2
DEFAULT_3
 70
0
 62
7
  6
PHANTOM
370
-3
390
F
  0
LAYER
  5
1FD
100
AcDbSymbolTableRecord
100
AcDbLayerTableRecord
  2
ASSI
 70
0
 62
7
  6
CONTINUOUS
370
-3
390
F
  0
LAYER
  5
1FE
100
AcDbSymbolTableRecord
100
AcDbLayerTableRecord
  2
COORDINATE
 70
0
 62
7
  6
CONTINUOUS
370
-3
390
F
  0
LAYER
  5
1FF
100
AcDbSymbolTableRecord
100
AcDbLayerTableRecord
  2
COPY_PUBLISH
 70
0
 62
7
  6
CONTINUOUS
370
-3
390
F
  0
LAYER
  5
200
100
AcDbSymbolTableRecord
100
AcDbLayerTableRecord
  2
COSMETICI
 70
0
 62
7
  6
CONTINUOUS
370
-3
390
F
  0
LAYER
  5
201
100
AcDbSymbolTableRecord
100
AcDbLayerTableRecord
  2
CURVE
 70
0
 62
7
  6
CONTINUOUS
370
-3
390
F
  0
LAYER
  5
202
100
AcDbSymbolTableRecord
100
AcDbLayerTableRecord
  2
DRAFT
 70
0
 62
7
  6
CONTINUOUS
370
-3
390
F
  0
LAYER
  5
203
100
AcDbSymbolTableRecord
100
AcDbLayerTableRecord
  2
IMPORT_IGES
 70
0
 62
7
  6
CONTINUOUS
370
-3
390
F
  0
LAYER
  5
204
100
AcDbSymbolTableRecord
100
AcDbLayerTableRecord
  2
NOTE
 70
0
 62
7
  6
CONTINUOUS
370
-3
390
F
  0
LAYER
  5
205
100
AcDbSymbolTableRecord
100
AcDbLayerTableRecord
  2
PIANI
 70
0
 62
7
  6
CONTINUOUS
370
-3
390
F
  0
LAYER
  5
206
100
AcDbSymbolTableRecord
100
AcDbLayerTableRecord
  2
PUNTI
 70
0
 62
7
  6
CONTINUOUS
370
-3
390
F
  0
LAYER
  5
207
100
AcDbSymbolTableRecord
100
AcDbLayerTableRecord
  2
RACCORDO
 70
0
 62
7
  6
CONTINUOUS
370
-3
390
F
  0
LAYER
  5
208
100
AcDbSymbolTableRecord
100
AcDbLayerTableRecord
  2
SIMBOLI
 70
0
 62
7
  6
CONTINUOUS
370
-3
390
F
  0
LAYER
  5
209
100
AcDbSymbolTableRecord
100
AcDbLayerTableRecord
  2
SMUSSO
 70
0
 62
7
  6
CONTINUOUS
370
-3
390
F
  0
LAYER
  5
20A
100
AcDbSymbolTableRecord
100
AcDbLayerTableRecord
  2
SUPERFICI
 70
0
 62
7
  6
CONTINUOUS
370
-3
390
F
  0
LAYER
  5
20B
100
AcDbSymbolTableRecord
100
AcDbLayerTableRecord
  2
TRASH
 70
0
 62
7
  6
CONTINUOUS
370
-3
390
F
  0
ENDTAB
  0
TABLE
  2
STYLE
  5
3
100
AcDbSymbolTable
 70
1
  0
STYLE
  5
11
100
AcDbSymbolTableRecord
100
AcDbTextStyleTableRecord
  2
STANDARD
 70
0
 40
0.0
 41
0.8
 50
0.0
 71
0
 42
0.2
  3
txt
  4

  0
STYLE
  5
20C
100
AcDbSymbolTableRecord
100
AcDbTextStyleTableRecord
  2
TEXTSTYLE_1
 70
0
 40
0.0
 41
0.8
 50
0.0
 71
0
 42
0.2
  3
gdt
  4

  0
ENDTAB
  0
TABLE
  2
VIEW
  5
6
100
AcDbSymbolTable
 70
0
  0
ENDTAB
  0
TABLE
  2
UCS
  5
7
100
AcDbSymbolTable
 70
0
  0
ENDTAB
  0
TABLE
  2
APPID
  5
9
100
AcDbSymbolTable
 70
1
  0
APPID
  5
20D
100
AcDbSymbolTableRecord
100
AcDbRegAppTableRecord
  2
ACAD
 70
0
  0
ENDTAB
  0
TABLE
  2
BLOCK_RECORD
  5
1
100
AcDbSymbolTable
 70
0
  0
BLOCK_RECORD
  5
20E
100
AcDbSymbolTableRecord
100
AcDbBlockTableRecord
  2
*Model_Space
  0
BLOCK_RECORD
  5
20F
100
AcDbSymbolTableRecord
100
AcDbBlockTableRecord
  2
*Paper_Space
  0
BLOCK_RECORD
  5
210
100
AcDbSymbolTableRecord
100
AcDbBlockTableRecord
  2
_FILLED
  0
ENDTAB
  0
TABLE
  2
DIMSTYLE
  5
A
100
AcDbSymbolTable
 70
1
100
AcDbDimStyleTable
 71
0
  0
DIMSTYLE
105
211
100
AcDbSymbolTableRecord
100
AcDbDimStyleTableRecord
  2
STANDARD
 70
0
  3

  4

 40
1.0
 41
3.0
 42
0.5
 43
0.38
 44
1.5
 45
0.0
 46
0.0
 47
0.01
 48
0.01
140
3.0
141
0.09
142
0.0
143
25.4
144
1.0
145
0.0
146
1.0
147
0.625
 71
1
 72
0
 73
0
 74
0
 75
0
 76
0
 77
1
 78
8
 79
2
170
0
171
1
172
0
173
0
174
0
175
0
176
0
177
0
178
0
270
2
179
2
271
2
272
2
273
2
274
2
275
0
280
0
281
0
282
0
283
1
284
8
285
0
286
0
287
3
288
0
340
11
278
44
341
210
342
210
343
210
344
210
  0
ENDTAB
  0
ENDSEC
  0
SECTION
  2
BLOCKS
  0
BLOCK
  5
20
100
AcDbEntity
  8
0
100
AcDbBlockBegin
  2
*Model_Space
 70
0
 10
0.0
 20
0.0
 30
0.0
  3
*Model_Space
  1

  0
ENDBLK
  5
21
100
AcDbEntity
  8
0
100
AcDbBlockEnd
  0
BLOCK
  5
1C
100
AcDbEntity
  8
0
100
AcDbBlockBegin
  2
*Paper_Space
 70
0
 10
0.0
 20
0.0
 30
0.0
  3
*Paper_Space
  1

  0
ENDBLK
  5
1D
100
AcDbEntity
  8
0
100
AcDbBlockEnd
  0
BLOCK
  5
212
100
AcDbEntity
  8
0
100
AcDbBlockBegin
  2
_FILLED
 70
64
 10
0.0
 20
0.0
  3
_FILLED
  1

  0
SOLID
  5
213
100
AcDbEntity
  8
0
  6
BYBLOCK
 62
0
100
AcDbTrace
 10
0.0
 20
0.0
 11
-1.0
 21
0.3166666667
 12
-1.0
 22
-0.3166666667
 13
-1.0
 23
-0.3166666667
  0
ENDBLK
  5
214
100
AcDbEntity
  8
0
  6
BYBLOCK
 62
0
100
AcDbBlockEnd
  0
ENDSEC
  0
SECTION
  2
ENTITIES
  0
LINE
  5
215
100
AcDbEntity
  8
0
100
AcDbLine
 62
250
  6
CONTINUOUS
 10
-34.729032337
 20
138.0374008053
 11
-34.7288148957
 21
138.037526341
  0
LINE
  5
216
100
AcDbEntity
  8
0
100
AcDbLine
 62
7
  6
CONTINUOUS
 10
-60.0424118907
 20
123.4217727021
 11
-34.729032337
 21
138.0374008053
  0
LINE
  5
217
100
AcDbEntity
  8
ASSI
100
AcDbLine
 62
250
  6
CONTINUOUS
 10
-56.5733490791
 20
122.3805263433
 11
-30.2288148957
 21
137.5915302062
  0
LINE
  5
218
100
AcDbEntity
  8
ASSI
100
AcDbLine
 62
250
  6
CONTINUOUS
 10
-59.7505230103
 20
118.9136777502
 11
-56.5735882696
 21
120.7480000531
  0
LWPOLYLINE
  5
219
100
AcDbEntity
  8
0
100
AcDbPolyline
 62
7
  6
CONTINUOUS
 90
28
 70
0
 10
-34.729032337
 20
138.0374008053
 10
-34.5553806309
 20
138.1329723385
 10
-34.377256726
 20
138.2216817237
 10
-34.1948740388
 20
138.3033317184
 10
-34.0086152421
 20
138.3776787153
 10
-33.8185601496
 20
138.4446254353
 10
-33.6244519145
 20
138.5041587975
 10
-33.4264992484
 20
138.5560838344
 10
-33.2249428588
 20
138.6002129695
 10
-33.0195273219
 20
138.6364537802
 10
-32.8104339875
 20
138.6645987483
 10
-32.5979205137
 20
138.6844430364
 10
-32.3817988911
 20
138.6958162087
 10
-32.1621996984
 20
138.6984977829
 10
-31.9394148119
 20
138.6922740097
 10
-31.7134499825
 20
138.676930309
 10
-31.4843693546
 20
138.6522376975
 10
-31.2525064858
 20
138.6179994163
 10
-31.0182211073
 20
138.574053702
 10
-30.7816091314
 20
138.5202068609
 10
-30.5429364704
 20
138.4563048108
 10
-30.3027668342
 20
138.3823086691
 10
-30.0608575031
 20
138.2979473439
 10
-29.8177765598
 20
138.2032155513
 10
-29.5752468685
 20
138.0986949019
 10
-29.3339108234
 20
137.9846920555
 10
-29.0933703761
 20
137.8610374974
 10
-28.8537484553
 20
137.7277684448
  0
LWPOLYLINE
  5
21A
100
AcDbEntity
  8
ASSI
100
AcDbPolyline
 62
7
  6
CONTINUOUS
 90
12
 70
0
 10
-30.2288148957
 20
137.5915302062
 10
-30.1359431379
 20
137.6425621856
 10
-30.043697333
 20
137.6882058079
 10
-29.9520774809
 20
137.7284610732
 10
-29.8608791783
 20
137.763394659
 10
-29.7703068285
 20
137.7929398878
 10
-29.6809736418
 20
137.8168967268
 10
-29.5928880269
 20
137.8352272547
 10
-29.506041575
 20
137.8479693929
 10
-29.4210222708
 20
137.8550368719
 10
-29.3378425126
 20
137.8563911854
 10
-29.2564899021
 20
137.8520708397
  0
LWPOLYLINE
  5
21B
100
AcDbEntity
  8
ASSI
100
AcDbPolyline
 62
7
  6
CONTINUOUS
 90
25
 70
0
 10
-60.042431176
 20
123.4217703891
 10
-59.9916553324
 20
123.4495765251
 10
-59.8880919767
 20
123.4975653572
 10
-59.7794340508
 20
123.5366801928
 10
-59.6656587832
 20
123.5667950899
 10
-59.5470649503
 20
123.5876940464
 10
-59.4238657607
 20
123.5994915586
 10
-59.2964072076
 20
123.60219213
 10
-59.1647959615
 20
123.5958048842
 10
-59.0289627513
 20
123.5806234238
 10
-58.8892301631
 20
123.5567374679
 10
-58.7457589984
 20
123.5241912214
 10
-58.5982401292
 20
123.4832250178
 10
-58.4468715034
 20
123.4338993774
 10
-58.2919164431
 20
123.3762697422
 10
-58.1331484667
 20
123.3105272671
 10
-57.9706198008
 20
123.2366764839
 10
-57.8047322884
 20
123.154824366
 10
-57.6357891057
 20
123.0653539376
 10
-57.463983627
 20
122.9684215659
 10
-57.2895994843
 20
122.8641498999
 10
-57.1130879372
 20
122.7529808455
 10
-56.9347579857
 20
122.6352234254
 10
-56.7547696618
 20
122.5109991833
 10
-56.5733490791
 20
122.3805263433
  0
LWPOLYLINE
  5
21C
100
AcDbEntity
  8
ASSI
100
AcDbPolyline
 62
7
  6
CONTINUOUS
 90
25
 70
0
 10
-59.0423738899
 20
121.6897506972
 10
-59.0087539129
 20
121.7079870723
 10
-58.939916222
 20
121.7385495966
 10
-58.8671670951
 20
121.7621806726
 10
-58.7905046113
 20
121.7787732283
 10
-58.7101453619
 20
121.7881683791
 10
-58.6260905414
 20
121.7905502355
 10
-58.5385917597
 20
121.7859324024
 10
-58.4477494787
 20
121.7743118737
 10
-58.3533976745
 20
121.755981759
 10
-58.2557737142
 20
121.7310196538
 10
-58.1550161988
 20
121.6994521256
 10
-58.0508131482
 20
121.6615074113
 10
-57.9433150315
 20
121.6172345972
 10
-57.8327301452
 20
121.5666747897
 10
-57.7188212591
 20
121.5100119301
 10
-57.6016310415
 20
121.4472483613
 10
-57.4814699896
 20
121.3784684667
 10
-57.3585066879
 20
121.3040089657
 10
-57.2328826386
 20
121.2239966159
 10
-57.1048273443
 20
121.1385216722
 10
-56.9746512658
 20
121.0479512344
 10
-56.8425812299
 20
120.952533452
 10
-56.7087552122
 20
120.8523550605
 10
-56.5733490791
 20
120.7475857897
  0
LWPOLYLINE
  5
21D
100
AcDbEntity
  8
0
100
AcDbPolyline
 62
250
  6
CONTINUOUS
 90
25
 70
0
 10
-34.7288148957
 20
138.037526341
 10
-34.5791696667
 20
138.1183489302
 10
-34.4248659688
 20
138.1907387172
 10
-34.2660690343
 20
138.2546181854
 10
-34.1029489069
 20
138.3099189309
 10
-33.9356802598
 20
138.3565817364
 10
-33.7644422085
 20
138.3945566341
 10
-33.5894181188
 20
138.4238029597
 10
-33.4107954111
 20
138.4442893953
 10
-33.2287653589
 20
138.4559940036
 10
-33.0435228846
 20
138.458904251
 10
-32.8552663505
 20
138.4530170212
 10
-32.6641973464
 20
138.4383386183
 10
-32.4705204738
 20
138.4148847603
 10
-32.2744431266
 20
138.3826805622
 10
-32.0761752696
 20
138.3417605092
 10
-31.8759292128
 20
138.2921684193
 10
-31.6739193847
 20
138.2339573971
 10
-31.4703621025
 20
138.1671897763
 10
-31.2654753405
 20
138.0919370534
 10
-31.0594784965
 20
138.008279811
 10
-30.8525921571
 20
137.9163076312
 10
-30.6450378614
 20
137.8161190003
 10
-30.4370378638
 20
137.7078212026
 10
-30.2288148957
 20
137.5915302062
  0
LINE
  5
21E
100
AcDbEntity
  8
RACCORDO
100
AcDbLine
 62
250
  6
CONTINUOUS
 10
-24.1202076428
 20
134.9946813049
 11
-22.9809703886
 21
135.6524626175
  0
LWPOLYLINE
  5
21F
100
AcDbEntity
  8
0
100
AcDbPolyline
 62
7
  6
CONTINUOUS
 90
22
 70
0
 10
55.4826350031
 20
-138.4649345863
 10
55.5779440893
 20
-138.5159038318
 10
55.6766253381
 20
-138.56075276
 10
55.7783867228
 20
-138.5993635213
 10
55.883241155
 20
-138.6317099661
 10
55.991175723
 20
-138.6578182439
 10
56.1017386117
 20
-138.6775790653
 10
56.2149408386
 20
-138.6909658225
 10
56.3307713862
 20
-138.6980051232
 10
56.4487453864
 20
-138.6986675008
 10
56.5688718244
 20
-138.6929262242
 10
56.6911417151
 20
-138.6808080245
 10
56.8150432353
 20
-138.6623636286
 10
56.9405832247
 20
-138.6375665181
 10
57.0677548437
 20
-138.6064432114
 10
57.1960257505
 20
-138.569123991
 10
57.3254005531
 20
-138.5255828845
 10
57.4558746436
 20
-138.4758458644
 10
57.5869018558
 20
-138.4201211304
 10
57.7183001345
 20
-138.3584780823
 10
57.850251535
 20
-138.2908473203
 10
57.9827560573
 20
-138.2172288443
  0
LWPOLYLINE
  5
220
100
AcDbEntity
  8
0
100
AcDbPolyline
 62
7
  6
CONTINUOUS
 90
22
 70
0
 10
-39.2696736759
 20
-83.7561390804
 10
-39.1743645897
 20
-83.8071083259
 10
-39.0756833409
 20
-83.8519572541
 10
-38.9739219562
 20
-83.8905680154
 10
-38.869067524
 20
-83.9229144602
 10
-38.761132956
 20
-83.949022738
 10
-38.6505700673
 20
-83.9687835594
 10
-38.5373678404
 20
-83.9821703166
 10
-38.4215372928
 20
-83.9892096173
 10
-38.3035632926
 20
-83.9898719949
 10
-38.1834368546
 20
-83.9841307183
 10
-38.0611669639
 20
-83.9720125186
 10
-37.9372654437
 20
-83.9535681227
 10
-37.8117254543
 20
-83.9287710122
 10
-37.6845538353
 20
-83.8976477054
 10
-37.5562829285
 20
-83.8603284851
 10
-37.4269081259
 20
-83.8167873786
 10
-37.2964340354
 20
-83.7670503585
 10
-37.1654068232
 20
-83.7113256245
 10
-37.0340085445
 20
-83.6496825764
 10
-36.902057144
 20
-83.5820518144
 10
-36.7695526217
 20
-83.5084333384
  0
LINE
  5
221
100
AcDbEntity
  8
0
100
AcDbLine
 62
7
  6
CONTINUOUS
 10
-39.2696734224
 20
-83.7561392268
 11
-40.6838869848
 21
-82.9395900401
  0
LINE
  5
222
100
AcDbEntity
  8
0
100
AcDbLine
 62
7
  6
CONTINUOUS
 10
54.0684216942
 20
-137.648385546
 11
55.4826352566
 21
-138.4649347327
  0
LINE
  5
223
100
AcDbEntity
  8
RACCORDO
100
AcDbLine
 62
7
  6
CONTINUOUS
 10
-34.7896536344
 20
-85.4681513864
 11
53.1245403622
 21
-136.2287051763
  0
LINE
  5
224
100
AcDbEntity
  8
0
100
AcDbLine
 62
250
  6
CONTINUOUS
 10
-40.3050865276
 20
-81.4674549211
 11
-41.71930009
 21
-80.6509057344
  0
LINE
  5
225
100
AcDbEntity
  8
0
100
AcDbLine
 62
250
  6
CONTINUOUS
 10
53.033008589
 20
-135.3597012403
 11
54.4472221514
 21
-136.176250427
  0
LWPOLYLINE
  5
226
100
AcDbEntity
  8
0
100
AcDbPolyline
 62
7
  6
CONTINUOUS
 90
22
 70
0
 10
-40.6838872383
 20
-82.9395898938
 10
-40.7754463563
 20
-82.8826846337
 10
-40.8636333118
 20
-82.8196590564
 10
-40.9479578991
 20
-82.750846876
 10
-41.0284039275
 20
-82.6762238359
 10
-41.1049875876
 20
-82.5958141928
 10
-41.1773882994
 20
-82.5099545421
 10
-41.2455885285
 20
-82.4186220384
 10
-41.3096058093
 20
-82.3218395273
 10
-41.3691721647
 20
-82.2200121413
 10
-41.4242689371
 20
-82.1131187332
 10
-41.4749147841
 20
-82.0011804504
 10
-41.5208977016
 20
-81.8846658676
 10
-41.5621981434
 20
-81.7635558017
 10
-41.5988356556
 20
-81.6378694359
 10
-41.6306568734
 20
-81.5081328948
 10
-41.6576416075
 20
-81.3743292005
 10
-41.6798100471
 20
-81.2364753309
 10
-41.6970693949
 20
-81.0951483436
 10
-41.7093887184
 20
-80.9505405914
 10
-41.7167989501
 20
-80.8024597217
 10
-41.71930009
 20
-80.6509057344
  0
LWPOLYLINE
  5
227
100
AcDbEntity
  8
0
100
AcDbPolyline
 62
7
  6
CONTINUOUS
 90
22
 70
0
 10
54.0684214407
 20
-137.6483853997
 10
53.9768623227
 20
-137.5914801396
 10
53.8886753672
 20
-137.5284545623
 10
53.8043507799
 20
-137.459642382
 10
53.7239047515
 20
-137.3850193419
 10
53.6473210914
 20
-137.3046096987
 10
53.5749203796
 20
-137.2187500481
 10
53.5067201505
 20
-137.1274175443
 10
53.4427028697
 20
-137.0306350332
 10
53.3831365143
 20
-136.9288076473
 10
53.3280397419
 20
-136.8219142392
 10
53.2773938949
 20
-136.7099759563
 10
53.2314109774
 20
-136.5934613735
 10
53.1901105356
 20
-136.4723513076
 10
53.1534730234
 20
-136.3466649419
 10
53.1216518056
 20
-136.2169284007
 10
53.0946670715
 20
-136.0831247064
 10
53.0724986319
 20
-135.9452708368
 10
53.0552392841
 20
-135.8039438495
 10
53.0429199606
 20
-135.6593360974
 10
53.0355097289
 20
-135.5112552276
 10
53.033008589
 20
-135.3597012403
  0
LINE
  5
228
100
AcDbEntity
  8
ASSI
100
AcDbLine
 62
7
  6
CONTINUOUS
 10
-61.1647365726
 20
64.3351581789
 11
-61.1647365726
 21
119.7302269369
  0
LINE
  5
229
100
AcDbEntity
  8
ASSI
100
AcDbLine
 62
7
  6
CONTINUOUS
 10
-59.7505230103
 20
63.5186089922
 11
-59.7505230103
 21
118.9136777502
  0
LWPOLYLINE
  5
22A
100
AcDbEntity
  8
ASSI
100
AcDbPolyline
 62
7
  6
CONTINUOUS
 90
26
 70
0
 10
-59.7505230103
 20
118.9136777502
 10
-59.7495532577
 20
119.0908803902
 10
-59.7464843741
 20
119.2633667197
 10
-59.7413337527
 20
119.4309708922
 10
-59.7341709679
 20
119.5934444637
 10
-59.7249790542
 20
119.7507184974
 10
-59.713636179
 20
119.9028901493
 10
-59.7001781807
 20
120.04975158
 10
-59.6846159688
 20
120.1911904095
 10
-59.6667536354
 20
120.327416393
 10
-59.6466052243
 20
120.4582675981
 10
-59.6241742537
 20
120.5835517299
 10
-59.5992096991
 20
120.7033936023
 10
-59.5717349447
 20
120.8175678557
 10
-59.5417413176
 20
120.9259219885
 10
-59.508889473
 20
121.0286411945
 10
-59.4731530855
 20
121.1255955389
 10
-59.4345405948
 20
121.2164649561
 10
-59.3927617282
 20
121.3011378396
 10
-59.3478737599
 20
121.3794041998
 10
-59.2998848228
 20
121.4510840265
 10
-59.2484740877
 20
121.5161580255
 10
-59.1937556132
 20
121.5744257224
 10
-59.1357604481
 20
121.6257750936
 10
-59.0740669144
 20
121.670345346
 10
-59.0423738899
 20
121.6897506972
  0
LWPOLYLINE
  5
22B
100
AcDbEntity
  8
ASSI
100
AcDbPolyline
 62
7
  6
CONTINUOUS
 90
26
 70
0
 10
-61.1647365726
 20
119.7302269369
 10
-61.1630694607
 20
119.9583015711
 10
-61.1579111308
 20
120.180769862
 10
-61.1492839453
 20
120.3974185786
 10
-61.1372659101
 20
120.6079349021
 10
-61.1218466595
 20
120.81222359
 10
-61.1029038928
 20
121.0103897292
 10
-61.0804816292
 20
121.202167286
 10
-61.054595954
 20
121.3874105835
 10
-61.0250355018
 20
121.5663659129
 10
-60.9918139881
 20
121.7388275823
 10
-60.954940277
 20
121.9045458486
 10
-60.9141451634
 20
122.0636502735
 10
-60.8694573122
 20
122.2158519174
 10
-60.8208669728
 20
122.3609538985
 10
-60.7679955857
 20
122.4991609839
 10
-60.7107906842
 20
122.6303168655
 10
-60.6492817391
 20
122.7539992797
 10
-60.5832091421
 20
122.8699991413
 10
-60.512637334
 20
122.9780517745
 10
-60.437585969
 20
123.0779204266
 10
-60.357783745
 20
123.1694987683
 10
-60.2733793549
 20
123.2525278653
 10
-60.1844106725
 20
123.3268648686
 10
-60.0904705961
 20
123.3926107789
 10
-60.042431176
 20
123.4217703891
  0
LWPOLYLINE
  5
22C
100
AcDbEntity
  8
RACCORDO
100
AcDbPolyline
 62
7
  6
CONTINUOUS
 90
13
 70
0
 10
33.5102212441
 20
-58.4961792782
 10
33.462849685
 20
-58.4989617322
 10
33.3355259158
 20
-58.4988533821
 10
33.2055400034
 20
-58.4913511565
 10
33.0735227547
 20
-58.4764914626
 10
32.9394642961
 20
-58.4542385378
 10
32.8033745013
 20
-58.4246281449
 10
32.6659137987
 20
-58.3878039797
 10
32.5270755248
 20
-58.343730978
 10
32.3868663432
 20
-58.2924442039
 10
32.2459666733
 20
-58.2341925466
 10
32.1046033217
 20
-58.169058969
 10
31.9625494817
 20
-58.0969605082
  0
LINE
  5
22D
100
AcDbEntity
  8
ASSI
100
AcDbLine
 62
7
  6
CONTINUOUS
 10
-56.5733490791
 20
122.3805263433
 11
-56.5733490791
 21
120.7475857897
  0
LINE
  5
22E
100
AcDbEntity
  8
RACCORDO
100
AcDbLine
 62
250
  6
CONTINUOUS
 10
-15.5563491861
 20
55.4739569709
 11
-12.7279220614
 21
57.1070553442
  0
LINE
  5
22F
100
AcDbEntity
  8
RACCORDO
100
AcDbLine
 62
250
  6
CONTINUOUS
 10
52.9544315065
 20
90.4927506321
 11
54.0936687608
 21
91.1505319448
  0
LINE
  5
230
100
AcDbEntity
  8
ASSI
100
AcDbLine
 62
250
  6
CONTINUOUS
 10
53.2097852843
 20
89.4151281935
 11
26.8652511009
 21
74.2041243306
  0
LWPOLYLINE
  5
231
100
AcDbEntity
  8
RACCORDO
100
AcDbPolyline
 62
7
  6
CONTINUOUS
 90
21
 70
0
 10
-14.5209359339
 20
57.7626413615
 10
-14.469900463
 20
57.7909069621
 10
-14.3653079222
 20
57.841948561
 10
-14.2568982523
 20
57.8858111596
 10
-14.1446899178
 20
57.9225294844
 10
-14.029227453
 20
57.9519253454
 10
-13.9104950405
 20
57.9739631501
 10
-13.7885084978
 20
57.988678491
 10
-13.6638598118
 20
57.9959999564
 10
-13.5365360426
 20
57.9958916063
 10
-13.4065501302
 20
57.9883893807
 10
-13.2745328815
 20
57.9735296868
 10
-13.1404744229
 20
57.951276762
 10
-13.004384628
 20
57.9216663691
 10
-12.8669239255
 20
57.8848422039
 10
-12.7280856516
 20
57.8407692022
 10
-12.58787647
 20
57.7894824281
 10
-12.4469768001
 20
57.7312307708
 10
-12.3056134484
 20
57.6660971932
 10
-12.1635596084
 20
57.5939987324
 10
-12.0208152802
 20
57.5149353882
  0
LWPOLYLINE
  5
232
100
AcDbEntity
  8
ASSI
100
AcDbPolyline
 62
7
  6
CONTINUOUS
 90
12
 70
0
 10
53.2097852843
 20
89.4151281935
 10
53.3026570421
 20
89.4661601729
 10
53.394902847
 20
89.5118037953
 10
53.4865226991
 20
89.5520590605
 10
53.5777210018
 20
89.5869926464
 10
53.6682933515
 20
89.6165378751
 10
53.7576265382
 20
89.6404947141
 10
53.8457121532
 20
89.6588252421
 10
53.932558605
 20
89.6715673802
 10
54.0175779092
 20
89.6786348593
 10
54.1007576674
 20
89.6799891727
 10
54.1821102779
 20
89.675668827
  0
LINE
  5
233
100
AcDbEntity
  8
ASSI
100
AcDbLine
 62
7
  6
CONTINUOUS
 10
53.3794770725
 20
89.5045323444
 11
53.2948724465
 21
89.4620856254
  0
LINE
  5
234
100
AcDbEntity
  8
0
100
AcDbLine
 62
250
  6
CONTINUOUS
 10
54.4472221514
 20
-93.9584061622
 11
53.033008589
 21
-93.1418569756
  0
LINE
  5
235
100
AcDbEntity
  8
0
100
AcDbLine
 62
250
  6
CONTINUOUS
 10
-41.71930009
 20
-38.4330614697
 11
-40.3050865276
 21
-39.2496106563
  0
LINE
  5
236
100
AcDbEntity
  8
0
100
AcDbLine
 62
250
  6
CONTINUOUS
 10
53.1684339929
 20
-90.0136813005
 11
51.7542204305
 21
-89.1971321138
  0
LINE
  5
237
100
AcDbEntity
  8
0
100
AcDbLine
 62
250
  6
CONTINUOUS
 10
-42.9980882485
 20
-34.4883366079
 11
-41.5838746861
 21
-35.3048857946
  0
LINE
  5
238
100
AcDbEntity
  8
0
100
AcDbLine
 62
250
  6
CONTINUOUS
 10
-45.0367060092
 20
-31.6046843867
 11
-46.4509195716
 21
-30.7881352001
  0
LINE
  5
239
100
AcDbEntity
  8
0
100
AcDbLine
 62
250
  6
CONTINUOUS
 10
48.3013891074
 20
-85.496930706
 11
49.7156026697
 21
-86.3134798926
  0
LINE
  5
23A
100
AcDbEntity
  8
0
100
AcDbLine
 62
7
  6
CONTINUOUS
 10
-46.4509195716
 20
-30.7881352001
 11
-42.9980882485
 21
-34.4883366079
  0
LINE
  5
23B
100
AcDbEntity
  8
0
100
AcDbLine
 62
7
  6
CONTINUOUS
 10
-45.0367060092
 20
-31.6046843867
 11
-41.5838746861
 21
-35.3048857946
  0
LWPOLYLINE
  5
23C
100
AcDbEntity
  8
0
100
AcDbPolyline
 62
7
  6
CONTINUOUS
 90
22
 70
0
 10
-46.4509195716
 20
-30.7881352001
 10
-46.5665794995
 20
-30.6581246771
 10
-46.6770610673
 20
-30.5216721052
 10
-46.7823642752
 20
-30.3787774844
 10
-46.8825694119
 20
-30.2293090846
 10
-46.9775961887
 20
-30.0733986359
 10
-47.0672037388
 20
-29.9114413282
 10
-47.1513783143
 20
-29.7434218216
 10
-47.2301336631
 20
-29.5693554561
 10
-47.3032701621
 20
-29.3896834419
 10
-47.370773557
 20
-29.2043915584
 10
-47.4326581021
 20
-29.0134940262
 10
-47.4887669371
 20
-28.8174747181
 10
-47.5390854099
 20
-28.6163206407
 10
-47.5836281725
 20
-28.4100447874
 10
-47.6222823214
 20
-28.1991700105
 10
-47.655032918
 20
-27.9836846433
 10
-47.6818949008
 20
-27.7636003526
 10
-47.7028001823
 20
-27.5394749914
 10
-47.7177260663
 20
-27.3114945108
 10
-47.7266952489
 20
-27.0794729598
 10
-47.7297077301
 20
-26.8434103383
  0
LWPOLYLINE
  5
23D
100
AcDbEntity
  8
0
100
AcDbPolyline
 62
7
  6
CONTINUOUS
 90
22
 70
0
 10
-41.5838746861
 20
-35.3048857946
 10
-41.4682147583
 20
-35.4348963175
 10
-41.3577331904
 20
-35.5713488894
 10
-41.2524299825
 20
-35.7142435102
 10
-41.1522248458
 20
-35.86371191
 10
-41.057198069
 20
-36.0196223587
 10
-40.9675905189
 20
-36.1815796664
 10
-40.8834159434
 20
-36.349599173
 10
-40.8046605946
 20
-36.5236655385
 10
-40.7315240956
 20
-36.7033375527
 10
-40.6640207007
 20
-36.8886294362
 10
-40.6021361556
 20
-37.0795269684
 10
-40.5460273206
 20
-37.2755462765
 10
-40.4957088479
 20
-37.4767003539
 10
-40.4511660852
 20
-37.6829762073
 10
-40.4125119363
 20
-37.8938509841
 10
-40.3797613397
 20
-38.1093363513
 10
-40.3528993569
 20
-38.329420642
 10
-40.3319940755
 20
-38.5535460032
 10
-40.3170681914
 20
-38.7815264838
 10
-40.3080990088
 20
-39.0135480348
 10
-40.3050865276
 20
-39.2496106563
  0
LWPOLYLINE
  5
23E
100
AcDbEntity
  8
0
100
AcDbPolyline
 62
7
  6
CONTINUOUS
 90
22
 70
0
 10
-40.3050865276
 20
-81.4674549211
 10
-40.3025853877
 20
-81.6190089084
 10
-40.295175156
 20
-81.7670897781
 10
-40.2828558325
 20
-81.9116975303
 10
-40.2655964847
 20
-82.0530245175
 10
-40.2434280451
 20
-82.1908783872
 10
-40.2164433111
 20
-82.3246820815
 10
-40.1846220933
 20
-82.4544186226
 10
-40.147984581
 20
-82.5801049884
 10
-40.1066841393
 20
-82.7012150542
 10
-40.0607012217
 20
-82.817729637
 10
-40.0100553747
 20
-82.9296679199
 10
-39.9549586024
 20
-83.036561328
 10
-39.895392247
 20
-83.1383887139
 10
-39.8313749662
 20
-83.2351712251
 10
-39.763174737
 20
-83.3265037288
 10
-39.6907740253
 20
-83.4123633794
 10
-39.6141903651
 20
-83.4927730226
 10
-39.5337443367
 20
-83.5673960627
 10
-39.4494197495
 20
-83.6362082431
 10
-39.3612327939
 20
-83.6992338204
 10
-39.2696736759
 20
-83.7561390804
  0
LWPOLYLINE
  5
23F
100
AcDbEntity
  8
0
100
AcDbPolyline
 62
7
  6
CONTINUOUS
 90
22
 70
0
 10
-46.3154941677
 20
-27.6599595249
 10
-46.3124816865
 20
-27.8960221464
 10
-46.3035125039
 20
-28.1280436975
 10
-46.2885866199
 20
-28.3560241781
 10
-46.2676813385
 20
-28.5801495393
 10
-46.2408193556
 20
-28.80023383
 10
-46.2080687591
 20
-29.0157191972
 10
-46.1694146101
 20
-29.226593974
 10
-46.1248718475
 20
-29.4328698274
 10
-46.0745533748
 20
-29.6340239047
 10
-46.0184445398
 20
-29.8300432129
 10
-45.9565599947
 20
-30.020940745
 10
-45.8890565997
 20
-30.2062326286
 10
-45.8159201007
 20
-30.3859046427
 10
-45.7371647519
 20
-30.5599710083
 10
-45.6529901764
 20
-30.7279905149
 10
-45.5633826263
 20
-30.8899478225
 10
-45.4683558496
 20
-31.0458582713
 10
-45.3681507128
 20
-31.195326671
 10
-45.262847505
 20
-31.3382212919
 10
-45.1523659371
 20
-31.4746738638
 10
-45.0367060092
 20
-31.6046843867
  0
LWPOLYLINE
  5
240
100
AcDbEntity
  8
0
100
AcDbPolyline
 62
7
  6
CONTINUOUS
 90
22
 70
0
 10
-41.71930009
 20
-38.4330614697
 10
-41.7223125712
 20
-38.1969988482
 10
-41.7312817538
 20
-37.9649772971
 10
-41.7462076378
 20
-37.7369968165
 10
-41.7671129193
 20
-37.5128714554
 10
-41.7939749021
 20
-37.2927871646
 10
-41.8267254987
 20
-37.0773017974
 10
-41.8653796476
 20
-36.8664270206
 10
-41.9099224102
 20
-36.6601511673
 10
-41.9602408829
 20
-36.4589970899
 10
-42.016349718
 20
-36.2629777817
 10
-42.0782342631
 20
-36.0720802496
 10
-42.145737658
 20
-35.886788366
 10
-42.218874157
 20
-35.7071163519
 10
-42.2976295058
 20
-35.5330499863
 10
-42.3818040813
 20
-35.3650304797
 10
-42.4714116314
 20
-35.2030731721
 10
-42.5664384082
 20
-35.0471627234
 10
-42.6666435449
 20
-34.8976943236
 10
-42.7719467528
 20
-34.7547997027
 10
-42.8824283206
 20
-34.6183471308
 10
-42.9980882485
 20
-34.4883366079
  0
LINE
  5
241
100
AcDbEntity
  8
0
100
AcDbLine
 62
7
  6
CONTINUOUS
 10
-47.7297077301
 20
-26.8434103383
 11
-47.7297077301
 21
44.7889660946
  0
LINE
  5
242
100
AcDbEntity
  8
0
100
AcDbLine
 62
7
  6
CONTINUOUS
 10
-46.3154941677
 20
-27.6599595249
 11
-46.3154941677
 21
43.9724169079
  0
LINE
  5
243
100
AcDbEntity
  8
0
100
AcDbLine
 62
7
  6
CONTINUOUS
 10
-41.71930009
 20
-80.6509057344
 11
-41.71930009
 21
-38.4330614697
  0
LINE
  5
244
100
AcDbEntity
  8
0
100
AcDbLine
 62
7
  6
CONTINUOUS
 10
-40.3050865276
 20
-81.4674549211
 11
-40.3050865276
 21
-39.2496106563
  0
LWPOLYLINE
  5
245
100
AcDbEntity
  8
RACCORDO
100
AcDbPolyline
 62
7
  6
CONTINUOUS
 90
14
 70
0
 10
-13.7112313708
 20
57.9932175024
 10
-13.7371615187
 20
57.9538424694
 10
-13.8007357192
 20
57.8435333275
 10
-13.8592376295
 20
57.7272216296
 10
-13.9123833464
 20
57.6054718235
 10
-13.9601468349
 20
57.4782574756
 10
-14.00255413
 20
57.3456050195
 10
-14.039399434
 20
57.2081582025
 10
-14.0706557113
 20
57.0658937204
 10
-14.0963499974
 20
56.9188348774
 10
-14.1163576009
 20
56.7676953337
 10
-14.1306369578
 20
56.6127129758
 10
-14.1392296321
 20
56.4536499171
 10
-14.1421356237
 20
56.2905061575
  0
LINE
  5
246
100
AcDbEntity
  8
0
100
AcDbLine
 62
250
  6
CONTINUOUS
 10
-46.3154941677
 20
-27.6599595249
 11
-47.7297077301
 21
-26.8434103383
  0
LINE
  5
247
100
AcDbEntity
  8
0
100
AcDbLine
 62
250
  6
CONTINUOUS
 10
47.0226009489
 20
-81.5522058442
 11
48.4368145113
 21
-82.3687550309
  0
LWPOLYLINE
  5
248
100
AcDbEntity
  8
RACCORDO
100
AcDbPolyline
 62
7
  6
CONTINUOUS
 90
37
 70
0
 10
-36.9109739779
 20
-81.793916776
 10
-36.9089230101
 20
-81.9022795538
 10
-36.9028736136
 20
-82.0123431558
 10
-36.8928257883
 20
-82.1241075821
 10
-36.8787452288
 20
-82.2377917797
 10
-36.8606662405
 20
-82.3531768015
 10
-36.8386917401
 20
-82.4696058064
 10
-36.8127995096
 20
-82.5870847487
 10
-36.7830117668
 20
-82.7056076741
 10
-36.7494980817
 20
-82.8244998786
 10
-36.7122372035
 20
-82.9437634683
 10
-36.6712503828
 20
-83.0633963371
 10
-36.6267709415
 20
-83.1827174625
 10
-36.5787789595
 20
-83.3017250666
 10
-36.5272943568
 20
-83.4204209273
 10
-36.4726102148
 20
-83.5381293562
 10
-36.4147082851
 20
-83.6548447215
 10
-36.3536068162
 20
-83.770572655
 10
-36.2896536344
 20
-83.8846543635
 10
-36.2228324752
 20
-83.9970804578
 10
-36.1531596031
 20
-84.107860327
 10
-36.0810316381
 20
-84.2163633454
 10
-36.0064345779
 20
-84.3225765271
 10
-35.9293824248
 20
-84.4265128578
 10
-35.8503138062
 20
-84.5275806694
 10
-35.7692172213
 20
-84.6257636014
 10
-35.6861041709
 20
-84.7210780142
 10
-35.6014477846
 20
-84.8129813207
 10
-35.5152392601
 20
-84.9014540659
 10
-35.4274873998
 20
-84.9865157047
 10
-35.3386917401
 20
-85.0676820151
 10
-35.2488463278
 20
-85.1449307802
 10
-35.1579571161
 20
-85.2182842169
 10
-35.0665415013
 20
-85.287324753
 10
-34.9747719488
 20
-85.351913198
 10
-34.8824759931
 20
-85.4121887424
 10
-34.7896536344
 20
-85.4681513864
  0
LINE
  5
249
100
AcDbEntity
  8
RACCORDO
100
AcDbLine
 62
7
  6
CONTINUOUS
 10
-36.9109739779
 20
107.2070376867
 11
-36.9109739779
 21
-81.793916776
  0
LINE
  5
24A
100
AcDbEntity
  8
ASSI
100
AcDbLine
 62
7
  6
CONTINUOUS
 10
59.7360127692
 20
78.494689569
 11
59.6569534234
 21
78.442638143
  0
LWPOLYLINE
  5
24B
100
AcDbEntity
  8
ASSI
100
AcDbPolyline
 62
7
  6
CONTINUOUS
 90
18
 70
0
 10
59.573746315
 20
78.3924243624
 10
59.6643741203
 20
78.4473429814
 10
59.7500223751
 20
78.5044138959
 10
59.8306910792
 20
78.5636371058
 10
59.906540171
 20
78.6251563048
 10
59.9774097121
 20
78.6888277992
 10
60.042819888
 20
78.7542205081
 10
60.1027336532
 20
78.8213461112
 10
60.1571880532
 20
78.8901929288
 10
60.2058144105
 20
78.960294841
 10
60.2485731776
 20
79.0316603645
 10
60.285503902
 20
79.1042809826
 10
60.3163565481
 20
79.1776650253
 10
60.341089872
 20
79.2518176729
 10
60.3597451177
 20
79.3267337451
 10
60.3721959819
 20
79.4019060308
 10
60.3784003634
 20
79.4773362685
 10
60.3792026667
 20
79.5151794941
  0
LINE
  5
24C
100
AcDbEntity
  8
ASSI
100
AcDbLine
 62
250
  6
CONTINUOUS
 10
59.573746315
 20
78.3924243624
 11
35.0017856687
 21
64.2048822443
  0
LINE
  5
24D
100
AcDbEntity
  8
RACCORDO
100
AcDbLine
 62
250
  6
CONTINUOUS
 10
60.3792026667
 20
78.4495258113
 11
61.1647365726
 21
78.9030832435
  0
LINE
  5
24E
100
AcDbEntity
  8
RACCORDO
100
AcDbLine
 62
7
  6
CONTINUOUS
 10
31.9625494817
 20
-58.0969605082
 11
31.8198051534
 21
-58.017897164
  0
LWPOLYLINE
  5
24F
100
AcDbEntity
  8
RACCORDO
100
AcDbPolyline
 62
7
  6
CONTINUOUS
 90
6
 70
0
 10
33.2340187158
 20
-57.2013479773
 10
33.376763044
 20
-57.2804113215
 10
33.518816884
 20
-57.3525097824
 10
33.6601802357
 20
-57.41764336
 10
33.8010799056
 20
-57.4758950173
 10
33.8807932022
 20
-57.5050531493
  0
LINE
  5
250
100
AcDbEntity
  8
RACCORDO
100
AcDbLine
 62
7
  6
CONTINUOUS
 10
-12.0208152802
 20
-34.337970751
 11
30.405591591
 21
-58.8344463507
  0
LINE
  5
251
100
AcDbEntity
  8
RACCORDO
100
AcDbLine
 62
7
  6
CONTINUOUS
 10
-10.6066017178
 20
-33.5214215643
 11
31.8198051534
 21
-58.017897164
  0
LINE
  5
252
100
AcDbEntity
  8
RACCORDO
100
AcDbLine
 62
7
  6
CONTINUOUS
 10
-9.1923881554
 20
-32.7048723777
 11
33.2340187158
 21
-57.2013479773
  0
LWPOLYLINE
  5
253
100
AcDbEntity
  8
RACCORDO
100
AcDbPolyline
 62
7
  6
CONTINUOUS
 90
40
 70
0
 10
-12.0208152802
 20
-34.337970751
 10
-12.1635596084
 20
-34.2521965229
 10
-12.3056134484
 20
-34.1602547701
 10
-12.4469768001
 20
-34.0621454925
 10
-12.58787647
 20
-33.9576897428
 10
-12.7280856516
 20
-33.8470664684
 10
-12.8669239255
 20
-33.7308125116
 10
-13.004384628
 20
-33.608900503
 10
-13.1404744229
 20
-33.4813578121
 10
-13.2745328815
 20
-33.3488033891
 10
-13.4065501302
 20
-33.2112128734
 10
-13.5365360426
 20
-33.0686106256
 10
-13.6638598118
 20
-32.9216886784
 10
-13.7885084978
 20
-32.770426035
 10
-13.9104950405
 20
-32.6148436922
 10
-14.029227453
 20
-32.4556966737
 10
-14.1446899178
 20
-32.2929676525
 10
-14.2568982523
 20
-32.1266739556
 10
-14.3653079222
 20
-31.9576225876
 10
-14.469900463
 20
-31.7858001443
 10
-14.5706943392
 20
-31.6112200299
 10
-14.6672004093
 20
-31.4347294621
 10
-14.7593978314
 20
-31.2563191547
 10
-14.8473074475
 20
-31.0759983939
 10
-14.9305026421
 20
-30.8946422562
 10
-15.0089604995
 20
-30.7122457088
 10
-15.0827039354
 20
-30.5288137845
 10
-15.1513750811
 20
-30.3452366577
 10
-15.2149492815
 20
-30.1615136226
 10
-15.2734511918
 20
-29.9776453852
 10
-15.3265969088
 20
-29.7945242372
 10
-15.3743603973
 20
-29.6121538101
 10
-15.4167676924
 20
-29.4305304725
 10
-15.4536129964
 20
-29.2505356221
 10
-15.4848692737
 20
-29.0721771744
 10
-15.5105635598
 20
-28.8954472139
 10
-15.5305711633
 20
-28.7212033912
 10
-15.5448505202
 20
-28.5497315898
 10
-15.5534431945
 20
-28.3807459262
 10
-15.5563491861
 20
-28.2142464004
  0
LWPOLYLINE
  5
254
100
AcDbEntity
  8
0
100
AcDbPolyline
 62
7
  6
CONTINUOUS
 90
10
 70
0
 10
-16.9884011652
 20
-34.7964935484
 10
-17.0035803703
 20
-34.776912199
 10
-17.0525455207
 20
-34.709051856
 10
-17.0992856121
 20
-34.6394145345
 10
-17.1437780242
 20
-34.5679823745
 10
-17.1860453775
 20
-34.4947732361
 10
-17.2256611515
 20
-34.4205258626
 10
-17.2625985738
 20
-34.3452295739
 10
-17.2968844168
 20
-34.2688950501
 10
-17.3059770903
 20
-34.2466336274
  0
LWPOLYLINE
  5
255
100
AcDbEntity
  8
RACCORDO
100
AcDbPolyline
 62
7
  6
CONTINUOUS
 90
6
 70
0
 10
-12.6675897666
 20
57.8186405602
 10
-12.6821364351
 20
57.7353840641
 10
-12.7021440385
 20
57.5842445203
 10
-12.7164233955
 20
57.4292621624
 10
-12.7250160698
 20
57.2701991037
 10
-12.7279220614
 20
57.1070553442
  0
LINE
  5
256
100
AcDbEntity
  8
0
100
AcDbLine
 62
7
  6
CONTINUOUS
 10
48.3013891074
 20
-85.496930706
 11
51.7542204305
 21
-89.1971321138
  0
LINE
  5
257
100
AcDbEntity
  8
0
100
AcDbLine
 62
7
  6
CONTINUOUS
 10
49.7156026697
 20
-86.3134798926
 11
53.1684339929
 21
-90.0136813005
  0
LWPOLYLINE
  5
258
100
AcDbEntity
  8
0
100
AcDbPolyline
 62
7
  6
CONTINUOUS
 90
22
 70
0
 10
48.3013891074
 20
-85.496930706
 10
48.1857291795
 20
-85.366920183
 10
48.0752476117
 20
-85.2304676111
 10
47.9699444038
 20
-85.0875729903
 10
47.8697392671
 20
-84.9381045905
 10
47.7747124903
 20
-84.7821941418
 10
47.6851049402
 20
-84.6202368342
 10
47.6009303647
 20
-84.4522173275
 10
47.5221750159
 20
-84.278150962
 10
47.4490385169
 20
-84.0984789479
 10
47.381535122
 20
-83.9131870643
 10
47.3196505769
 20
-83.7222895321
 10
47.2635417418
 20
-83.526270224
 10
47.2132232691
 20
-83.3251161466
 10
47.1686805065
 20
-83.1188402933
 10
47.1300263576
 20
-82.9079655164
 10
47.097275761
 20
-82.6924801492
 10
47.0704137782
 20
-82.4723958585
 10
47.0495084967
 20
-82.2482704974
 10
47.0345826127
 20
-82.0202900168
 10
47.0256134301
 20
-81.7882684657
 10
47.0226009489
 20
-81.5522058442
  0
LWPOLYLINE
  5
259
100
AcDbEntity
  8
0
100
AcDbPolyline
 62
7
  6
CONTINUOUS
 90
22
 70
0
 10
53.1684339929
 20
-90.0136813005
 10
53.2840939207
 20
-90.1436918234
 10
53.3945754886
 20
-90.2801443953
 10
53.4998786965
 20
-90.4230390161
 10
53.6000838332
 20
-90.5725074159
 10
53.69511061
 20
-90.7284178647
 10
53.7847181601
 20
-90.8903751723
 10
53.8688927356
 20
-91.0583946789
 10
53.9476480844
 20
-91.2324610444
 10
54.0207845834
 20
-91.4121330586
 10
54.0882879783
 20
-91.5974249421
 10
54.1501725234
 20
-91.7883224743
 10
54.2062813584
 20
-91.9843417825
 10
54.2565998311
 20
-92.1854958598
 10
54.3011425938
 20
-92.3917717132
 10
54.3397967427
 20
-92.60264649
 10
54.3725473393
 20
-92.8181318572
 10
54.3994093221
 20
-93.0382161479
 10
54.4203146035
 20
-93.2623415091
 10
54.4352404876
 20
-93.4903219897
 10
54.4442096702
 20
-93.7223435407
 10
54.4472221514
 20
-93.9584061622
  0
LWPOLYLINE
  5
25A
100
AcDbEntity
  8
RACCORDO
100
AcDbPolyline
 62
7
  6
CONTINUOUS
 90
40
 70
0
 10
-14.1421356237
 20
-27.3976972137
 10
-14.1392296321
 20
-27.5641967395
 10
-14.1306369578
 20
-27.7331824031
 10
-14.1163576009
 20
-27.9046542045
 10
-14.0963499974
 20
-28.0788980272
 10
-14.0706557113
 20
-28.2556279877
 10
-14.039399434
 20
-28.4339864354
 10
-14.00255413
 20
-28.6139812859
 10
-13.9601468349
 20
-28.7956046235
 10
-13.9123833464
 20
-28.9779750506
 10
-13.8592376295
 20
-29.1610961985
 10
-13.8007357192
 20
-29.344964436
 10
-13.7371615187
 20
-29.528687471
 10
-13.668490373
 20
-29.7122645978
 10
-13.5947469371
 20
-29.8956965222
 10
-13.5162890797
 20
-30.0780930696
 10
-13.4330938851
 20
-30.2594492073
 10
-13.345184269
 20
-30.439769968
 10
-13.2529868469
 20
-30.6181802754
 10
-13.1564807768
 20
-30.7946708432
 10
-13.0556869006
 20
-30.9692509576
 10
-12.9510943598
 20
-31.141073401
 10
-12.8426846899
 20
-31.3101247689
 10
-12.7304763554
 20
-31.4764184658
 10
-12.6150138906
 20
-31.639147487
 10
-12.4962814781
 20
-31.7982945055
 10
-12.3742949354
 20
-31.9538768483
 10
-12.2496462494
 20
-32.1051394918
 10
-12.1223224802
 20
-32.2520614389
 10
-11.9923365678
 20
-32.3946636867
 10
-11.8603193191
 20
-32.5322542025
 10
-11.7262608605
 20
-32.6648086254
 10
-11.5901710657
 20
-32.7923513164
 10
-11.4527103631
 20
-32.9142633249
 10
-11.3138720892
 20
-33.0305172817
 10
-11.1736629076
 20
-33.1411405562
 10
-11.0327632377
 20
-33.2455963059
 10
-10.8913998861
 20
-33.3437055834
 10
-10.7493460461
 20
-33.4356473362
 10
-10.6066017178
 20
-33.5214215643
  0
LWPOLYLINE
  5
25B
100
AcDbEntity
  8
RACCORDO
100
AcDbPolyline
 62
7
  6
CONTINUOUS
 90
40
 70
0
 10
-12.7279220614
 20
-26.5811480271
 10
-12.7250160698
 20
-26.7476475529
 10
-12.7164233955
 20
-26.9166332165
 10
-12.7021440385
 20
-27.0881050178
 10
-12.6821364351
 20
-27.2623488406
 10
-12.6564421489
 20
-27.4390788011
 10
-12.6251858716
 20
-27.6174372488
 10
-12.5883405677
 20
-27.7974320992
 10
-12.5459332725
 20
-27.9790554368
 10
-12.498169784
 20
-28.1614258639
 10
-12.4450240671
 20
-28.3445470119
 10
-12.3865221568
 20
-28.5284152493
 10
-12.3229479563
 20
-28.7121382844
 10
-12.2542768106
 20
-28.8957154111
 10
-12.1805333747
 20
-29.0791473355
 10
-12.1020755173
 20
-29.2615438829
 10
-12.0188803228
 20
-29.4429000206
 10
-11.9309707067
 20
-29.6232207814
 10
-11.8387732845
 20
-29.8016310888
 10
-11.7422672144
 20
-29.9781216566
 10
-11.6414733383
 20
-30.152701771
 10
-11.5368807974
 20
-30.3245242143
 10
-11.4284711276
 20
-30.4935755823
 10
-11.316262793
 20
-30.6598692792
 10
-11.2008003283
 20
-30.8225983003
 10
-11.0820679158
 20
-30.9817453188
 10
-10.960081373
 20
-31.1373276616
 10
-10.8354326871
 20
-31.2885903051
 10
-10.7081089178
 20
-31.4355122522
 10
-10.5781230054
 20
-31.5781145001
 10
-10.4461057568
 20
-31.7157050158
 10
-10.3120472981
 20
-31.8482594388
 10
-10.1759575033
 20
-31.9758021297
 10
-10.0384968007
 20
-32.0977141383
 10
-9.8996585268
 20
-32.2139680951
 10
-9.7594493453
 20
-32.3245913695
 10
-9.6185496754
 20
-32.4290471192
 10
-9.4771863237
 20
-32.5271563967
 10
-9.3351324837
 20
-32.6190981496
 10
-9.1923881554
 20
-32.7048723777
  0
LINE
  5
25C
100
AcDbEntity
  8
RACCORDO
100
AcDbLine
 62
7
  6
CONTINUOUS
 10
-15.5563491861
 20
55.4739569709
 11
-15.5563491861
 21
-28.2142464004
  0
LINE
  5
25D
100
AcDbEntity
  8
RACCORDO
100
AcDbLine
 62
7
  6
CONTINUOUS
 10
-14.1421356237
 20
56.2905061575
 11
-14.1421356237
 21
-27.3976972137
  0
LINE
  5
25E
100
AcDbEntity
  8
RACCORDO
100
AcDbLine
 62
7
  6
CONTINUOUS
 10
-12.7279220614
 20
57.1070553442
 11
-12.7279220614
 21
-26.5811480271
  0
LWPOLYLINE
  5
25F
100
AcDbEntity
  8
RACCORDO
100
AcDbPolyline
 62
7
  6
CONTINUOUS
 90
21
 70
0
 10
-15.5563491861
 20
55.4739569709
 10
-15.5534431945
 20
55.6371007304
 10
-15.5448505202
 20
55.7961637891
 10
-15.5305711633
 20
55.951146147
 10
-15.5105635598
 20
56.1022856908
 10
-15.4848692737
 20
56.2493445337
 10
-15.4536129964
 20
56.3916090158
 10
-15.4167676924
 20
56.5290558328
 10
-15.3743603973
 20
56.661708289
 10
-15.3265969088
 20
56.7889226368
 10
-15.2734511918
 20
56.910672443
 10
-15.2149492815
 20
57.0269841408
 10
-15.1513750811
 20
57.1372932827
 10
-15.0827039354
 20
57.2415706917
 10
-15.0089604995
 20
57.3398455448
 10
-14.9305026421
 20
57.4316409251
 10
-14.8473074475
 20
57.5169253375
 10
-14.7593978314
 20
57.5957302771
 10
-14.6672004093
 20
57.6676733124
 10
-14.5706943392
 20
57.7327210894
 10
-14.5209359339
 20
57.7626413615
  0
LWPOLYLINE
  5
260
100
AcDbEntity
  8
0
100
AcDbPolyline
 62
7
  6
CONTINUOUS
 90
14
 70
0
 10
-18.8797510577
 20
-34.3375880382
 10
-18.8777452503
 20
-34.2654104804
 10
-18.8719259959
 20
-34.1962578688
 10
-18.8622932945
 20
-34.1301302033
 10
-18.84878184
 20
-34.0668001643
 10
-18.8314569384
 20
-34.0064950714
 10
-18.8105145081
 20
-33.9498968835
 10
-18.7859134856
 20
-33.8970476786
 10
-18.7576949343
 20
-33.8479053787
 10
-18.7261779631
 20
-33.8030257083
 10
-18.6913251308
 20
-33.7624570538
 10
-18.6531738786
 20
-33.7261510289
 10
-18.6121556392
 20
-33.6945181995
 10
-18.5794096426
 20
-33.6738282483
  0
LWPOLYLINE
  5
261
100
AcDbEntity
  8
0
100
AcDbPolyline
 62
7
  6
CONTINUOUS
 90
14
 70
0
 10
-16.8291413922
 20
-35.5215843588
 10
-16.8311471996
 20
-35.5937619165
 10
-16.836966454
 20
-35.6629145282
 10
-16.8465991554
 20
-35.7290421937
 10
-16.8601106099
 20
-35.7923722327
 10
-16.8774355115
 20
-35.8526773255
 10
-16.8983779418
 20
-35.9092755135
 10
-16.9229789643
 20
-35.9621247184
 10
-16.9511975157
 20
-36.0112670183
 10
-16.9827144868
 20
-36.0561466886
 10
-17.0175673191
 20
-36.0967153431
 10
-17.0557185713
 20
-36.133021368
 10
-17.0967368107
 20
-36.1646541975
 10
-17.1294828073
 20
-36.1853441487
  0
LWPOLYLINE
  5
262
100
AcDbEntity
  8
0
100
AcDbPolyline
 62
7
  6
CONTINUOUS
 90
10
 70
0
 10
37.1052675955
 20
-66.0294999379
 10
37.0900883905
 20
-66.0099185886
 10
37.0411232401
 20
-65.9420582455
 10
36.9943831487
 20
-65.8724209241
 10
36.9498907365
 20
-65.8009887641
 10
36.9076233833
 20
-65.7277796257
 10
36.8680076092
 20
-65.6535322522
 10
36.831070187
 20
-65.5782359635
 10
36.7967843439
 20
-65.5019014397
 10
36.7876916704
 20
-65.4796400169
  0
LINE
  5
263
100
AcDbEntity
  8
ASSI
100
AcDbLine
 62
7
  6
CONTINUOUS
 10
-49.0084958886
 20
48.7336909563
 11
-59.8859484142
 21
60.3904333171
  0
LINE
  5
264
100
AcDbEntity
  8
ASSI
100
AcDbLine
 62
7
  6
CONTINUOUS
 10
-47.5942823262
 20
47.9171417697
 11
-58.4717348518
 21
59.5738841304
  0
LWPOLYLINE
  5
265
100
AcDbEntity
  8
ASSI
100
AcDbPolyline
 62
7
  6
CONTINUOUS
 90
22
 70
0
 10
-59.8859484142
 20
60.3904333171
 10
-60.001608342
 20
60.52044384
 10
-60.1120899099
 20
60.6568964119
 10
-60.2173931177
 20
60.7997910328
 10
-60.3175982545
 20
60.9492594325
 10
-60.4126250313
 20
61.1051698813
 10
-60.5022325813
 20
61.2671271889
 10
-60.5864071568
 20
61.4351466955
 10
-60.6651625057
 20
61.6092130611
 10
-60.7382990047
 20
61.7888850752
 10
-60.8058023996
 20
61.9741769588
 10
-60.8676869447
 20
62.1650744909
 10
-60.9237957797
 20
62.3610937991
 10
-60.9741142524
 20
62.5622478764
 10
-61.0186570151
 20
62.7685237298
 10
-61.057311164
 20
62.9793985066
 10
-61.0900617605
 20
63.1948838738
 10
-61.1169237434
 20
63.4149681645
 10
-61.1378290248
 20
63.6390935257
 10
-61.1527549089
 20
63.8670740063
 10
-61.1617240915
 20
64.0990955574
 10
-61.1647365726
 20
64.3351581789
  0
LWPOLYLINE
  5
266
100
AcDbEntity
  8
ASSI
100
AcDbPolyline
 62
7
  6
CONTINUOUS
 90
22
 70
0
 10
-49.0084958886
 20
48.7336909563
 10
-48.8928359607
 20
48.6036804334
 10
-48.7823543929
 20
48.4672278615
 10
-48.677051185
 20
48.3243332407
 10
-48.5768460482
 20
48.1748648409
 10
-48.4818192715
 20
48.0189543922
 10
-48.3922117214
 20
47.8569970845
 10
-48.3080371459
 20
47.6889775779
 10
-48.2292817971
 20
47.5149112124
 10
-48.1561452981
 20
47.3352391982
 10
-48.0886419032
 20
47.1499473147
 10
-48.0267573581
 20
46.9590497825
 10
-47.970648523
 20
46.7630304744
 10
-47.9203300503
 20
46.561876397
 10
-47.8757872877
 20
46.3556005436
 10
-47.8371331388
 20
46.1447257668
 10
-47.8043825422
 20
45.9292403996
 10
-47.7775205593
 20
45.7091561089
 10
-47.7566152779
 20
45.4850307477
 10
-47.7416893939
 20
45.2570502671
 10
-47.7327202113
 20
45.0250287161
 10
-47.7297077301
 20
44.7889660946
  0
LWPOLYLINE
  5
267
100
AcDbEntity
  8
ASSI
100
AcDbPolyline
 62
7
  6
CONTINUOUS
 90
22
 70
0
 10
-58.4717348518
 20
59.5738841304
 10
-58.5873947796
 20
59.7038946534
 10
-58.6978763475
 20
59.8403472253
 10
-58.8031795554
 20
59.9832418461
 10
-58.9033846921
 20
60.1327102459
 10
-58.9984114689
 20
60.2886206946
 10
-59.088019019
 20
60.4505780023
 10
-59.1721935945
 20
60.6185975089
 10
-59.2509489433
 20
60.7926638744
 10
-59.3240854423
 20
60.9723358885
 10
-59.3915888372
 20
61.1576277721
 10
-59.4534733823
 20
61.3485253043
 10
-59.5095822173
 20
61.5445446124
 10
-59.55990069
 20
61.7456986898
 10
-59.6044434527
 20
61.9519745431
 10
-59.6430976016
 20
62.16284932
 10
-59.6758481982
 20
62.3783346872
 10
-59.702710181
 20
62.5984189779
 10
-59.7236154624
 20
62.822544339
 10
-59.7385413465
 20
63.0505248196
 10
-59.7475105291
 20
63.2825463707
 10
-59.7505230103
 20
63.5186089922
  0
LWPOLYLINE
  5
268
100
AcDbEntity
  8
ASSI
100
AcDbPolyline
 62
7
  6
CONTINUOUS
 90
22
 70
0
 10
-47.5942823262
 20
47.9171417697
 10
-47.4786223983
 20
47.7871312467
 10
-47.3681408305
 20
47.6506786748
 10
-47.2628376226
 20
47.507784054
 10
-47.1626324859
 20
47.3583156542
 10
-47.0676057091
 20
47.2024052055
 10
-46.977998159
 20
47.0404478979
 10
-46.8938235835
 20
46.8724283912
 10
-46.8150682347
 20
46.6983620257
 10
-46.7419317357
 20
46.5186900116
 10
-46.6744283408
 20
46.333398128
 10
-46.6125437957
 20
46.1425005958
 10
-46.5564349607
 20
45.9464812877
 10
-46.5061164879
 20
45.7453272103
 10
-46.4615737253
 20
45.539051357
 10
-46.4229195764
 20
45.3281765801
 10
-46.3901689798
 20
45.1126912129
 10
-46.363306997
 20
44.8926069222
 10
-46.3424017156
 20
44.6684815611
 10
-46.3274758315
 20
44.4405010805
 10
-46.3185066489
 20
44.2084795294
 10
-46.3154941677
 20
43.9724169079
  0
LWPOLYLINE
  5
269
100
AcDbEntity
  8
ASSI
100
AcDbPolyline
 62
7
  6
CONTINUOUS
 90
10
 70
0
 10
60.2519329741
 20
79.0377587386
 10
60.2133172635
 20
78.9720761709
 10
60.1698713811
 20
78.9075487954
 10
60.1215677784
 20
78.8441832007
 10
60.0684340039
 20
78.7819727981
 10
60.0107725271
 20
78.7212717269
 10
59.9485575246
 20
78.6620885954
 10
59.8818148198
 20
78.6044147952
 10
59.8109243525
 20
78.5485786404
 10
59.7360127692
 20
78.494689569
  0
LINE
  5
26A
100
AcDbEntity
  8
RACCORDO
100
AcDbLine
 62
250
  6
CONTINUOUS
 10
-15.5563491861
 20
-28.2142464004
 11
-12.7279220614
 21
-26.5811480271
  0
LWPOLYLINE
  5
26B
100
AcDbEntity
  8
0
100
AcDbPolyline
 62
7
  6
CONTINUOUS
 90
40
 70
0
 10
-18.5794096426
 20
-33.6738282483
 10
-18.5682378686
 20
-33.6676116122
 10
-18.5214531107
 20
-33.6453782205
 10
-18.47233043
 20
-33.6280694501
 10
-18.4208432881
 20
-33.6157412016
 10
-18.3670182233
 20
-33.6083375745
 10
-18.3114639153
 20
-33.6059422925
 10
-18.2541607349
 20
-33.6086122066
 10
-18.1951283112
 20
-33.6162904658
 10
-18.1350342112
 20
-33.6288902406
 10
-18.0738663835
 20
-33.6464673965
 10
-18.0116368793
 20
-33.6689660681
 10
-17.9490494198
 20
-33.6961318296
 10
-17.8860999417
 20
-33.7280176583
 10
-17.8227925082
 20
-33.764570577
 10
-17.7598430301
 20
-33.8053772277
 10
-17.6972555706
 20
-33.8504858956
 10
-17.6350260665
 20
-33.8998482956
 10
-17.5738582387
 20
-33.9529062139
 10
-17.5137641387
 20
-34.0097015995
 10
-17.454731715
 20
-34.0701925034
 10
-17.3974285347
 20
-34.1336948657
 10
-17.3418742266
 20
-34.2002428701
 10
-17.2880491619
 20
-34.2698023329
 10
-17.2365620199
 20
-34.3415866422
 10
-17.1874393392
 20
-34.415621053
 10
-17.1406545813
 20
-34.4918803105
 10
-17.0967368107
 20
-34.5695020384
 10
-17.0557185713
 20
-34.6485017026
 10
-17.0175673191
 20
-34.7288638372
 10
-16.9827144868
 20
-34.8096796688
 10
-16.9511975157
 20
-34.8909543475
 10
-16.9229789643
 20
-34.9726827231
 10
-16.8983779418
 20
-35.0539405722
 10
-16.8774355115
 20
-35.1347225537
 10
-16.8601106099
 20
-35.2150340086
 10
-16.8465991554
 20
-35.2939667366
 10
-16.836966454
 20
-35.3712180043
 10
-16.8311471996
 20
-35.447090545
 10
-16.8291413922
 20
-35.5215843588
  0
LINE
  5
26C
100
AcDbEntity
  8
ASSI
100
AcDbLine
 62
250
  6
CONTINUOUS
 10
-47.7297077301
 20
44.7889660946
 11
-46.3154941677
 21
43.9724169079
  0
LINE
  5
26D
100
AcDbEntity
  8
ASSI
100
AcDbLine
 62
250
  6
CONTINUOUS
 10
48.4368145113
 20
-10.736378598
 11
47.0226009489
 21
-9.9198294113
  0
LINE
  5
26E
100
AcDbEntity
  8
ASSI
100
AcDbLine
 62
250
  6
CONTINUOUS
 10
-49.0084958886
 20
48.7336909563
 11
-47.5942823262
 21
47.9171417697
  0
LINE
  5
26F
100
AcDbEntity
  8
ASSI
100
AcDbLine
 62
250
  6
CONTINUOUS
 10
47.1580263528
 20
-6.7916537362
 11
45.7438127904
 21
-5.9751045496
  0
LINE
  5
270
100
AcDbEntity
  8
ASSI
100
AcDbLine
 62
7
  6
CONTINUOUS
 10
26.8652511009
 20
74.2041243306
 11
26.8652511009
 21
72.571183777
  0
LINE
  5
271
100
AcDbEntity
  8
RACCORDO
100
AcDbLine
 62
250
  6
CONTINUOUS
 10
-12.0208152802
 20
-34.337970751
 11
-9.1923881554
 21
-32.7048723777
  0
LWPOLYLINE
  5
272
100
AcDbEntity
  8
0
100
AcDbPolyline
 62
7
  6
CONTINUOUS
 90
40
 70
0
 10
-17.1294828073
 20
-36.1853441487
 10
-17.1406545813
 20
-36.1915607847
 10
-17.1874393392
 20
-36.2137941765
 10
-17.2365620199
 20
-36.2311029469
 10
-17.2880491619
 20
-36.2434311953
 10
-17.3418742266
 20
-36.2508348224
 10
-17.3974285347
 20
-36.2532301045
 10
-17.454731715
 20
-36.2505601904
 10
-17.5137641387
 20
-36.2428819312
 10
-17.5738582387
 20
-36.2302821564
 10
-17.6350260665
 20
-36.2127050004
 10
-17.6972555706
 20
-36.1902063289
 10
-17.7598430301
 20
-36.1630405674
 10
-17.8227925082
 20
-36.1311547387
 10
-17.8860999417
 20
-36.09460182
 10
-17.9490494198
 20
-36.0537951693
 10
-18.0116368793
 20
-36.0086865013
 10
-18.0738663835
 20
-35.9593241014
 10
-18.1350342112
 20
-35.906266183
 10
-18.1951283112
 20
-35.8494707975
 10
-18.2541607349
 20
-35.7889798935
 10
-18.3114639153
 20
-35.7254775313
 10
-18.3670182233
 20
-35.6589295268
 10
-18.4208432881
 20
-35.5893700641
 10
-18.47233043
 20
-35.5175857547
 10
-18.5214531107
 20
-35.4435513439
 10
-18.5682378686
 20
-35.3672920865
 10
-18.6121556392
 20
-35.2896703586
 10
-18.6531738786
 20
-35.2106706944
 10
-18.6913251308
 20
-35.1303085598
 10
-18.7261779631
 20
-35.0494927282
 10
-18.7576949343
 20
-34.9682180495
 10
-18.7859134856
 20
-34.8864896738
 10
-18.8105145081
 20
-34.8052318247
 10
-18.8314569384
 20
-34.7244498433
 10
-18.84878184
 20
-34.6441383883
 10
-18.8622932945
 20
-34.5652056603
 10
-18.8719259959
 20
-34.4879543927
 10
-18.8777452503
 20
-34.412081852
 10
-18.8797510577
 20
-34.3375880382
  0
LINE
  5
273
100
AcDbEntity
  8
ASSI
100
AcDbLine
 62
250
  6
CONTINUOUS
 10
-59.8859484142
 20
60.3904333171
 11
-58.4717348518
 21
59.5738841304
  0
LINE
  5
274
100
AcDbEntity
  8
ASSI
100
AcDbLine
 62
250
  6
CONTINUOUS
 10
36.2805738272
 20
4.8650886245
 11
34.8663602648
 21
5.6816378112
  0
LINE
  5
275
100
AcDbEntity
  8
ASSI
100
AcDbLine
 62
250
  6
CONTINUOUS
 10
-61.1647365726
 20
64.3351581789
 11
-59.7505230103
 21
63.5186089922
  0
LINE
  5
276
100
AcDbEntity
  8
ASSI
100
AcDbLine
 62
250
  6
CONTINUOUS
 10
35.0017856687
 20
8.8098134863
 11
33.5875721064
 21
9.6263626729
  0
LINE
  5
277
100
AcDbEntity
  8
ASSI
100
AcDbLine
 62
7
  6
CONTINUOUS
 10
45.7438127904
 20
-5.9751045496
 11
34.8663602648
 21
5.6816378112
  0
LINE
  5
278
100
AcDbEntity
  8
ASSI
100
AcDbLine
 62
7
  6
CONTINUOUS
 10
47.1580263528
 20
-6.7916537362
 11
36.2805738272
 21
4.8650886245
  0
LWPOLYLINE
  5
279
100
AcDbEntity
  8
ASSI
100
AcDbPolyline
 62
7
  6
CONTINUOUS
 90
22
 70
0
 10
34.8663602648
 20
5.6816378112
 10
34.750700337
 20
5.8116483341
 10
34.6402187691
 20
5.948100906
 10
34.5349155613
 20
6.0909955268
 10
34.4347104245
 20
6.2404639266
 10
34.3396836477
 20
6.3963743754
 10
34.2500760977
 20
6.558331683
 10
34.1659015222
 20
6.7263511896
 10
34.0871461733
 20
6.9004175551
 10
34.0140096743
 20
7.0800895693
 10
33.9465062794
 20
7.2653814528
 10
33.8846217343
 20
7.456278985
 10
33.8285128993
 20
7.6522982932
 10
33.7781944266
 20
7.8534523705
 10
33.7336516639
 20
8.0597282239
 10
33.694997515
 20
8.2706030007
 10
33.6622469185
 20
8.4860883679
 10
33.6353849356
 20
8.7061726586
 10
33.6144796542
 20
8.9302980198
 10
33.5995537701
 20
9.1582785004
 10
33.5905845875
 20
9.3903000514
 10
33.5875721064
 20
9.6263626729
  0
LWPOLYLINE
  5
27A
100
AcDbEntity
  8
ASSI
100
AcDbPolyline
 62
7
  6
CONTINUOUS
 90
22
 70
0
 10
45.7438127904
 20
-5.9751045496
 10
45.8594727183
 20
-6.1051150725
 10
45.9699542861
 20
-6.2415676444
 10
46.075257494
 20
-6.3844622652
 10
46.1754626308
 20
-6.533930665
 10
46.2704894075
 20
-6.6898411138
 10
46.3600969576
 20
-6.8517984214
 10
46.4442715331
 20
-7.019817928
 10
46.5230268819
 20
-7.1938842935
 10
46.5961633809
 20
-7.3735563077
 10
46.6636667758
 20
-7.5588481912
 10
46.7255513209
 20
-7.7497457234
 10
46.781660156
 20
-7.9457650316
 10
46.8319786287
 20
-8.1469191089
 10
46.8765213913
 20
-8.3531949623
 10
46.9151755402
 20
-8.5640697391
 10
46.9479261368
 20
-8.7795551063
 10
46.9747881197
 20
-8.999639397
 10
46.9956934011
 20
-9.2237647582
 10
47.0106192851
 20
-9.4517452388
 10
47.0195884677
 20
-9.6837667898
 10
47.0226009489
 20
-9.9198294113
  0
LWPOLYLINE
  5
27B
100
AcDbEntity
  8
ASSI
100
AcDbPolyline
 62
7
  6
CONTINUOUS
 90
22
 70
0
 10
36.2805738272
 20
4.8650886245
 10
36.1649138994
 20
4.9950991475
 10
36.0544323315
 20
5.1315517194
 10
35.9491291236
 20
5.2744463402
 10
35.8489239869
 20
5.42391474
 10
35.7538972101
 20
5.5798251887
 10
35.66428966
 20
5.7417824963
 10
35.5801150845
 20
5.909802003
 10
35.5013597357
 20
6.0838683685
 10
35.4282232367
 20
6.2635403826
 10
35.3607198418
 20
6.4488322662
 10
35.2988352967
 20
6.6397297984
 10
35.2427264617
 20
6.8357491065
 10
35.192407989
 20
7.0369031839
 10
35.1478652263
 20
7.2431790372
 10
35.1092110774
 20
7.4540538141
 10
35.0764604808
 20
7.6695391813
 10
35.049598498
 20
7.889623472
 10
35.0286932166
 20
8.1137488331
 10
35.0137673325
 20
8.3417293137
 10
35.0047981499
 20
8.5737508648
 10
35.0017856687
 20
8.8098134863
  0
LWPOLYLINE
  5
27C
100
AcDbEntity
  8
ASSI
100
AcDbPolyline
 62
7
  6
CONTINUOUS
 90
22
 70
0
 10
47.1580263528
 20
-6.7916537362
 10
47.2736862807
 20
-6.9216642592
 10
47.3841678485
 20
-7.0581168311
 10
47.4894710564
 20
-7.2010114519
 10
47.5896761931
 20
-7.3504798517
 10
47.6847029699
 20
-7.5063903004
 10
47.77431052
 20
-7.668347608
 10
47.8584850955
 20
-7.8363671147
 10
47.9372404443
 20
-8.0104334802
 10
48.0103769433
 20
-8.1901054943
 10
48.0778803382
 20
-8.3753973779
 10
48.1397648833
 20
-8.5662949101
 10
48.1958737183
 20
-8.7623142182
 10
48.2461921911
 20
-8.9634682956
 10
48.2907349537
 20
-9.1697441489
 10
48.3293891026
 20
-9.3806189258
 10
48.3621396992
 20
-9.596104293
 10
48.389001682
 20
-9.8161885837
 10
48.4099069634
 20
-10.0403139448
 10
48.4248328475
 20
-10.2682944254
 10
48.4338020301
 20
-10.5003159765
 10
48.4368145113
 20
-10.736378598
  0
LINE
  5
27D
100
AcDbEntity
  8
ASSI
100
AcDbLine
 62
7
  6
CONTINUOUS
 10
33.5875721064
 20
9.6263626729
 11
33.5875721064
 21
65.021431431
  0
LINE
  5
27E
100
AcDbEntity
  8
RACCORDO
100
AcDbLine
 62
7
  6
CONTINUOUS
 10
33.941125497
 20
-56.7934679333
 11
33.941125497
 21
7.2819797504
  0
LINE
  5
27F
100
AcDbEntity
  8
ASSI
100
AcDbLine
 62
7
  6
CONTINUOUS
 10
35.0017856687
 20
8.8098134863
 11
35.0017856687
 21
64.2048822443
  0
LWPOLYLINE
  5
280
100
AcDbEntity
  8
RACCORDO
100
AcDbPolyline
 62
7
  6
CONTINUOUS
 90
21
 70
0
 10
33.941125497
 20
-56.7934679333
 10
33.9382195053
 20
-56.9566116929
 10
33.9296268311
 20
-57.1156747516
 10
33.9153474741
 20
-57.2706571095
 10
33.8953398707
 20
-57.4217966532
 10
33.8696455845
 20
-57.5688554962
 10
33.8383893072
 20
-57.7111199783
 10
33.8015440033
 20
-57.8485667953
 10
33.7591367081
 20
-57.9812192514
 10
33.7113732196
 20
-58.1084335993
 10
33.6582275027
 20
-58.2301834054
 10
33.5997255924
 20
-58.3464951033
 10
33.5361513919
 20
-58.4568042452
 10
33.4674802462
 20
-58.5610816542
 10
33.3937368103
 20
-58.6593565072
 10
33.3152789529
 20
-58.7511518875
 10
33.2320837584
 20
-58.8364362999
 10
33.1441741423
 20
-58.9152412395
 10
33.0519767201
 20
-58.9871842749
 10
32.95547065
 20
-59.0522320519
 10
32.9057122447
 20
-59.0821523239
  0
LWPOLYLINE
  5
281
100
AcDbEntity
  8
0
100
AcDbPolyline
 62
7
  6
CONTINUOUS
 90
14
 70
0
 10
35.2139177031
 20
-65.5705944277
 10
35.2159235105
 20
-65.49841687
 10
35.2217427649
 20
-65.4292642584
 10
35.2313754663
 20
-65.3631365929
 10
35.2448869208
 20
-65.2998065539
 10
35.2622118223
 20
-65.239501461
 10
35.2831542526
 20
-65.1829032731
 10
35.3077552752
 20
-65.1300540682
 10
35.3359738265
 20
-65.0809117683
 10
35.3674907977
 20
-65.0360320979
 10
35.40234363
 20
-64.9954634434
 10
35.4404948821
 20
-64.9591574185
 10
35.4815131216
 20
-64.9275245891
 10
35.5142591182
 20
-64.9068346379
  0
LWPOLYLINE
  5
282
100
AcDbEntity
  8
0
100
AcDbPolyline
 62
7
  6
CONTINUOUS
 90
14
 70
0
 10
37.2645273685
 20
-66.7545907484
 10
37.2625215612
 20
-66.8267683061
 10
37.2567023068
 20
-66.8959209177
 10
37.2470696054
 20
-66.9620485832
 10
37.2335581508
 20
-67.0253786222
 10
37.2162332493
 20
-67.0856837151
 10
37.195290819
 20
-67.142281903
 10
37.1706897964
 20
-67.1951311079
 10
37.1424712451
 20
-67.2442734079
 10
37.1109542739
 20
-67.2891530782
 10
37.0761014416
 20
-67.3297217327
 10
37.0379501895
 20
-67.3660277576
 10
36.9969319501
 20
-67.397660587
 10
36.9641859534
 20
-67.4183505382
  0
LWPOLYLINE
  5
283
100
AcDbEntity
  8
0
100
AcDbPolyline
 62
7
  6
CONTINUOUS
 90
22
 70
0
 10
48.4368145113
 20
-82.3687550309
 10
48.4398269924
 20
-82.6048176524
 10
48.4487961751
 20
-82.8368392034
 10
48.4637220591
 20
-83.064819684
 10
48.4846273405
 20
-83.2889450452
 10
48.5114893234
 20
-83.5090293359
 10
48.5442399199
 20
-83.7245147031
 10
48.5828940689
 20
-83.9353894799
 10
48.6274368315
 20
-84.1416653333
 10
48.6777553042
 20
-84.3428194106
 10
48.7338641392
 20
-84.5388387188
 10
48.7957486843
 20
-84.729736251
 10
48.8632520793
 20
-84.9150281345
 10
48.9363885783
 20
-85.0947001487
 10
49.0151439271
 20
-85.2687665142
 10
49.0993185026
 20
-85.4367860208
 10
49.1889260527
 20
-85.5987433284
 10
49.2839528294
 20
-85.7546537772
 10
49.3841579662
 20
-85.904122177
 10
49.489461174
 20
-86.0470167978
 10
49.5999427419
 20
-86.1834693697
 10
49.7156026697
 20
-86.3134798926
  0
LWPOLYLINE
  5
284
100
AcDbEntity
  8
0
100
AcDbPolyline
 62
7
  6
CONTINUOUS
 90
22
 70
0
 10
53.033008589
 20
-93.1418569756
 10
53.0299961078
 20
-92.9057943541
 10
53.0210269252
 20
-92.673772803
 10
53.0061010412
 20
-92.4457923224
 10
52.9851957597
 20
-92.2216669613
 10
52.9583337769
 20
-92.0015826706
 10
52.9255831803
 20
-91.7860973034
 10
52.8869290314
 20
-91.5752225265
 10
52.8423862688
 20
-91.3689466732
 10
52.792067796
 20
-91.1677925958
 10
52.735958961
 20
-90.9717732877
 10
52.6740744159
 20
-90.7808757555
 10
52.606571021
 20
-90.5955838719
 10
52.533434522
 20
-90.4159118578
 10
52.4546791732
 20
-90.2418454923
 10
52.3705045977
 20
-90.0738259856
 10
52.2808970476
 20
-89.911868678
 10
52.1858702708
 20
-89.7559582293
 10
52.0856651341
 20
-89.6064898295
 10
51.9803619262
 20
-89.4635952087
 10
51.8698803584
 20
-89.3271426368
 10
51.7542204305
 20
-89.1971321138
  0
LINE
  5
285
100
AcDbEntity
  8
0
100
AcDbLine
 62
7
  6
CONTINUOUS
 10
47.0226009489
 20
-81.5522058442
 11
47.0226009489
 21
-9.9198294113
  0
LINE
  5
286
100
AcDbEntity
  8
0
100
AcDbLine
 62
7
  6
CONTINUOUS
 10
48.4368145113
 20
-82.3687550309
 11
48.4368145113
 21
-10.736378598
  0
LINE
  5
287
100
AcDbEntity
  8
RACCORDO
100
AcDbLine
 62
7
  6
CONTINUOUS
 10
30.405591591
 20
33.0184597885
 11
-12.0208152802
 21
57.5149353882
  0
LWPOLYLINE
  5
288
100
AcDbEntity
  8
RACCORDO
100
AcDbPolyline
 62
7
  6
CONTINUOUS
 90
29
 70
0
 10
30.405591591
 20
33.0184597885
 10
30.5483359193
 20
32.9326855604
 10
30.6903897593
 20
32.8407438076
 10
30.831753111
 20
32.7426345301
 10
30.9726527809
 20
32.6381787804
 10
31.1128619624
 20
32.5275555059
 10
31.2517002363
 20
32.4113015491
 10
31.3891609389
 20
32.2893895406
 10
31.5252507337
 20
32.1618468496
 10
31.6593091924
 20
32.0292924267
 10
31.791326441
 20
31.8917019109
 10
31.9213123534
 20
31.7490996631
 10
32.0486361227
 20
31.602177716
 10
32.1732848086
 20
31.4509150725
 10
32.2952713513
 20
31.2953327297
 10
32.4140037639
 20
31.1361857112
 10
32.5294662286
 20
30.97345669
 10
32.6416745632
 20
30.8071629931
 10
32.750084233
 20
30.6381116252
 10
32.8546767739
 20
30.4662891818
 10
32.95547065
 20
30.2917090674
 10
33.0519767201
 20
30.1152184996
 10
33.1441741423
 20
29.9368081922
 10
33.2320837584
 20
29.7564874315
 10
33.3152789529
 20
29.5751312938
 10
33.3937368103
 20
29.3927347464
 10
33.4674802462
 20
29.209302822
 10
33.5361513919
 20
29.0257256952
 10
33.5875721064
 20
28.8771250105
  0
LWPOLYLINE
  5
289
100
AcDbEntity
  8
0
100
AcDbPolyline
 62
7
  6
CONTINUOUS
 90
22
 70
0
 10
54.4472221514
 20
-136.176250427
 10
54.4497232913
 20
-136.3278044143
 10
54.457133523
 20
-136.475885284
 10
54.4694528465
 20
-136.6204930362
 10
54.4867121943
 20
-136.7618200234
 10
54.5088806339
 20
-136.8996738931
 10
54.5358653679
 20
-137.0334775874
 10
54.5676865857
 20
-137.1632141285
 10
54.604324098
 20
-137.2889004943
 10
54.6456245397
 20
-137.4100105602
 10
54.6916074573
 20
-137.5265251429
 10
54.7422533043
 20
-137.6384634258
 10
54.7973500766
 20
-137.7453568339
 10
54.856916432
 20
-137.8471842198
 10
54.9209337128
 20
-137.943966731
 10
54.989133942
 20
-138.0352992347
 10
55.0615346537
 20
-138.1211588853
 10
55.1381183139
 20
-138.2015685285
 10
55.2185643423
 20
-138.2761915686
 10
55.3028889295
 20
-138.345003749
 10
55.3910758851
 20
-138.4080293263
 10
55.4826350031
 20
-138.4649345863
  0
LINE
  5
28A
100
AcDbEntity
  8
0
100
AcDbLine
 62
7
  6
CONTINUOUS
 10
53.033008589
 20
-135.3597012403
 11
53.033008589
 21
-93.1418569756
  0
LINE
  5
28B
100
AcDbEntity
  8
0
100
AcDbLine
 62
7
  6
CONTINUOUS
 10
54.4472221514
 20
-136.176250427
 11
54.4472221514
 21
-93.9584061622
  0
LINE
  5
28C
100
AcDbEntity
  8
0
100
AcDbLine
 62
250
  6
CONTINUOUS
 10
59.573746315
 20
78.3924243624
 11
59.573746315
 21
-137.2986110093
  0
LINE
  5
28D
100
AcDbEntity
  8
0
100
AcDbLine
 62
7
  6
CONTINUOUS
 10
60.3792026667
 20
79.5151794941
 11
60.3792026667
 21
-136.1758558777
  0
LINE
  5
28E
100
AcDbEntity
  8
RACCORDO
100
AcDbLine
 62
7
  6
CONTINUOUS
 10
61.1647365726
 20
-133.522071021
 11
61.1647365726
 21
78.9030832435
  0
LWPOLYLINE
  5
28F
100
AcDbEntity
  8
ASSI
100
AcDbPolyline
 62
7
  6
CONTINUOUS
 90
6
 70
0
 10
60.3792026667
 20
79.5151794941
 10
60.3765736874
 20
79.4459643174
 10
60.3687165679
 20
79.3767491406
 10
60.3556760355
 20
79.3079279784
 10
60.3374225271
 20
79.239503078
 10
60.3139856059
 20
79.1714721922
  0
LINE
  5
290
100
AcDbEntity
  8
0
100
AcDbLine
 62
7
  6
CONTINUOUS
 10
-36.7695526217
 20
-83.5084333384
 11
-36.5452850471
 21
-83.3789440515
  0
LWPOLYLINE
  5
291
100
AcDbEntity
  8
0
100
AcDbPolyline
 62
7
  6
CONTINUOUS
 90
19
 70
0
 10
60.3792026667
 20
-136.1758558777
 10
60.3765736874
 20
-136.2450710544
 10
60.3687165679
 20
-136.3142862311
 10
60.3556760355
 20
-136.3831073933
 10
60.3374225271
 20
-136.4515322937
 10
60.3139856059
 20
-136.5195631796
 10
60.285498689
 20
-136.5868127781
 10
60.2519329741
 20
-136.6532766331
 10
60.2133172635
 20
-136.7189592008
 10
60.1698713811
 20
-136.7834865763
 10
60.1215677784
 20
-136.8468521711
 10
60.0684340039
 20
-136.9090625736
 10
60.0107725271
 20
-136.9697636449
 10
59.9485575246
 20
-137.0289467764
 10
59.8818148198
 20
-137.0866205766
 10
59.8109243525
 20
-137.1424567314
 10
59.7360127692
 20
-137.1963458028
 10
59.6569534234
 20
-137.2483972287
 10
59.573746315
 20
-137.2986110093
  0
LINE
  5
292
100
AcDbEntity
  8
RACCORDO
100
AcDbLine
 62
250
  6
CONTINUOUS
 10
30.405591591
 20
-58.8344463507
 11
33.2340187158
 21
-57.2013479773
  0
LWPOLYLINE
  5
293
100
AcDbEntity
  8
RACCORDO
100
AcDbPolyline
 62
7
  6
CONTINUOUS
 90
21
 70
0
 10
32.9057122447
 20
-59.0821523239
 10
32.8546767739
 20
-59.1104179246
 10
32.750084233
 20
-59.1614595235
 10
32.6416745632
 20
-59.2053221221
 10
32.5294662286
 20
-59.2420404468
 10
32.4140037639
 20
-59.2714363079
 10
32.2952713513
 20
-59.2934741125
 10
32.1732848086
 20
-59.3081894535
 10
32.0486361227
 20
-59.3155109188
 10
31.9213123534
 20
-59.3154025688
 10
31.791326441
 20
-59.3079003431
 10
31.6593091924
 20
-59.2930406493
 10
31.5252507337
 20
-59.2707877245
 10
31.3891609389
 20
-59.2411773316
 10
31.2517002363
 20
-59.2043531664
 10
31.1128619624
 20
-59.1602801646
 10
30.9726527809
 20
-59.1089933906
 10
30.831753111
 20
-59.0507417333
 10
30.6903897593
 20
-58.9856081557
 10
30.5483359193
 20
-58.9135096948
 10
30.405591591
 20
-58.8344463507
  0
LWPOLYLINE
  5
294
100
AcDbEntity
  8
0
100
AcDbPolyline
 62
7
  6
CONTINUOUS
 90
40
 70
0
 10
35.5142591182
 20
-64.9068346379
 10
35.5254308922
 20
-64.9006180018
 10
35.5722156501
 20
-64.8783846101
 10
35.6213383308
 20
-64.8610758396
 10
35.6728254727
 20
-64.8487475912
 10
35.7266505375
 20
-64.8413439641
 10
35.7822048455
 20
-64.8389486821
 10
35.8395080259
 20
-64.8416185962
 10
35.8985404495
 20
-64.8492968553
 10
35.9586345496
 20
-64.8618966302
 10
36.0198023773
 20
-64.8794737861
 10
36.0820318814
 20
-64.9019724577
 10
36.1446193409
 20
-64.9291382191
 10
36.2075688191
 20
-64.9610240479
 10
36.2708762526
 20
-64.9975769666
 10
36.3338257307
 20
-65.0383836172
 10
36.3964131902
 20
-65.0834922852
 10
36.4586426943
 20
-65.1328546852
 10
36.5198105221
 20
-65.1859126035
 10
36.5799046221
 20
-65.2427079891
 10
36.6389370457
 20
-65.303198893
 10
36.6962402261
 20
-65.3667012553
 10
36.7517945341
 20
-65.4332492597
 10
36.8056195989
 20
-65.5028087224
 10
36.8571067409
 20
-65.5745930318
 10
36.9062294216
 20
-65.6486274426
 10
36.9530141794
 20
-65.7248867001
 10
36.9969319501
 20
-65.802508428
 10
37.0379501895
 20
-65.8815080921
 10
37.0761014416
 20
-65.9618702267
 10
37.1109542739
 20
-66.0426860584
 10
37.1424712451
 20
-66.123960737
 10
37.1706897964
 20
-66.2056891127
 10
37.195290819
 20
-66.2869469618
 10
37.2162332493
 20
-66.3677289433
 10
37.2335581508
 20
-66.4480403982
 10
37.2470696054
 20
-66.5269731262
 10
37.2567023068
 20
-66.6042243938
 10
37.2625215612
 20
-66.6800969346
 10
37.2645273685
 20
-66.7545907484
  0
LWPOLYLINE
  5
295
100
AcDbEntity
  8
0
100
AcDbPolyline
 62
7
  6
CONTINUOUS
 90
40
 70
0
 10
36.9641859534
 20
-67.4183505382
 10
36.9530141794
 20
-67.4245671743
 10
36.9062294216
 20
-67.446800566
 10
36.8571067409
 20
-67.4641093365
 10
36.8056195989
 20
-67.4764375849
 10
36.7517945341
 20
-67.483841212
 10
36.6962402261
 20
-67.486236494
 10
36.6389370457
 20
-67.4835665799
 10
36.5799046221
 20
-67.4758883208
 10
36.5198105221
 20
-67.4632885459
 10
36.4586426943
 20
-67.44571139
 10
36.3964131902
 20
-67.4232127185
 10
36.3338257307
 20
-67.396046957
 10
36.2708762526
 20
-67.3641611282
 10
36.2075688191
 20
-67.3276082096
 10
36.1446193409
 20
-67.2868015589
 10
36.0820318814
 20
-67.2416928909
 10
36.0198023773
 20
-67.1923304909
 10
35.9586345496
 20
-67.1392725726
 10
35.8985404495
 20
-67.082477187
 10
35.8395080259
 20
-67.0219862831
 10
35.7822048455
 20
-66.9584839208
 10
35.7266505375
 20
-66.8919359164
 10
35.6728254727
 20
-66.8223764537
 10
35.6213383308
 20
-66.7505921443
 10
35.5722156501
 20
-66.6765577335
 10
35.5254308922
 20
-66.600298476
 10
35.4815131216
 20
-66.5226767481
 10
35.4404948821
 20
-66.443677084
 10
35.40234363
 20
-66.3633149494
 10
35.3674907977
 20
-66.2824991177
 10
35.3359738265
 20
-66.2012244391
 10
35.3077552752
 20
-66.1194960634
 10
35.2831542526
 20
-66.0382382143
 10
35.2622118223
 20
-65.9574562328
 10
35.2448869208
 20
-65.8771447779
 10
35.2313754663
 20
-65.7982120499
 10
35.2217427649
 20
-65.7209607823
 10
35.2159235105
 20
-65.6450882415
 10
35.2139177031
 20
-65.5705944277
  0
LWPOLYLINE
  5
296
100
AcDbEntity
  8
ASSI
100
AcDbPolyline
 62
7
  6
CONTINUOUS
 90
49
 70
0
 10
26.8652511009
 20
72.571183777
 10
27.0519364813
 20
72.4899800384
 10
27.2412394798
 20
72.403587227
 10
27.4329842396
 20
72.3120384529
 10
27.6271549162
 20
72.215335542
 10
27.8234025234
 20
72.1135625383
 10
28.0210501757
 20
72.006922328
 10
28.2199485346
 20
71.8955434141
 10
28.4198758993
 20
71.779508599
 10
28.6200567722
 20
71.6590262729
 10
28.820160942
 20
71.5343821878
 10
29.0201655311
 20
71.405611952
 10
29.2197601051
 20
71.2725737524
 10
29.4187717292
 20
71.1354460875
 10
29.6170144277
 20
70.9943742681
 10
29.8141465058
 20
70.8491487256
 10
30.0101419236
 20
70.6998405614
 10
30.204651809
 20
70.5467101121
 10
30.3968519694
 20
70.389840232
 10
30.5868055571
 20
70.2292526458
 10
30.774096166
 20
70.0653201284
 10
30.9572389081
 20
69.8987163565
 10
31.1358784181
 20
69.7299284203
 10
31.3101541597
 20
69.5589823404
 10
31.4793845267
 20
69.3859055045
 10
31.6434345686
 20
69.2109834175
 10
31.8022663007
 20
69.0344318684
 10
31.9553556146
 20
68.8561718029
 10
32.1026850191
 20
68.6763443725
 10
32.2441277985
 20
68.4952888447
 10
32.3790195387
 20
68.3132217371
 10
32.5072879938
 20
68.1303697103
 10
32.6289404568
 20
67.9469716426
 10
32.7434745051
 20
67.7632597758
 10
32.8507516891
 20
67.5796388113
 10
32.9509282848
 20
67.3961333079
 10
33.0439404622
 20
67.2123972344
 10
33.1297874604
 20
67.0285776359
 10
33.2084548765
 20
66.8449223275
 10
33.2798180922
 20
66.6612340093
 10
33.3438430744
 20
66.477726416
 10
33.4005460409
 20
66.2945603835
 10
33.4498386274
 20
66.1114652433
 10
33.4916954297
 20
65.928574189
 10
33.5260950985
 20
65.746128248
 10
33.5529189324
 20
65.5640301781
 10
33.572103874
 20
65.3823761223
 10
33.5836606827
 20
65.2014479237
 10
33.5875721064
 20
65.021431431
  0
LWPOLYLINE
  5
297
100
AcDbEntity
  8
ASSI
100
AcDbPolyline
 62
7
  6
CONTINUOUS
 90
28
 70
0
 10
26.8652511009
 20
72.571183777
 10
23.4353315809
 20
74.1450164102
 10
20.0299409235
 20
75.7358903439
 10
16.6490791286
 20
77.3438055782
 10
13.2924904691
 20
78.968888142
 10
9.9604306721
 20
80.6110120063
 10
6.6536669195
 20
82.2697990846
 10
3.3722050358
 20
83.9452532136
 10
0.1160391965
 20
85.6373705565
 10
-3.1140808908
 20
87.345761516
 10
-6.3181492287
 20
89.0704298392
 10
-9.4961718146
 20
90.811371779
 10
-12.6474169326
 20
92.5681864966
 10
-15.7718784169
 20
94.3408776469
 10
-18.8695624333
 20
96.1294415748
 10
-21.9397557634
 20
97.9334664772
 10
-24.9824520771
 20
99.7529559139
 10
-27.9976577044
 20
101.5879063251
 10
-30.9846784169
 20
103.437895227
 10
-33.9435077247
 20
105.3029260824
 10
-36.8741521177
 20
107.1829954287
 10
-39.775936837
 20
109.077670394
 10
-42.6488552374
 20
110.9869543413
 10
-45.492913964
 20
112.9108439075
 10
-48.3074581939
 20
114.8488961316
 10
-51.0922696525
 20
116.8009633598
 10
-53.8475666142
 20
118.7671932458
 10
-56.5733490791
 20
120.7475857897
  0
LWPOLYLINE
  5
298
100
AcDbEntity
  8
ASSI
100
AcDbPolyline
 62
7
  6
CONTINUOUS
 90
28
 70
0
 10
26.8652511009
 20
74.2041243306
 10
23.4353315809
 20
75.7779569637
 10
20.0299409235
 20
77.3688308975
 10
16.6490791286
 20
78.9767461318
 10
13.2924904691
 20
80.6018286956
 10
9.9604306721
 20
82.2439525599
 10
6.6536669195
 20
83.9027396382
 10
3.3722050358
 20
85.5781937672
 10
0.1160391965
 20
87.2703111101
 10
-3.1140808908
 20
88.9787020696
 10
-6.3181492287
 20
90.7033703928
 10
-9.4961718146
 20
92.4443123326
 10
-12.6474169326
 20
94.2011270502
 10
-15.7718784169
 20
95.9738182004
 10
-18.8695624333
 20
97.7623821284
 10
-21.9397557634
 20
99.5664070308
 10
-24.9824520771
 20
101.3858964675
 10
-27.9976577044
 20
103.2208468786
 10
-30.9846784169
 20
105.0708357806
 10
-33.9435077247
 20
106.935866636
 10
-36.8741521177
 20
108.8159359823
 10
-39.775936837
 20
110.7106109476
 10
-42.6488552374
 20
112.6198948949
 10
-45.492913964
 20
114.5437844611
 10
-48.3074581939
 20
116.4818366852
 10
-51.0922696525
 20
118.4339039134
 10
-53.8475666142
 20
120.4001337994
 10
-56.5733490791
 20
122.3805263433
  0
LWPOLYLINE
  5
299
100
AcDbEntity
  8
ASSI
100
AcDbPolyline
 62
7
  6
CONTINUOUS
 90
49
 70
0
 10
26.8652511009
 20
74.2041243306
 10
27.0979486022
 20
74.0954892603
 10
27.3334121967
 20
73.9798364299
 10
27.5714157826
 20
73.8572084094
 10
27.8119216063
 20
73.7275975099
 10
28.0544983535
 20
73.5911218245
 10
28.2983278898
 20
73.4480723159
 10
28.5432067444
 20
73.2986075831
 10
28.7888613377
 20
73.1428407053
 10
29.0343811408
 20
72.9810895797
 10
29.2793443086
 20
72.8137231679
 10
29.5237187149
 20
72.6407856859
 10
29.7671836324
 20
72.4621400713
 10
30.0095119462
 20
72.2780130679
 10
30.2504693148
 20
72.0885942584
 10
30.4897091302
 20
71.8936677289
 10
30.7271812418
 20
71.6933152702
 10
30.9624537703
 20
71.487881226
 10
31.1946097661
 20
71.277554532
 10
31.4237074069
 20
71.0623498293
 10
31.6492343314
 20
70.8427596906
 10
31.8694931792
 20
70.6197725513
 10
32.0840470109
 20
70.3940261942
 10
32.2930551781
 20
70.1655425505
 10
32.4957932352
 20
69.9344445409
 10
32.692093275
 20
69.7011024772
 10
32.8819008595
 20
69.4657905681
 10
33.0646772368
 20
69.2284851791
 10
33.2403979936
 20
68.9893666791
 10
33.4089021344
 20
68.7488723806
 10
33.5694762891
 20
68.5073620036
 10
33.7220367503
 20
68.2651322694
 10
33.8665837145
 20
68.0224850069
 10
34.0025845456
 20
67.7797842511
 10
34.1298797988
 20
67.53756105
 10
34.2486518383
 20
67.2958362616
 10
34.3588762461
 20
67.0541982746
 10
34.4605533761
 20
66.8128369159
 10
34.5536633778
 20
66.5720700358
 10
34.6380996811
 20
66.3316749418
 10
34.7138228814
 20
66.0919289486
 10
34.7808494778
 20
65.8530363322
 10
34.8391064557
 20
65.61467253
 10
34.8885632367
 20
65.3770099947
 10
34.9291902876
 20
65.1403574151
 10
34.9608693342
 20
64.9046095941
 10
34.9835307505
 20
64.6698967539
 10
34.9971769224
 20
64.4365746545
 10
35.0017856687
 20
64.2048822443
  0
LINE
  5
29A
100
AcDbEntity
  8
ASSI
100
AcDbLine
 62
250
  6
CONTINUOUS
 10
-61.1647365726
 20
119.7302269369
 11
-59.7505230103
 21
118.9136777502
  0
LINE
  5
29B
100
AcDbEntity
  8
ASSI
100
AcDbLine
 62
250
  6
CONTINUOUS
 10
35.0017856687
 20
64.2048822443
 11
33.5875721064
 21
65.021431431
  0
LWPOLYLINE
  5
29C
100
AcDbEntity
  8
ASSI
100
AcDbPolyline
 62
7
  6
CONTINUOUS
 90
10
 70
0
 10
54.1077185723
 20
89.6798502441
 10
54.0315316094
 20
89.6792429942
 10
53.953929922
 20
89.6738752083
 10
53.8749054412
 20
89.6637197352
 10
53.7944662359
 20
89.6488037261
 10
53.7130702145
 20
89.629212092
 10
53.6307119199
 20
89.6049181658
 10
53.5473968092
 20
89.5759486146
 10
53.4635991623
 20
89.5424683505
 10
53.3794770725
 20
89.5045323444
  0
LWPOLYLINE
  5
29D
100
AcDbEntity
  8
ASSI
100
AcDbPolyline
 62
7
  6
CONTINUOUS
 90
7
 70
0
 10
54.1820571084
 20
89.6756935013
 10
54.2610849519
 20
89.6657030727
 10
54.3376655532
 20
89.6500536017
 10
54.4118682179
 20
89.628758722
 10
54.483190565
 20
89.6019626083
 10
54.5516130493
 20
89.5696279309
 10
54.5848516117
 20
89.5513664973
  0
LWPOLYLINE
  5
29E
100
AcDbEntity
  8
ASSI
100
AcDbPolyline
 62
7
  6
CONTINUOUS
 90
3
 70
0
 10
-28.955409615
 20
137.778364621
 10
-28.8869871307
 20
137.7460299436
 10
-28.8537485683
 20
137.72776851
  0
LWPOLYLINE
  5
29F
100
AcDbEntity
  8
ASSI
100
AcDbPolyline
 62
7
  6
CONTINUOUS
 90
6
 70
0
 10
54.5848519146
 20
89.5513663225
 10
54.523532555
 20
89.583728927
 10
54.4596657556
 20
89.6115253614
 10
54.3935484544
 20
89.6346358594
 10
54.3251678158
 20
89.6530336952
 10
54.2545366755
 20
89.6667455946
  0
LWPOLYLINE
  5
2A0
100
AcDbEntity
  8
ASSI
100
AcDbPolyline
 62
7
  6
CONTINUOUS
 90
6
 70
0
 10
-28.8537482654
 20
137.7277683352
 10
-28.915067625
 20
137.7601309396
 10
-28.9789344244
 20
137.787927374
 10
-29.0450517256
 20
137.8110378721
 10
-29.1134323642
 20
137.8294357079
 10
-29.1840635045
 20
137.8431476073
  0
LINE
  5
2A1
100
AcDbEntity
  8
0
100
AcDbLine
 62
250
  6
CONTINUOUS
 10
-30.2288148957
 20
137.5915302062
 11
53.2097852843
 21
89.4151281935
  0
LINE
  5
2A2
100
AcDbEntity
  8
0
100
AcDbLine
 62
7
  6
CONTINUOUS
 10
-28.8537484553
 20
137.7277684448
 11
54.5848517247
 21
89.5513664321
  0
LINE
  5
2A3
100
AcDbEntity
  8
RACCORDO
100
AcDbLine
 62
7
  6
CONTINUOUS
 10
54.0936687608
 20
91.1505319448
 11
-22.9809703886
 21
135.6524626175
  0
LWPOLYLINE
  5
2A4
100
AcDbEntity
  8
0
100
AcDbPolyline
 62
250
  6
CONTINUOUS
 90
49
 70
0
 10
53.2097852843
 20
89.4151281935
 10
53.4180082523
 20
89.2909685257
 10
53.62600825
 20
89.1590731398
 10
53.8335625457
 20
89.0195832726
 10
54.0404488851
 20
88.8726482935
 10
54.246445729
 20
88.718425544
 10
54.4513324911
 20
88.5570801697
 10
54.6548897732
 20
88.3887849434
 10
54.8568996013
 20
88.2137200797
 10
55.0571456581
 20
88.0320730425
 10
55.2554135152
 20
87.844038344
 10
55.4514908623
 20
87.6498173364
 10
55.6451677349
 20
87.4496179966
 10
55.8362367391
 20
87.2436547029
 10
56.0244932732
 20
87.0321480059
 10
56.2097357474
 20
86.8153243925
 10
56.3917657996
 20
86.5934160426
 10
56.5703885074
 20
86.3666605815
 10
56.745412597
 20
86.1353008243
 10
56.9166506484
 20
85.8995845171
 10
57.0839192955
 20
85.6597640707
 10
57.2470394228
 20
85.4160962909
 10
57.4058363573
 20
85.1688421031
 10
57.5601400552
 20
84.9182662735
 10
57.7097852843
 20
84.6646371248
 10
57.8546118006
 20
84.4082262496
 10
57.9944645204
 20
84.149308219
 10
58.1291936858
 20
83.8881602889
 10
58.2586550255
 20
83.625062103
 10
58.3827099089
 20
83.3602953936
 10
58.5012254952
 20
83.0941436793
 10
58.6140748747
 20
82.8268919622
 10
58.7211372055
 20
82.5588264221
 10
58.8222978427
 20
82.2902341102
 10
58.9174484609
 20
82.021402642
 10
59.0064871703
 20
81.7526198888
 10
59.0893186262
 20
81.4841736701
 10
59.1658541306
 20
81.2163514448
 10
59.2360117272
 20
80.9494400035
 10
59.2997162896
 20
80.6837251618
 10
59.3568996013
 20
80.4194914537
 10
59.4075004291
 20
80.1570218274
 10
59.4514645882
 20
79.8965973418
 10
59.4887450009
 20
79.6384968661
 10
59.5193017461
 20
79.3829967807
 10
59.5431021032
 20
79.1303706815
 10
59.5601205859
 20
78.8808890869
 10
59.5703389705
 20
78.6348191479
 10
59.573746315
 20
78.3924243624
  0
LWPOLYLINE
  5
2A5
100
AcDbEntity
  8
RACCORDO
100
AcDbPolyline
 62
7
  6
CONTINUOUS
 90
49
 70
0
 10
54.0936687608
 20
91.1505319448
 10
54.3254390201
 20
91.0123002681
 10
54.5564676354
 20
90.8658021493
 10
54.7867546068
 20
90.7110375882
 10
55.016544768
 20
90.5478232862
 10
55.2455932853
 20
90.376342542
 10
55.4731656572
 20
90.1971452516
 10
55.6992571449
 20
90.0102066435
 10
55.9238724871
 20
89.8155514892
 10
56.1462913984
 20
89.6138039992
 10
56.3665068279
 20
89.4049414058
 10
56.5845258264
 20
89.1889864769
 10
56.7996492615
 20
88.9666317259
 10
57.0118678378
 20
88.7378566084
 10
57.2211908506
 20
88.5026816688
 10
57.4269470532
 20
88.2618610547
 10
57.6291249954
 20
88.0153766424
 10
57.8277361274
 20
87.7632465555
 10
58.0221435527
 20
87.5062793123
 10
58.2123337767
 20
87.2444593848
 10
58.3983202941
 20
86.9778023011
 10
58.5795066925
 20
86.707163164
 10
58.7558775625
 20
86.4325291904
 10
58.9274483135
 20
86.1539131634
 10
59.0936687608
 20
85.8722085351
 10
59.2545217289
 20
85.5874053907
 10
59.4100243933
 20
85.299513645
 10
59.5596780958
 20
85.0094564951
 10
59.70346406
 20
84.7172269898
 10
59.8414010622
 20
84.4228320804
 10
59.9730467729
 20
84.1272158179
 10
60.0983809957
 20
83.8303742816
 10
60.217423927
 20
83.5323113922
 10
60.3297938257
 20
83.2339829633
 10
60.4354692701
 20
82.9353881423
 10
60.534471682
 20
82.6365277817
 10
60.6264835852
 20
82.3383602521
 10
60.7114825389
 20
82.0408877777
 10
60.7894909839
 20
81.7441081344
 10
60.8602587666
 20
81.4489730206
 10
60.9237626432
 20
81.1554877154
 10
60.9800258575
 20
80.8636469397
 10
61.0288679874
 20
80.574386554
 10
61.0702652098
 20
80.2877148419
 10
61.1042413478
 20
80.0036235199
 10
61.1306874484
 20
79.7230235981
 10
61.1495671939
 20
79.4462187464
 10
61.160916902
 20
79.1729052949
 10
61.1647365726
 20
78.9030832435
  0
LWPOLYLINE
  5
2A6
100
AcDbEntity
  8
0
100
AcDbPolyline
 62
7
  6
CONTINUOUS
 90
43
 70
0
 10
54.5848517247
 20
89.5513664321
 10
54.8205588028
 20
89.4102935427
 10
55.0538781167
 20
89.2607144393
 10
55.2846995317
 20
89.1027952281
 10
55.5132704068
 20
88.9364256526
 10
55.7391242854
 20
88.7619897264
 10
55.961099713
 20
88.580509041
 10
56.1789243209
 20
88.3924013286
 10
56.3927098195
 20
88.1977507418
 10
56.6018943873
 20
87.9972561601
 10
56.8061988232
 20
87.7914090613
 10
57.0057661425
 20
87.5802763703
 10
57.2006473902
 20
87.3639770656
 10
57.3907806401
 20
87.1427289626
 10
57.5760496503
 20
86.9168050646
 10
57.7563873798
 20
86.6864137082
 10
57.9317009008
 20
86.4517867645
 10
58.1018888759
 20
86.213162184
 10
58.2668532347
 20
85.9707691208
 10
58.4264584107
 20
85.7248910561
 10
58.5806392302
 20
85.475701565
 10
58.7293850322
 20
85.2232641828
 10
58.8725834025
 20
84.9677914182
 10
59.0101167209
 20
84.7095010682
 10
59.141944111
 20
84.4484513469
 10
59.2679590041
 20
84.1848016711
 10
59.388006705
 20
83.9188045857
 10
59.5019640871
 20
83.6506421161
 10
59.609704677
 20
83.380491927
 10
59.7110789491
 20
83.1085802447
 10
59.8059341059
 20
82.8351409782
 10
59.8941238645
 20
82.5603864415
 10
59.9755077611
 20
82.2844990536
 10
60.0499457886
 20
82.007635953
 10
60.117310281
 20
81.7298609384
 10
60.1774022422
 20
81.4514933507
 10
60.2299986449
 20
81.1730306465
 10
60.2749597211
 20
80.8945876504
 10
60.3121135336
 20
80.6164195674
 10
60.341251911
 20
80.3391784634
 10
60.3622334499
 20
80.0631804551
 10
60.3749341454
 20
79.788450127
 10
60.3792026667
 20
79.5151794941
  0
LINE
  5
2A7
100
AcDbEntity
  8
0
100
AcDbLine
 62
7
  6
CONTINUOUS
 10
61.1647365726
 20
-133.522071021
 11
60.3792026667
 21
-133.9756284533
  0
LINE
  5
2A8
100
AcDbEntity
  8
0
100
AcDbLine
 62
7
  6
CONTINUOUS
 10
59.573746315
 20
-137.2986110093
 11
57.9827560573
 21
-138.2172288443
  0
LWPOLYLINE
  5
2A9
100
AcDbEntity
  8
RACCORDO
100
AcDbPolyline
 62
7
  6
CONTINUOUS
 90
19
 70
0
 10
-26.8282561887
 20
136.5582745954
 10
-26.7150377552
 20
136.5771846254
 10
-26.5164266232
 20
136.5999635555
 10
-26.314248681
 20
136.6129779479
 10
-26.1084924784
 20
136.6161964568
 10
-25.8991694656
 20
136.609650428
 10
-25.6869508893
 20
136.5933608531
 10
-25.4718274542
 20
136.5672964535
 10
-25.2538084556
 20
136.5314885077
 10
-25.0335930262
 20
136.486051843
 10
-24.8111741149
 20
136.4309555493
 10
-24.5865587727
 20
136.3662305367
 10
-24.360467285
 20
136.292084362
 10
-24.1328949131
 20
136.2084867817
 10
-23.9038463958
 20
136.1154680394
 10
-23.6740562346
 20
136.0133264231
 10
-23.4437692632
 20
135.9021613619
 10
-23.2127406478
 20
135.7818734267
 10
-22.9809703886
 20
135.6524626175
  0
LWPOLYLINE
  5
2AA
100
AcDbEntity
  8
ASSI
100
AcDbPolyline
 62
7
  6
CONTINUOUS
 90
11
 70
0
 10
-29.3308816077
 20
137.8562522568
 10
-29.4070685706
 20
137.8556450069
 10
-29.484670258
 20
137.850277221
 10
-29.5636947388
 20
137.8401217478
 10
-29.6441339441
 20
137.8252057387
 10
-29.7255299655
 20
137.8056141046
 10
-29.8078882601
 20
137.7813201785
 10
-29.8912033708
 20
137.7523506273
 10
-29.9750010177
 20
137.7188703632
 10
-30.0591231075
 20
137.6809343571
 10
-30.1437277335
 20
137.638487638
  0
LWPOLYLINE
  5
2AB
100
AcDbEntity
  8
ASSI
100
AcDbPolyline
 62
7
  6
CONTINUOUS
 90
5
 70
0
 10
-29.2565430716
 20
137.852095514
 10
-29.1775152281
 20
137.8421050854
 10
-29.1009346268
 20
137.8264556144
 10
-29.0267319621
 20
137.8051607347
 10
-28.955409615
 20
137.778364621
  0
ENDSEC
  0
SECTION
  2
OBJECTS
  0
DICTIONARY
  5
C
100
AcDbDictionary
280
0
281
1
  3
ACAD_GROUP
350
D
  3
ACAD_MLINESTYLE
350
17
  3
ACAD_LAYOUT
350
1A
  3
ACAD_PLOTSETTINGS
350
19
  3
ACAD_PLOTSTYLENAME
350
E
  0
DICTIONARY
  5
D
102
{ACAD_REACTORS
330
C
102
}
100
AcDbDictionary
280
0
281
1
  0
ACDBDICTIONARYWDFLT
  5
E
102
{ACAD_REACTORS
330
C
102
}
100
AcDbDictionary
281
1
  3
Normal
350
F
100
AcDbDictionaryWithDefault
340
F
  0
DICTIONARY
  5
17
102
{ACAD_REACTORS
330
C
102
}
100
AcDbDictionary
280
0
281
1
  3
Standard
350
18
  0
DICTIONARY
  5
19
102
{ACAD_REACTORS
330
C
102
}
100
AcDbDictionary
281
1
  0
DICTIONARY
  5
1A
102
{ACAD_REACTORS
330
C
102
}
100
AcDbDictionary
281
1
  3
Model
350
2AC
  3
Layout1
350
2AD
  0
ACDBPLACEHOLDER
  5
F
102
{ACAD_REACTORS
330
E
102
}
  0
MLINESTYLE
  5
18
102
{ACAD_REACTORS
330
17
102
}
100
AcDbMlineStyle
  2
STANDARD
 70
0
  3

 62
256
 51
90.0
 52
90.0
 71
2
 49
0.5
 62
256
  6
BYLAYER
 49
-0.5
 62
256
  6
BYLAYER
  0
LAYOUT
  5
2AC
102
{ACAD_REACTORS
330
1A
102
}
100
AcDbPlotSettings
  1

  2
none_device
  4
ISO_A3_(420.00_x_297.00_MM)
  6

 40
0.0
 41
0.0
 42
0.0
 43
0.0
 44
420.0
 45
297.0
 46
0.0
 47
0.0
 48
0.0
 49
0.0
140
0.0
141
0.0
142
1.0
143
1.0
 70
1024
 72
1
 73
0
 74
0
  7

 75
0
147
1.0
148
0.0
149
0.0
100
AcDbLayout
  1
Model
 70
0
 71
0
 10
0.0
 20
0.0
 11
420.0
 21
297.0
 12
0.0
 22
0.0
 32
0.0
 14
0.0
 24
0.0
 34
0.0
 15
0.0
 25
0.0
 35
0.0
146
0.0
 13
0.0
 23
0.0
 33
0.0
 16
1.0
 26
0.0
 36
0.0
 17
0.0
 27
1.0
 37
0.0
 76
0
330
20E
345
0
346
0
  0
LAYOUT
  5
2AD
102
{ACAD_REACTORS
330
1A
102
}
100
AcDbPlotSettings
  1

  2
none_device
  4
ISO_A3_(420.00_x_297.00_MM)
  6

 40
0.0
 41
0.0
 42
0.0
 43
0.0
 44
420.0
 45
297.0
 46
0.0
 47
0.0
 48
0.0
 49
0.0
140
0.0
141
0.0
142
1.0
143
1.0
 70
0
 72
1
 73
0
 74
0
  7

 75
0
147
1.0
148
0.0
149
0.0
100
AcDbLayout
  1
Layout1
 70
0
 71
1
 10
0.0
 20
0.0
 11
420.0
 21
297.0
 12
0.0
 22
0.0
 32
0.0
 14
0.0
 24
0.0
 34
0.0
 15
0.0
 25
0.0
 35
0.0
146
0.0
 13
0.0
 23
0.0
 33
0.0
 16
1.0
 26
0.0
 36
0.0
 17
0.0
 27
1.0
 37
0.0
 76
0
330
20F
345
0
346
0
  0
ENDSEC
  0
EOF
