  0
SECTION
  2
HEADER
  9
$ACADVER
  1
AC1024
  9
$DWGCODEPAGE
  3
ANSI_1252
  9
$EXTMAX
 10
297.0
 20
210.0
 30
0.0
  9
$EXTMIN
 10
0.0
 20
0.0
 30
0.0
  9
$LIMMIN
 10
0.0
 20
0.0
  9
$LIMMAX
 10
297.0
 20
210.0
  9
$VIEWCTR
 10
148.5
 20
105.0
  9
$VIEWSIZE
 40
210.0
  9
$CLAYER
  8
0
  9
$LTSCALE
 40
16.335
  9
$CELTYPE
  6
BYLAYER
  9
$DIMSCALE
 40
1.0
  9
$DIMASZ
 40
3.5
  9
$DIMEXO
 40
1.0
  9
$DIMDLI
 40
11.286
  9
$DIMEXE
 40
1.5
  9
$DIMCEN
 40
2.673
  9
$DIMLFAC
 40
1.0
  9
$DIMBLK
  1
_FILLED
  9
$DIMALT
 70
0
  9
$DIMALTF
 40
0.0393700787
  9
$DIMTXT
 40
3.5
  9
$DIMTOL
 70
1
  9
$DIMLIM
 70
0
  9
$DIMTFAC
 40
1.0
  9
$DIMTP
 40
0.01
  9
$DIMTM
 40
0.01
  9
$DIMGAP
 40
0.625
  9
$DIMDSEP
 70
44
  9
$AUNITS
 70
0
  9
$PDMODE
 70
3
  9
$PDSIZE
 40
8.0
  9
$HANDSEED
  5
37B
  9
$TILEMODE
 70
1
  9
$MEASUREMENT
 70
1
  9
$INSUNITS
 70
4
  0
ENDSEC
  0
SECTION
  2
CLASSES
  0
CLASS
  1
ACDBDICTIONARYWDFLT
  2
AcDbDictionaryWithDefault
  3
AutoCAD 2000
 90
0
 91
1
280
0
281
0
  0
CLASS
  1
ACDBPLACEHOLDER
  2
AcDbPlaceHolder
  3
AutoCAD 2000
 90
0
 91
1
280
0
281
0
  0
CLASS
  1
LAYOUT
  2
AcDbLayout
  3
AutoCAD 2000
 90
0
 91
0
280
0
281
0
  0
ENDSEC
  0
SECTION
  2
TABLES
  0
TABLE
  2
VPORT
  5
8
100
AcDbSymbolTable
 70
2
  0
VPORT
  5
1F4
100
AcDbSymbolTableRecord
100
AcDbViewportTableRecord
  2
*ACTIVE
 70
0
 10
0.0
 20
0.0
 11
1.0
 21
1.0
 12
148.5
 22
105.0
 13
0.0
 23
0.0
 14
1.0
 24
1.0
 15
0.0
 25
0.0
 16
0.0
 26
0.0
 36
1.0
 17
0.0
 27
0.0
 37
0.0
 40
210.0
 41
1.4142857143
 42
50.0
 43
0.0
 44
0.0
 50
0.0
 51
0.0
 71
0
 72
100
 73
1
 74
1
 75
0
 76
0
 77
0
 78
0
  0
ENDTAB
  0
TABLE
  2
LTYPE
  5
5
100
AcDbSymbolTable
 70
6
  0
LTYPE
  5
14
100
AcDbSymbolTableRecord
100
AcDbLinetypeTableRecord
  2
BYBLOCK
 70
0
  3

 72
65
 73
0
 40
0.0
  0
LTYPE
  5
15
100
AcDbSymbolTableRecord
100
AcDbLinetypeTableRecord
  2
BYLAYER
 70
0
  3

 72
65
 73
0
 40
0.0
  0
LTYPE
  5
16
100
AcDbSymbolTableRecord
100
AcDbLinetypeTableRecord
  2
CONTINUOUS
 70
64
  3
Solid line
 72
65
 73
0
 40
0.0
  0
LTYPE
  5
1F5
100
AcDbSymbolTableRecord
100
AcDbLinetypeTableRecord
  2
CENTER
 70
64
  3
____ _ ____ _ ____ _ ____ _ ____ _ ____ _ ____
 72
65
 73
4
 40
0.6
 49
0.375
 74
0
 49
-0.075
 74
0
 49
0.075
 74
0
 49
-0.075
 74
0
  0
LTYPE
  5
1F6
100
AcDbSymbolTableRecord
100
AcDbLinetypeTableRecord
  2
HIDDEN
 70
64
  3
- - - - - - - - - - - - - - - - - - - -
 72
65
 73
2
 40
0.2
 49
0.1
 74
0
 49
-0.1
 74
0
  0
LTYPE
  5
1F7
100
AcDbSymbolTableRecord
100
AcDbLinetypeTableRecord
  2
PHANTOM
 70
64
  3
_____ _ _ _____ _ _ _____ _ _ _____
 72
65
 73
6
 40
0.8
 49
0.45
 74
0
 49
-0.05
 74
0
 49
0.1
 74
0
 49
-0.05
 74
0
 49
0.1
 74
0
 49
-0.05
 74
0
  0
LTYPE
  5
1F8
100
AcDbSymbolTableRecord
100
AcDbLinetypeTableRecord
  2
DOT
 70
64
  3
. . . . . . . . . . . . . . . . . . . .
 72
65
 73
2
 40
0.2
 49
0.1
 74
0
 49
-0.1
 74
0
  0
LTYPE
  5
1F9
100
AcDbSymbolTableRecord
100
AcDbLinetypeTableRecord
  2
DASHED
 70
64
  3
- - - - - - - - - - - - - - - - - - - -
 72
65
 73
2
 40
0.2
 49
0.1
 74
0
 49
-0.1
 74
0
  0
ENDTAB
  0
TABLE
  2
LAYER
  5
2
100
AcDbSymbolTable
 70
36
  0
LAYER
  5
10
100
AcDbSymbolTableRecord
100
AcDbLayerTableRecord
  2
0
 70
0
 62
7
  6
CONTINUOUS
370
-3
390
F
  0
LAYER
  5
1FA
100
AcDbSymbolTableRecord
100
AcDbLayerTableRecord
  2
DEFAULT_1
 70
0
 62
7
  6
CENTER
370
-3
390
F
  0
LAYER
  5
1FB
100
AcDbSymbolTableRecord
100
AcDbLayerTableRecord
  2
DEFAULT_2
 70
0
 62
7
  6
HIDDEN
370
-3
390
F
  0
LAYER
  5
1FC
100
AcDbSymbolTableRecord
100
AcDbLayerTableRecord
  2
DEFAULT_3
 70
0
 62
7
  6
PHANTOM
370
-3
390
F
  0
LAYER
  5
1FD
100
AcDbSymbolTableRecord
100
AcDbLayerTableRecord
  2
3_ALL_SYMBOLS
 70
0
 62
7
  6
CONTINUOUS
370
-3
390
F
  0
LAYER
  5
1FE
100
AcDbSymbolTableRecord
100
AcDbLayerTableRecord
  2
ASSI
 70
0
 62
7
  6
CONTINUOUS
370
-3
390
F
  0
LAYER
  5
1FF
100
AcDbSymbolTableRecord
100
AcDbLayerTableRecord
  2
COLOR5
 70
0
 62
7
  6
CONTINUOUS
370
-3
390
F
  0
LAYER
  5
200
100
AcDbSymbolTableRecord
100
AcDbLayerTableRecord
  2
COORDINATE
 70
0
 62
7
  6
CONTINUOUS
370
-3
390
F
  0
LAYER
  5
201
100
AcDbSymbolTableRecord
100
AcDbLayerTableRecord
  2
COORD_ORIGINE
 70
0
 62
7
  6
CONTINUOUS
370
-3
390
F
  0
LAYER
  5
202
100
AcDbSymbolTableRecord
100
AcDbLayerTableRecord
  2
COPY_PUBLISH
 70
0
 62
7
  6
CONTINUOUS
370
-3
390
F
  0
LAYER
  5
203
100
AcDbSymbolTableRecord
100
AcDbLayerTableRecord
  2
COSMETICI
 70
0
 62
7
  6
CONTINUOUS
370
-3
390
F
  0
LAYER
  5
204
100
AcDbSymbolTableRecord
100
AcDbLayerTableRecord
  2
CURVE
 70
0
 62
7
  6
CONTINUOUS
370
-3
390
F
  0
LAYER
  5
205
100
AcDbSymbolTableRecord
100
AcDbLayerTableRecord
  2
DRAFT
 70
0
 62
7
  6
CONTINUOUS
370
-3
390
F
  0
LAYER
  5
206
100
AcDbSymbolTableRecord
100
AcDbLayerTableRecord
  2
IMPORT_IGES
 70
0
 62
7
  6
CONTINUOUS
370
-3
390
F
  0
LAYER
  5
207
100
AcDbSymbolTableRecord
100
AcDbLayerTableRecord
  2
NOTE
 70
0
 62
7
  6
CONTINUOUS
370
-3
390
F
  0
LAYER
  5
208
100
AcDbSymbolTableRecord
100
AcDbLayerTableRecord
  2
PIANI
 70
0
 62
7
  6
CONTINUOUS
370
-3
390
F
  0
LAYER
  5
209
100
AcDbSymbolTableRecord
100
AcDbLayerTableRecord
  2
PIANI_ORIGINE
 70
0
 62
7
  6
CONTINUOUS
370
-3
390
F
  0
LAYER
  5
20A
100
AcDbSymbolTableRecord
100
AcDbLayerTableRecord
  2
PUNTI
 70
0
 62
7
  6
CONTINUOUS
370
-3
390
F
  0
LAYER
  5
20B
100
AcDbSymbolTableRecord
100
AcDbLayerTableRecord
  2
RACCORDO
 70
0
 62
7
  6
CONTINUOUS
370
-3
390
F
  0
LAYER
  5
20C
100
AcDbSymbolTableRecord
100
AcDbLayerTableRecord
  2
SIMBOLI
 70
0
 62
7
  6
CONTINUOUS
370
-3
390
F
  0
LAYER
  5
20D
100
AcDbSymbolTableRecord
100
AcDbLayerTableRecord
  2
SMUSSO
 70
0
 62
7
  6
CONTINUOUS
370
-3
390
F
  0
LAYER
  5
20E
100
AcDbSymbolTableRecord
100
AcDbLayerTableRecord
  2
SNAPLINE
 70
0
 62
7
  6
CONTINUOUS
370
-3
390
F
  0
LAYER
  5
20F
100
AcDbSymbolTableRecord
100
AcDbLayerTableRecord
  2
SUPERFICI
 70
0
 62
7
  6
CONTINUOUS
370
-3
390
F
  0
LAYER
  5
210
100
AcDbSymbolTableRecord
100
AcDbLayerTableRecord
  2
TRASH
 70
0
 62
7
  6
CONTINUOUS
370
-3
390
F
  0
ENDTAB
  0
TABLE
  2
STYLE
  5
3
100
AcDbSymbolTable
 70
1
  0
STYLE
  5
11
100
AcDbSymbolTableRecord
100
AcDbTextStyleTableRecord
  2
STANDARD
 70
0
 40
0.0
 41
0.85
 50
0.0
 71
0
 42
0.2
  3
txt
  4

  0
STYLE
  5
211
100
AcDbSymbolTableRecord
100
AcDbTextStyleTableRecord
  2
TEXTSTYLE_1
 70
0
 40
0.0
 41
0.8
 50
0.0
 71
0
 42
0.2
  3
gdt
  4

  0
ENDTAB
  0
TABLE
  2
VIEW
  5
6
100
AcDbSymbolTable
 70
0
  0
ENDTAB
  0
TABLE
  2
UCS
  5
7
100
AcDbSymbolTable
 70
0
  0
ENDTAB
  0
TABLE
  2
APPID
  5
9
100
AcDbSymbolTable
 70
1
  0
APPID
  5
212
100
AcDbSymbolTableRecord
100
AcDbRegAppTableRecord
  2
ACAD
 70
0
  0
ENDTAB
  0
TABLE
  2
BLOCK_RECORD
  5
1
100
AcDbSymbolTable
 70
0
  0
BLOCK_RECORD
  5
213
100
AcDbSymbolTableRecord
100
AcDbBlockTableRecord
  2
*Model_Space
  0
BLOCK_RECORD
  5
214
100
AcDbSymbolTableRecord
100
AcDbBlockTableRecord
  2
*Paper_Space
  0
BLOCK_RECORD
  5
215
100
AcDbSymbolTableRecord
100
AcDbBlockTableRecord
  2
_FILLED
  0
ENDTAB
  0
TABLE
  2
DIMSTYLE
  5
A
100
AcDbSymbolTable
 70
1
100
AcDbDimStyleTable
 71
0
  0
DIMSTYLE
105
216
100
AcDbSymbolTableRecord
100
AcDbDimStyleTableRecord
  2
STANDARD
 70
0
  3

  4

 40
1.0
 41
3.5
 42
1.0
 43
0.38
 44
1.5
 45
0.0
 46
0.0
 47
0.01
 48
0.01
140
3.5
141
0.09
142
0.0
143
25.4
144
1.0
145
0.0
146
1.0
147
0.625
 71
1
 72
0
 73
0
 74
0
 75
0
 76
0
 77
1
 78
8
 79
2
170
0
171
1
172
0
173
0
174
0
175
0
176
0
177
0
178
0
270
2
179
2
271
2
272
2
273
2
274
2
275
0
280
0
281
0
282
0
283
1
284
8
285
0
286
0
287
3
288
0
340
11
278
44
341
215
342
215
343
215
344
215
  0
ENDTAB
  0
ENDSEC
  0
SECTION
  2
BLOCKS
  0
BLOCK
  5
20
100
AcDbEntity
  8
0
100
AcDbBlockBegin
  2
*Model_Space
 70
0
 10
0.0
 20
0.0
 30
0.0
  3
*Model_Space
  1

  0
ENDBLK
  5
21
100
AcDbEntity
  8
0
100
AcDbBlockEnd
  0
BLOCK
  5
1C
100
AcDbEntity
  8
0
100
AcDbBlockBegin
  2
*Paper_Space
 70
0
 10
0.0
 20
0.0
 30
0.0
  3
*Paper_Space
  1

  0
ENDBLK
  5
1D
100
AcDbEntity
  8
0
100
AcDbBlockEnd
  0
BLOCK
  5
217
100
AcDbEntity
  8
0
100
AcDbBlockBegin
  2
_FILLED
 70
64
 10
0.0
 20
0.0
  3
_FILLED
  1

  0
SOLID
  5
218
100
AcDbEntity
  8
0
  6
BYBLOCK
 62
0
100
AcDbTrace
 10
0.0
 20
0.0
 11
-1.0
 21
0.2142857143
 12
-1.0
 22
-0.2142857143
 13
-1.0
 23
-0.2142857143
  0
ENDBLK
  5
219
100
AcDbEntity
  8
0
  6
BYBLOCK
 62
0
100
AcDbBlockEnd
  0
ENDSEC
  0
SECTION
  2
ENTITIES
  0
LINE
  5
21A
100
AcDbEntity
  8
RACCORDO
100
AcDbLine
 62
7
  6
CONTINUOUS
 10
-16.2878526406
 20
12.8773237231
 11
-12.1116625944
 21
15.5456597569
  0
LINE
  5
21B
100
AcDbEntity
  8
RACCORDO
100
AcDbLine
 62
250
  6
CONTINUOUS
 10
-16.133729933
 20
12.8650380378
 11
-11.9577860921
 21
15.5332167611
  0
LWPOLYLINE
  5
21C
100
AcDbEntity
  8
RACCORDO
100
AcDbPolyline
 62
7
  6
CONTINUOUS
 90
3
 70
0
 10
-12.1116641044
 20
15.5456589504
 10
-12.1078659821
 20
15.5479679177
 10
-12.1049413931
 20
15.5495927297
  0
LINE
  5
21D
100
AcDbEntity
  8
RACCORDO
100
AcDbLine
 62
7
  6
CONTINUOUS
 10
-4.4008221458
 20
19.6620884491
 11
-12.1049429647
 21
15.5495918908
  0
LINE
  5
21E
100
AcDbEntity
  8
RACCORDO
100
AcDbLine
 62
250
  6
CONTINUOUS
 10
-4.2551059861
 20
19.6448868337
 11
-11.9577344122
 21
15.5331869218
  0
LWPOLYLINE
  5
21F
100
AcDbEntity
  8
RACCORDO
100
AcDbPolyline
 62
7
  6
CONTINUOUS
 90
9
 70
0
 10
-4.4008221458
 20
19.6620884491
 10
-4.3667003733
 20
19.6776449515
 10
-4.3304012448
 20
19.6889469156
 10
-4.2925695835
 20
19.6956115398
 10
-4.2538726239
 20
19.6973806509
 10
-4.215139272
 20
19.6941291894
 10
-4.1772065825
 20
19.6859128173
 10
-4.1404384188
 20
19.6727754782
 10
-4.1094860707
 20
19.6572059193
  0
LWPOLYLINE
  5
220
100
AcDbEntity
  8
RACCORDO
100
AcDbPolyline
 62
250
  6
CONTINUOUS
 90
7
 70
0
 10
-4.4008221458
 20
19.6620884491
 10
-4.3828636218
 20
19.669556996
 10
-4.3598783429
 20
19.6739918909
 10
-4.335177197
 20
19.6736970261
 10
-4.3091826213
 20
19.6686774418
 10
-4.2823391897
 20
19.6590189839
 10
-4.2551059861
 20
19.6448868337
  0
LWPOLYLINE
  5
221
100
AcDbEntity
  8
RACCORDO
100
AcDbPolyline
 62
7
  6
CONTINUOUS
 90
3
 70
0
 10
-12.1049413931
 20
15.5495927297
 10
-12.0869583321
 20
15.5570601663
 10
-12.0638087838
 20
15.5615215034
  0
LWPOLYLINE
  5
222
100
AcDbEntity
  8
RACCORDO
100
AcDbPolyline
 62
250
  6
CONTINUOUS
 90
13
 70
0
 10
-16.3384586662
 20
12.5020383616
 10
-16.3367960004
 20
12.5336055446
 10
-16.3317900415
 20
12.5668215776
 10
-16.323454825
 20
12.60118218
 10
-16.3118324307
 20
12.6362223212
 10
-16.2970665632
 20
12.6712963017
 10
-16.2794660729
 20
12.7055969395
 10
-16.2593653386
 20
12.7384900061
 10
-16.2370633383
 20
12.7695014695
 10
-16.2129370503
 20
12.7981084952
 10
-16.1873895305
 20
12.8238376228
 10
-16.1608408952
 20
12.8462699502
 10
-16.133729933
 20
12.8650380378
  0
LWPOLYLINE
  5
223
100
AcDbEntity
  8
RACCORDO
100
AcDbPolyline
 62
7
  6
CONTINUOUS
 90
9
 70
0
 10
-16.4263266318
 20
12.6245207396
 10
-16.423960194
 20
12.6621203376
 10
-16.4167704354
 20
12.6996343195
 10
-16.4047237903
 20
12.7363018746
 10
-16.3879148567
 20
12.771393389
 10
-16.3666277204
 20
12.8041185434
 10
-16.3412974966
 20
12.8337754344
 10
-16.312140774
 20
12.8600478919
 10
-16.2877843237
 20
12.8773673331
  0
LINE
  5
224
100
AcDbEntity
  8
RACCORDO
100
AcDbLine
 62
7
  6
CONTINUOUS
 10
-16.5651948228
 20
-7.4825667623
 11
-16.5651948228
 21
2.2485895465
  0
LINE
  5
225
100
AcDbEntity
  8
RACCORDO
100
AcDbLine
 62
250
  6
CONTINUOUS
 10
-16.4773268571
 20
-7.6050491403
 11
-16.4773268571
 21
2.1261071685
  0
LINE
  5
226
100
AcDbEntity
  8
RACCORDO
100
AcDbLine
 62
7
  6
CONTINUOUS
 10
-16.4263266318
 20
2.8968434078
 11
-16.4263266318
 21
12.6245207396
  0
LINE
  5
227
100
AcDbEntity
  8
RACCORDO
100
AcDbLine
 62
250
  6
CONTINUOUS
 10
-16.3384586662
 20
2.7743610298
 11
-16.3384586662
 21
12.5020383616
  0
LWPOLYLINE
  5
228
100
AcDbEntity
  8
RACCORDO
100
AcDbPolyline
 62
250
  6
CONTINUOUS
 90
10
 70
0
 10
-16.4773268571
 20
2.1261071685
 10
-16.4770078435
 20
2.1436956294
 10
-16.4760541963
 20
2.1615816643
 10
-16.4744723264
 20
2.1797305712
 10
-16.4722708858
 20
2.1980996365
 10
-16.4694578525
 20
2.2166618473
 10
-16.4660378232
 20
2.2354069055
 10
-16.4620171214
 20
2.2543090649
 10
-16.4574064485
 20
2.273326247
 10
-16.4522161053
 20
2.2924244092
  0
LWPOLYLINE
  5
229
100
AcDbEntity
  8
RACCORDO
100
AcDbPolyline
 62
7
  6
CONTINUOUS
 90
8
 70
0
 10
-16.4263266311
 20
2.8968316648
 10
-16.4267119677
 20
2.8774953236
 10
-16.428225795
 20
2.852960329
 10
-16.4309847252
 20
2.8267326206
 10
-16.4350798247
 20
2.7989307463
 10
-16.4405832786
 20
2.7697138923
 10
-16.4475461331
 20
2.7392664012
 10
-16.4547545178
 20
2.7121433458
  0
LWPOLYLINE
  5
22A
100
AcDbEntity
  8
RACCORDO
100
AcDbPolyline
 62
7
  6
CONTINUOUS
 90
7
 70
0
 10
-16.5439329371
 20
2.3968225051
 10
-16.550701949
 20
2.3706250575
 10
-16.5559435814
 20
2.34577111
 10
-16.5600663307
 20
2.3206635013
 10
-16.5630189563
 20
2.2953204877
 10
-16.5647452716
 20
2.2697118509
 10
-16.5651948211
 20
2.2485712499
  0
LWPOLYLINE
  5
22B
100
AcDbEntity
  8
RACCORDO
100
AcDbPolyline
 62
250
  6
CONTINUOUS
 90
16
 70
0
 10
-16.363039748
 20
2.6077379643
 10
-16.3599919454
 20
2.6189839641
 10
-16.357131411
 20
2.6302298079
 10
-16.3544617359
 20
2.6414683614
 10
-16.3519875775
 20
2.6526874933
 10
-16.3497110006
 20
2.6638848215
 10
-16.3476324081
 20
2.6750674749
 10
-16.3457561001
 20
2.6862263846
 10
-16.3440857555
 20
2.6973549563
 10
-16.3426226509
 20
2.708463218
 10
-16.3413716483
 20
2.7195431011
 10
-16.3403375911
 20
2.7305851964
 10
-16.3395237217
 20
2.7415963796
 10
-16.3389353072
 20
2.7525721457
 10
-16.338578482
 20
2.7634971194
 10
-16.3384586662
 20
2.7743610298
  0
LINE
  5
22C
100
AcDbEntity
  8
RACCORDO
100
AcDbLine
 62
7
  6
CONTINUOUS
 10
-16.5439334569
 20
2.3968206674
 11
-16.4547570996
 21
2.7121342224
  0
LINE
  5
22D
100
AcDbEntity
  8
RACCORDO
100
AcDbLine
 62
250
  6
CONTINUOUS
 10
-16.4522161053
 20
2.2924244092
 11
-16.363039748
 21
2.6077379643
  0
LINE
  5
22E
100
AcDbEntity
  8
RACCORDO
100
AcDbLine
 62
250
  6
CONTINUOUS
 10
10.8420056605
 20
-14.5959654659
 11
9.1442250566
 21
-15.0288125265
  0
LINE
  5
22F
100
AcDbEntity
  8
RACCORDO
100
AcDbLine
 62
250
  6
CONTINUOUS
 10
10.6826156789
 20
-14.2045750721
 11
8.9904860477
 21
-14.6359814242
  0
LINE
  5
230
100
AcDbEntity
  8
RACCORDO
100
AcDbLine
 62
250
  6
CONTINUOUS
 10
11.1828840794
 20
-13.473855117
 11
8.9153830598
 21
-14.0519516914
  0
LINE
  5
231
100
AcDbEntity
  8
RACCORDO
100
AcDbLine
 62
7
  6
CONTINUOUS
 10
11.054111691
 20
-13.4513837797
 11
8.9153830598
 21
-13.9966499933
  0
LWPOLYLINE
  5
232
100
AcDbEntity
  8
RACCORDO
100
AcDbPolyline
 62
250
  6
CONTINUOUS
 90
16
 70
0
 10
9.1442250566
 20
-15.0288125265
 10
9.1084115069
 20
-15.0360685145
 10
9.074028597
 20
-15.039193646
 10
9.041076327
 20
-15.0381879209
 10
9.0092626695
 20
-15.0330151289
 10
8.9788796518
 20
-15.0237114803
 10
8.9508033561
 20
-15.0103856066
 10
8.9251188313
 20
-14.9928807109
 10
8.9017410285
 20
-14.97135359
 10
8.8812908827
 20
-14.9463832651
 10
8.8638839688
 20
-14.9178393531
 10
8.8494047119
 20
-14.8858522371
 10
8.8381273225
 20
-14.8513920874
 10
8.8301432044
 20
-14.8147822942
 10
8.8253609538
 20
-14.7756994673
 10
8.8237805709
 20
-14.7341436068
  0
LWPOLYLINE
  5
233
100
AcDbEntity
  8
RACCORDO
100
AcDbPolyline
 62
250
  6
CONTINUOUS
 90
6
 70
0
 10
11.1828840794
 20
-13.473855117
 10
11.2044193852
 20
-13.4694958843
 10
11.2251788592
 20
-13.4682436438
 10
11.2449102387
 20
-13.4701556456
 10
11.2633535439
 20
-13.4752473422
 10
11.2782328252
 20
-13.4822814474
  0
LWPOLYLINE
  5
234
100
AcDbEntity
  8
RACCORDO
100
AcDbPolyline
 62
7
  6
CONTINUOUS
 90
9
 70
0
 10
11.054111691
 20
-13.4513837797
 10
11.0835022319
 20
-13.4454377978
 10
11.113808483
 20
-13.4424318653
 10
11.1446549059
 20
-13.442535093
 10
11.1756833434
 20
-13.4458624219
 10
11.206380286
 20
-13.4524440238
 10
11.2361989214
 20
-13.4621889086
 10
11.2649883206
 20
-13.4750719503
 10
11.278325528
 20
-13.4823350391
  0
LWPOLYLINE
  5
235
100
AcDbEntity
  8
RACCORDO
100
AcDbPolyline
 62
250
  6
CONTINUOUS
 90
6
 70
0
 10
11.054111691
 20
-13.4513837797
 10
11.0715504008
 20
-13.4480523756
 10
11.0991185469
 20
-13.4470640882
 10
11.1271818791
 20
-13.4510948688
 10
11.1552629673
 20
-13.4600761433
 10
11.1828840794
 20
-13.473855117
  0
LWPOLYLINE
  5
236
100
AcDbEntity
  8
RACCORDO
100
AcDbPolyline
 62
250
  6
CONTINUOUS
 90
5
 70
0
 10
8.9904860477
 20
-14.6359814242
 10
8.9668860748
 20
-14.6400366285
 10
8.9445852584
 20
-14.640645093
 10
8.9238132732
 20
-14.6379162099
 10
8.9170209798
 20
-14.6358070635
  0
LWPOLYLINE
  5
237
100
AcDbEntity
  8
RACCORDO
100
AcDbPolyline
 62
7
  6
CONTINUOUS
 90
9
 70
0
 10
4.2206114373
 20
-19.6572302894
 10
4.2537510651
 20
-19.6737293575
 10
4.2899637195
 20
-19.6863853752
 10
4.3276215274
 20
-19.6943352543
 10
4.3661809448
 20
-19.6974013751
 10
4.4050470369
 20
-19.6954538343
 10
4.4435219172
 20
-19.6884447401
 10
4.4808867329
 20
-19.6764394769
 10
4.5105613796
 20
-19.6628014895
  0
LWPOLYLINE
  5
238
100
AcDbEntity
  8
RACCORDO
100
AcDbPolyline
 62
250
  6
CONTINUOUS
 90
7
 70
0
 10
-16.4773268571
 20
-7.6050491403
 10
-16.5030294261
 20
-7.5881429747
 10
-16.5247272753
 20
-7.5694494876
 10
-16.5420499122
 20
-7.5492825273
 10
-16.5547016041
 20
-7.5279782905
 10
-16.5624608098
 20
-7.5058987386
 10
-16.5651948223
 20
-7.482576324
  0
LWPOLYLINE
  5
239
100
AcDbEntity
  8
RACCORDO
100
AcDbPolyline
 62
7
  6
CONTINUOUS
 90
9
 70
0
 10
-16.4151946176
 20
-7.7423745016
 10
-16.4474152824
 20
-7.7208852553
 10
-16.4766266597
 20
-7.6953966904
 10
-16.5023882442
 20
-7.6662493168
 10
-16.5242628901
 20
-7.6338404761
 10
-16.541830636
 20
-7.5986384076
 10
-16.5546934644
 20
-7.5612467247
 10
-16.5625457152
 20
-7.5223467421
 10
-16.5651948223
 20
-7.482576324
  0
LWPOLYLINE
  5
23A
100
AcDbEntity
  8
RACCORDO
100
AcDbPolyline
 62
250
  6
CONTINUOUS
 90
7
 70
0
 10
-16.4152020708
 20
-7.7423701986
 10
-16.4345229978
 20
-7.7278786975
 10
-16.4495952638
 20
-7.710119986
 10
-16.46158097
 20
-7.688564838
 10
-16.4702821336
 20
-7.6635809191
 10
-16.4755589119
 20
-7.6355857456
 10
-16.4773268571
 20
-7.6050491403
  0
LINE
  5
23B
100
AcDbEntity
  8
RACCORDO
100
AcDbLine
 62
7
  6
CONTINUOUS
 10
-16.4152020708
 20
-7.7423701986
 11
4.2206244935
 21
-19.6572378292
  0
LINE
  5
23C
100
AcDbEntity
  8
RACCORDO
100
AcDbLine
 62
250
  6
CONTINUOUS
 10
-16.4773268571
 20
-7.6050491403
 11
4.1584997072
 21
-19.5199167709
  0
LWPOLYLINE
  5
23D
100
AcDbEntity
  8
RACCORDO
100
AcDbPolyline
 62
250
  6
CONTINUOUS
 90
7
 70
0
 10
-16.4263266318
 20
12.6245207396
 10
-16.4234674639
 20
12.6006632047
 10
-16.4156477538
 20
12.5787164483
 10
-16.4029869233
 20
12.5575361208
 10
-16.385696822
 20
12.5374766261
 10
-16.36406676
 20
12.5188736136
 10
-16.3384586662
 20
12.5020383616
  0
LWPOLYLINE
  5
23E
100
AcDbEntity
  8
RACCORDO
100
AcDbPolyline
 62
7
  6
CONTINUOUS
 90
10
 70
0
 10
10.6844612947
 20
-17.8038898795
 10
10.7193011792
 20
-17.8210987906
 10
10.7566233317
 20
-17.833809944
 10
10.7957183462
 20
-17.8415732871
 10
10.8358260539
 20
-17.8440833221
 10
10.8760398411
 20
-17.8411921605
 10
10.9154715337
 20
-17.8329437011
 10
10.953708763
 20
-17.8193711816
 10
10.989744784
 20
-17.8007755233
 10
10.9963936132
 20
-17.7966340053
  0
LINE
  5
23F
100
AcDbEntity
  8
RACCORDO
100
AcDbLine
 62
7
  6
CONTINUOUS
 10
10.6844612947
 20
-17.8038898795
 11
9.9709892028
 21
-17.3919400356
  0
LWPOLYLINE
  5
240
100
AcDbEntity
  8
RACCORDO
100
AcDbPolyline
 62
250
  6
CONTINUOUS
 90
5
 70
0
 10
-16.5181039204
 20
2.3398630812
 10
-16.5316808671
 20
2.3552013686
 10
-16.5406250627
 20
2.3698688753
 10
-16.5447866062
 20
2.3836197806
 10
-16.5439334569
 20
2.3968206674
  0
LINE
  5
241
100
AcDbEntity
  8
0
100
AcDbLine
 62
7
  6
CONTINUOUS
 10
-9.6243229528
 20
2.248492379
 11
-9.4829015966
 21
2.4117785434
  0
LINE
  5
242
100
AcDbEntity
  8
0
100
AcDbLine
 62
7
  6
CONTINUOUS
 10
-9.4829015966
 20
2.3301472977
 11
-9.3414802404
 21
2.493433462
  0
LINE
  5
243
100
AcDbEntity
  8
RACCORDO
100
AcDbLine
 62
250
  6
CONTINUOUS
 10
10.6223365084
 20
-17.6665688212
 11
9.9088644164
 21
-17.2546189772
  0
LINE
  5
244
100
AcDbEntity
  8
RACCORDO
100
AcDbLine
 62
250
  6
CONTINUOUS
 10
9.9709892028
 20
-17.3919400356
 11
9.9637638442
 21
-17.3873453928
  0
LWPOLYLINE
  5
245
100
AcDbEntity
  8
RACCORDO
100
AcDbPolyline
 62
250
  6
CONTINUOUS
 90
9
 70
0
 10
9.9088644164
 20
-17.2546189772
 10
9.8876331204
 20
-17.2409883883
 10
9.8690156865
 20
-17.2261385673
 10
9.8532206463
 20
-17.2102358442
 10
9.8404249167
 20
-17.1934583403
 10
9.8307718239
 20
-17.1759939797
 10
9.8243694936
 20
-17.1580383853
 10
9.8212896338
 20
-17.1397926748
 10
9.8209964508
 20
-17.1321365992
  0
LINE
  5
246
100
AcDbEntity
  8
0
100
AcDbLine
 62
7
  6
CONTINUOUS
 10
-9.6243229528
 20
1.2687280468
 11
-9.695033631
 21
1.7177906446
  0
LINE
  5
247
100
AcDbEntity
  8
0
100
AcDbLine
 62
7
  6
CONTINUOUS
 10
-9.4829015966
 20
1.3503829655
 11
-9.5157642354
 21
1.5590838627
  0
LINE
  5
248
100
AcDbEntity
  8
0
100
AcDbLine
 62
7
  6
CONTINUOUS
 10
-10.6142724465
 20
2.9017396193
 11
-10.7556938027
 21
2.8200847006
  0
LINE
  5
249
100
AcDbEntity
  8
0
100
AcDbLine
 62
7
  6
CONTINUOUS
 10
-7.9979773561
 20
3.432299316
 11
-8.1393987123
 21
3.3506443973
  0
LINE
  5
24A
100
AcDbEntity
  8
0
100
AcDbLine
 62
7
  6
CONTINUOUS
 10
-9.3414802404
 20
2.493433462
 11
-9.4829015966
 21
2.4117785434
  0
LINE
  5
24B
100
AcDbEntity
  8
0
100
AcDbLine
 62
7
  6
CONTINUOUS
 10
-9.4829015966
 20
2.3301472977
 11
-9.6243229528
 21
2.248492379
  0
LWPOLYLINE
  5
24C
100
AcDbEntity
  8
RACCORDO
100
AcDbPolyline
 62
250
  6
CONTINUOUS
 90
6
 70
0
 10
11.9398554863
 20
-13.8642940799
 10
11.9266042842
 20
-13.8578892527
 10
11.9078118222
 20
-13.8524101689
 10
11.8877226534
 20
-13.8502742468
 10
11.8665320012
 20
-13.8514441576
 10
11.8445067405
 20
-13.8558677495
  0
LWPOLYLINE
  5
24D
100
AcDbEntity
  8
RACCORDO
100
AcDbPolyline
 62
250
  6
CONTINUOUS
 90
13
 70
0
 10
4.1584997072
 20
-9.7887604621
 10
4.1876573405
 20
-9.8035462545
 10
4.2198766275
 20
-9.8160351813
 10
4.2546184531
 20
-9.826018269
 10
4.291301493
 20
-9.8333284739
 10
4.3293119412
 20
-9.8378434765
 10
4.3680137809
 20
-9.8394877287
 10
4.4067594261
 20
-9.8382337177
 10
4.444900558
 20
-9.8341024264
 10
4.4817989728
 20
-9.8271629826
 10
4.5168372609
 20
-9.8175315018
 10
4.5494291375
 20
-9.8053691445
 10
4.5790292527
 20
-9.7908794197
  0
LINE
  5
24E
100
AcDbEntity
  8
RACCORDO
100
AcDbLine
 62
250
  6
CONTINUOUS
 10
8.9125022162
 20
-14.5909545373
 11
8.9904860477
 21
-14.6359814242
  0
LWPOLYLINE
  5
24F
100
AcDbEntity
  8
RACCORDO
100
AcDbPolyline
 62
250
  6
CONTINUOUS
 90
7
 70
0
 10
-16.4773268571
 20
2.1261071685
 10
-16.5029349509
 20
2.1429424205
 10
-16.524565013
 20
2.1615454331
 10
-16.5418551143
 20
2.1816049277
 10
-16.5545159448
 20
2.2027852552
 10
-16.5623356549
 20
2.2247320117
 10
-16.5651948211
 20
2.2485712499
  0
LWPOLYLINE
  5
250
100
AcDbEntity
  8
RACCORDO
100
AcDbPolyline
 62
250
  6
CONTINUOUS
 90
7
 70
0
 10
-16.3384586662
 20
2.7743610298
 10
-16.36406676
 20
2.7911962818
 10
-16.385696822
 20
2.8097992943
 10
-16.4029869233
 20
2.829858789
 10
-16.4156477538
 20
2.8510391165
 10
-16.4234674639
 20
2.8729858729
 10
-16.4263266311
 20
2.8968316648
  0
LWPOLYLINE
  5
251
100
AcDbEntity
  8
RACCORDO
100
AcDbPolyline
 62
250
  6
CONTINUOUS
 90
16
 70
0
 10
8.9904860477
 20
-14.6359814242
 10
9.0120560634
 20
-14.6503945687
 10
9.0327862346
 20
-14.6676044821
 10
9.0524481329
 20
-14.6874215295
 10
9.0708251252
 20
-14.7096273423
 10
9.0877146923
 20
-14.7339772411
 10
9.1029306597
 20
-14.7602029327
 10
9.1163053638
 20
-14.7880154367
 10
9.1276914317
 20
-14.8171082873
 10
9.1369633348
 20
-14.847160928
 10
9.1440189052
 20
-14.8778422097
 10
9.1487804031
 20
-14.908814055
 10
9.1511953065
 20
-14.9397352001
 10
9.1512369874
 20
-14.9702649302
 10
9.1489050057
 20
-15.0000668344
 10
9.1442250566
 20
-15.0288125265
  0
LWPOLYLINE
  5
252
100
AcDbEntity
  8
RACCORDO
100
AcDbPolyline
 62
250
  6
CONTINUOUS
 90
7
 70
0
 10
10.6844612947
 20
-17.8038898795
 10
10.6671164431
 20
-17.7912333465
 10
10.6513769846
 20
-17.7735037706
 10
10.6388401745
 20
-17.751761213
 10
10.6297253075
 20
-17.7263859959
 10
10.6241918215
 20
-17.6978219842
 10
10.6223365084
 20
-17.6665688212
  0
LWPOLYLINE
  5
253
100
AcDbEntity
  8
RACCORDO
100
AcDbPolyline
 62
250
  6
CONTINUOUS
 90
8
 70
0
 10
9.9637638442
 20
-17.3873453928
 10
9.9494891929
 20
-17.3753119979
 10
9.9372188941
 20
-17.3605862566
 10
9.9270533529
 20
-17.3433513085
 10
9.9190981347
 20
-17.3238704027
 10
9.9134068301
 20
-17.302413524
 10
9.9099964448
 20
-17.279236333
 10
9.9088644164
 20
-17.2546189772
  0
LINE
  5
254
100
AcDbEntity
  8
0
100
AcDbLine
 62
7
  6
CONTINUOUS
 10
-10.7556938027
 20
2.8200847006
 11
-9.6243229528
 21
1.2687280468
  0
LINE
  5
255
100
AcDbEntity
  8
0
100
AcDbLine
 62
7
  6
CONTINUOUS
 10
-9.4829015966
 20
1.3503829655
 11
-9.6243229528
 21
1.2687280468
  0
LWPOLYLINE
  5
256
100
AcDbEntity
  8
0
100
AcDbPolyline
 62
7
  6
CONTINUOUS
 90
10
 70
0
 10
10.7394318202
 20
10.9548174548
 10
10.7187769816
 20
10.9462146199
 10
10.698407111
 20
10.9373881723
 10
10.6783294689
 20
10.9283412579
 10
10.6585512119
 20
10.9190771015
 10
10.6390793899
 20
10.9095990053
 10
10.6199209433
 20
10.8999103476
 10
10.6010827012
 20
10.8900145819
 10
10.5825713781
 20
10.8799152355
 10
10.5643935724
 20
10.8696159081
  0
LWPOLYLINE
  5
257
100
AcDbEntity
  8
TRASH
100
AcDbPolyline
 62
7
  6
CONTINUOUS
 90
16
 70
0
 10
11.5182625642
 20
10.2339434243
 10
11.5522707649
 20
10.246720689
 10
11.5867838944
 20
10.2604453371
 10
11.6219323774
 20
10.2751209115
 10
11.6578093633
 20
10.2906580152
 10
11.6945488845
 20
10.3071361442
 10
11.732363178
 20
10.3247970238
 10
11.7713880882
 20
10.3435853593
 10
11.8117251088
 20
10.363503456
 10
11.8535881881
 20
10.3848608961
 10
11.8971576387
 20
10.4076418691
 10
11.9424889548
 20
10.4317790913
 10
11.989639343
 20
10.4575033567
 10
12.0386905486
 20
10.4848729937
 10
12.0897326593
 20
10.5137676723
 10
12.1428269666
 20
10.5441606075
  0
LWPOLYLINE
  5
258
100
AcDbEntity
  8
0
100
AcDbPolyline
 62
7
  6
CONTINUOUS
 90
3
 70
0
 10
10.9866109285
 20
9.8010494015
 10
10.9474717153
 20
9.7887487728
 10
10.9089780069
 20
9.7761717919
  0
LWPOLYLINE
  5
259
100
AcDbEntity
  8
0
100
AcDbPolyline
 62
7
  6
CONTINUOUS
 90
4
 70
0
 10
11.1479904867
 20
9.849322765
 10
11.1071082567
 20
9.837448492
 10
11.0665166307
 20
9.8253098898
 10
10.9866109285
 20
9.8010494015
  0
LWPOLYLINE
  5
25A
100
AcDbEntity
  8
RACCORDO
100
AcDbPolyline
 62
250
  6
CONTINUOUS
 90
13
 70
0
 10
4.3023019286
 20
-9.1433554481
 10
4.3314595618
 20
-9.158141272
 10
4.3636788489
 20
-9.1706302215
 10
4.3984206744
 20
-9.1806133232
 10
4.4351037143
 20
-9.1879235313
 10
4.4731141626
 20
-9.1924385284
 10
4.5118160023
 20
-9.1940827719
 10
4.5505616475
 20
-9.1928287492
 10
4.5887027794
 20
-9.1886974432
 10
4.6256011942
 20
-9.1817579869
 10
4.6606394823
 20
-9.1721264977
 10
4.6932313588
 20
-9.1599641343
 10
4.7228314741
 20
-9.1454744057
  0
LWPOLYLINE
  5
25B
100
AcDbEntity
  8
RACCORDO
100
AcDbPolyline
 62
250
  6
CONTINUOUS
 90
13
 70
0
 10
4.1839635723
 20
-9.6226471046
 10
4.2129522448
 20
-9.6385078147
 10
4.2447560368
 20
-9.6537213728
 10
4.2788419308
 20
-9.6680328063
 10
4.3146386621
 20
-9.6812022619
 10
4.3515462935
 20
-9.6930090253
 10
4.3889462691
 20
-9.7032552204
 10
4.4262117821
 20
-9.7117691254
 10
4.4627182787
 20
-9.7184080512
 10
4.4978539263
 20
-9.7230607321
 10
4.5310298669
 20
-9.7256491914
 10
4.5616900863
 20
-9.7261300475
 10
4.5893207327
 20
-9.7244952416
  0
LWPOLYLINE
  5
25C
100
AcDbEntity
  8
RACCORDO
100
AcDbPolyline
 62
250
  6
CONTINUOUS
 90
13
 70
0
 10
4.2763083936
 20
-9.3091629809
 10
4.3052970661
 20
-9.3250236911
 10
4.3371008581
 20
-9.3402372491
 10
4.371186752
 20
-9.3545486826
 10
4.4069834834
 20
-9.3677181382
 10
4.4438911147
 20
-9.3795249016
 10
4.4812910904
 20
-9.3897710967
 10
4.5185566033
 20
-9.3982850018
 10
4.5550631
 20
-9.4049239275
 10
4.5901987476
 20
-9.4095766084
 10
4.6233746881
 20
-9.4121650677
 10
4.6540349075
 20
-9.4126459238
 10
4.681665554
 20
-9.411011118
  0
LINE
  5
25D
100
AcDbEntity
  8
RACCORDO
100
AcDbLine
 62
250
  6
CONTINUOUS
 10
4.1584997072
 20
-9.7887604621
 11
-16.4773268571
 21
2.1261071685
  0
LINE
  5
25E
100
AcDbEntity
  8
RACCORDO
100
AcDbLine
 62
250
  6
CONTINUOUS
 10
4.1839635723
 20
-9.6226471046
 11
-16.4522161053
 21
2.2924244092
  0
LINE
  5
25F
100
AcDbEntity
  8
RACCORDO
100
AcDbLine
 62
250
  6
CONTINUOUS
 10
11.1828840794
 20
-13.473855117
 11
11.8445067405
 21
-13.8558677495
  0
LINE
  5
260
100
AcDbEntity
  8
RACCORDO
100
AcDbLine
 62
7
  6
CONTINUOUS
 10
11.2782328252
 20
-13.4822814474
 11
11.9398554863
 21
-13.8642940799
  0
LINE
  5
261
100
AcDbEntity
  8
RACCORDO
100
AcDbLine
 62
250
  6
CONTINUOUS
 10
4.2763083936
 20
-9.3091629809
 11
-16.363039748
 21
2.6077379643
  0
LINE
  5
262
100
AcDbEntity
  8
RACCORDO
100
AcDbLine
 62
250
  6
CONTINUOUS
 10
4.3023019286
 20
-9.1433554481
 11
-16.3384586662
 21
2.7743610298
  0
LWPOLYLINE
  5
263
100
AcDbEntity
  8
RACCORDO
100
AcDbPolyline
 62
250
  6
CONTINUOUS
 90
4
 70
0
 10
-16.4522161053
 20
2.2924244092
 10
-16.4780357773
 20
2.3082093503
 10
-16.5001217662
 20
2.3241110762
 10
-16.5181039204
 20
2.3398630812
  0
LWPOLYLINE
  5
264
100
AcDbEntity
  8
RACCORDO
100
AcDbPolyline
 62
250
  6
CONTINUOUS
 90
8
 70
0
 10
-16.363039748
 20
2.6077379643
 10
-16.38885942
 20
2.6235229053
 10
-16.4109454089
 20
2.6394246313
 10
-16.4289275631
 20
2.6551766363
 10
-16.4425045098
 20
2.6705149236
 10
-16.4514487054
 20
2.6851824304
 10
-16.4556102489
 20
2.6989333356
 10
-16.4547570996
 20
2.7121342224
  0
LWPOLYLINE
  5
265
100
AcDbEntity
  8
RACCORDO
100
AcDbPolyline
 62
250
  6
CONTINUOUS
 90
13
 70
0
 10
11.8445067405
 20
-13.8558677495
 10
11.8725282794
 20
-13.8738340808
 10
11.8991453574
 20
-13.8960570351
 10
11.9239050841
 20
-13.9221593582
 10
11.9463865884
 20
-13.9516985185
 10
11.9662064027
 20
-13.9841719452
 10
11.9830257251
 20
-14.0190248549
 10
11.9965726357
 20
-14.0557083661
 10
12.0065946778
 20
-14.0935569959
 10
12.0129051488
 20
-14.1317862944
 10
12.0154371954
 20
-14.1697012667
 10
12.014199624
 20
-14.2067174454
 10
12.0092543488
 20
-14.2422307079
  0
LINE
  5
266
100
AcDbEntity
  8
0
100
AcDbLine
 62
7
  6
CONTINUOUS
 10
-9.695033631
 20
1.7177906446
 11
-5.4523929438
 21
-2.0382093583
  0
LINE
  5
267
100
AcDbEntity
  8
0
100
AcDbLine
 62
7
  6
CONTINUOUS
 10
-5.4523929438
 20
-2.0382093583
 11
-6.8666065062
 21
1.3910447141
  0
LINE
  5
268
100
AcDbEntity
  8
0
100
AcDbLine
 62
7
  6
CONTINUOUS
 10
-5.3109715876
 20
-1.9565544396
 11
-6.5569049121
 21
1.0646454985
  0
LINE
  5
269
100
AcDbEntity
  8
0
100
AcDbLine
 62
7
  6
CONTINUOUS
 10
-8.1393987123
 20
3.3506443973
 11
-7.0787385406
 21
0.4521157323
  0
LWPOLYLINE
  5
26A
100
AcDbEntity
  8
0
100
AcDbPolyline
 62
7
  6
CONTINUOUS
 90
16
 70
0
 10
9.5797734915
 20
10.9169465765
 10
9.4721349857
 20
10.8512430485
 10
9.3707294669
 20
10.7820406949
 10
9.2757968313
 20
10.7095003587
 10
9.1874339815
 20
10.6336634308
 10
9.1060264723
 20
10.5548165765
 10
9.0321307123
 20
10.4735352135
 10
8.9658732936
 20
10.3900723297
 10
8.907315649
 20
10.3046219986
 10
8.8567175684
 20
10.2177523523
 10
8.8141386719
 20
10.1299023513
 10
8.7794481041
 20
10.0411936028
 10
8.7525607254
 20
9.951774928
 10
8.7334370591
 20
9.861908273
 10
8.7220323793
 20
9.7719543734
 10
8.7182559547
 20
9.6822303361
  0
LWPOLYLINE
  5
26B
100
AcDbEntity
  8
0
100
AcDbPolyline
 62
250
  6
CONTINUOUS
 90
61
 70
0
 10
9.603175089
 20
10.9252379344
 10
9.5058067503
 20
10.8660029946
 10
9.4139234494
 20
10.8039111495
 10
9.3277765401
 20
10.7391314199
 10
9.2476331479
 20
10.6718679967
 10
9.173676312
 20
10.6022781758
 10
9.1060298932
 20
10.5304627826
 10
9.0448544449
 20
10.4565473363
 10
8.9904030431
 20
10.3807874654
 10
8.9429091969
 20
10.3034877057
 10
8.9025197718
 20
10.2248982087
 10
8.8693205103
 20
10.1451991713
 10
8.8433991389
 20
10.0646017603
 10
8.8248269098
 20
9.9833226191
 10
8.8136575449
 20
9.9015897438
 10
8.8099227015
 20
9.8196339599
 10
8.8136344116
 20
9.7376529246
 10
8.8247842232
 20
9.655899725
 10
8.8433165351
 20
9.574687243
 10
8.8691314274
 20
9.4943023709
 10
8.9021460211
 20
9.4148951643
 10
8.9423064919
 20
9.336571311
 10
8.9895365273
 20
9.2595036297
 10
9.0436923695
 20
9.1839471254
 10
9.104614434
 20
9.1101287116
 10
9.1721352807
 20
9.0382510049
 10
9.2460708601
 20
8.9685096883
 10
9.3261999828
 20
8.9011105218
 10
9.4122524201
 20
8.8362695913
 10
9.5040299509
 20
8.7741258274
 10
9.6014139434
 20
8.714768363
 10
9.7042423749
 20
8.6583245321
 10
9.8121727618
 20
8.6050094853
 10
9.9247984689
 20
8.5550337934
 10
10.0417693641
 20
8.5085504262
 10
10.162801863
 20
8.4656697716
 10
10.2875542655
 20
8.4265126905
 10
10.415676327
 20
8.3911880029
 10
10.5468219076
 20
8.3597900587
 10
10.680641565
 20
8.3324024121
 10
10.8167757324
 20
8.3090995176
 10
10.9548427819
 20
8.2899475505
 10
11.0944508475
 20
8.2750007312
 10
11.2352074235
 20
8.2642999635
 10
11.3767339941
 20
8.2578729174
 10
11.5186547707
 20
8.2557365523
 10
11.6605894267
 20
8.2578975245
 10
11.8021382301
 20
8.2643506645
 10
11.9428965156
 20
8.2750772783
 10
12.0824656915
 20
8.2900454555
 10
12.2204748019
 20
8.3092139158
 10
12.3565651048
 20
8.332532904
 10
12.4904268692
 20
8.3599537087
 10
12.6216244694
 20
8.391391378
 10
12.7496300519
 20
8.4267111282
 10
12.8740005202
 20
8.4657668342
 10
12.9945187325
 20
8.5084661318
 10
13.1110104844
 20
8.5547380716
 10
13.2232033003
 20
8.6044773448
 10
13.3307430897
 20
8.6575298138
 10
13.4333368204
 20
8.7137505538
  0
LWPOLYLINE
  5
26C
100
AcDbEntity
  8
0
100
AcDbPolyline
 62
7
  6
CONTINUOUS
 90
10
 70
0
 10
10.5643935724
 20
10.8696159081
 10
10.5465573697
 20
10.859121234
 10
10.5290674582
 20
10.848434026
 10
10.511930071
 20
10.8375580925
 10
10.4951513155
 20
10.8264973096
 10
10.4787371711
 20
10.8152556191
 10
10.4626934875
 20
10.8038370273
 10
10.4470259824
 20
10.7922456034
 10
10.4317402393
 20
10.7804854785
 10
10.4168417056
 20
10.7685608434
  0
LWPOLYLINE
  5
26D
100
AcDbEntity
  8
0
100
AcDbPolyline
 62
7
  6
CONTINUOUS
 90
7
 70
0
 10
12.6196822349
 20
10.7685510196
 10
12.6043373997
 20
10.7606099984
 10
12.5889346888
 20
10.7525060718
 10
12.5734740917
 20
10.7442392452
 10
12.5579555974
 20
10.7358095238
 10
12.5423791952
 20
10.7272169129
 10
12.5267448744
 20
10.7184614178
  0
LWPOLYLINE
  5
26E
100
AcDbEntity
  8
0
100
AcDbPolyline
 62
7
  6
CONTINUOUS
 90
10
 70
0
 10
12.2970800922
 20
9.6829179929
 10
12.3177349304
 20
9.6915208276
 10
12.3381048007
 20
9.7003472752
 10
12.3581824424
 20
9.7093941894
 10
12.3779606991
 20
9.7186583456
 10
12.3974325208
 20
9.7281364417
 10
12.416590967
 20
9.7378250993
 10
12.4354292088
 20
9.7477208648
 10
12.4539405316
 20
9.7578202111
 10
12.472118337
 20
9.7681195384
  0
LINE
  5
26F
100
AcDbEntity
  8
0
100
AcDbLine
 62
7
  6
CONTINUOUS
 10
-7.0787385406
 20
0.4521157323
 11
-9.6243229528
 21
2.248492379
  0
LINE
  5
270
100
AcDbEntity
  8
0
100
AcDbLine
 62
7
  6
CONTINUOUS
 10
-7.1682535136
 20
0.6967385835
 11
-9.4829015966
 21
2.3301472977
  0
LINE
  5
271
100
AcDbEntity
  8
0
100
AcDbLine
 62
7
  6
CONTINUOUS
 10
-6.8666065062
 20
1.3910447141
 11
-2.4118337847
 21
-3.3039079435
  0
LINE
  5
272
100
AcDbEntity
  8
0
100
AcDbLine
 62
7
  6
CONTINUOUS
 10
-2.4118337847
 20
-3.3039079435
 11
-2.4118337847
 21
-1.7526144176
  0
LINE
  5
273
100
AcDbEntity
  8
0
100
AcDbLine
 62
7
  6
CONTINUOUS
 10
-2.2704124285
 20
-3.2222530248
 11
-2.2704124285
 21
-1.6709594989
  0
LWPOLYLINE
  5
274
100
AcDbEntity
  8
TRASH
100
AcDbPolyline
 62
7
  6
CONTINUOUS
 90
7
 70
0
 10
10.6870204798
 20
10.4450241148
 10
10.6882009188
 20
10.4457727098
 10
10.7259539802
 20
10.4675858814
 10
10.765459114
 20
10.4883771676
 10
10.80664543
 20
10.5081022515
 10
10.849417216
 20
10.5267112364
 10
10.8936849428
 20
10.5441606075
  0
LINE
  5
275
100
AcDbEntity
  8
0
100
AcDbLine
 62
7
  6
CONTINUOUS
 10
10.7394148023
 20
9.6829249397
 11
10.7880092068
 21
9.7126560251
  0
LINE
  5
276
100
AcDbEntity
  8
0
100
AcDbLine
 62
7
  6
CONTINUOUS
 10
10.7880092068
 20
9.7126560251
 11
10.836626113
 21
9.7418696364
  0
LWPOLYLINE
  5
277
100
AcDbEntity
  8
0
100
AcDbPolyline
 62
7
  6
CONTINUOUS
 90
10
 70
0
 10
12.472118337
 20
9.7681195384
 10
12.4899545397
 20
9.7786142124
 10
12.5074444512
 20
9.7893014205
 10
12.5245818384
 20
9.8001773539
 10
12.541360594
 20
9.8112381368
 10
12.5577747383
 20
9.8224798273
 10
12.5738184219
 20
9.8338984191
 10
12.589485927
 20
9.845489843
 10
12.6047716701
 20
9.857249968
 10
12.6196702038
 20
9.869174603
  0
LINE
  5
278
100
AcDbEntity
  8
0
100
AcDbLine
 62
7
  6
CONTINUOUS
 10
10.836626113
 20
9.7418696364
 11
10.8852655208
 21
9.7705657736
  0
LINE
  5
279
100
AcDbEntity
  8
0
100
AcDbLine
 62
7
  6
CONTINUOUS
 10
-2.4118337847
 20
-1.7526144176
 11
-8.1393987123
 21
3.3506443973
  0
LINE
  5
27A
100
AcDbEntity
  8
0
100
AcDbLine
 62
7
  6
CONTINUOUS
 10
-2.2704124285
 20
-1.6709594989
 11
-7.9979773561
 21
3.432299316
  0
LWPOLYLINE
  5
27B
100
AcDbEntity
  8
RACCORDO
100
AcDbPolyline
 62
7
  6
CONTINUOUS
 90
9
 70
0
 10
8.915136754
 20
-14.6450426098
 10
8.9162043307
 20
-14.6463755192
 10
8.919794379
 20
-14.6515526355
 10
8.9209018899
 20
-14.6535628338
 10
8.9203839693
 20
-14.6521062546
 10
8.9189125954
 20
-14.646756276
 10
8.9171734768
 20
-14.6373192941
 10
8.9158155455
 20
-14.6238534261
 10
8.9153830748
 20
-14.6095860538
  0
LWPOLYLINE
  5
27C
100
AcDbEntity
  8
TRASH
100
AcDbPolyline
 62
7
  6
CONTINUOUS
 90
9
 70
0
 10
10.6783809079
 20
9.7095479353
 10
10.6911672606
 20
9.7198729865
 10
10.7053766011
 20
9.7318191464
 10
10.7191704999
 20
9.7439663096
 10
10.7324769484
 20
9.7563989852
 10
10.7455219969
 20
9.7691174767
 10
10.7583780363
 20
9.7821584228
 10
10.7709541537
 20
9.7956160944
 10
10.7832559552
 20
9.8095656035
  0
LINE
  5
27D
100
AcDbEntity
  8
0
100
AcDbLine
 62
7
  6
CONTINUOUS
 10
10.3241715694
 20
6.4350820189
 11
10.3556273118
 21
6.4547089707
  0
LWPOLYLINE
  5
27E
100
AcDbEntity
  8
0
100
AcDbPolyline
 62
250
  6
CONTINUOUS
 90
39
 70
0
 10
13.4333368204
 20
8.7137505538
 10
13.5307051592
 20
8.772985132
 10
13.6225884601
 20
8.8350767926
 10
13.7087353693
 20
8.8998565149
 10
13.7888787615
 20
8.9671202228
 10
13.8628355974
 20
9.0367105056
 10
13.9304820162
 20
9.1085261927
 10
13.9916574645
 20
9.1824415716
 10
14.0461088663
 20
9.2582012071
 10
14.0936027125
 20
9.3355007973
 10
14.1339921376
 20
9.4140902974
 10
14.1671913991
 20
9.4937894038
 10
14.1931127706
 20
9.5743868634
 10
14.2116849996
 20
9.6556659958
 10
14.2228543646
 20
9.7373988419
 10
14.2265892079
 20
9.8193546012
 10
14.2228774978
 20
9.9013356262
 10
14.2117276863
 20
9.98308882
 10
14.1931953743
 20
10.0643012974
 10
14.167380482
 20
10.1446861656
 10
14.1343658883
 20
10.2240933694
 10
14.0942054175
 20
10.3024172192
 10
14.0469753821
 20
10.3794848951
 10
13.9928195399
 20
10.4550413934
 10
13.9318974754
 20
10.5288598016
 10
13.8643766287
 20
10.6007375031
 10
13.7904410493
 20
10.6704788149
 10
13.7103119266
 20
10.7378779778
 10
13.6242594894
 20
10.8027189064
 10
13.5324819585
 20
10.8648626696
 10
13.435097966
 20
10.9242201329
 10
13.3322695346
 20
10.9806639615
 10
13.2243391476
 20
11.0339790055
 10
13.1117134406
 20
11.0839546954
 10
12.9947425453
 20
11.1304380619
 10
12.8737100465
 20
11.1733187164
 10
12.7489576439
 20
11.2124757978
 10
12.6208355824
 20
11.2478004859
 10
12.4896900019
 20
11.2791984308
  0
LWPOLYLINE
  5
27F
100
AcDbEntity
  8
0
100
AcDbPolyline
 62
250
  6
CONTINUOUS
 90
16
 70
0
 10
13.498154942
 20
8.5390614816
 10
13.5988185606
 20
8.600301227
 10
13.693811605
 20
8.6644945951
 10
13.7828742328
 20
8.7314668557
 10
13.8657303891
 20
8.80100695
 10
13.9421907651
 20
8.8729522469
 10
14.0121270168
 20
8.9471984132
 10
14.0753729692
 20
9.0236156018
 10
14.1316671339
 20
9.1019395754
 10
14.1807683089
 20
9.181855571
 10
14.2225247638
 20
9.2631050221
 10
14.2568477591
 20
9.345501598
 10
14.2836465173
 20
9.4288269479
 10
14.3028473372
 20
9.5128570747
 10
14.3143947141
 20
9.597356281
 10
14.3182559547
 20
9.6822303411
  0
LINE
  5
280
100
AcDbEntity
  8
0
100
AcDbLine
 62
7
  6
CONTINUOUS
 10
-5.3109715876
 20
-1.9565544396
 11
-5.4523929438
 21
-2.0382093583
  0
LWPOLYLINE
  5
281
100
AcDbEntity
  8
0
100
AcDbPolyline
 62
7
  6
CONTINUOUS
 90
15
 70
0
 10
13.4567384179
 20
7.6025913129
 10
13.339968795
 20
7.5389227778
 10
13.2176656836
 20
7.4795093399
 10
13.0902172032
 20
7.424480936
 10
12.9579867538
 20
7.3739462202
 10
12.8214018266
 20
7.3280281037
 10
12.6809795917
 20
7.2868583173
 10
12.5371914621
 20
7.2505303204
 10
12.3904436616
 20
7.2191073731
 10
12.2411947154
 20
7.192654601
 10
12.0899331407
 20
7.1712273597
 10
11.9370842621
 20
7.1548584687
 10
11.7830264228
 20
7.1435704071
 10
11.6282055138
 20
7.1373858663
 10
11.4731002318
 20
7.1363169254
  0
LWPOLYLINE
  5
282
100
AcDbEntity
  8
RACCORDO
100
AcDbPolyline
 62
7
  6
CONTINUOUS
 90
33
 70
0
 10
12.6903907101
 20
6.387463546
 10
12.6264191858
 20
6.3541713237
 10
12.5417876222
 20
6.3156863311
 10
12.4494476708
 20
6.2796373212
 10
12.3498134749
 20
6.2465747626
 10
12.2436174199
 20
6.2170627963
 10
12.1318656486
 20
6.1916184302
 10
12.0152890348
 20
6.1705984124
 10
11.8946703559
 20
6.1543032944
 10
11.7711270588
 20
6.1430000857
 10
11.6455462963
 20
6.1368545628
 10
11.5188290896
 20
6.1359704565
 10
11.3921213879
 20
6.1403767319
 10
11.2663501888
 20
6.1500361595
 10
11.1424230701
 20
6.164852185
 10
11.0214540833
 20
6.1846246413
 10
10.9043551888
 20
6.2091059035
 10
10.7919118711
 20
6.238006858
 10
10.685045825
 20
6.2709211679
 10
10.5845117874
 20
6.3074101085
 10
10.4909527912
 20
6.3469946865
 10
10.4051346391
 20
6.3890279829
 10
10.3275298633
 20
6.4328910729
 10
10.2585814755
 20
6.4778729006
 10
10.1989349407
 20
6.5229076972
 10
10.1488619074
 20
6.5669198969
 10
10.1079461257
 20
6.6092390082
 10
10.0757540062
 20
6.6490852804
 10
10.0521841188
 20
6.6848969716
 10
10.0359033317
 20
6.7165407851
 10
10.0252503923
 20
6.7452810148
 10
10.019560108
 20
6.7714492941
 10
10.018274698
 20
6.7934539053
  0
LINE
  5
283
100
AcDbEntity
  8
RACCORDO
100
AcDbLine
 62
250
  6
CONTINUOUS
 10
12.9398737806
 20
6.3623938851
 11
12.826369714
 21
6.3046763506
  0
LINE
  5
284
100
AcDbEntity
  8
RACCORDO
100
AcDbLine
 62
250
  6
CONTINUOUS
 10
12.826369714
 20
6.3046763506
 11
12.7073395457
 21
6.252681139
  0
LWPOLYLINE
  5
285
100
AcDbEntity
  8
RACCORDO
100
AcDbPolyline
 62
250
  6
CONTINUOUS
 90
17
 70
0
 10
12.7073395457
 20
6.252681139
 10
12.5827832757
 20
6.2064082504
 10
12.4520896505
 20
6.1657415104
 10
12.3158699237
 20
6.1307970934
 10
12.1759578553
 20
6.101923522
 10
12.0321237188
 20
6.0791411366
 10
11.8845972408
 20
6.0624295968
 10
11.7359013612
 20
6.0520764038
 10
11.5860371541
 20
6.0481918814
 10
11.4350035453
 20
6.0506657058
 10
11.2853202518
 20
6.0594544069
 10
11.1369996874
 20
6.0746646255
 10
10.9900294383
 20
6.0961897206
 10
10.8468919803
 20
6.1236662995
 10
10.7076569293
 20
6.1571945111
 10
10.5722546694
 20
6.1966742063
 10
10.4429588293
 20
6.2414415449
  0
LINE
  5
286
100
AcDbEntity
  8
0
100
AcDbLine
 62
7
  6
CONTINUOUS
 10
-9.4829015966
 20
2.4117785434
 11
-10.7556938027
 21
2.8200847006
  0
LINE
  5
287
100
AcDbEntity
  8
0
100
AcDbLine
 62
7
  6
CONTINUOUS
 10
-9.3414802404
 20
2.493433462
 11
-10.6142724465
 21
2.9017396193
  0
LWPOLYLINE
  5
288
100
AcDbEntity
  8
0
100
AcDbPolyline
 62
7
  6
CONTINUOUS
 90
37
 70
0
 10
12.296073414
 20
6.9972996043
 10
12.2440200677
 20
6.9598617977
 10
12.1887778431
 20
6.9243484755
 10
12.1305589398
 20
6.8908853885
 10
12.0694665741
 20
6.8595305322
 10
12.0058586095
 20
6.8304639651
 10
11.9403912551
 20
6.8039392245
 10
11.8735440539
 20
6.7800627768
 10
11.8054477062
 20
6.7587960649
 10
11.736269744
 20
6.7401286085
 10
11.6664028639
 20
6.7241068769
 10
11.5960451687
 20
6.7107176436
 10
11.5250571805
 20
6.6999066767
 10
11.4536307766
 20
6.6917052072
 10
11.382170745
 20
6.6861607632
 10
11.3108624039
 20
6.6832892593
 10
11.2398336602
 20
6.6831146636
 10
11.1696125455
 20
6.685656519
 10
11.1009708847
 20
6.6908673707
 10
11.0342178684
 20
6.6986770819
 10
10.9696381917
 20
6.7090056928
 10
10.907884974
 20
6.7216769304
 10
10.8494471959
 20
6.7364723918
 10
10.7942249607
 20
6.7532985893
 10
10.7419851712
 20
6.7721628857
 10
10.6929167689
 20
6.7929740846
 10
10.6472905808
 20
6.8155950755
 10
10.6051052569
 20
6.8400276791
 10
10.5664773523
 20
6.8662601223
 10
10.5318252196
 20
6.8940727972
 10
10.5015607655
 20
6.9231392465
 10
10.4758188477
 20
6.9532894523
 10
10.4547170039
 20
6.9843455654
 10
10.4384402017
 20
7.0159214218
 10
10.4269944485
 20
7.0477393837
 10
10.4202899618
 20
7.0796955036
 10
10.4182559547
 20
7.109607526
  0
LWPOLYLINE
  5
289
100
AcDbEntity
  8
RACCORDO
100
AcDbPolyline
 62
250
  6
CONTINUOUS
 90
13
 70
0
 10
4.5070306617
 20
0.9473215599
 10
4.4805999574
 20
0.9290744573
 10
4.4545282716
 20
0.9071867837
 10
4.4292446075
 20
0.88193921
 10
4.4051287713
 20
0.8536142135
 10
4.3826634765
 20
0.8226756506
 10
4.3623834664
 20
0.7898112611
 10
4.3446588696
 20
0.7556358933
 10
4.3297404073
 20
0.72065014
 10
4.3178798558
 20
0.6854472527
 10
4.3092710265
 20
0.6506137991
 10
4.3040508274
 20
0.6167193306
 10
4.3023019286
 20
0.5843218837
  0
LINE
  5
28A
100
AcDbEntity
  8
RACCORDO
100
AcDbLine
 62
250
  6
CONTINUOUS
 10
13.0458043899
 20
6.4271884947
 11
12.9398737806
 21
6.3623938851
  0
LWPOLYLINE
  5
28B
100
AcDbEntity
  8
0
100
AcDbPolyline
 62
250
  6
CONTINUOUS
 90
15
 70
0
 10
13.498154942
 20
7.6941386851
 10
13.599061378
 20
7.7555341373
 10
13.6942644874
 20
7.8198946543
 10
13.7835033243
 20
7.8870438294
 10
13.8665332917
 20
7.9567976131
 10
13.9431268078
 20
8.028964815
 10
14.013073931
 20
8.1033476269
 10
14.0761829336
 20
8.1797421618
 10
14.1322808469
 20
8.2579390367
 10
14.1812139248
 20
8.3377239457
 10
14.2228480471
 20
8.4188782257
 10
14.2570690771
 20
8.5011794201
 10
14.2837831999
 20
8.5844019124
 10
14.3029171933
 20
8.6683175814
 10
14.3144186191
 20
8.7526964334
  0
LINE
  5
28C
100
AcDbEntity
  8
RACCORDO
100
AcDbLine
 62
250
  6
CONTINUOUS
 10
8.8313470976
 20
3.5298318064
 11
4.5070306617
 21
0.9473215599
  0
LINE
  5
28D
100
AcDbEntity
  8
RACCORDO
100
AcDbLine
 62
250
  6
CONTINUOUS
 10
9.0433822206
 20
3.1624642781
 11
4.7228314741
 21
0.5822029261
  0
LINE
  5
28E
100
AcDbEntity
  8
0
100
AcDbLine
 62
7
  6
CONTINUOUS
 10
-2.2704124285
 20
-1.6709594989
 11
-2.4118337847
 21
-1.7526144176
  0
LINE
  5
28F
100
AcDbEntity
  8
0
100
AcDbLine
 62
7
  6
CONTINUOUS
 10
-2.2704124285
 20
-3.2222530248
 11
-2.4118337847
 21
-3.3039079435
  0
LINE
  5
290
100
AcDbEntity
  8
RACCORDO
100
AcDbLine
 62
250
  6
CONTINUOUS
 10
8.8312954177
 20
3.5298616458
 11
16.2696372253
 21
7.7941573389
  0
LINE
  5
291
100
AcDbEntity
  8
RACCORDO
100
AcDbLine
 62
250
  6
CONTINUOUS
 10
9.0433822206
 20
3.1625001139
 11
16.4809966072
 21
7.426378787
  0
LWPOLYLINE
  5
292
100
AcDbEntity
  8
0
100
AcDbPolyline
 62
7
  6
CONTINUOUS
 90
22
 70
0
 10
11.4124392901
 20
2.1975978206
 10
11.3487449328
 20
2.1890780233
 10
11.2853452881
 20
2.1826718462
 10
11.2224675665
 20
2.1783847119
 10
11.1602348088
 20
2.1762121034
 10
11.0989916927
 20
2.1761524322
 10
11.0392798135
 20
2.1781703897
 10
10.981311525
 20
2.182206172
 10
10.9252821091
 20
2.188193642
 10
10.8716461596
 20
2.196016462
 10
10.8206857271
 20
2.2055417342
 10
10.7723909223
 20
2.2166797681
 10
10.7267501043
 20
2.2293600206
 10
10.6839452254
 20
2.2434643928
 10
10.6440385158
 20
2.2589043547
 10
10.6069004119
 20
2.2756897521
 10
10.5726077293
 20
2.2937810578
 10
10.5414083124
 20
2.3130451235
 10
10.5134667475
 20
2.3333659962
 10
10.4888781969
 20
2.3546655985
 10
10.4677977685
 20
2.3768050306
 10
10.4672485396
 20
2.3775234641
  0
LWPOLYLINE
  5
293
100
AcDbEntity
  8
RACCORDO
100
AcDbPolyline
 62
250
  6
CONTINUOUS
 90
8
 70
0
 10
4.1584997072
 20
-19.5199167709
 10
4.1601795468
 20
-19.5497110735
 10
4.1652374509
 20
-19.5772692136
 10
4.173659147
 20
-19.6020953573
 10
4.1854017049
 20
-19.6237664437
 10
4.2003183411
 20
-19.6417954839
 10
4.2180936094
 20
-19.6557263605
 10
4.2206114373
 20
-19.6572302894
  0
LINE
  5
294
100
AcDbEntity
  8
0
100
AcDbLine
 62
7
  6
CONTINUOUS
 10
10.4168296714
 20
9.8691844294
 11
10.4475772193
 21
9.9088755603
  0
LWPOLYLINE
  5
295
100
AcDbEntity
  8
0
100
AcDbPolyline
 62
7
  6
CONTINUOUS
 90
4
 70
0
 10
10.4475772193
 20
9.9088755603
 10
10.4785563125
 20
9.9481709785
 10
10.4941327155
 20
9.9676702873
 10
10.5097670373
 20
9.9870706582
  0
LINE
  5
296
100
AcDbEntity
  8
0
100
AcDbLine
 62
7
  6
CONTINUOUS
 10
12.6621117574
 20
6.7029093059
 11
12.6039007803
 21
6.6534735596
  0
LWPOLYLINE
  5
297
100
AcDbEntity
  8
0
100
AcDbPolyline
 62
7
  6
CONTINUOUS
 90
40
 70
0
 10
12.6039007803
 20
6.6534735596
 10
12.5414052619
 20
6.6062280484
 10
12.4748718435
 20
6.5613237841
 10
12.404563102
 20
6.5189025385
 10
12.3307565138
 20
6.4790962842
 10
12.2537433597
 20
6.4420266735
 10
12.1738275754
 20
6.4078045585
 10
12.0913245518
 20
6.3765295535
 10
12.0065598905
 20
6.348289642
 10
11.9198681187
 20
6.3231608292
 10
11.831591369
 20
6.3012068424
 10
11.7420780292
 20
6.2824788792
 10
11.6516813674
 20
6.2670154057
 10
11.5607581376
 20
6.2548420044
 10
11.469667172
 20
6.2459712735
 10
11.3787679646
 20
6.240402777
 10
11.288419253
 20
6.2381230466
 10
11.1989776017
 20
6.2391056347
 10
11.1107959959
 20
6.2433112189
 10
11.0242224477
 20
6.2506877571
 10
10.939598623
 20
6.2611706927
 10
10.857258493
 20
6.2746832099
 10
10.7775270163
 20
6.2911365363
 10
10.7007188563
 20
6.3104302937
 10
10.6271371393
 20
6.3324528939
 10
10.5570722583
 20
6.3570819791
 10
10.4908007272
 20
6.3841849052
 10
10.428584089
 20
6.4136192648
 10
10.3706678841
 20
6.4452334494
 10
10.317280681
 20
6.4788672479
 10
10.2686331742
 20
6.5143524784
 10
10.2249173531
 20
6.5515136527
 10
10.1863057436
 20
6.5901686681
 10
10.152950728
 20
6.6301295265
 10
10.124983943
 20
6.6712030763
 10
10.1025157605
 20
6.7131917745
 10
10.0856348521
 20
6.7558944665
 10
10.0744078388
 20
6.7991071799
 10
10.0688790284
 20
6.8426239297
 10
10.0682559547
 20
6.8629742314
  0
LINE
  5
298
100
AcDbEntity
  8
RACCORDO
100
AcDbLine
 62
250
  6
CONTINUOUS
 10
16.4809966072
 20
6.1343862332
 11
9.251811338
 21
1.7379005962
  0
LINE
  5
299
100
AcDbEntity
  8
RACCORDO
100
AcDbLine
 62
7
  6
CONTINUOUS
 10
16.4210781529
 20
5.9983915709
 11
9.1918928817
 21
1.6019059327
  0
LWPOLYLINE
  5
29A
100
AcDbEntity
  8
0
100
AcDbPolyline
 62
7
  6
CONTINUOUS
 90
24
 70
0
 10
11.3787703513
 20
1.7498161214
 10
11.296353968
 20
1.7534219615
 10
11.2158729735
 20
1.7597215327
 10
11.1375889699
 20
1.7686253625
 10
11.0617520948
 20
1.780035598
 10
10.9886002255
 20
1.7938464721
 10
10.9183582384
 20
1.8099447953
 10
10.8512373263
 20
1.8282104698
 10
10.7874343742
 20
1.8485170243
 10
10.7271313975
 20
1.8707321671
 10
10.6704950421
 20
1.8947183546
 10
10.6176761492
 20
1.9203333746
 10
10.5688093848
 20
1.9474309395
 10
10.5240129359
 20
1.9758612895
 10
10.4833882718
 20
2.0054718012
 10
10.4470199734
 20
2.0361076013
 10
10.4149756285
 20
2.0676121812
 10
10.3873057937
 20
2.0998280109
 10
10.3640440216
 20
2.1325971501
 10
10.3452069544
 20
2.1657618536
 10
10.3307944798
 20
2.1991651689
 10
10.3207899516
 20
2.2326515241
 10
10.3151604698
 20
2.2660673029
 10
10.3142060384
 20
2.2844494685
  0
LWPOLYLINE
  5
29B
100
AcDbEntity
  8
0
100
AcDbPolyline
 62
7
  6
CONTINUOUS
 90
20
 70
0
 10
11.3787703513
 20
1.8314631491
 10
11.2935747619
 20
1.8352400143
 10
11.2104585459
 20
1.8418943862
 10
11.1297103703
 20
1.8513268364
 10
11.0516057276
 20
1.8634283885
 10
10.9764060004
 20
1.8780810717
 10
10.9043575937
 20
1.8951585062
 10
10.8356911377
 20
1.9145265147
 10
10.7706207638
 20
1.936043759
 10
10.7093434557
 20
1.9595623986
 10
10.6520384782
 20
1.9849287678
 10
10.5988668846
 20
2.011984069
 10
10.5499711035
 20
2.0405650782
 10
10.5054746075
 20
2.0705048612
 10
10.4654816625
 20
2.1016334961
 10
10.4300771589
 20
2.1337787993
 10
10.399326524
 20
2.166767053
 10
10.3732757157
 20
2.2004237293
 10
10.3519512958
 20
2.2345742099
 10
10.3353605827
 20
2.2690444972
  0
LWPOLYLINE
  5
29C
100
AcDbEntity
  8
RACCORDO
100
AcDbPolyline
 62
250
  6
CONTINUOUS
 90
13
 70
0
 10
4.3023019286
 20
0.5843218837
 10
4.3315810928
 20
0.5694821138
 10
4.363955245
 20
0.5569545202
 10
4.3988808281
 20
0.5469529246
 10
4.4357754729
 20
0.5396480053
 10
4.4740125115
 20
0.5351675395
 10
4.5129300256
 20
0.5335901982
 10
4.5519473829
 20
0.5349475777
 10
4.590324775
 20
0.5392220033
 10
4.6271786312
 20
0.5462857277
 10
4.6618495495
 20
0.5559429103
 10
4.6938897944
 20
0.5679961782
 10
4.7228314741
 20
0.5822029261
  0
LINE
  5
29D
100
AcDbEntity
  8
RACCORDO
100
AcDbLine
 62
250
  6
CONTINUOUS
 10
-16.3384586662
 20
12.5020383616
 11
4.3023019286
 21
0.5843218837
  0
LINE
  5
29E
100
AcDbEntity
  8
RACCORDO
100
AcDbLine
 62
250
  6
CONTINUOUS
 10
-16.133729933
 20
12.8650380378
 11
4.5070306617
 21
0.9473215599
  0
LWPOLYLINE
  5
29F
100
AcDbEntity
  8
RACCORDO
100
AcDbPolyline
 62
250
  6
CONTINUOUS
 90
13
 70
0
 10
4.7228314741
 20
0.5822029261
 10
4.7200674711
 20
0.614659694
 10
4.713787746
 20
0.6486918604
 10
4.7040996633
 20
0.6837175761
 10
4.6911688605
 20
0.7191380057
 10
4.6752164159
 20
0.7543475648
 10
4.6565150689
 20
0.7887442747
 10
4.6353845571
 20
0.8217400537
 10
4.6121861494
 20
0.8527707721
 10
4.5873164696
 20
0.8813058968
 10
4.5612007155
 20
0.9068575618
 10
4.5342853888
 20
0.9289889096
 10
4.5070306617
 20
0.9473215599
  0
LINE
  5
2A0
100
AcDbEntity
  8
RACCORDO
100
AcDbLine
 62
250
  6
CONTINUOUS
 10
4.1584997072
 20
-9.7887604621
 11
4.1584997072
 21
-19.5199167709
  0
LINE
  5
2A1
100
AcDbEntity
  8
RACCORDO
100
AcDbLine
 62
250
  6
CONTINUOUS
 10
4.3023019286
 20
0.5843218837
 11
4.3023019286
 21
-9.1433554481
  0
LINE
  5
2A2
100
AcDbEntity
  8
RACCORDO
100
AcDbLine
 62
250
  6
CONTINUOUS
 10
4.5790292527
 20
-9.7908794197
 11
4.5790292527
 21
-19.5220357285
  0
LINE
  5
2A3
100
AcDbEntity
  8
RACCORDO
100
AcDbLine
 62
250
  6
CONTINUOUS
 10
4.7228314741
 20
0.5822029261
 11
4.7228314741
 21
-9.1454744057
  0
LWPOLYLINE
  5
2A4
100
AcDbEntity
  8
RACCORDO
100
AcDbPolyline
 62
250
  6
CONTINUOUS
 90
16
 70
0
 10
4.3023019286
 20
-9.1433554481
 10
4.3021749865
 20
-9.1542026575
 10
4.301798534
 20
-9.1651049662
 10
4.3011778642
 20
-9.1760521924
 10
4.300318726
 20
-9.1870289123
 10
4.2992265212
 20
-9.1980308221
 10
4.2979051516
 20
-9.209065247
 10
4.2963594124
 20
-9.2201228533
 10
4.2945939849
 20
-9.2311955965
 10
4.2926106138
 20
-9.2422938644
 10
4.2904129192
 20
-9.2534111028
 10
4.2880050455
 20
-9.2645382572
 10
4.2853877212
 20
-9.2756827682
 10
4.2825630496
 20
-9.2868423621
 10
4.279535443
 20
-9.2980048125
 10
4.2763083936
 20
-9.3091629809
  0
LWPOLYLINE
  5
2A5
100
AcDbEntity
  8
RACCORDO
100
AcDbPolyline
 62
250
  6
CONTINUOUS
 90
16
 70
0
 10
4.7228314741
 20
-9.1454744057
 10
4.7226153924
 20
-9.162868506
 10
4.7220214976
 20
-9.1803170169
 10
4.7210497896
 20
-9.1978199384
 10
4.7196929038
 20
-9.2153816596
 10
4.7179582049
 20
-9.2329977914
 10
4.7158677872
 20
-9.2506551665
 10
4.71342348
 20
-9.2683531178
 10
4.710623454
 20
-9.2860923124
 10
4.7074843157
 20
-9.3038615846
 10
4.7040077406
 20
-9.3216600052
 10
4.7001920531
 20
-9.3394885034
 10
4.6960488327
 20
-9.3573387016
 10
4.6915819393
 20
-9.3752078071
 10
4.6867875131
 20
-9.3930986126
 10
4.681665554
 20
-9.411011118
  0
LWPOLYLINE
  5
2A6
100
AcDbEntity
  8
RACCORDO
100
AcDbPolyline
 62
250
  6
CONTINUOUS
 90
10
 70
0
 10
4.5790292527
 20
-9.7908794197
 10
4.5791592595
 20
-9.7838883874
 10
4.5795443387
 20
-9.776790156
 10
4.5801844904
 20
-9.7695847255
 10
4.5810819807
 20
-9.7622574928
 10
4.5822345434
 20
-9.7548230609
 10
4.5836353798
 20
-9.747325239
 10
4.5852822238
 20
-9.73977863
 10
4.5871773414
 20
-9.7321686309
 10
4.5893207327
 20
-9.7244952416
  0
LINE
  5
2A7
100
AcDbEntity
  8
TRASH
100
AcDbLine
 62
7
  6
CONTINUOUS
 10
12.1428319981
 20
10.5441636334
 11
12.1665661344
 21
10.5823393632
  0
LINE
  5
2A8
100
AcDbEntity
  8
0
100
AcDbLine
 62
7
  6
CONTINUOUS
 10
12.3714403196
 20
10.4796697853
 11
12.3310522358
 21
10.4159478597
  0
LINE
  5
2A9
100
AcDbEntity
  8
0
100
AcDbLine
 62
7
  6
CONTINUOUS
 10
12.4111763866
 20
10.5416257344
 11
12.3714403196
 21
10.4796697853
  0
LWPOLYLINE
  5
2AA
100
AcDbEntity
  8
0
100
AcDbPolyline
 62
7
  6
CONTINUOUS
 90
3
 70
0
 10
12.449810332
 20
10.6007605314
 10
12.4241587623
 20
10.5616727661
 10
12.4111763866
 20
10.5416257344
  0
LWPOLYLINE
  5
2AB
100
AcDbEntity
  8
0
100
AcDbPolyline
 62
7
  6
CONTINUOUS
 90
3
 70
0
 10
12.4988700013
 20
10.6740482982
 10
12.4623500254
 20
10.6197248419
 10
12.449810332
 20
10.6007605314
  0
LWPOLYLINE
  5
2AC
100
AcDbEntity
  8
0
100
AcDbPolyline
 62
7
  6
CONTINUOUS
 90
3
 70
0
 10
12.5224854709
 20
10.7077907543
 10
12.5106373308
 20
10.691204374
 10
12.4988700013
 20
10.6740482982
  0
LWPOLYLINE
  5
2AD
100
AcDbEntity
  8
RACCORDO
100
AcDbPolyline
 62
7
  6
CONTINUOUS
 90
6
 70
0
 10
12.9227377501
 20
6.5599024964
 10
12.881362352
 20
6.5198758005
 10
12.8322601738
 20
6.4793733387
 10
12.7756875416
 20
6.4390921403
 10
12.7121692594
 20
6.3997777293
 10
12.6907910962
 20
6.3876845066
  0
LWPOLYLINE
  5
2AE
100
AcDbEntity
  8
0
100
AcDbPolyline
 62
7
  6
CONTINUOUS
 90
21
 70
0
 10
12.603903852
 20
3.0610063449
 10
12.5414085602
 20
3.0137607269
 10
12.474875356
 20
2.9688563467
 10
12.4045668154
 20
2.9264349766
 10
12.3307604137
 20
2.8866285897
 10
12.2537474306
 20
2.8495588391
 10
12.1738318009
 20
2.8153365773
 10
12.0913289147
 20
2.7840614195
 10
12.0065643728
 20
2.7558213497
 10
11.9198727018
 20
2.7306923741
 10
11.8315960338
 20
2.7087382206
 10
11.742082756
 20
2.6900100877
 10
11.6516861363
 20
2.6745464423
 10
11.5607629283
 20
2.6623728676
 10
11.4696719642
 20
2.6535019628
 10
11.378772738
 20
2.6479332927
 10
11.2884239873
 20
2.6456533899
 10
11.1989822768
 20
2.6466358075
 10
11.1108005921
 20
2.650841224
 10
11.0242269456
 20
2.658217598
 10
10.9449454474
 20
2.6680385797
  0
LWPOLYLINE
  5
2AF
100
AcDbEntity
  8
RACCORDO
100
AcDbPolyline
 62
250
  6
CONTINUOUS
 90
7
 70
0
 10
9.1918928817
 20
1.6019059327
 10
9.2083304012
 20
1.6143287868
 10
9.2238128734
 20
1.6321051369
 10
9.2360826264
 20
1.6537499057
 10
9.2449297057
 20
1.6788928778
 10
9.2502026981
 20
1.7071039675
 10
9.2518113353
 20
1.7379005943
  0
LWPOLYLINE
  5
2B0
100
AcDbEntity
  8
0
100
AcDbPolyline
 62
7
  6
CONTINUOUS
 90
16
 70
0
 10
12.296073414
 20
2.5067126745
 10
12.2496341742
 20
2.4731143175
 10
12.2004262671
 20
2.4409247872
 10
12.1485738392
 20
2.4102554431
 10
12.0941165786
 20
2.3811648521
 10
12.0372983057
 20
2.3538150023
 10
11.9786011094
 20
2.3284362566
 10
11.9182303622
 20
2.3050923857
 10
11.8563977042
 20
2.2838399476
 10
11.7936560717
 20
2.2648232894
 10
11.7303319954
 20
2.2480716002
 10
11.6665708207
 20
2.2335552822
 10
11.6026722659
 20
2.2212772499
 10
11.5388850219
 20
2.2112164644
 10
11.4754037638
 20
2.2033362408
 10
11.4124392901
 20
2.1975978206
  0
LWPOLYLINE
  5
2B1
100
AcDbEntity
  8
0
100
AcDbPolyline
 62
7
  6
CONTINUOUS
 90
11
 70
0
 10
12.296073414
 20
3.4048299276
 10
12.2441749266
 20
3.3674974213
 10
12.1891855161
 20
3.3321267173
 10
12.1313269817
 20
3.2988332809
 10
12.0708853565
 20
3.2677491459
 10
12.0080604854
 20
3.2389441153
 10
11.942946897
 20
3.2124447618
 10
11.8756162364
 20
3.1882873629
 10
11.8065144652
 20
3.166636917
 10
11.7363248799
 20
3.1476726671
 10
11.7319734207
 20
3.1466758053
  0
LWPOLYLINE
  5
2B2
100
AcDbEntity
  8
RACCORDO
100
AcDbPolyline
 62
7
  6
CONTINUOUS
 90
9
 70
0
 10
16.4210781529
 20
5.9983915709
 10
16.4520189963
 20
6.0199867282
 10
16.4803773077
 20
6.0456762961
 10
16.5054798303
 20
6.0750931907
 10
16.5267492914
 20
6.1077798711
 10
16.5436489453
 20
6.1430736458
 10
16.5557988995
 20
6.1802195252
 10
16.5630465508
 20
6.2188768062
 10
16.5651946486
 20
6.2547732737
  0
LWPOLYLINE
  5
2B3
100
AcDbEntity
  8
0
100
AcDbPolyline
 62
7
  6
CONTINUOUS
 90
15
 70
0
 10
12.5414081884
 20
2.1972902364
 10
12.4748748683
 20
2.1523858226
 10
12.4045662021
 20
2.1099644263
 10
12.3307596664
 20
2.070158021
 10
12.253746542
 20
2.0330882603
 10
12.1738307651
 20
1.9988659974
 10
12.091327727
 20
1.9675908477
 10
12.0065630301
 20
1.9393507957
 10
11.9198712023
 20
1.9142218478
 10
11.8315943774
 20
1.8922677322
 10
11.7420809442
 20
1.8735396475
 10
11.651684172
 20
1.8580760607
 10
11.5607608163
 20
1.8459025551
 10
11.4696697108
 20
1.8370317296
 10
11.3787703513
 20
1.8314631491
  0
LWPOLYLINE
  5
2B4
100
AcDbEntity
  8
RACCORDO
100
AcDbPolyline
 62
250
  6
CONTINUOUS
 90
5
 70
0
 10
9.251811338
 20
1.7379005962
 10
9.2149323342
 20
1.7134425289
 10
9.1789712069
 20
1.6859971848
 10
9.1439279562
 20
1.6555645642
 10
9.1098025821
 20
1.6221446669
  0
LWPOLYLINE
  5
2B5
100
AcDbEntity
  8
RACCORDO
100
AcDbPolyline
 62
250
  6
CONTINUOUS
 90
9
 70
0
 10
-16.133729933
 20
12.8650380378
 10
-16.1563476606
 20
12.876327337
 10
-16.1786274293
 20
12.8848308471
 10
-16.2003234356
 20
12.8904569407
 10
-16.2211846764
 20
12.893145171
 10
-16.2409948798
 20
12.8928724901
 10
-16.2595682147
 20
12.8896360489
 10
-16.2767275294
 20
12.8834424994
 10
-16.2877843237
 20
12.8773673331
  0
LWPOLYLINE
  5
2B6
100
AcDbEntity
  8
RACCORDO
100
AcDbPolyline
 62
250
  6
CONTINUOUS
 90
10
 70
0
 10
4.1839635723
 20
-9.6226471046
 10
4.1787000066
 20
-9.641702989
 10
4.1740245363
 20
-9.660682758
 10
4.1699474624
 20
-9.6795523687
 10
4.1664793903
 20
-9.6982696877
 10
4.1636267396
 20
-9.7168090239
 10
4.1613943936
 20
-9.7351602448
 10
4.1597904263
 20
-9.7532963929
 10
4.1588233938
 20
-9.7711746993
 10
4.1584997072
 20
-9.7887604621
  0
LINE
  5
2B7
100
AcDbEntity
  8
RACCORDO
100
AcDbLine
 62
250
  6
CONTINUOUS
 10
4.2763083936
 20
-9.3091629809
 11
4.1839635723
 21
-9.6226471046
  0
LINE
  5
2B8
100
AcDbEntity
  8
0
100
AcDbLine
 62
7
  6
CONTINUOUS
 10
10.5140264386
 20
10.0042119678
 11
10.5494712024
 21
10.0891352315
  0
LINE
  5
2B9
100
AcDbEntity
  8
0
100
AcDbLine
 62
7
  6
CONTINUOUS
 10
10.5494712024
 20
10.0891352315
 11
10.5616490477
 21
10.1175159668
  0
LWPOLYLINE
  5
2BA
100
AcDbEntity
  8
RACCORDO
100
AcDbPolyline
 62
250
  6
CONTINUOUS
 90
3
 70
0
 10
10.0488865328
 20
6.9594924968
 10
10.0738151641
 20
7.0168228958
 10
10.0787648407
 20
7.0254673539
  0
LWPOLYLINE
  5
2BB
100
AcDbEntity
  8
0
100
AcDbPolyline
 62
7
  6
CONTINUOUS
 90
11
 70
0
 10
10.5616490477
 20
10.1175159668
 10
10.5867015774
 20
10.1740525402
 10
10.5993839502
 20
10.2021102359
 10
10.6123531471
 20
10.2299859421
 10
10.6253355228
 20
10.257571872
 10
10.638417394
 20
10.2849258782
 10
10.6517421411
 20
10.312003546
 10
10.6650715898
 20
10.3386094899
 10
10.6783579253
 20
10.3647297286
 10
10.6917913643
 20
10.3904904438
 10
10.7054596736
 20
10.4159478563
  0
LWPOLYLINE
  5
2BC
100
AcDbEntity
  8
0
100
AcDbPolyline
 62
7
  6
CONTINUOUS
 90
7
 70
0
 10
12.5276730864
 20
7.248492161
 10
12.5036865263
 20
7.2106198831
 10
12.4697681137
 20
7.1648573868
 10
12.4318498585
 20
7.120489598
 10
12.3901557668
 20
7.077710968
 10
12.3448298868
 20
7.0366046166
 10
12.296073414
 20
6.9972996043
  0
LWPOLYLINE
  5
2BD
100
AcDbEntity
  8
RACCORDO
100
AcDbPolyline
 62
250
  6
CONTINUOUS
 90
7
 70
0
 10
8.9815400904
 20
1.4675142023
 10
8.9539570811
 20
1.4241395486
 10
8.9284810533
 20
1.3791482602
 10
8.9052656284
 20
1.3328210192
 10
8.88477167
 20
1.2859998728
 10
8.8670083503
 20
1.238795613
 10
8.8519664972
 20
1.1910974478
  0
LWPOLYLINE
  5
2BE
100
AcDbEntity
  8
RACCORDO
100
AcDbPolyline
 62
250
  6
CONTINUOUS
 90
3
 70
0
 10
9.0434879176
 20
1.5502556522
 10
9.0113837026
 20
1.5095529035
 10
8.9815400904
 20
1.4675142023
  0
LWPOLYLINE
  5
2BF
100
AcDbEntity
  8
RACCORDO
100
AcDbPolyline
 62
7
  6
CONTINUOUS
 90
7
 70
0
 10
9.081170968
 20
1.5021908491
 10
9.1021878655
 20
1.5260231042
 10
9.1228718542
 20
1.5471693125
 10
9.1427895606
 20
1.5654693769
 10
9.1615553695
 20
1.5808828677
 10
9.178861646
 20
1.593490551
 10
9.1918544796
 20
1.601882321
  0
LWPOLYLINE
  5
2C0
100
AcDbEntity
  8
RACCORDO
100
AcDbPolyline
 62
250
  6
CONTINUOUS
 90
3
 70
0
 10
9.1098025821
 20
1.6221446669
 10
9.0765950845
 20
1.585737493
 10
9.0443054634
 20
1.5463430424
  0
LINE
  5
2C1
100
AcDbEntity
  8
0
100
AcDbLine
 62
7
  6
CONTINUOUS
 10
12.6621145914
 20
3.1104421885
 11
12.603903852
 21
3.0610063449
  0
LWPOLYLINE
  5
2C2
100
AcDbEntity
  8
0
100
AcDbPolyline
 62
7
  6
CONTINUOUS
 90
3
 70
0
 10
11.2717965207
 20
9.883908551
 10
11.2304464976
 20
9.8726111118
 10
11.1479904867
 20
9.849322765
  0
LWPOLYLINE
  5
2C3
100
AcDbEntity
  8
0
100
AcDbPolyline
 62
7
  6
CONTINUOUS
 90
3
 70
0
 10
11.395914599
 20
9.9164737144
 10
11.3547229682
 20
9.9058788207
 10
11.2717965207
 20
9.883908551
  0
LWPOLYLINE
  5
2C4
100
AcDbEntity
  8
0
100
AcDbPolyline
 62
7
  6
CONTINUOUS
 90
3
 70
0
 10
11.5182560184
 20
9.9466495378
 10
11.4775605153
 20
9.9367548731
 10
11.395914599
 20
9.9164737144
  0
LINE
  5
2C5
100
AcDbEntity
  8
0
100
AcDbLine
 62
7
  6
CONTINUOUS
 10
10.8852655208
 20
9.7705657736
 11
10.9089780069
 21
9.7761717919
  0
LWPOLYLINE
  5
2C6
100
AcDbEntity
  8
0
100
AcDbPolyline
 62
7
  6
CONTINUOUS
 90
10
 70
0
 10
11.3787703513
 20
7.1385199483
 10
11.2884214791
 20
7.1362401447
 10
11.1989796628
 20
7.1372226706
 10
11.1107978891
 20
7.1414282033
 10
11.0242241718
 20
7.1488047008
 10
10.9396001785
 20
7.1592876063
 10
10.8572598819
 20
7.1728001036
 10
10.7775282422
 20
7.1892534202
 10
10.7007199241
 20
7.2085471773
 10
10.6968929535
 20
7.2096925665
  0
LWPOLYLINE
  5
2C7
100
AcDbEntity
  8
RACCORDO
100
AcDbPolyline
 62
7
  6
CONTINUOUS
 90
9
 70
0
 10
9.8209964508
 20
-17.1321365992
 10
9.823456787
 20
-17.1704712464
 10
9.8309338068
 20
-17.2087085883
 10
9.8434615204
 20
-17.2460416579
 10
9.8609398257
 20
-17.2817043823
 10
9.8830569993
 20
-17.3148516812
 10
9.9093268431
 20
-17.3447300544
 10
9.9395250313
 20
-17.3710257931
 10
9.971044112
 20
-17.3919717163
  0
LINE
  5
2C8
100
AcDbEntity
  8
0
100
AcDbLine
 62
7
  6
CONTINUOUS
 10
8.7182559547
 20
9.682230343
 11
8.7182559547
 21
8.8373075464
  0
LWPOLYLINE
  5
2C9
100
AcDbEntity
  8
RACCORDO
100
AcDbPolyline
 62
250
  6
CONTINUOUS
 90
7
 70
0
 10
8.9153830598
 20
1.1255734457
 10
8.9124024405
 20
1.1012169507
 10
8.9042377638
 20
1.0787980802
 10
8.8910204234
 20
1.0571974057
 10
8.8729816176
 20
1.0367927666
 10
8.8504368822
 20
1.0179410832
 10
8.8237805709
 20
1.0009721101
  0
LINE
  5
2CA
100
AcDbEntity
  8
0
100
AcDbLine
 62
7
  6
CONTINUOUS
 10
10.5097670373
 20
9.9870706582
 11
10.5140264386
 21
10.0042119678
  0
LWPOLYLINE
  5
2CB
100
AcDbEntity
  8
RACCORDO
100
AcDbPolyline
 62
250
  6
CONTINUOUS
 90
5
 70
0
 10
8.8519664972
 20
1.1910974478
 10
8.840079458
 20
1.1434150478
 10
8.8314916817
 20
1.0959183033
 10
8.8260587194
 20
1.0484373241
 10
8.8237805709
 20
1.0009721101
  0
LINE
  5
2CC
100
AcDbEntity
  8
RACCORDO
100
AcDbLine
 62
250
  6
CONTINUOUS
 10
4.681665554
 20
-9.411011118
 11
4.5893207327
 21
-9.7244952416
  0
LINE
  5
2CD
100
AcDbEntity
  8
0
100
AcDbLine
 62
7
  6
CONTINUOUS
 10
12.1664510621
 20
10.5824236952
 11
12.2970971071
 21
10.9548105067
  0
LINE
  5
2CE
100
AcDbEntity
  8
0
100
AcDbLine
 62
7
  6
CONTINUOUS
 10
12.5224854709
 20
10.7077907543
 11
12.5267448744
 21
10.7184614178
  0
LWPOLYLINE
  5
2CF
100
AcDbEntity
  8
RACCORDO
100
AcDbPolyline
 62
7
  6
CONTINUOUS
 90
6
 70
0
 10
9.0651619572
 20
1.4823233436
 10
9.0678097463
 20
1.4880965283
 10
9.0678339358
 20
1.4984990777
 10
9.0638784709
 20
1.5118487563
 10
9.0559910043
 20
1.5278927636
 10
9.0442986455
 20
1.5463468439
  0
LWPOLYLINE
  5
2D0
100
AcDbEntity
  8
0
100
AcDbPolyline
 62
7
  6
CONTINUOUS
 90
6
 70
0
 10
12.5005216129
 20
3.6140744073
 10
12.4714267892
 20
3.5744752047
 10
12.4329137808
 20
3.5291862405
 10
12.3907225618
 20
3.4857879926
 10
12.3450229032
 20
3.4442999152
 10
12.296073414
 20
3.4048299276
  0
LINE
  5
2D1
100
AcDbEntity
  8
0
100
AcDbLine
 62
7
  6
CONTINUOUS
 10
11.5182559547
 20
0.9175458615
 11
12.3601391374
 21
2.0043563533
  0
LWPOLYLINE
  5
2D2
100
AcDbEntity
  8
0
100
AcDbPolyline
 62
250
  6
CONTINUOUS
 90
9
 70
0
 10
10.5460850402
 20
11.2790348689
 10
10.41488744
 20
11.2475973546
 10
10.2868818575
 20
11.2122776463
 10
10.1625113892
 20
11.1732217377
 10
10.041993177
 20
11.1305221245
 10
9.925501425
 20
11.0842499948
 10
9.8133086091
 20
11.0345107366
 10
9.7057688198
 20
10.9814584082
 10
9.603175089
 20
10.9252379343
  0
LWPOLYLINE
  5
2D3
100
AcDbEntity
  8
0
100
AcDbPolyline
 62
7
  6
CONTINUOUS
 90
29
 70
0
 10
11.4731002318
 20
7.1363169254
 10
11.3181416188
 20
7.1403631934
 10
11.163795254
 20
7.1495134384
 10
11.0105189338
 20
7.1637443111
 10
10.8587275693
 20
7.1830263739
 10
10.7088736155
 20
7.2073167121
 10
10.5614086897
 20
7.2365601038
 10
10.4167332011
 20
7.2707011836
 10
10.2752651094
 20
7.3096732997
 10
10.137456643
 20
7.3533887159
 10
10.0037334682
 20
7.4017532179
 10
9.8744613724
 20
7.4546847024
 10
9.7500901935
 20
7.5120566685
 10
9.6311174107
 20
7.5736931002
 10
9.5178004365
 20
7.6395240019
 10
9.4106054058
 20
7.7093533132
 10
9.3102154197
 20
7.7827701923
 10
9.2168497109
 20
7.8596196488
 10
9.1307883003
 20
7.9396871749
 10
9.0526000558
 20
8.0223978793
 10
8.9824732855
 20
8.1074210997
 10
8.9204220272
 20
8.1946048424
 10
8.8666057625
 20
8.2835786979
 10
8.8210864744
 20
8.3740440804
 10
8.7838862012
 20
8.4657314518
 10
8.7550435913
 20
8.5582532619
 10
8.7345395585
 20
8.6512416419
 10
8.7223074106
 20
8.7443766367
 10
8.7182559547
 20
8.8373075464
  0
LINE
  5
2D4
100
AcDbEntity
  8
RACCORDO
100
AcDbLine
 62
7
  6
CONTINUOUS
 10
-11.9577344122
 20
15.5331869218
 11
8.8312954177
 21
3.5298616458
  0
LWPOLYLINE
  5
2D5
100
AcDbEntity
  8
RACCORDO
100
AcDbPolyline
 62
7
  6
CONTINUOUS
 90
13
 70
0
 10
9.0433822206
 20
3.1624642781
 10
9.0416364943
 20
3.195366542
 10
9.0362655084
 20
3.2298166854
 10
9.0273575043
 20
3.2652444717
 10
9.0150527507
 20
3.3010711882
 10
8.9995608166
 20
3.3366755528
 10
8.9811701317
 20
3.3714062314
 10
8.9601861372
 20
3.4046829656
 10
8.936983063
 20
3.4359155345
 10
8.9120433658
 20
3.4644924062
 10
8.8858343146
 20
3.4899218159
 10
8.8587823548
 20
3.5118177572
 10
8.8313470976
 20
3.5298318064
  0
LWPOLYLINE
  5
2D6
100
AcDbEntity
  8
0
100
AcDbPolyline
 62
250
  6
CONTINUOUS
 90
46
 70
0
 10
8.7182559547
 20
9.6822303415
 10
8.7220933134
 20
9.59761898
 10
8.733620509
 20
9.5130987501
 10
8.7527800732
 20
9.4291375387
 10
8.7794687046
 20
9.3460319485
 10
8.8136007186
 20
9.2639371137
 10
8.8551204709
 20
9.1829623
 10
8.9039490669
 20
9.1032861764
 10
8.9599378822
 20
9.0251723781
 10
9.0229219299
 20
8.948855498
 10
9.0927281025
 20
8.8745450105
 10
9.1691661214
 20
8.8024432217
 10
9.2520073101
 20
8.732762855
 10
9.3409722931
 20
8.6657273097
 10
9.4358561412
 20
8.6014802188
 10
9.5365362085
 20
8.5401137333
 10
9.6428449886
 20
8.4817594976
 10
9.754428406
 20
8.4266399439
 10
9.8708660613
 20
8.3749727688
 10
9.9917959719
 20
8.326916119
 10
10.1169249553
 20
8.2825841193
 10
10.2458997467
 20
8.2421017213
 10
10.3783582471
 20
8.2055814284
 10
10.5139426009
 20
8.1731207839
 10
10.6522915387
 20
8.1448061693
 10
10.7930333235
 20
8.120714559
 10
10.9357734113
 20
8.1009143685
 10
11.080106673
 20
8.0854616544
 10
11.2256273183
 20
8.0743987067
 10
11.3719440196
 20
8.0677541302
 10
11.5186682691
 20
8.0655454538
 10
11.6654068688
 20
8.0677795518
 10
11.8117465581
 20
8.0744510871
 10
11.9572689735
 20
8.0855407499
 10
12.1015620255
 20
8.1010155737
 10
12.2442422035
 20
8.1208328564
 10
12.3849386383
 20
8.1449411034
 10
12.5233311471
 20
8.1732898865
 10
12.6589693477
 20
8.2057914507
 10
12.7913074569
 20
8.242306602
 10
12.9198873005
 20
8.28268439
 10
13.0444844254
 20
8.3268291905
 10
13.1649188555
 20
8.3746674274
 10
13.2809089589
 20
8.4260901621
 10
13.3920886331
 20
8.4809381209
 10
13.498154942
 20
8.5390614816
  0
LINE
  5
2D7
100
AcDbEntity
  8
RACCORDO
100
AcDbLine
 62
250
  6
CONTINUOUS
 10
8.8237805709
 20
1.0009721101
 11
8.8237805709
 21
-14.7341436068
  0
LINE
  5
2D8
100
AcDbEntity
  8
RACCORDO
100
AcDbLine
 62
7
  6
CONTINUOUS
 10
8.9153830521
 20
1.1256125486
 11
8.9153830598
 21
-14.6095422712
  0
LINE
  5
2D9
100
AcDbEntity
  8
RACCORDO
100
AcDbLine
 62
7
  6
CONTINUOUS
 10
9.0434843295
 20
1.5496490833
 11
9.0433822206
 21
3.1625001139
  0
LINE
  5
2DA
100
AcDbEntity
  8
RACCORDO
100
AcDbLine
 62
7
  6
CONTINUOUS
 10
9.8209964508
 20
-16.8622405803
 11
9.8209964508
 21
-17.1321365992
  0
LINE
  5
2DB
100
AcDbEntity
  8
RACCORDO
100
AcDbLine
 62
250
  6
CONTINUOUS
 10
9.9088644164
 20
-16.8159017047
 11
9.9088644164
 21
-17.2546189772
  0
LINE
  5
2DC
100
AcDbEntity
  8
0
100
AcDbLine
 62
7
  6
CONTINUOUS
 10
10.0682559547
 20
6.9446212591
 11
10.0682559547
 21
6.8629742314
  0
LINE
  5
2DD
100
AcDbEntity
  8
0
100
AcDbLine
 62
7
  6
CONTINUOUS
 10
10.4182559547
 20
7.2703418383
 11
10.4182559547
 21
7.109607526
  0
LINE
  5
2DE
100
AcDbEntity
  8
0
100
AcDbLine
 62
7
  6
CONTINUOUS
 10
10.4182559547
 20
6.4192569882
 11
10.4182559547
 21
6.382601229
  0
LINE
  5
2DF
100
AcDbEntity
  8
RACCORDO
100
AcDbLine
 62
7
  6
CONTINUOUS
 10
8.9153830598
 20
-14.6095422712
 11
8.9153830502
 21
-14.6095860537
  0
LINE
  5
2E0
100
AcDbEntity
  8
RACCORDO
100
AcDbLine
 62
250
  6
CONTINUOUS
 10
10.0182559547
 20
6.7907048714
 11
10.0182640812
 21
6.793475582
  0
LWPOLYLINE
  5
2E1
100
AcDbEntity
  8
RACCORDO
100
AcDbPolyline
 62
7
  6
CONTINUOUS
 90
15
 70
0
 10
8.9153838648
 20
1.1256125468
 10
8.915484526
 20
1.1328940066
 10
8.9166962278
 20
1.1529520262
 10
8.9195344001
 20
1.1759762932
 10
8.9242066046
 20
1.2013730369
 10
8.9308712688
 20
1.2287985223
 10
8.9396436054
 20
1.25792313
 10
8.9504956754
 20
1.2881217186
 10
8.9633759737
 20
1.318934653
 10
8.9782189304
 20
1.3500015801
 10
8.9948692279
 20
1.3808635412
 10
9.0131526519
 20
1.4111076704
 10
9.0328589565
 20
1.4403506257
 10
9.0537054358
 20
1.468190221
 10
9.081170968
 20
1.5021908491
  0
LWPOLYLINE
  5
2E2
100
AcDbEntity
  8
0
100
AcDbPolyline
 62
7
  6
CONTINUOUS
 90
11
 70
0
 10
10.0682559547
 20
6.9446212591
 10
10.0690702405
 20
6.9678845582
 10
10.0749807203
 20
7.0113874429
 10
10.0865871419
 20
7.0545724811
 10
10.1038436999
 20
7.0972337968
 10
10.1266822908
 20
7.1391675809
 10
10.155012781
 20
7.1801728956
 10
10.1887233631
 20
7.2200524674
 10
10.2276809969
 20
7.2586134653
 10
10.2717319346
 20
7.2956682625
 10
10.2867449295
 20
7.3065107994
  0
LINE
  5
2E3
100
AcDbEntity
  8
0
100
AcDbLine
 62
7
  6
CONTINUOUS
 10
10.8936799091
 20
10.5441636275
 11
10.908978107
 21
10.9358308977
  0
LINE
  5
2E4
100
AcDbEntity
  8
0
100
AcDbLine
 62
7
  6
CONTINUOUS
 10
10.8699457727
 20
10.5823393574
 11
10.8848937861
 21
10.9350548968
  0
LWPOLYLINE
  5
2E5
100
AcDbEntity
  8
RACCORDO
100
AcDbPolyline
 62
250
  6
CONTINUOUS
 90
4
 70
0
 10
10.0182640812
 20
6.793475582
 10
10.0206107476
 20
6.8378166183
 10
10.0309952655
 20
6.8999940354
 10
10.0488865328
 20
6.9594924968
  0
LWPOLYLINE
  5
2E6
100
AcDbEntity
  8
RACCORDO
100
AcDbPolyline
 62
250
  6
CONTINUOUS
 90
9
 70
0
 10
8.9153830502
 20
-14.6095860537
 10
8.914812794
 20
-14.6202174493
 10
8.911181872
 20
-14.6384293226
 10
8.9042377654
 20
-14.6563176377
 10
8.8940582536
 20
-14.6736820314
 10
8.8807573551
 20
-14.6903280084
 10
8.8644840506
 20
-14.7060691204
 10
8.8454206139
 20
-14.7207290542
 10
8.8237805709
 20
-14.7341436068
  0
LWPOLYLINE
  5
2E7
100
AcDbEntity
  8
0
100
AcDbPolyline
 62
250
  6
CONTINUOUS
 90
3
 70
0
 10
10.8160371075
 20
11.3297745506
 10
10.6799468047
 20
11.3064555613
 10
10.5460850402
 20
11.2790348689
  0
LWPOLYLINE
  5
2E8
100
AcDbEntity
  8
0
100
AcDbPolyline
 62
7
  6
CONTINUOUS
 90
7
 70
0
 10
12.1512463887
 20
10.9350677016
 10
12.17571409
 20
10.9387715237
 10
12.200118092
 20
10.942310004
 10
12.2244583948
 20
10.9456831425
 10
12.2487349982
 20
10.9488909391
 10
12.2729479023
 20
10.9519333938
 10
12.2970971071
 20
10.9548105067
  0
LWPOLYLINE
  5
2E9
100
AcDbEntity
  8
0
100
AcDbPolyline
 62
7
  6
CONTINUOUS
 90
16
 70
0
 10
11.5182558911
 20
10.8852462031
 10
11.5589513941
 20
10.8911534417
 10
11.5997068836
 20
10.896652837
 10
11.6405973104
 20
10.9017805835
 10
11.6817889412
 20
10.9066124736
 10
11.723256013
 20
10.9111202475
 10
11.7647153887
 20
10.9152051501
 10
11.8060654118
 20
10.9189369238
 10
11.8473772003
 20
10.9223484473
 10
11.8885214227
 20
10.9253259553
 10
11.9294036527
 20
10.9279452848
 10
11.9699952787
 20
10.9302616695
 10
12.0101953202
 20
10.9321500204
 10
12.049900981
 20
10.9336225833
 10
12.0890401941
 20
10.9348228252
 10
12.1275339025
 20
10.9358308997
  0
LINE
  5
2EA
100
AcDbEntity
  8
0
100
AcDbLine
 62
250
  6
CONTINUOUS
 10
10.954046218
 20
11.3489430545
 11
10.9391223331
 21
11.34737769
  0
LINE
  5
2EB
100
AcDbEntity
  8
0
100
AcDbLine
 62
250
  6
CONTINUOUS
 10
11.0936153938
 20
11.3639112627
 11
11.091358878
 21
11.3639452378
  0
LWPOLYLINE
  5
2EC
100
AcDbEntity
  8
RACCORDO
100
AcDbPolyline
 62
250
  6
CONTINUOUS
 90
19
 70
0
 10
10.4429588293
 20
6.2414415449
 10
10.3198718987
 20
6.2915854461
 10
10.202891388
 20
6.3470169907
 10
10.0939834569
 20
6.4068055805
 10
9.993282295
 20
6.4710268448
 10
9.9006537128
 20
6.5396051545
 10
9.817661302
 20
6.611383024
 10
9.7444710016
 20
6.686411098
 10
9.6809168727
 20
6.764638732
 10
9.6280646894
 20
6.8447565066
 10
9.5860911185
 20
6.9267937707
 10
9.5548194933
 20
7.0107211755
 10
9.5347855882
 20
7.0951412552
 10
9.52650582
 20
7.1805766276
 10
9.5294637719
 20
7.2665046749
 10
9.5426459681
 20
7.3499600779
 10
9.5659899233
 20
7.4298272782
 10
9.5995581229
 20
7.5072218342
 10
9.6360323403
 20
7.5711468143
  0
LINE
  5
2ED
100
AcDbEntity
  8
0
100
AcDbLine
 62
7
  6
CONTINUOUS
 10
11.5182559547
 20
0.9175458615
 11
10.8002516304
 21
1.8444376784
  0
LINE
  5
2EE
100
AcDbEntity
  8
0
100
AcDbLine
 62
7
  6
CONTINUOUS
 10
10.3353605827
 20
2.2690444972
 11
10.3273403189
 21
2.292437184
  0
LWPOLYLINE
  5
2EF
100
AcDbEntity
  8
RACCORDO
100
AcDbPolyline
 62
7
  6
CONTINUOUS
 90
7
 70
0
 10
9.0434843295
 20
1.5496490833
 10
9.0435776965
 20
1.5491889752
 10
9.0436884589
 20
1.5486925076
 10
9.0438166168
 20
1.5481596805
 10
9.0439621702
 20
1.5475904939
 10
9.0441251191
 20
1.5469849479
 10
9.0443054634
 20
1.5463430424
  0
LWPOLYLINE
  5
2F0
100
AcDbEntity
  8
0
100
AcDbPolyline
 62
250
  6
CONTINUOUS
 90
45
 70
0
 10
8.7220932264
 20
8.7526971368
 10
8.733594587
 20
8.6683182908
 10
8.7527285157
 20
8.5844026188
 10
8.7794425815
 20
8.5011801014
 10
8.8136635615
 20
8.4188788738
 10
8.8552976262
 20
8.3377245826
 10
8.9042306081
 20
8.2579397202
 10
8.960328399
 20
8.1797429098
 10
9.0234373161
 20
8.1033483775
 10
9.0933844486
 20
8.0289654681
 10
9.1699780493
 20
7.9567981185
 10
9.2530081315
 20
7.8870441899
 10
9.3422470923
 20
7.8198948895
 10
9.437450353
 20
7.7555342517
 10
9.5383569678
 20
7.6941386848
 10
9.6446903579
 20
7.6358764702
 10
9.7561590705
 20
7.5809073008
 10
9.8724575776
 20
7.5293818433
 10
9.9932671428
 20
7.4814413143
 10
10.1182566066
 20
7.437217129
 10
10.2470832854
 20
7.3968305313
 10
10.3793939725
 20
7.3603922335
 10
10.5148260954
 20
7.3280020722
 10
10.6530086279
 20
7.2997487818
 10
10.7935629285
 20
7.2757097946
 10
10.9361036533
 20
7.2559510296
 10
11.0802399956
 20
7.2405266629
 10
11.2255768382
 20
7.2294789725
 10
11.3717158698
 20
7.2228382312
 10
11.5182565612
 20
7.2206226386
 10
11.6647972613
 20
7.2228382681
 10
11.8109363054
 20
7.2294790474
 10
11.9562731445
 20
7.2405267755
 10
12.1004094428
 20
7.2559511752
 10
12.2429501088
 20
7.2757099691
 10
12.383504389
 20
7.2997489895
 10
12.5216870022
 20
7.3280023355
 10
12.6571192372
 20
7.3603925677
 10
12.7894299284
 20
7.396830915
 10
12.9182564377
 20
7.4372175074
 10
13.0432456449
 20
7.4814416436
 10
13.1640549584
 20
7.5293821062
 10
13.2803532478
 20
7.580907492
 10
13.391821751
 20
7.6358765739
 10
13.498154942
 20
7.6941386851
  0
LWPOLYLINE
  5
2F1
100
AcDbEntity
  8
RACCORDO
100
AcDbPolyline
 62
7
  6
CONTINUOUS
 90
10
 70
0
 10
12.0898482383
 20
-14.1240975162
 10
12.0878380422
 20
-14.0894309684
 10
12.0817376674
 20
-14.0548128796
 10
12.0715179798
 20
-14.0208397964
 10
12.057263439
 20
-13.9881228903
 10
12.039164278
 20
-13.9572397982
 10
12.017462416
 20
-13.9286703275
 10
11.9923460414
 20
-13.9027502546
 10
11.9643015981
 20
-13.8800359974
 10
11.9398851375
 20
-13.8643112069
  0
LINE
  5
2F2
100
AcDbEntity
  8
RACCORDO
100
AcDbLine
 62
250
  6
CONTINUOUS
 10
10.6223365084
 20
-17.6665688212
 11
10.6223365084
 21
-16.439638362
  0
LINE
  5
2F3
100
AcDbEntity
  8
RACCORDO
100
AcDbLine
 62
7
  6
CONTINUOUS
 10
10.8420056605
 20
-16.2191336732
 11
10.8420056605
 21
-14.5959654659
  0
LINE
  5
2F4
100
AcDbEntity
  8
RACCORDO
100
AcDbLine
 62
250
  6
CONTINUOUS
 10
11.0538746532
 20
-17.6622196349
 11
11.0538746532
 21
-16.17426088
  0
LINE
  5
2F5
100
AcDbEntity
  8
0
100
AcDbLine
 62
7
  6
CONTINUOUS
 10
11.3787703513
 20
1.7498161214
 11
11.3787703513
 21
1.8314631491
  0
LINE
  5
2F6
100
AcDbEntity
  8
0
100
AcDbLine
 62
7
  6
CONTINUOUS
 10
11.5182559547
 20
10.233945392
 11
11.5182558911
 21
10.8852462031
  0
LINE
  5
2F7
100
AcDbEntity
  8
RACCORDO
100
AcDbLine
 62
250
  6
CONTINUOUS
 10
12.0092543488
 20
-14.2422307079
 11
12.0092543488
 21
-17.0507228777
  0
LINE
  5
2F8
100
AcDbEntity
  8
RACCORDO
100
AcDbLine
 62
7
  6
CONTINUOUS
 10
12.0898482383
 20
-14.1240975162
 11
12.0898482383
 21
-16.932589686
  0
LWPOLYLINE
  5
2F9
100
AcDbEntity
  8
RACCORDO
100
AcDbPolyline
 62
250
  6
CONTINUOUS
 90
7
 70
0
 10
11.0538746532
 20
-17.6622196349
 10
11.0524646703
 20
-17.6928755159
 10
11.0473276011
 20
-17.7209875456
 10
11.0385512743
 20
-17.746075092
 10
11.026285739
 20
-17.7677092324
 10
11.0107406994
 20
-17.7855200874
 10
10.9962684043
 20
-17.7967142133
  0
LINE
  5
2FA
100
AcDbEntity
  8
0
100
AcDbLine
 62
7
  6
CONTINUOUS
 10
11.3787703513
 20
1.8314631491
 11
11.4124392901
 21
2.1975978206
  0
LINE
  5
2FB
100
AcDbEntity
  8
0
100
AcDbLine
 62
7
  6
CONTINUOUS
 10
12.9674416124
 20
7.3608343667
 11
12.9615310234
 21
7.299369119
  0
LINE
  5
2FC
100
AcDbEntity
  8
0
100
AcDbLine
 62
7
  6
CONTINUOUS
 10
12.5266792358
 20
9.9873359943
 11
12.5045992025
 21
9.7875628316
  0
LINE
  5
2FD
100
AcDbEntity
  8
0
100
AcDbLine
 62
7
  6
CONTINUOUS
 10
12.5224855006
 20
10.0042118948
 11
12.4979022798
 21
9.7834706779
  0
LINE
  5
2FE
100
AcDbEntity
  8
0
100
AcDbLine
 62
7
  6
CONTINUOUS
 10
12.3310522358
 20
10.4159478597
 11
12.2532559547
 21
9.8095656037
  0
LWPOLYLINE
  5
2FF
100
AcDbEntity
  8
0
100
AcDbPolyline
 62
7
  6
CONTINUOUS
 90
47
 70
0
 10
12.9615310234
 20
7.299369119
 10
12.9499244887
 20
7.2382217224
 10
12.9326678145
 20
7.177598053
 10
12.9098291049
 20
7.1177019202
 10
12.8814984942
 20
7.0587342619
 10
12.8477877904
 20
7.0008923517
 10
12.8088300344
 20
6.9443690206
 10
12.7647789748
 20
6.8893518956
 10
12.715808461
 20
6.8360226595
 10
12.6621117574
 20
6.7845563336
 10
12.6039007803
 20
6.7351205873
 10
12.5414052619
 20
6.6878750761
 10
12.4748718435
 20
6.6429708118
 10
12.404563102
 20
6.6005495662
 10
12.3307565138
 20
6.5607433119
 10
12.2537433597
 20
6.5236737012
 10
12.1738275754
 20
6.4894515862
 10
12.0913245518
 20
6.4581765812
 10
12.0065598905
 20
6.4299366697
 10
11.9198681187
 20
6.4048078569
 10
11.831591369
 20
6.3828538701
 10
11.7420780292
 20
6.3641259069
 10
11.6516813674
 20
6.3486624334
 10
11.5607581376
 20
6.3364890321
 10
11.469667172
 20
6.3276183011
 10
11.3787679646
 20
6.3220498047
 10
11.288419253
 20
6.3197700743
 10
11.1989776017
 20
6.3207526624
 10
11.1107959959
 20
6.3249582466
 10
11.0242224477
 20
6.3323347847
 10
10.939598623
 20
6.3428177204
 10
10.857258493
 20
6.3563302376
 10
10.7775270163
 20
6.372783564
 10
10.7007188563
 20
6.3920773214
 10
10.6271371393
 20
6.4140999216
 10
10.5570722583
 20
6.4387290068
 10
10.4908007272
 20
6.4658319329
 10
10.428584089
 20
6.4952662925
 10
10.3706678841
 20
6.5268804771
 10
10.317280681
 20
6.5605142755
 10
10.2686331742
 20
6.5959995061
 10
10.2249173531
 20
6.6331606804
 10
10.1863057436
 20
6.6718156958
 10
10.152950728
 20
6.7117765542
 10
10.124983943
 20
6.7528501039
 10
10.1025157605
 20
6.7948388021
 10
10.0856348521
 20
6.8375414942
  0
LWPOLYLINE
  5
300
100
AcDbEntity
  8
0
100
AcDbPolyline
 62
7
  6
CONTINUOUS
 90
30
 70
0
 10
12.9615314414
 20
3.7069023988
 10
12.9499251832
 20
3.6457550022
 10
12.9326687866
 20
3.5851313218
 10
12.9098303547
 20
3.5252351668
 10
12.88150002
 20
3.466267475
 10
12.8477895894
 20
3.4084255204
 10
12.8088321021
 20
3.3519021338
 10
12.7647813055
 20
3.2968849424
 10
12.7158110476
 20
3.2435556293
 10
12.6621145914
 20
3.1920892161
 10
12.603903852
 20
3.1426533726
 10
12.5414085602
 20
3.0954077546
 10
12.474875356
 20
3.0505033744
 10
12.4045668154
 20
3.0080820043
 10
12.3307604137
 20
2.9682756174
 10
12.2537474306
 20
2.9312058667
 10
12.1738318009
 20
2.896983605
 10
12.0913289147
 20
2.8657084472
 10
12.0065643728
 20
2.8374683774
 10
11.9198727018
 20
2.8123394018
 10
11.8315960338
 20
2.7903852483
 10
11.742082756
 20
2.7716571154
 10
11.6516861363
 20
2.7561934699
 10
11.5607629283
 20
2.7440198953
 10
11.4696719642
 20
2.7351489905
 10
11.378772738
 20
2.7295803204
 10
11.2884239873
 20
2.7273004176
 10
11.1989822768
 20
2.7282828352
 10
11.1108005921
 20
2.7324882517
 10
11.0582790082
 20
2.7369632722
  0
LWPOLYLINE
  5
301
100
AcDbEntity
  8
0
100
AcDbPolyline
 62
7
  6
CONTINUOUS
 90
12
 70
0
 10
12.9615315135
 20
2.808785525
 10
12.9499252848
 20
2.747638063
 10
12.9326689035
 20
2.6870143162
 10
12.9098304725
 20
2.6271180945
 10
12.8815001243
 20
2.5681503368
 10
12.8477896659
 20
2.5103083174
 10
12.8088321368
 20
2.4537848683
 10
12.7647812845
 20
2.3987676175
 10
12.7158109575
 20
2.3454382486
 10
12.6621144193
 20
2.2939717841
 10
12.6039035857
 20
2.2445358945
 10
12.5414081884
 20
2.1972902364
  0
LINE
  5
302
100
AcDbEntity
  8
0
100
AcDbLine
 62
250
  6
CONTINUOUS
 10
11.2448733716
 20
11.3754723871
 11
11.2343736793
 21
11.3746378706
  0
LINE
  5
303
100
AcDbEntity
  8
0
100
AcDbLine
 62
7
  6
CONTINUOUS
 10
10.908978107
 20
10.9358308977
 11
10.8848937861
 21
10.9350548968
  0
LWPOLYLINE
  5
304
100
AcDbEntity
  8
0
100
AcDbPolyline
 62
7
  6
CONTINUOUS
 90
7
 70
0
 10
10.908978107
 20
10.9358308977
 10
10.9543430072
 20
10.9347335762
 10
10.9770684823
 20
10.9340406319
 10
10.9998127997
 20
10.9332327912
 10
11.0225627313
 20
10.9323097642
 10
11.0453005179
 20
10.9312874879
 10
11.067985607
 20
10.9301600336
  0
LINE
  5
305
100
AcDbEntity
  8
0
100
AcDbLine
 62
7
  6
CONTINUOUS
 10
12.1275339025
 20
10.9358308997
 11
12.1512463887
 21
10.9350677016
  0
LWPOLYLINE
  5
306
100
AcDbEntity
  8
0
100
AcDbPolyline
 62
7
  6
CONTINUOUS
 90
3
 70
0
 10
11.067985607
 20
10.9301600336
 10
11.1133573627
 20
10.9275815351
 10
11.1360388608
 20
10.9261299987
  0
LWPOLYLINE
  5
307
100
AcDbEntity
  8
0
100
AcDbPolyline
 62
7
  6
CONTINUOUS
 90
3
 70
0
 10
11.1360388608
 20
10.9261299987
 10
11.1818165529
 20
10.9228809815
 10
11.2051379607
 20
10.9210526529
  0
LWPOLYLINE
  5
308
100
AcDbEntity
  8
0
100
AcDbPolyline
 62
7
  6
CONTINUOUS
 90
3
 70
0
 10
11.2051379607
 20
10.9210526529
 10
11.2531007485
 20
10.9169410023
 10
11.2780964741
 20
10.9146027486
  0
LWPOLYLINE
  5
309
100
AcDbEntity
  8
0
100
AcDbPolyline
 62
7
  6
CONTINUOUS
 90
3
 70
0
 10
11.2780964741
 20
10.9146027486
 10
11.3305233621
 20
10.9092672729
 10
11.3583619999
 20
10.9061963467
  0
LWPOLYLINE
  5
30A
100
AcDbEntity
  8
0
100
AcDbPolyline
 62
7
  6
CONTINUOUS
 90
7
 70
0
 10
10.7394318202
 20
10.9548174548
 10
10.763536993
 20
10.9519345419
 10
10.7876975708
 20
10.9488872972
 10
10.8119135463
 20
10.9456757155
 10
10.8361849123
 20
10.9422997917
 10
10.8605116614
 20
10.9387595205
 10
10.8848937861
 20
10.9350548968
  0
LWPOLYLINE
  5
30B
100
AcDbEntity
  8
0
100
AcDbPolyline
 62
7
  6
CONTINUOUS
 90
5
 70
0
 10
11.3583619999
 20
10.9061963467
 10
11.417650842
 20
10.8990851968
 10
11.4498172119
 20
10.8950406359
 10
11.4833889138
 20
10.8904694583
 10
11.5182558911
 20
10.8852462031
  0
LINE
  5
30C
100
AcDbEntity
  8
0
100
AcDbLine
 62
7
  6
CONTINUOUS
 10
10.0856348521
 20
6.8375414942
 11
10.0744078388
 21
6.8807542076
  0
LINE
  5
30D
100
AcDbEntity
  8
0
100
AcDbLine
 62
7
  6
CONTINUOUS
 10
10.7832559547
 20
9.8095656037
 11
10.7054596736
 21
10.4159478563
  0
LWPOLYLINE
  5
30E
100
AcDbEntity
  8
0
100
AcDbPolyline
 62
7
  6
CONTINUOUS
 90
3
 70
0
 10
10.0744078388
 20
6.8807542076
 10
10.0688790284
 20
6.9242709573
 10
10.0682559547
 20
6.9446212591
  0
LINE
  5
30F
100
AcDbEntity
  8
0
100
AcDbLine
 62
7
  6
CONTINUOUS
 10
10.5385985649
 20
9.7835702344
 11
10.5140264386
 21
10.0042119678
  0
LINE
  5
310
100
AcDbEntity
  8
0
100
AcDbLine
 62
7
  6
CONTINUOUS
 10
10.5317963544
 20
9.7878061931
 11
10.5097670373
 21
9.9870706582
  0
LWPOLYLINE
  5
311
100
AcDbEntity
  8
0
100
AcDbPolyline
 62
7
  6
CONTINUOUS
 90
3
 70
0
 10
12.1512463887
 20
10.9350677016
 10
12.1536521954
 20
10.8762511305
 10
12.1665661344
 20
10.5823393632
  0
LINE
  5
312
100
AcDbEntity
  8
0
100
AcDbLine
 62
7
  6
CONTINUOUS
 10
12.1275339025
 20
10.9358308997
 11
12.1428319981
 21
10.5441636334
  0
LINE
  5
313
100
AcDbEntity
  8
RACCORDO
100
AcDbLine
 62
250
  6
CONTINUOUS
 10
13.0182447261
 20
6.7455969146
 11
13.0182559547
 21
6.7423398029
  0
LINE
  5
314
100
AcDbEntity
  8
0
100
AcDbLine
 62
7
  6
CONTINUOUS
 10
12.6182559547
 20
6.6656647097
 11
12.6182559547
 21
6.6605486153
  0
LINE
  5
315
100
AcDbEntity
  8
0
100
AcDbLine
 62
7
  6
CONTINUOUS
 10
12.6182559547
 20
3.0731949601
 11
12.6182559547
 21
3.0680793074
  0
LINE
  5
316
100
AcDbEntity
  8
0
100
AcDbLine
 62
7
  6
CONTINUOUS
 10
12.9682559547
 20
2.8214460128
 11
12.9682559547
 21
2.9030930405
  0
LINE
  5
317
100
AcDbEntity
  8
0
100
AcDbLine
 62
7
  6
CONTINUOUS
 10
12.9682559547
 20
3.7195634073
 11
12.9682559547
 21
3.801210435
  0
LINE
  5
318
100
AcDbEntity
  8
0
100
AcDbLine
 62
7
  6
CONTINUOUS
 10
12.9682559547
 20
7.312033048
 11
12.9682559547
 21
7.3778708166
  0
LINE
  5
319
100
AcDbEntity
  8
0
100
AcDbLine
 62
7
  6
CONTINUOUS
 10
12.967860247
 20
7.3777195884
 11
12.9674416124
 21
7.3608343667
  0
LWPOLYLINE
  5
31A
100
AcDbEntity
  8
0
100
AcDbPolyline
 62
7
  6
CONTINUOUS
 90
12
 70
0
 10
12.9682559547
 20
7.312033048
 10
12.9674416124
 20
7.279187339
 10
12.9615310234
 20
7.2177220913
 10
12.9499244887
 20
7.1565746947
 10
12.9326678145
 20
7.0959510254
 10
12.9098291049
 20
7.0360548925
 10
12.8814984942
 20
6.9770872342
 10
12.8477877904
 20
6.919245324
 10
12.8088300344
 20
6.8627219929
 10
12.7647789748
 20
6.8077048679
 10
12.715808461
 20
6.7543756318
 10
12.6621117574
 20
6.7029093059
  0
LINE
  5
31B
100
AcDbEntity
  8
0
100
AcDbLine
 62
7
  6
CONTINUOUS
 10
12.9682559547
 20
3.801210435
 11
12.9674417568
 21
3.7683676356
  0
LWPOLYLINE
  5
31C
100
AcDbEntity
  8
0
100
AcDbPolyline
 62
7
  6
CONTINUOUS
 90
12
 70
0
 10
12.9682559547
 20
3.7195634073
 10
12.9674417568
 20
3.6867206079
 10
12.9615314414
 20
3.6252553711
 10
12.9499251832
 20
3.5641079745
 10
12.9326687866
 20
3.5034842941
 10
12.9098303547
 20
3.4435881391
 10
12.88150002
 20
3.3846204473
 10
12.8477895894
 20
3.3267784927
 10
12.8088321021
 20
3.2702551061
 10
12.7647813055
 20
3.2152379147
 10
12.7158110476
 20
3.1619086016
 10
12.6621145914
 20
3.1104421885
  0
LINE
  5
31D
100
AcDbEntity
  8
0
100
AcDbLine
 62
7
  6
CONTINUOUS
 10
12.9682559547
 20
2.9030930405
 11
12.9674417855
 21
2.8702508254
  0
LWPOLYLINE
  5
31E
100
AcDbEntity
  8
0
100
AcDbPolyline
 62
7
  6
CONTINUOUS
 90
28
 70
0
 10
12.9682559547
 20
2.8214460128
 10
12.9674417855
 20
2.7886037977
 10
12.9615315135
 20
2.7271384973
 10
12.9499252848
 20
2.6659910353
 10
12.9326689035
 20
2.6053672885
 10
12.9098304725
 20
2.5454710669
 10
12.8815001243
 20
2.4865033091
 10
12.8477896659
 20
2.4286612898
 10
12.8088321368
 20
2.3721378407
 10
12.7647812845
 20
2.3171205898
 10
12.7158109575
 20
2.2637912209
 10
12.6621144193
 20
2.2123247564
 10
12.6039035857
 20
2.1628888668
 10
12.5414081884
 20
2.1156432087
 10
12.4748748683
 20
2.070738795
 10
12.4045662021
 20
2.0283173986
 10
12.3307596664
 20
1.9885109933
 10
12.253746542
 20
1.9514412326
 10
12.1738307651
 20
1.9172189697
 10
12.091327727
 20
1.88594382
 10
12.0065630301
 20
1.857703768
 10
11.9198712023
 20
1.8325748201
 10
11.8315943774
 20
1.8106207045
 10
11.7420809442
 20
1.7918926198
 10
11.651684172
 20
1.776429033
 10
11.5607608163
 20
1.7642555274
 10
11.4696697108
 20
1.755384702
 10
11.3787703513
 20
1.7498161214
  0
LWPOLYLINE
  5
31F
100
AcDbEntity
  8
RACCORDO
100
AcDbPolyline
 62
250
  6
CONTINUOUS
 90
9
 70
0
 10
12.0092543488
 20
-17.0507228777
 10
12.0084162289
 20
-17.0755526718
 10
12.0051629609
 20
-17.0987957878
 10
11.9995324667
 20
-17.1201968108
 10
11.9915941919
 20
-17.1395103066
 10
11.9814349066
 20
-17.1565382884
 10
11.9691448948
 20
-17.1711185125
 10
11.9548189143
 20
-17.1831006643
 10
11.9515864378
 20
-17.1852569661
  0
LWPOLYLINE
  5
320
100
AcDbEntity
  8
0
100
AcDbPolyline
 62
7
  6
CONTINUOUS
 90
16
 70
0
 10
14.3182559547
 20
8.8373075464
 10
14.314492746
 20
8.7477405355
 10
14.3031205326
 20
8.6578992835
 10
14.2840375961
 20
8.5681001667
 10
14.2571853701
 20
8.4786963552
 10
14.2225148364
 20
8.3899594437
 10
14.1799425289
 20
8.3020637062
 10
14.1293334517
 20
8.21513263
 10
14.0707426474
 20
8.1296063947
 10
14.0044427761
 20
8.0460750815
 10
13.9304961923
 20
7.9647324047
 10
13.8490312293
 20
7.8858319138
 10
13.760629474
 20
7.8099682473
 10
13.6656914983
 20
7.7374315439
 10
13.564312747
 20
7.6682534263
 10
13.4567384179
 20
7.6025913129
  0
LWPOLYLINE
  5
321
100
AcDbEntity
  8
0
100
AcDbPolyline
 62
7
  6
CONTINUOUS
 90
9
 70
0
 10
12.6182559547
 20
6.6605486153
 10
12.6163027055
 20
6.6141966289
 10
12.6097382299
 20
6.563863166
 10
12.5984835314
 20
6.5135254013
 10
12.5824058891
 20
6.4631292331
 10
12.5615251011
 20
6.4131085038
 10
12.5360005647
 20
6.3639370185
 10
12.5059250317
 20
6.3157805867
 10
12.4914039503
 20
6.2960168223
  0
LWPOLYLINE
  5
322
100
AcDbEntity
  8
0
100
AcDbPolyline
 62
7
  6
CONTINUOUS
 90
13
 70
0
 10
12.6182559547
 20
3.0680793074
 10
12.6162242126
 20
3.0208057953
 10
12.609508449
 20
2.9701023028
 10
12.598054195
 20
2.9194795078
 10
12.5817870176
 20
2.8689847005
 10
12.5607309603
 20
2.8189481044
 10
12.5350774251
 20
2.769856808
 10
12.5049618661
 20
2.7218962514
 10
12.4705234958
 20
2.6752193777
 10
12.4321401915
 20
2.6302205057
 10
12.3901332634
 20
2.5871023303
 10
12.3446908289
 20
2.5458988714
 10
12.296073414
 20
2.5067126745
  0
LWPOLYLINE
  5
323
100
AcDbEntity
  8
RACCORDO
100
AcDbPolyline
 62
7
  6
CONTINUOUS
 90
7
 70
0
 10
13.0182345145
 20
6.7456323379
 10
13.0168714513
 20
6.7226282189
 10
13.0108412876
 20
6.6962004423
 10
12.999299664
 20
6.6668376381
 10
12.9814537526
 20
6.6343696889
 10
12.956176875
 20
6.5985350818
 10
12.9227377501
 20
6.5599024964
  0
LWPOLYLINE
  5
324
100
AcDbEntity
  8
RACCORDO
100
AcDbPolyline
 62
7
  6
CONTINUOUS
 90
9
 70
0
 10
12.0898482372
 20
-16.9325745254
 10
12.0875670221
 20
-16.9695156357
 10
12.0804211112
 20
-17.0072047344
 10
12.0684769853
 20
-17.0437923001
 10
12.0518525931
 20
-17.0787188004
 10
12.0307329031
 20
-17.1114040542
 10
12.005425384
 20
-17.1412197274
 10
11.9763460867
 20
-17.1675759677
 10
11.9515864378
 20
-17.1852569661
  0
LWPOLYLINE
  5
325
100
AcDbEntity
  8
RACCORDO
100
AcDbPolyline
 62
250
  6
CONTINUOUS
 90
7
 70
0
 10
12.0898482383
 20
-16.932589686
 10
12.0881161874
 20
-16.9511760977
 10
12.0815196895
 20
-16.9731211535
 10
12.0701043007
 20
-16.9943904837
 10
12.0540645824
 20
-17.0146309869
 10
12.0336679379
 20
-17.0335119185
 10
12.0092543488
 20
-17.0507228777
  0
LINE
  5
326
100
AcDbEntity
  8
0
100
AcDbLine
 62
7
  6
CONTINUOUS
 10
12.9674417568
 20
3.7683676356
 11
12.9615314414
 21
3.7069023988
  0
LINE
  5
327
100
AcDbEntity
  8
0
100
AcDbLine
 62
7
  6
CONTINUOUS
 10
12.9674417855
 20
2.8702508254
 11
12.9615315135
 21
2.808785525
  0
LWPOLYLINE
  5
328
100
AcDbEntity
  8
RACCORDO
100
AcDbPolyline
 62
7
  6
CONTINUOUS
 90
13
 70
0
 10
10.8420056605
 20
-14.5959654659
 10
10.8473534596
 20
-14.5590451374
 10
10.8488073154
 20
-14.5208809416
 10
10.8464323695
 20
-14.482181048
 10
10.8403902589
 20
-14.4437506552
 10
10.8308617935
 20
-14.4061271064
 10
10.8179341027
 20
-14.3695938966
 10
10.8017619964
 20
-14.3347091299
 10
10.7826398011
 20
-14.3021322376
 10
10.7608183416
 20
-14.2723097459
 10
10.7366059349
 20
-14.2457603267
 10
10.7103976937
 20
-14.223031879
 10
10.6826156789
 20
-14.2045750721
  0
LWPOLYLINE
  5
329
100
AcDbEntity
  8
0
100
AcDbPolyline
 62
250
  6
CONTINUOUS
 90
9
 70
0
 10
12.4896900019
 20
11.2791984308
 10
12.3558703444
 20
11.3065860788
 10
12.219736177
 20
11.3298889758
 10
12.0816691275
 20
11.3490409458
 10
11.9420610619
 20
11.3639877676
 10
11.8013044859
 20
11.3746885354
 10
11.6597779153
 20
11.3811155811
 10
11.5178571387
 20
11.3832519497
 10
11.3759224827
 20
11.3810909921
  0
LINE
  5
32A
100
AcDbEntity
  8
0
100
AcDbLine
 62
7
  6
CONTINUOUS
 10
12.1516181319
 20
9.7704771711
 11
12.1275338025
 21
9.7761718244
  0
LWPOLYLINE
  5
32B
100
AcDbEntity
  8
0
100
AcDbPolyline
 62
7
  6
CONTINUOUS
 90
3
 70
0
 10
11.6188610675
 20
9.9219705437
 10
11.5531229956
 20
9.9379587627
 10
11.5182560184
 20
9.9466495378
  0
LINE
  5
32C
100
AcDbEntity
  8
0
100
AcDbLine
 62
7
  6
CONTINUOUS
 10
11.6493021232
 20
9.9143412632
 11
11.6188610675
 21
9.9219705437
  0
LINE
  5
32D
100
AcDbEntity
  8
0
100
AcDbLine
 62
7
  6
CONTINUOUS
 10
11.7327784997
 20
9.8925422288
 11
11.6493021232
 21
9.9143412632
  0
LINE
  5
32E
100
AcDbEntity
  8
0
100
AcDbLine
 62
7
  6
CONTINUOUS
 10
11.8077578426
 20
9.8721672015
 11
11.7327784997
 21
9.8925422288
  0
LINE
  5
32F
100
AcDbEntity
  8
0
100
AcDbLine
 62
7
  6
CONTINUOUS
 10
11.8777540276
 20
9.8524389302
 11
11.8077578426
 21
9.8721672015
  0
LINE
  5
330
100
AcDbEntity
  8
0
100
AcDbLine
 62
7
  6
CONTINUOUS
 10
11.9231545467
 20
9.8392547534
 11
11.8777540276
 21
9.8524389302
  0
LINE
  5
331
100
AcDbEntity
  8
0
100
AcDbLine
 62
7
  6
CONTINUOUS
 10
11.9685263024
 20
9.8257954398
 11
11.9231545467
 21
9.8392547534
  0
LINE
  5
332
100
AcDbEntity
  8
0
100
AcDbLine
 62
7
  6
CONTINUOUS
 10
12.0139491781
 20
9.8120197944
 11
11.9685263024
 21
9.8257954398
  0
LINE
  5
333
100
AcDbEntity
  8
0
100
AcDbLine
 62
7
  6
CONTINUOUS
 10
12.0594434271
 20
9.7978989038
 11
12.0139491781
 21
9.8120197944
  0
LWPOLYLINE
  5
334
100
AcDbEntity
  8
0
100
AcDbPolyline
 62
7
  6
CONTINUOUS
 90
3
 70
0
 10
12.1275338025
 20
9.7761718244
 10
12.1048689141
 20
9.7835088451
 10
12.0594434271
 20
9.7978989038
  0
LWPOLYLINE
  5
335
100
AcDbEntity
  8
RACCORDO
100
AcDbPolyline
 62
250
  6
CONTINUOUS
 90
7
 70
0
 10
16.4151991854
 20
7.8065099105
 10
16.3955849185
 20
7.8151971457
 10
16.3727741741
 20
7.8199265526
 10
16.3483138733
 20
7.8200521414
 10
16.322702014
 20
7.8156777858
 10
16.2963294983
 20
7.8069702524
 10
16.2696372253
 20
7.7941573389
  0
LWPOLYLINE
  5
336
100
AcDbEntity
  8
0
100
AcDbPolyline
 62
7
  6
CONTINUOUS
 90
9
 70
0
 10
12.8371009399
 20
3.3112703399
 10
12.8502045193
 20
3.2920563125
 10
12.8835598093
 20
3.2341331135
 10
12.9115268639
 20
3.175097211
 10
12.9339953095
 20
3.1151461482
 10
12.9508764728
 20
3.0544810802
 10
12.9621037314
 20
2.9933059798
 10
12.967632776
 20
2.931826833
 10
12.9682559547
 20
2.9030930405
  0
LINE
  5
337
100
AcDbEntity
  8
0
100
AcDbLine
 62
7
  6
CONTINUOUS
 10
10.5140264088
 20
10.7077907968
 11
10.5098326736
 21
10.7182974809
  0
LINE
  5
338
100
AcDbEntity
  8
0
100
AcDbLine
 62
7
  6
CONTINUOUS
 10
10.8699697244
 20
10.5823582205
 11
10.7394318202
 21
10.9548174548
  0
LWPOLYLINE
  5
339
100
AcDbEntity
  8
0
100
AcDbPolyline
 62
7
  6
CONTINUOUS
 90
4
 70
0
 10
12.9615480133
 20
3.8944512232
 10
12.9621038296
 20
3.8914226711
 10
12.9676328042
 20
3.8299435821
 10
12.9682559547
 20
3.801210435
  0
LWPOLYLINE
  5
33A
100
AcDbEntity
  8
0
100
AcDbPolyline
 62
7
  6
CONTINUOUS
 90
43
 70
0
 10
14.3182559547
 20
9.6822303356
 10
14.3142168789
 20
9.7750192261
 10
14.3019995311
 20
9.8681414171
 10
14.2814791113
 20
9.9612440115
 10
14.2525478069
 20
10.0540237949
 10
14.2151577557
 20
10.1460831011
 10
14.1693503885
 20
10.2369624814
 10
14.1151330821
 20
10.3263862518
 10
14.0525552995
 20
10.4140465764
 10
13.9818175846
 20
10.4995046508
 10
13.9029470993
 20
10.5825970403
 10
13.8161305149
 20
10.6629993329
 10
13.7219824405
 20
10.7401045536
 10
13.620807218
 20
10.8136934679
 10
13.5128290301
 20
10.8836211695
 10
13.3987595545
 20
10.9494730531
 10
13.2790874467
 20
11.0110550924
 10
13.1540769341
 20
11.0683071639
 10
13.0242314807
 20
11.1210627995
 10
12.8900128698
 20
11.169201741
 10
12.7517952527
 20
11.2126492397
 10
12.6100018858
 20
11.2513212391
 10
12.4650900186
 20
11.2851370813
 10
12.3174836822
 20
11.3140368072
 10
12.167579606
 20
11.3379733129
 10
12.015830872
 20
11.3568982302
 10
11.8626916277
 20
11.3707754025
 10
11.7085713046
 20
11.3795824599
 10
11.5539252529
 20
11.3833024882
 10
11.3992175174
 20
11.3819305657
 10
11.2448733716
 20
11.3754723871
 10
11.091358878
 20
11.3639452378
 10
10.9391223331
 20
11.34737769
 10
10.7885569252
 20
11.3258010047
 10
10.640098604
 20
11.2992590531
 10
10.4942059869
 20
11.267811649
 10
10.351291571
 20
11.2315208708
 10
10.2117754961
 20
11.1904598861
 10
10.0760940271
 20
11.1447184696
 10
9.9446561348
 20
11.0943904275
 10
9.8178585686
 20
11.0395758437
 10
9.6961004775
 20
10.9803872184
 10
9.5797734915
 20
10.9169465765
  0
LINE
  5
33B
100
AcDbEntity
  8
0
100
AcDbLine
 62
7
  6
CONTINUOUS
 10
14.3182559547
 20
9.682230343
 11
14.3182559547
 21
8.8373075464
  0
LWPOLYLINE
  5
33C
100
AcDbEntity
  8
RACCORDO
100
AcDbPolyline
 62
250
  6
CONTINUOUS
 90
7
 70
0
 10
16.5651946671
 20
7.5467048981
 10
16.562842447
 20
7.5250563395
 10
16.5554396027
 20
7.5028923453
 10
16.5432042845
 20
7.4816093515
 10
16.5264774734
 20
7.4615891036
 10
16.5056012959
 20
7.443088936
 10
16.4809966072
 20
7.426378787
  0
LWPOLYLINE
  5
33D
100
AcDbEntity
  8
RACCORDO
100
AcDbPolyline
 62
7
  6
CONTINUOUS
 90
5
 70
0
 10
-12.0638087838
 20
15.5615215034
 10
-12.0388638389
 20
15.5612843919
 10
-12.0125758105
 20
15.5563927641
 10
-11.9853796902
 20
15.5469625157
 10
-11.9577344122
 20
15.5331869218
  0
LWPOLYLINE
  5
33E
100
AcDbEntity
  8
TRASH
100
AcDbPolyline
 62
7
  6
CONTINUOUS
 90
6
 70
0
 10
12.1428269666
 20
10.5441606075
 10
12.1869007908
 20
10.5267914858
 10
12.2295417738
 20
10.5082503435
 10
12.2706559512
 20
10.4885761972
 10
12.3101460797
 20
10.4678127525
 10
12.3479315944
 20
10.4460021775
  0
LWPOLYLINE
  5
33F
100
AcDbEntity
  8
0
100
AcDbPolyline
 62
7
  6
CONTINUOUS
 90
7
 70
0
 10
10.5098326736
 20
10.7182974809
 10
10.4949681747
 20
10.7266655437
 10
10.4798500774
 20
10.7350372723
 10
10.4644783819
 20
10.7434126665
 10
10.4488530881
 20
10.7517917264
 10
10.432974196
 20
10.7601744521
 10
10.4168417056
 20
10.7685608434
  0
LWPOLYLINE
  5
340
100
AcDbEntity
  8
TRASH
100
AcDbPolyline
 62
7
  6
CONTINUOUS
 90
16
 70
0
 10
10.8936849428
 20
10.5441606075
 10
10.946777266
 20
10.5137682056
 10
10.9978192673
 20
10.4848735881
 10
11.0468720758
 20
10.4575033912
 10
11.0940266022
 20
10.4317773061
 10
11.1393633603
 20
10.4076373252
 10
11.1829366279
 20
10.3848541964
 10
11.2248007416
 20
10.3634961886
 10
11.2651375975
 20
10.3435784123
 10
11.3041624878
 20
10.3247904209
 10
11.3419780662
 20
10.3071294141
 10
11.378718931
 20
10.2906511008
 10
11.4145950857
 20
10.2751143403
 10
11.4497400422
 20
10.2604400204
 10
11.4842479194
 20
10.2467175147
 10
11.5182493452
 20
10.2339434243
  0
LINE
  5
341
100
AcDbEntity
  8
RACCORDO
100
AcDbLine
 62
250
  6
CONTINUOUS
 10
-4.2551059861
 20
19.6448868337
 11
10.3281356886
 21
11.2247058617
  0
LINE
  5
342
100
AcDbEntity
  8
RACCORDO
100
AcDbLine
 62
250
  6
CONTINUOUS
 10
14.3182559547
 20
8.920860428
 11
16.2696372253
 21
7.7941573389
  0
LINE
  5
343
100
AcDbEntity
  8
RACCORDO
100
AcDbLine
 62
7
  6
CONTINUOUS
 10
-4.1095412962
 20
19.6572378292
 11
10.4429688986
 21
11.2548008285
  0
LINE
  5
344
100
AcDbEntity
  8
RACCORDO
100
AcDbLine
 62
7
  6
CONTINUOUS
 10
14.3182559547
 20
9.0172586511
 11
16.4152019152
 21
7.8065083345
  0
LINE
  5
345
100
AcDbEntity
  8
0
100
AcDbLine
 62
7
  6
CONTINUOUS
 10
12.2003270014
 20
9.7416807061
 11
12.1516181319
 21
9.7704771711
  0
LINE
  5
346
100
AcDbEntity
  8
0
100
AcDbLine
 62
7
  6
CONTINUOUS
 10
12.2488143411
 20
9.7124943328
 11
12.2003270014
 21
9.7416807061
  0
LINE
  5
347
100
AcDbEntity
  8
0
100
AcDbLine
 62
7
  6
CONTINUOUS
 10
12.2970800922
 20
9.6829179929
 11
12.2488143411
 21
9.7124943328
  0
LWPOLYLINE
  5
348
100
AcDbEntity
  8
RACCORDO
100
AcDbPolyline
 62
250
  6
CONTINUOUS
 90
13
 70
0
 10
16.2696372253
 20
7.7941573389
 10
16.2977603506
 20
7.7763274283
 10
16.3253265287
 20
7.7545704254
 10
16.3518643123
 20
7.7292584252
 10
16.376919851
 20
7.7008243104
 10
16.400064624
 20
7.6697543806
 10
16.4209027764
 20
7.6365800451
 10
16.4390779228
 20
7.6018686941
 10
16.4542792505
 20
7.566213953
 10
16.4662468019
 20
7.5302255664
 10
16.4747759081
 20
7.4945190061
 10
16.4797206985
 20
7.4597049466
 10
16.4809966072
 20
7.426378787
  0
LWPOLYLINE
  5
349
100
AcDbEntity
  8
RACCORDO
100
AcDbPolyline
 62
7
  6
CONTINUOUS
 90
9
 70
0
 10
16.4151991854
 20
7.8065099105
 10
16.4466381347
 20
7.7856154841
 10
16.475933828
 20
7.7602207197
 10
16.5017912863
 20
7.7311555414
 10
16.5237719833
 20
7.6988159483
 10
16.5414543751
 20
7.663668883
 10
16.5544384251
 20
7.6263167595
 10
16.562416214
 20
7.5874400436
 10
16.5651946671
 20
7.5467085388
  0
LWPOLYLINE
  5
34A
100
AcDbEntity
  8
0
100
AcDbPolyline
 62
7
  6
CONTINUOUS
 90
10
 70
0
 10
10.4168296714
 20
9.8691844294
 10
10.4470147219
 20
9.8454983382
 10
10.4787268392
 20
9.8224870406
 10
10.5119208172
 20
9.8001833393
 10
10.5465493376
 20
9.7786190286
 10
10.5825630369
 20
9.7578248486
 10
10.6199105773
 20
9.7378304418
 10
10.6585387195
 20
9.7186643102
 10
10.6983923984
 20
9.7003537756
 10
10.7394148023
 20
9.6829249397
  0
LWPOLYLINE
  5
34B
100
AcDbEntity
  8
0
100
AcDbPolyline
 62
7
  6
CONTINUOUS
 90
3
 70
0
 10
10.5401169494
 20
10.6700977513
 10
10.5229334788
 20
10.6948436458
 10
10.5140264088
 20
10.7077907968
  0
LINE
  5
34C
100
AcDbEntity
  8
0
100
AcDbLine
 62
7
  6
CONTINUOUS
 10
10.5482072034
 20
10.6582792941
 11
10.5401169494
 21
10.6700977513
  0
LWPOLYLINE
  5
34D
100
AcDbEntity
  8
0
100
AcDbPolyline
 62
7
  6
CONTINUOUS
 90
7
 70
0
 10
12.8371008675
 20
6.9037397984
 10
12.8502051384
 20
6.8845246996
 10
12.8835603042
 20
6.8266015326
 10
12.9115272436
 20
6.7675656683
 10
12.9339955841
 20
6.7076146496
 10
12.9508766533
 20
6.6469496309
 10
12.9590217672
 20
6.6025682379
  0
LINE
  5
34E
100
AcDbEntity
  8
0
100
AcDbLine
 62
7
  6
CONTINUOUS
 10
10.5707081861
 20
10.6248747041
 11
10.5482072034
 21
10.6582792941
  0
LWPOLYLINE
  5
34F
100
AcDbEntity
  8
RACCORDO
100
AcDbPolyline
 62
250
  6
CONTINUOUS
 90
7
 70
0
 10
12.9149732899
 20
7.0495458819
 10
12.9414526013
 20
7.0095151286
 10
12.973052682
 20
6.9481867048
 10
12.99641645
 20
6.8858320878
 10
13.0114119273
 20
6.8227776297
 10
13.0179628196
 20
6.7589849947
 10
13.0182447261
 20
6.7455969146
  0
LWPOLYLINE
  5
350
100
AcDbEntity
  8
RACCORDO
100
AcDbPolyline
 62
250
  6
CONTINUOUS
 90
16
 70
0
 10
13.3887090792
 20
7.5654983753
 10
13.4232557471
 20
7.513129637
 10
13.465229318
 20
7.4310923729
 10
13.4965009432
 20
7.3471649681
 10
13.5165348483
 20
7.2627448884
 10
13.5248146166
 20
7.1773095159
 10
13.5218566646
 20
7.0913814686
 10
13.5086744684
 20
7.0079260657
 10
13.485330513
 20
6.9280588654
 10
13.4517623132
 20
6.8506643095
 10
13.4087958899
 20
6.7753610419
 10
13.3572774319
 20
6.7021812736
 10
13.2963607504
 20
6.6310927937
 10
13.2243332991
 20
6.5616176138
 10
13.1406242293
 20
6.4935964043
 10
13.0458043899
 20
6.4271884947
  0
LWPOLYLINE
  5
351
100
AcDbEntity
  8
0
100
AcDbPolyline
 62
7
  6
CONTINUOUS
 90
3
 70
0
 10
10.6096826413
 20
10.5657645962
 10
10.5910446338
 20
10.5942121139
 10
10.5707081861
 20
10.6248747041
  0
LINE
  5
352
100
AcDbEntity
  8
0
100
AcDbLine
 62
7
  6
CONTINUOUS
 10
10.6658033401
 20
10.4785263292
 11
10.6096826413
 21
10.5657645962
  0
LINE
  5
353
100
AcDbEntity
  8
0
100
AcDbLine
 62
7
  6
CONTINUOUS
 10
10.7054596736
 20
10.4159478563
 11
10.6658033401
 21
10.4785263292
  0
LINE
  5
354
100
AcDbEntity
  8
TRASH
100
AcDbLine
 62
7
  6
CONTINUOUS
 10
10.8936799091
 20
10.5441636275
 11
10.8699457727
 21
10.5823393574
  0
LINE
  5
355
100
AcDbEntity
  8
0
100
AcDbLine
 62
7
  6
CONTINUOUS
 10
12.3872777633
 20
10.3068851001
 11
12.3982834819
 21
10.2844051581
  0
LINE
  5
356
100
AcDbEntity
  8
0
100
AcDbLine
 62
7
  6
CONTINUOUS
 10
12.3982834819
 20
10.2844051581
 11
12.4094292128
 21
10.2612136797
  0
LINE
  5
357
100
AcDbEntity
  8
0
100
AcDbLine
 62
7
  6
CONTINUOUS
 10
12.4094292128
 20
10.2612136797
 11
12.4209395522
 21
10.2369065604
  0
LWPOLYLINE
  5
358
100
AcDbEntity
  8
0
100
AcDbPolyline
 62
7
  6
CONTINUOUS
 90
3
 70
0
 10
12.4209395522
 20
10.2369065604
 10
12.4329001935
 20
10.2111842628
 10
12.4391174529
 20
10.1976446827
  0
LWPOLYLINE
  5
359
100
AcDbEntity
  8
0
100
AcDbPolyline
 62
7
  6
CONTINUOUS
 90
3
 70
0
 10
12.4391174529
 20
10.1976446827
 10
12.4520586873
 20
10.1690480092
 10
12.4588448481
 20
10.1538627114
  0
LWPOLYLINE
  5
35A
100
AcDbEntity
  8
0
100
AcDbPolyline
 62
7
  6
CONTINUOUS
 90
3
 70
0
 10
12.4588448481
 20
10.1538627114
 10
12.4730675245
 20
10.1215179311
 10
12.4805795444
 20
10.1042122382
  0
LWPOLYLINE
  5
35B
100
AcDbEntity
  8
0
100
AcDbPolyline
 62
7
  6
CONTINUOUS
 90
4
 70
0
 10
12.4805795444
 20
10.1042122382
 10
12.5048613694
 20
10.0471369392
 10
12.5135784306
 20
10.0261823316
 10
12.5224855006
 20
10.0042118948
  0
LINE
  5
35C
100
AcDbEntity
  8
0
100
AcDbLine
 62
7
  6
CONTINUOUS
 10
12.5266792358
 20
9.9873359943
 11
12.5224855006
 21
10.0042118948
  0
LINE
  5
35D
100
AcDbEntity
  8
RACCORDO
100
AcDbLine
 62
250
  6
CONTINUOUS
 10
16.4809966072
 20
7.426378787
 11
16.4809966072
 21
6.1343862332
  0
LINE
  5
35E
100
AcDbEntity
  8
RACCORDO
100
AcDbLine
 62
7
  6
CONTINUOUS
 10
16.5651946671
 20
7.5467048981
 11
16.5651946671
 21
6.2547123443
  0
LWPOLYLINE
  5
35F
100
AcDbEntity
  8
RACCORDO
100
AcDbPolyline
 62
250
  6
CONTINUOUS
 90
7
 70
0
 10
16.4809966072
 20
6.1343862332
 10
16.4793880636
 20
6.1035904033
 10
16.4741153211
 20
6.0753798111
 10
16.4652685805
 20
6.0502370541
 10
16.4529991827
 20
6.0285922486
 10
16.4375170196
 20
6.0108156714
 10
16.4210781529
 20
5.9983915709
  0
LWPOLYLINE
  5
360
100
AcDbEntity
  8
RACCORDO
100
AcDbPolyline
 62
250
  6
CONTINUOUS
 90
7
 70
0
 10
16.5651946671
 20
6.2547123443
 10
16.5628325944
 20
6.2330186729
 10
16.5554189275
 20
6.2108541553
 10
16.5431757965
 20
6.1895762517
 10
16.5264482874
 20
6.1695666884
 10
16.5055808814
 20
6.1510805938
 10
16.4809966072
 20
6.1343862332
  0
LINE
  5
361
100
AcDbEntity
  8
RACCORDO
100
AcDbLine
 62
250
  6
CONTINUOUS
 10
10.6826156789
 20
-14.2045750721
 11
11.8445067405
 21
-13.8558677495
  0
LINE
  5
362
100
AcDbEntity
  8
RACCORDO
100
AcDbLine
 62
250
  6
CONTINUOUS
 10
10.8420056605
 20
-14.5925459641
 11
12.0092543488
 21
-14.2422307079
  0
LWPOLYLINE
  5
363
100
AcDbEntity
  8
RACCORDO
100
AcDbPolyline
 62
250
  6
CONTINUOUS
 90
7
 70
0
 10
-4.1095412962
 20
19.6572378292
 10
-4.1291295426
 20
19.6659173672
 10
-4.1519391868
 20
19.6706529979
 10
-4.1764016607
 20
19.6707840037
 10
-4.2020192575
 20
19.6664128121
 10
-4.2284010856
 20
19.6577048742
 10
-4.2551059861
 20
19.6448868337
  0
LWPOLYLINE
  5
364
100
AcDbEntity
  8
0
100
AcDbPolyline
 62
7
  6
CONTINUOUS
 90
10
 70
0
 10
12.6196822349
 20
10.7685510196
 10
12.5894971846
 20
10.7922371104
 10
12.5577850676
 20
10.8152484077
 10
12.5245910898
 20
10.8375521087
 10
12.4899625698
 20
10.8591164191
 10
12.4539488708
 20
10.8799105988
 10
12.4166013307
 20
10.8999050054
 10
12.377973189
 20
10.9190711366
 10
12.3381195105
 20
10.937381671
 10
12.2970971071
 20
10.9548105067
  0
LWPOLYLINE
  5
365
100
AcDbEntity
  8
TRASH
100
AcDbPolyline
 62
7
  6
CONTINUOUS
 90
9
 70
0
 10
12.2532559543
 20
9.8095656035
 10
12.265559806
 20
9.7956144461
 10
12.2781371121
 20
9.7821555002
 10
12.2909936531
 20
9.7691137378
 10
12.3040386156
 20
9.7563952033
 10
12.3173447283
 20
9.7439631276
 10
12.3311383687
 20
9.7318165404
 10
12.3453476263
 20
9.7198706453
 10
12.358270534
 20
9.7094354516
  0
LWPOLYLINE
  5
366
100
AcDbEntity
  8
0
100
AcDbPolyline
 62
7
  6
CONTINUOUS
 90
3
 70
0
 10
12.5565741979
 20
9.9500330055
 10
12.5414889634
 20
9.9689450176
 10
12.5266792358
 20
9.9873359943
  0
LINE
  5
367
100
AcDbEntity
  8
0
100
AcDbLine
 62
7
  6
CONTINUOUS
 10
12.5875711872
 20
9.910645875
 11
12.5565741979
 21
9.9500330055
  0
LINE
  5
368
100
AcDbEntity
  8
0
100
AcDbLine
 62
7
  6
CONTINUOUS
 10
12.6196702038
 20
9.869174603
 11
12.5875711872
 21
9.910645875
  0
LINE
  5
369
100
AcDbEntity
  8
0
100
AcDbLine
 62
7
  6
CONTINUOUS
 10
12.3310522358
 20
10.4159478597
 11
12.336808077
 21
10.405247431
  0
LINE
  5
36A
100
AcDbEntity
  8
0
100
AcDbLine
 62
7
  6
CONTINUOUS
 10
12.336808077
 20
10.405247431
 11
12.3482065286
 21
10.3837145433
  0
LINE
  5
36B
100
AcDbEntity
  8
0
100
AcDbLine
 62
7
  6
CONTINUOUS
 10
12.3482065286
 20
10.3837145433
 11
12.3595246722
 21
10.3619581773
  0
LINE
  5
36C
100
AcDbEntity
  8
0
100
AcDbLine
 62
7
  6
CONTINUOUS
 10
12.3595246722
 20
10.3619581773
 11
12.3707085693
 21
10.3400496271
  0
LWPOLYLINE
  5
36D
100
AcDbEntity
  8
0
100
AcDbPolyline
 62
7
  6
CONTINUOUS
 90
3
 70
0
 10
12.3707085693
 20
10.3400496271
 10
12.3817888298
 20
10.3179783431
 10
12.3872777633
 20
10.3068851001
  0
LWPOLYLINE
  5
36E
100
AcDbEntity
  8
RACCORDO
100
AcDbPolyline
 62
250
  6
CONTINUOUS
 90
7
 70
0
 10
12.0092543488
 20
-14.2422307079
 10
12.0335751023
 20
-14.2250944775
 10
12.0539086557
 20
-14.2063060079
 10
12.0699223663
 20
-14.186172665
 10
12.081354261
 20
-14.1650238164
 10
12.0880173222
 20
-14.1432054424
 10
12.0898482383
 20
-14.1240975162
  0
LWPOLYLINE
  5
36F
100
AcDbEntity
  8
RACCORDO
100
AcDbPolyline
 62
250
  6
CONTINUOUS
 90
9
 70
0
 10
4.5105745605
 20
-19.6627945395
 10
4.5223521067
 20
-19.6555220406
 10
4.5365530675
 20
-19.6433356336
 10
4.5488669039
 20
-19.6284843581
 10
4.5591890844
 20
-19.6111465372
 10
4.5674114478
 20
-19.5915746942
 10
4.5734733568
 20
-19.5700290521
 10
4.5773485476
 20
-19.5467584309
 10
4.5790292527
 20
-19.5220357285
  0
LWPOLYLINE
  5
370
100
AcDbEntity
  8
RACCORDO
100
AcDbPolyline
 62
7
  6
CONTINUOUS
 90
7
 70
0
 10
10.9685256909
 20
-16.2353476637
 10
10.9955277105
 20
-16.2130354787
 10
11.0082253153
 20
-16.2026912135
 10
11.0204264363
 20
-16.1935639721
 10
11.0321333278
 20
-16.1858721403
 10
11.0432903121
 20
-16.1794315026
 10
11.0538746532
 20
-16.17426088
  0
LWPOLYLINE
  5
371
100
AcDbEntity
  8
RACCORDO
100
AcDbPolyline
 62
250
  6
CONTINUOUS
 90
16
 70
0
 10
11.0538746532
 20
-17.6622196349
 10
11.0306308996
 20
-17.6751423711
 10
11.00512262
 20
-17.6865469999
 10
10.9776459696
 20
-17.6963024962
 10
10.9485394592
 20
-17.704292297
 10
10.9181221408
 20
-17.7104322389
 10
10.8866820679
 20
-17.7146590025
 10
10.8544987621
 20
-17.716916163
 10
10.8220230173
 20
-17.7171535655
 10
10.7898100365
 20
-17.7153727127
 10
10.7582655928
 20
-17.711621474
 10
10.7277098683
 20
-17.7059636748
 10
10.6985428753
 20
-17.6985030115
 10
10.6710897038
 20
-17.6893626317
 10
10.6456054507
 20
-17.6786694208
 10
10.6223365084
 20
-17.6665688212
  0
LWPOLYLINE
  5
372
100
AcDbEntity
  8
RACCORDO
100
AcDbPolyline
 62
7
  6
CONTINUOUS
 90
9
 70
0
 10
10.8454788269
 20
-16.3220442419
 10
10.851012406
 20
-16.31906514
 10
10.8702906404
 20
-16.3078609249
 10
10.8887760121
 20
-16.2961839019
 10
10.9064372328
 20
-16.2841091528
 10
10.9232122226
 20
-16.271710773
 10
10.9391888173
 20
-16.259405795
 10
10.9542717219
 20
-16.2472697108
 10
10.9685256909
 20
-16.2353476637
  0
LINE
  5
373
100
AcDbEntity
  8
RACCORDO
100
AcDbLine
 62
250
  6
CONTINUOUS
 10
10.8420056605
 20
-16.2191336732
 11
4.5790292527
 21
-19.5220357285
  0
LINE
  5
374
100
AcDbEntity
  8
RACCORDO
100
AcDbLine
 62
7
  6
CONTINUOUS
 10
10.8454326025
 20
-16.3219843106
 11
4.5105745605
 21
-19.6627945395
  0
LWPOLYLINE
  5
375
100
AcDbEntity
  8
RACCORDO
100
AcDbPolyline
 62
250
  6
CONTINUOUS
 90
13
 70
0
 10
4.5790292527
 20
-19.5220357285
 10
4.5494291375
 20
-19.5365254533
 10
4.5168372609
 20
-19.5486878106
 10
4.4817989728
 20
-19.5583192914
 10
4.444900558
 20
-19.5652587352
 10
4.4067594261
 20
-19.5693900265
 10
4.3680137809
 20
-19.5706440375
 10
4.3293119412
 20
-19.5689997853
 10
4.291301493
 20
-19.5644847827
 10
4.2546184531
 20
-19.5571745778
 10
4.2198766275
 20
-19.5471914901
 10
4.1876573405
 20
-19.5347025633
 10
4.1584997072
 20
-19.5199167709
  0
LINE
  5
376
100
AcDbEntity
  8
RACCORDO
100
AcDbLine
 62
250
  6
CONTINUOUS
 10
12.0092543488
 20
-17.0507228777
 11
11.0538746532
 21
-17.6622196349
  0
LINE
  5
377
100
AcDbEntity
  8
RACCORDO
100
AcDbLine
 62
7
  6
CONTINUOUS
 10
11.9515744323
 20
-17.1852646515
 11
10.9961947367
 21
-17.7967614087
  0
ELLIPSE
  5
378
100
AcDbEntity
  8
RACCORDO
100
AcDbEllipse
 62
7
  6
CONTINUOUS
 10
14.7513544659
 20
-13.9229589696
 30
0.0
 11
3.9078788507
 21
2.3020300817
 31
0.0
 40
0.0465658316
 41
3.1141688068
 42
3.4449019148
  0
ENDSEC
  0
SECTION
  2
OBJECTS
  0
DICTIONARY
  5
C
100
AcDbDictionary
280
0
281
1
  3
ACAD_GROUP
350
D
  3
ACAD_MLINESTYLE
350
17
  3
ACAD_LAYOUT
350
1A
  3
ACAD_PLOTSETTINGS
350
19
  3
ACAD_PLOTSTYLENAME
350
E
  0
DICTIONARY
  5
D
102
{ACAD_REACTORS
330
C
102
}
100
AcDbDictionary
280
0
281
1
  0
ACDBDICTIONARYWDFLT
  5
E
102
{ACAD_REACTORS
330
C
102
}
100
AcDbDictionary
281
1
  3
Normal
350
F
100
AcDbDictionaryWithDefault
340
F
  0
DICTIONARY
  5
17
102
{ACAD_REACTORS
330
C
102
}
100
AcDbDictionary
280
0
281
1
  3
Standard
350
18
  0
DICTIONARY
  5
19
102
{ACAD_REACTORS
330
C
102
}
100
AcDbDictionary
281
1
  0
DICTIONARY
  5
1A
102
{ACAD_REACTORS
330
C
102
}
100
AcDbDictionary
281
1
  3
Model
350
379
  3
Layout1
350
37A
  0
ACDBPLACEHOLDER
  5
F
102
{ACAD_REACTORS
330
E
102
}
  0
MLINESTYLE
  5
18
102
{ACAD_REACTORS
330
17
102
}
100
AcDbMlineStyle
  2
STANDARD
 70
0
  3

 62
256
 51
90.0
 52
90.0
 71
2
 49
0.5
 62
256
  6
BYLAYER
 49
-0.5
 62
256
  6
BYLAYER
  0
LAYOUT
  5
379
102
{ACAD_REACTORS
330
1A
102
}
100
AcDbPlotSettings
  1

  2
none_device
  4
ISO_A4_(297.00_x_210.00_MM)
  6

 40
0.0
 41
0.0
 42
0.0
 43
0.0
 44
297.0
 45
210.0
 46
0.0
 47
0.0
 48
0.0
 49
0.0
140
0.0
141
0.0
142
1.0
143
1.0
 70
1024
 72
1
 73
0
 74
0
  7

 75
0
147
1.0
148
0.0
149
0.0
100
AcDbLayout
  1
Model
 70
0
 71
0
 10
0.0
 20
0.0
 11
297.0
 21
210.0
 12
0.0
 22
0.0
 32
0.0
 14
0.0
 24
0.0
 34
0.0
 15
0.0
 25
0.0
 35
0.0
146
0.0
 13
0.0
 23
0.0
 33
0.0
 16
1.0
 26
0.0
 36
0.0
 17
0.0
 27
1.0
 37
0.0
 76
0
330
213
345
0
346
0
  0
LAYOUT
  5
37A
102
{ACAD_REACTORS
330
1A
102
}
100
AcDbPlotSettings
  1

  2
none_device
  4
ISO_A4_(297.00_x_210.00_MM)
  6

 40
0.0
 41
0.0
 42
0.0
 43
0.0
 44
297.0
 45
210.0
 46
0.0
 47
0.0
 48
0.0
 49
0.0
140
0.0
141
0.0
142
1.0
143
1.0
 70
0
 72
1
 73
0
 74
0
  7

 75
0
147
1.0
148
0.0
149
0.0
100
AcDbLayout
  1
Layout1
 70
0
 71
1
 10
0.0
 20
0.0
 11
297.0
 21
210.0
 12
0.0
 22
0.0
 32
0.0
 14
0.0
 24
0.0
 34
0.0
 15
0.0
 25
0.0
 35
0.0
146
0.0
 13
0.0
 23
0.0
 33
0.0
 16
1.0
 26
0.0
 36
0.0
 17
0.0
 27
1.0
 37
0.0
 76
0
330
214
345
0
346
0
  0
ENDSEC
  0
EOF
