  0
SECTION
  2
HEADER
  9
$ACADVER
  1
AC1021
  9
$DWGCODEPAGE
  3
ANSI_1252
  9
$EXTMAX
 10
297.0
 20
210.0
 30
0.0
  9
$EXTMIN
 10
0.0
 20
0.0
 30
0.0
  9
$LIMMIN
 10
0.0
 20
0.0
  9
$LIMMAX
 10
297.0
 20
210.0
  9
$VIEWCTR
 10
148.5
 20
105.0
  9
$VIEWSIZE
 40
210.0
  9
$CLAYER
  8
0
  9
$LTSCALE
 40
16.335
  9
$CELTYPE
  6
BYLAYER
  9
$DIMSCALE
 40
1.0
  9
$DIMASZ
 40
3.0
  9
$DIMEXO
 40
0.5
  9
$DIMDLI
 40
11.286
  9
$DIMEXE
 40
1.5
  9
$DIMCEN
 40
2.673
  9
$DIMLFAC
 40
1.0
  9
$DIMBLK
  1
_FILLED
  9
$DIMALT
 70
0
  9
$DIMALTF
 40
25.4
  9
$DIMTXT
 40
3.0
  9
$DIMTOL
 70
1
  9
$DIMLIM
 70
0
  9
$DIMTFAC
 40
1.0
  9
$DIMTP
 40
0.01
  9
$DIMTM
 40
0.01
  9
$DIMGAP
 40
0.625
  9
$DIMDSEP
 70
44
  9
$AUNITS
 70
0
  9
$PDMODE
 70
3
  9
$PDSIZE
 40
3.0
  9
$HANDSEED
  5
2A3
  9
$TILEMODE
 70
1
  9
$MEASUREMENT
 70
1
  9
$INSUNITS
 70
4
  0
ENDSEC
  0
SECTION
  2
CLASSES
  0
CLASS
  1
ACDBDICTIONARYWDFLT
  2
AcDbDictionaryWithDefault
  3
AutoCAD 2000
 90
0
 91
1
280
0
281
0
  0
CLASS
  1
ACDBPLACEHOLDER
  2
AcDbPlaceHolder
  3
AutoCAD 2000
 90
0
 91
1
280
0
281
0
  0
CLASS
  1
LAYOUT
  2
AcDbLayout
  3
AutoCAD 2000
 90
0
 91
0
280
0
281
0
  0
ENDSEC
  0
SECTION
  2
TABLES
  0
TABLE
  2
VPORT
  5
8
100
AcDbSymbolTable
 70
2
  0
VPORT
  5
1F4
100
AcDbSymbolTableRecord
100
AcDbViewportTableRecord
  2
*ACTIVE
 70
0
 10
0.0
 20
0.0
 11
1.0
 21
1.0
 12
148.5
 22
105.0
 13
0.0
 23
0.0
 14
1.0
 24
1.0
 15
0.0
 25
0.0
 16
0.0
 26
0.0
 36
1.0
 17
0.0
 27
0.0
 37
0.0
 40
210.0
 41
1.4142857143
 42
50.0
 43
0.0
 44
0.0
 50
0.0
 51
0.0
 71
0
 72
100
 73
1
 74
1
 75
0
 76
0
 77
0
 78
0
  0
ENDTAB
  0
TABLE
  2
LTYPE
  5
5
100
AcDbSymbolTable
 70
6
  0
LTYPE
  5
14
100
AcDbSymbolTableRecord
100
AcDbLinetypeTableRecord
  2
BYBLOCK
 70
0
  3

 72
65
 73
0
 40
0.0
  0
LTYPE
  5
15
100
AcDbSymbolTableRecord
100
AcDbLinetypeTableRecord
  2
BYLAYER
 70
0
  3

 72
65
 73
0
 40
0.0
  0
LTYPE
  5
16
100
AcDbSymbolTableRecord
100
AcDbLinetypeTableRecord
  2
CONTINUOUS
 70
64
  3
Solid line
 72
65
 73
0
 40
0.0
  0
LTYPE
  5
1F5
100
AcDbSymbolTableRecord
100
AcDbLinetypeTableRecord
  2
CENTER
 70
64
  3
____ _ ____ _ ____ _ ____ _ ____ _ ____ _ ____
 72
65
 73
4
 40
0.6
 49
0.375
 74
0
 49
-0.075
 74
0
 49
0.075
 74
0
 49
-0.075
 74
0
  0
LTYPE
  5
1F6
100
AcDbSymbolTableRecord
100
AcDbLinetypeTableRecord
  2
HIDDEN
 70
64
  3
- - - - - - - - - - - - - - - - - - - -
 72
65
 73
2
 40
0.2
 49
0.1
 74
0
 49
-0.1
 74
0
  0
LTYPE
  5
1F7
100
AcDbSymbolTableRecord
100
AcDbLinetypeTableRecord
  2
PHANTOM
 70
64
  3
_____ _ _ _____ _ _ _____ _ _ _____
 72
65
 73
6
 40
0.8
 49
0.45
 74
0
 49
-0.05
 74
0
 49
0.1
 74
0
 49
-0.05
 74
0
 49
0.1
 74
0
 49
-0.05
 74
0
  0
LTYPE
  5
1F8
100
AcDbSymbolTableRecord
100
AcDbLinetypeTableRecord
  2
DOT
 70
64
  3
. . . . . . . . . . . . . . . . . . . .
 72
65
 73
2
 40
0.2
 49
0.1
 74
0
 49
-0.1
 74
0
  0
LTYPE
  5
1F9
100
AcDbSymbolTableRecord
100
AcDbLinetypeTableRecord
  2
DASHED
 70
64
  3
- - - - - - - - - - - - - - - - - - - -
 72
65
 73
2
 40
0.2
 49
0.1
 74
0
 49
-0.1
 74
0
  0
ENDTAB
  0
TABLE
  2
LAYER
  5
2
100
AcDbSymbolTable
 70
36
  0
LAYER
  5
10
100
AcDbSymbolTableRecord
100
AcDbLayerTableRecord
  2
0
 70
0
 62
7
  6
CONTINUOUS
370
-3
390
F
  0
LAYER
  5
1FA
100
AcDbSymbolTableRecord
100
AcDbLayerTableRecord
  2
DEFAULT_1
 70
0
 62
7
  6
CENTER
370
-3
390
F
  0
LAYER
  5
1FB
100
AcDbSymbolTableRecord
100
AcDbLayerTableRecord
  2
DEFAULT_2
 70
0
 62
7
  6
HIDDEN
370
-3
390
F
  0
LAYER
  5
1FC
100
AcDbSymbolTableRecord
100
AcDbLayerTableRecord
  2
DEFAULT_3
 70
0
 62
7
  6
PHANTOM
370
-3
390
F
  0
LAYER
  5
1FD
100
AcDbSymbolTableRecord
100
AcDbLayerTableRecord
  2
ASSI
 70
0
 62
7
  6
CONTINUOUS
370
-3
390
F
  0
LAYER
  5
1FE
100
AcDbSymbolTableRecord
100
AcDbLayerTableRecord
  2
COORDINATE
 70
0
 62
7
  6
CONTINUOUS
370
-3
390
F
  0
LAYER
  5
1FF
100
AcDbSymbolTableRecord
100
AcDbLayerTableRecord
  2
COORD_ORIGINE
 70
0
 62
7
  6
CONTINUOUS
370
-3
390
F
  0
LAYER
  5
200
100
AcDbSymbolTableRecord
100
AcDbLayerTableRecord
  2
COPY_PUBLISH
 70
0
 62
7
  6
CONTINUOUS
370
-3
390
F
  0
LAYER
  5
201
100
AcDbSymbolTableRecord
100
AcDbLayerTableRecord
  2
COSMETICHE
 70
0
 62
7
  6
CONTINUOUS
370
-3
390
F
  0
LAYER
  5
202
100
AcDbSymbolTableRecord
100
AcDbLayerTableRecord
  2
COSMETICI
 70
0
 62
7
  6
CONTINUOUS
370
-3
390
F
  0
LAYER
  5
203
100
AcDbSymbolTableRecord
100
AcDbLayerTableRecord
  2
CURVE
 70
0
 62
7
  6
CONTINUOUS
370
-3
390
F
  0
LAYER
  5
204
100
AcDbSymbolTableRecord
100
AcDbLayerTableRecord
  2
DRAFT
 70
0
 62
7
  6
CONTINUOUS
370
-3
390
F
  0
LAYER
  5
205
100
AcDbSymbolTableRecord
100
AcDbLayerTableRecord
  2
IMPORT_IGES
 70
0
 62
7
  6
CONTINUOUS
370
-3
390
F
  0
LAYER
  5
206
100
AcDbSymbolTableRecord
100
AcDbLayerTableRecord
  2
NOTE
 70
0
 62
7
  6
CONTINUOUS
370
-3
390
F
  0
LAYER
  5
207
100
AcDbSymbolTableRecord
100
AcDbLayerTableRecord
  2
PIANI
 70
0
 62
7
  6
CONTINUOUS
370
-3
390
F
  0
LAYER
  5
208
100
AcDbSymbolTableRecord
100
AcDbLayerTableRecord
  2
PIANI_ORIGINE
 70
0
 62
7
  6
CONTINUOUS
370
-3
390
F
  0
LAYER
  5
209
100
AcDbSymbolTableRecord
100
AcDbLayerTableRecord
  2
PUNTI
 70
0
 62
7
  6
CONTINUOUS
370
-3
390
F
  0
LAYER
  5
20A
100
AcDbSymbolTableRecord
100
AcDbLayerTableRecord
  2
RACCORDO
 70
0
 62
7
  6
CONTINUOUS
370
-3
390
F
  0
LAYER
  5
20B
100
AcDbSymbolTableRecord
100
AcDbLayerTableRecord
  2
SIMBOLI
 70
0
 62
7
  6
CONTINUOUS
370
-3
390
F
  0
LAYER
  5
20C
100
AcDbSymbolTableRecord
100
AcDbLayerTableRecord
  2
SMUSSO
 70
0
 62
7
  6
CONTINUOUS
370
-3
390
F
  0
LAYER
  5
20D
100
AcDbSymbolTableRecord
100
AcDbLayerTableRecord
  2
SNAPLINE
 70
0
 62
7
  6
CONTINUOUS
370
-3
390
F
  0
LAYER
  5
20E
100
AcDbSymbolTableRecord
100
AcDbLayerTableRecord
  2
SUPERFICI
 70
0
 62
7
  6
CONTINUOUS
370
-3
390
F
  0
LAYER
  5
20F
100
AcDbSymbolTableRecord
100
AcDbLayerTableRecord
  2
TRASH
 70
0
 62
7
  6
CONTINUOUS
370
-3
390
F
  0
ENDTAB
  0
TABLE
  2
STYLE
  5
3
100
AcDbSymbolTable
 70
1
  0
STYLE
  5
11
100
AcDbSymbolTableRecord
100
AcDbTextStyleTableRecord
  2
STANDARD
 70
0
 40
0.0
 41
0.8
 50
0.0
 71
0
 42
0.2
  3
txt
  4

  0
STYLE
  5
210
100
AcDbSymbolTableRecord
100
AcDbTextStyleTableRecord
  2
TEXTSTYLE_1
 70
0
 40
0.0
 41
0.8
 50
0.0
 71
0
 42
0.2
  3
gdt
  4

  0
ENDTAB
  0
TABLE
  2
VIEW
  5
6
100
AcDbSymbolTable
 70
0
  0
ENDTAB
  0
TABLE
  2
UCS
  5
7
100
AcDbSymbolTable
 70
0
  0
ENDTAB
  0
TABLE
  2
APPID
  5
9
100
AcDbSymbolTable
 70
1
  0
APPID
  5
211
100
AcDbSymbolTableRecord
100
AcDbRegAppTableRecord
  2
ACAD
 70
0
  0
ENDTAB
  0
TABLE
  2
BLOCK_RECORD
  5
1
100
AcDbSymbolTable
 70
0
  0
BLOCK_RECORD
  5
212
100
AcDbSymbolTableRecord
100
AcDbBlockTableRecord
  2
*Model_Space
  0
BLOCK_RECORD
  5
213
100
AcDbSymbolTableRecord
100
AcDbBlockTableRecord
  2
*Paper_Space
  0
BLOCK_RECORD
  5
214
100
AcDbSymbolTableRecord
100
AcDbBlockTableRecord
  2
_FILLED
  0
ENDTAB
  0
TABLE
  2
DIMSTYLE
  5
A
100
AcDbSymbolTable
 70
1
100
AcDbDimStyleTable
 71
0
  0
DIMSTYLE
105
215
100
AcDbSymbolTableRecord
100
AcDbDimStyleTableRecord
  2
STANDARD
 70
0
  3

  4

 40
1.0
 41
3.0
 42
0.5
 43
0.38
 44
1.5
 45
0.0
 46
0.0
 47
0.01
 48
0.01
140
3.0
141
0.09
142
0.0
143
25.4
144
1.0
145
0.0
146
1.0
147
0.625
 71
1.0
 72
0.0
 73
0
 74
0
 75
0
 76
0
 77
1
 78
8
 79
2
170
0
171
1
172
0
173
0
174
0
175
0
176
0
177
0
178
0
270
2
179
2
271
2
272
2
273
2
274
2
275
0
280
0
281
0
282
0
283
1
284
8
285
0
286
0
287
3
288
0
340
11
278
44
341
214
342
214
343
214
344
214
  0
ENDTAB
  0
ENDSEC
  0
SECTION
  2
BLOCKS
  0
BLOCK
  5
20
100
AcDbEntity
  8
0
100
AcDbBlockBegin
  2
*Model_Space
 70
0
 10
0.0
 20
0.0
 30
0.0
  3
*Model_Space
  1

  0
ENDBLK
  5
21
100
AcDbEntity
  8
0
100
AcDbBlockEnd
  0
BLOCK
  5
1C
100
AcDbEntity
  8
0
100
AcDbBlockBegin
  2
*Paper_Space
 70
0
 10
0.0
 20
0.0
 30
0.0
  3
*Paper_Space
  1

  0
ENDBLK
  5
1D
100
AcDbEntity
  8
0
100
AcDbBlockEnd
  0
BLOCK
  5
216
100
AcDbEntity
  8
0
100
AcDbBlockBegin
  2
_FILLED
 70
64
 10
0.0
 20
0.0
  3
_FILLED
  1

  0
SOLID
  5
217
100
AcDbEntity
  8
0
  6
BYBLOCK
 62
0
100
AcDbTrace
 10
0.0
 20
0.0
 11
-1.0
 21
0.3166666667
 12
-1.0
 22
-0.3166666667
 13
-1.0
 23
-0.3166666667
  0
ENDBLK
  5
218
100
AcDbEntity
  8
0
  6
BYBLOCK
 62
0
100
AcDbBlockEnd
  0
ENDSEC
  0
SECTION
  2
ENTITIES
  0
LINE
  5
219
100
AcDbEntity
  8
RACCORDO
100
AcDbLine
 62
7
  6
CONTINUOUS
 10
-71.05917265
 20
109.6059437265
 11
-69.9985124783
 21
110.2183556164
  0
LINE
  5
21A
100
AcDbEntity
  8
RACCORDO
100
AcDbLine
 62
250
  6
CONTINUOUS
 10
-68.0590276892
 20
109.3086966604
 11
-66.9983675174
 21
109.9211085504
  0
LINE
  5
21B
100
AcDbEntity
  8
RACCORDO
100
AcDbLine
 62
7
  6
CONTINUOUS
 10
-72.3016683763
 20
106.8595225596
 11
-72.3016683763
 21
-24.5921920041
  0
LINE
  5
21C
100
AcDbEntity
  8
RACCORDO
100
AcDbLine
 62
7
  6
CONTINUOUS
 10
-68.0590276892
 20
-31.9406612248
 11
66.9983675174
 21
-109.9211085504
  0
LINE
  5
21D
100
AcDbEntity
  8
RACCORDO
100
AcDbLine
 62
7
  6
CONTINUOUS
 10
-9.7227182413
 20
-37.6592081942
 11
8.6620580695
 21
-48.2743476207
  0
LINE
  5
21E
100
AcDbEntity
  8
RACCORDO
100
AcDbLine
 62
7
  6
CONTINUOUS
 10
-8.6620580695
 20
-37.0467963042
 11
9.7227182413
 21
-47.6619357307
  0
LINE
  5
21F
100
AcDbEntity
  8
0
100
AcDbLine
 62
7
  6
CONTINUOUS
 10
-32.9158206642
 20
-3.8930574141
 11
-32.9158206642
 21
-0.2271149634
  0
LINE
  5
220
100
AcDbEntity
  8
0
100
AcDbLine
 62
7
  6
CONTINUOUS
 10
-32.208713883
 20
-4.3013320074
 11
-32.208713883
 21
-0.6353895567
  0
LINE
  5
221
100
AcDbEntity
  8
0
100
AcDbLine
 62
7
  6
CONTINUOUS
 10
-32.0672925268
 20
0.4297788915
 11
-32.0672925268
 21
-0.3867702951
  0
LINE
  5
222
100
AcDbEntity
  8
RACCORDO
100
AcDbLine
 62
7
  6
CONTINUOUS
 10
-19.6222131779
 20
10.5130905057
 11
-19.6222131779
 21
-20.5127800125
  0
LINE
  5
223
100
AcDbEntity
  8
RACCORDO
100
AcDbLine
 62
7
  6
CONTINUOUS
 10
-18.5615530061
 20
11.1255023956
 11
-18.5615530061
 21
-19.9003681225
  0
LINE
  5
224
100
AcDbEntity
  8
RACCORDO
100
AcDbLine
 62
250
  6
CONTINUOUS
 10
-19.6222131779
 20
10.5130905057
 11
-18.5615530061
 21
11.1255023956
  0
LINE
  5
225
100
AcDbEntity
  8
0
100
AcDbLine
 62
7
  6
CONTINUOUS
 10
-33.6709063178
 20
-0.0175399306
 11
-32.3981141116
 21
0.7173543374
  0
LINE
  5
226
100
AcDbEntity
  8
0
100
AcDbLine
 62
7
  6
CONTINUOUS
 10
-32.774399308
 20
0.0215042982
 11
-32.0672925268
 21
0.4297788915
  0
LINE
  5
227
100
AcDbEntity
  8
0
100
AcDbLine
 62
7
  6
CONTINUOUS
 10
-30.8983275703
 20
0.4285931519
 11
-30.8374297797
 21
0.4637547729
  0
LINE
  5
228
100
AcDbEntity
  8
0
100
AcDbLine
 62
7
  6
CONTINUOUS
 10
-31.3601857456
 20
0.0215042982
 11
-32.0672925268
 21
-0.3867702951
  0
LINE
  5
229
100
AcDbEntity
  8
0
100
AcDbLine
 62
7
  6
CONTINUOUS
 10
-30.646377751
 20
0.2198932527
 11
-30.4987441582
 21
0.3051350389
  0
LINE
  5
22A
100
AcDbEntity
  8
0
100
AcDbLine
 62
7
  6
CONTINUOUS
 10
-29.4532238153
 20
-1.8470068976
 11
-29.3054018905
 21
-1.7616563708
  0
LINE
  5
22B
100
AcDbEntity
  8
0
100
AcDbLine
 62
7
  6
CONTINUOUS
 10
-32.208713883
 20
-3.6517471637
 11
-32.774399308
 21
-3.9783668384
  0
LINE
  5
22C
100
AcDbEntity
  8
0
100
AcDbLine
 62
7
  6
CONTINUOUS
 10
-29.3982117735
 20
-2.1694162012
 11
-29.3373572993
 21
-2.1342795905
  0
LINE
  5
22D
100
AcDbEntity
  8
0
100
AcDbLine
 62
7
  6
CONTINUOUS
 10
-31.1707855171
 20
-4.3475972029
 11
-29.8979933109
 21
-3.612702935
  0
LINE
  5
22E
100
AcDbEntity
  8
RACCORDO
100
AcDbLine
 62
250
  6
CONTINUOUS
 10
66.9983675174
 20
31.3282493348
 11
68.0590276892
 21
31.9406612248
  0
LINE
  5
22F
100
AcDbEntity
  8
RACCORDO
100
AcDbLine
 62
250
  6
CONTINUOUS
 10
-19.6222131779
 20
-20.5127800125
 11
-18.5615530061
 21
-19.9003681225
  0
LINE
  5
230
100
AcDbEntity
  8
RACCORDO
100
AcDbLine
 62
7
  6
CONTINUOUS
 10
8.6620580695
 20
5.6126906476
 11
-9.7227182413
 21
16.2278300742
  0
LINE
  5
231
100
AcDbEntity
  8
RACCORDO
100
AcDbLine
 62
7
  6
CONTINUOUS
 10
18.5615530061
 20
-42.5596080522
 11
18.5615530061
 21
-11.533737534
  0
LINE
  5
232
100
AcDbEntity
  8
RACCORDO
100
AcDbLine
 62
250
  6
CONTINUOUS
 10
71.2410082045
 20
23.9797801141
 11
72.3016683763
 21
24.5921920041
  0
LINE
  5
233
100
AcDbEntity
  8
0
100
AcDbLine
 62
7
  6
CONTINUOUS
 10
26.198306243
 20
-38.0248134163
 11
26.198306243
 21
-34.3588709656
  0
LINE
  5
234
100
AcDbEntity
  8
0
100
AcDbLine
 62
7
  6
CONTINUOUS
 10
26.9054130241
 20
-38.4330880096
 11
26.9054130241
 21
-34.7671455589
  0
LINE
  5
235
100
AcDbEntity
  8
0
100
AcDbLine
 62
7
  6
CONTINUOUS
 10
27.0468343804
 20
-33.7019771107
 11
27.0468343804
 21
-34.5185262973
  0
LINE
  5
236
100
AcDbEntity
  8
RACCORDO
100
AcDbLine
 62
250
  6
CONTINUOUS
 10
-9.7227182413
 20
-37.6592081942
 11
-8.6620580695
 21
-37.0467963042
  0
LINE
  5
237
100
AcDbEntity
  8
0
100
AcDbLine
 62
7
  6
CONTINUOUS
 10
25.4432205894
 20
-34.1492959328
 11
26.7160127956
 21
-33.4144016648
  0
LINE
  5
238
100
AcDbEntity
  8
0
100
AcDbLine
 62
7
  6
CONTINUOUS
 10
26.3397275992
 20
-34.110251704
 11
27.0468343804
 21
-33.7019771107
  0
LINE
  5
239
100
AcDbEntity
  8
0
100
AcDbLine
 62
7
  6
CONTINUOUS
 10
28.2157993369
 20
-33.7031628503
 11
28.2766971275
 21
-33.6680012293
  0
LINE
  5
23A
100
AcDbEntity
  8
0
100
AcDbLine
 62
7
  6
CONTINUOUS
 10
27.7539411616
 20
-34.110251704
 11
27.0468343804
 21
-34.5185262973
  0
LINE
  5
23B
100
AcDbEntity
  8
0
100
AcDbLine
 62
7
  6
CONTINUOUS
 10
28.4677491562
 20
-33.9118627495
 11
28.615382749
 21
-33.8266209633
  0
LINE
  5
23C
100
AcDbEntity
  8
0
100
AcDbLine
 62
7
  6
CONTINUOUS
 10
29.6609030919
 20
-35.9787628997
 11
29.8087250167
 21
-35.893412373
  0
LINE
  5
23D
100
AcDbEntity
  8
RACCORDO
100
AcDbLine
 62
250
  6
CONTINUOUS
 10
8.6620580695
 20
-48.2743476207
 11
9.7227182413
 21
-47.6619357307
  0
LINE
  5
23E
100
AcDbEntity
  8
0
100
AcDbLine
 62
7
  6
CONTINUOUS
 10
26.9054130241
 20
-37.7835031659
 11
26.3397275992
 21
-38.1101228406
  0
LINE
  5
23F
100
AcDbEntity
  8
0
100
AcDbLine
 62
7
  6
CONTINUOUS
 10
29.7159151337
 20
-36.3011722034
 11
29.7767696079
 21
-36.2660355927
  0
LINE
  5
240
100
AcDbEntity
  8
0
100
AcDbLine
 62
7
  6
CONTINUOUS
 10
27.9433413901
 20
-38.4793532051
 11
29.2161335963
 21
-37.7444589372
  0
LINE
  5
241
100
AcDbEntity
  8
RACCORDO
100
AcDbLine
 62
7
  6
CONTINUOUS
 10
66.9983675174
 20
31.3282493348
 11
-68.0590276892
 21
109.3086966604
  0
LINE
  5
242
100
AcDbEntity
  8
RACCORDO
100
AcDbLine
 62
7
  6
CONTINUOUS
 10
68.0590276892
 20
31.9406612248
 11
-66.9983675174
 21
109.9211085504
  0
LINE
  5
243
100
AcDbEntity
  8
RACCORDO
100
AcDbLine
 62
7
  6
CONTINUOUS
 10
71.2410082045
 20
-107.4719344496
 11
71.2410082045
 21
23.9797801141
  0
LINE
  5
244
100
AcDbEntity
  8
RACCORDO
100
AcDbLine
 62
7
  6
CONTINUOUS
 10
72.3016683763
 20
-106.8595225596
 11
72.3016683763
 21
24.5921920041
  0
LINE
  5
245
100
AcDbEntity
  8
RACCORDO
100
AcDbLine
 62
250
  6
CONTINUOUS
 10
71.2410082045
 20
-107.4719344496
 11
72.3016683763
 21
-106.8595225596
  0
LINE
  5
246
100
AcDbEntity
  8
RACCORDO
100
AcDbLine
 62
7
  6
CONTINUOUS
 10
69.9985124783
 20
-110.2183556164
 11
71.05917265
 21
-109.6059437265
  0
ARC
  5
247
100
AcDbEntity
  8
0
100
AcDbCircle
 62
7
  6
CONTINUOUS
 10
-32.8610680155
 20
-2.1878165251
 40
3.2713885817
100
AcDbArc
 50
48.5726857189
 51
48.7701891829
  0
ARC
  5
248
100
AcDbEntity
  8
0
100
AcDbCircle
 62
7
  6
CONTINUOUS
 10
26.253058893
 20
-36.3195725258
 40
3.2713885797
100
AcDbArc
 50
48.5726857188
 51
48.770189183
  0
SPLINE
  5
249
100
AcDbEntity
  8
0
100
AcDbSpline
 62
7
  6
CONTINUOUS
 70
0
 71
3
 72
227
 73
223
 74
0
 42
0.0000001
 43
0.0000001
 44
0.0000000001
 40
0.0
 40
0.0
 40
0.0
 40
0.0
 40
0.015625
 40
0.03125
 40
0.0390625
 40
0.046875
 40
0.05078125
 40
0.0546875
 40
0.05859375
 40
0.060546875
 40
0.0625
 40
0.064453125
 40
0.06640625
 40
0.0703125
 40
0.07421875
 40
0.078125
 40
0.0859375
 40
0.09375
 40
0.1015625
 40
0.109375
 40
0.1171875
 40
0.12109375
 40
0.123046875
 40
0.125
 40
0.126953125
 40
0.12890625
 40
0.1328125
 40
0.140625
 40
0.1484375
 40
0.15625
 40
0.1640625
 40
0.171875
 40
0.1796875
 40
0.18359375
 40
0.185546875
 40
0.1875
 40
0.189453125
 40
0.19140625
 40
0.1953125
 40
0.203125
 40
0.2109375
 40
0.21875
 40
0.2265625
 40
0.234375
 40
0.2421875
 40
0.24609375
 40
0.248046875
 40
0.25
 40
0.251953125
 40
0.25390625
 40
0.2578125
 40
0.265625
 40
0.2734375
 40
0.28125
 40
0.2890625
 40
0.296875
 40
0.3046875
 40
0.30859375
 40
0.310546875
 40
0.3125
 40
0.314453125
 40
0.31640625
 40
0.3203125
 40
0.328125
 40
0.3359375
 40
0.34375
 40
0.3515625
 40
0.359375
 40
0.3671875
 40
0.37109375
 40
0.373046875
 40
0.375
 40
0.376953125
 40
0.37890625
 40
0.3828125
 40
0.390625
 40
0.3984375
 40
0.40625
 40
0.4140625
 40
0.421875
 40
0.42578125
 40
0.4296875
 40
0.43359375
 40
0.435546875
 40
0.4375
 40
0.439453125
 40
0.44140625
 40
0.4453125
 40
0.44921875
 40
0.453125
 40
0.4609375
 40
0.46875
 40
0.4765625
 40
0.484375
 40
0.48828125
 40
0.4921875
 40
0.49609375
 40
0.498046875
 40
0.4990234375
 40
0.5
 40
0.5009765625
 40
0.501953125
 40
0.50390625
 40
0.5078125
 40
0.51171875
 40
0.515625
 40
0.5234375
 40
0.53125
 40
0.5390625
 40
0.546875
 40
0.55078125
 40
0.5546875
 40
0.55859375
 40
0.560546875
 40
0.5615234375
 40
0.5625
 40
0.5634765625
 40
0.564453125
 40
0.56640625
 40
0.5703125
 40
0.57421875
 40
0.578125
 40
0.5859375
 40
0.59375
 40
0.6015625
 40
0.609375
 40
0.61328125
 40
0.6171875
 40
0.62109375
 40
0.623046875
 40
0.6240234375
 40
0.625
 40
0.6259765625
 40
0.626953125
 40
0.62890625
 40
0.6328125
 40
0.63671875
 40
0.640625
 40
0.6484375
 40
0.65625
 40
0.6640625
 40
0.671875
 40
0.67578125
 40
0.6796875
 40
0.68359375
 40
0.685546875
 40
0.6865234375
 40
0.6875
 40
0.6884765625
 40
0.689453125
 40
0.69140625
 40
0.6953125
 40
0.69921875
 40
0.703125
 40
0.7109375
 40
0.71875
 40
0.7265625
 40
0.734375
 40
0.73828125
 40
0.7421875
 40
0.74609375
 40
0.748046875
 40
0.7490234375
 40
0.75
 40
0.7509765625
 40
0.751953125
 40
0.75390625
 40
0.7578125
 40
0.76171875
 40
0.765625
 40
0.7734375
 40
0.78125
 40
0.7890625
 40
0.796875
 40
0.80078125
 40
0.8046875
 40
0.80859375
 40
0.810546875
 40
0.8115234375
 40
0.8125
 40
0.8134765625
 40
0.814453125
 40
0.81640625
 40
0.8203125
 40
0.82421875
 40
0.828125
 40
0.8359375
 40
0.84375
 40
0.8515625
 40
0.859375
 40
0.86328125
 40
0.8671875
 40
0.87109375
 40
0.873046875
 40
0.8740234375
 40
0.875
 40
0.8759765625
 40
0.876953125
 40
0.87890625
 40
0.8828125
 40
0.88671875
 40
0.890625
 40
0.8984375
 40
0.90625
 40
0.9140625
 40
0.921875
 40
0.92578125
 40
0.9296875
 40
0.93359375
 40
0.935546875
 40
0.9365234375
 40
0.9375
 40
0.9384765625
 40
0.939453125
 40
0.94140625
 40
0.9453125
 40
0.94921875
 40
0.953125
 40
0.9609375
 40
0.96875
 40
0.984375
 40
1.0
 40
1.0
 40
1.0
 40
1.0
 10
-22.3092189464
 20
9.2068879915
 30
0.0
 10
-22.3109022888
 20
9.2276832541
 30
0.0
 10
-22.3142687805
 20
9.269273712
 30
0.0
 10
-22.31847786
 20
9.3212621208
 30
0.0
 10
-22.3218430975
 20
9.3628521413
 30
0.0
 10
-22.3239509537
 20
9.3888475024
 30
0.0
 10
-22.3256267465
 20
9.409640132
 30
0.0
 10
-22.3269123181
 20
9.4252446229
 30
0.0
 10
-22.3278922429
 20
9.4382164942
 30
0.0
 10
-22.3288811429
 20
9.4486654727
 30
0.0
 10
-22.3290627682
 20
9.4563068849
 30
0.0
 10
-22.3313821121
 20
9.4646938434
 30
0.0
 10
-22.333727838
 20
9.4756160257
 30
0.0
 10
-22.3369161938
 20
9.4893581053
 30
0.0
 10
-22.3406325673
 20
9.505810356
 30
0.0
 10
-22.3456259937
 20
9.5277600456
 30
0.0
 10
-22.3518549471
 20
9.5551926052
 30
0.0
 10
-22.359333881
 20
9.5881134954
 30
0.0
 10
-22.3668165828
 20
9.6210343945
 30
0.0
 10
-22.3742800232
 20
9.6539534394
 30
0.0
 10
-22.3805606217
 20
9.6813921501
 30
0.0
 10
-22.3848372314
 20
9.7005870948
 30
0.0
 10
-22.3874680762
 20
9.711574616
 30
0.0
 10
-22.3889142376
 20
9.7197617852
 30
0.0
 10
-22.3923747538
 20
9.7281533502
 30
0.0
 10
-22.3962861445
 20
9.739270808
 30
0.0
 10
-22.4034584601
 20
9.7587595768
 30
0.0
 10
-22.4135333614
 20
9.7865833098
 30
0.0
 10
-22.4256970079
 20
9.8199792169
 30
0.0
 10
-22.4378396167
 20
9.8533731986
 30
0.0
 10
-22.4499926114
 20
9.8867674543
 30
0.0
 10
-22.4621251001
 20
9.9201625396
 30
0.0
 10
-22.4722952058
 20
9.9479887834
 30
0.0
 10
-22.4792978845
 20
9.9674730785
 30
0.0
 10
-22.4834810404
 20
9.9785977034
 30
0.0
 10
-22.4861067875
 20
9.9869672533
 30
0.0
 10
-22.4906882015
 20
9.9952371075
 30
0.0
 10
-22.4961145939
 20
10.0062983554
 30
0.0
 10
-22.5059286218
 20
10.0256393307
 30
0.0
 10
-22.5197824076
 20
10.0532778165
 30
0.0
 10
-22.5364784761
 20
10.0864401466
 30
0.0
 10
-22.553154449
 20
10.1196042541
 30
0.0
 10
-22.5698392786
 20
10.152765105
 30
0.0
 10
-22.5865087768
 20
10.1859372048
 30
0.0
 10
-22.6004437495
 20
10.2135458387
 30
0.0
 10
-22.6101131172
 20
10.2329400046
 30
0.0
 10
-22.6157712612
 20
10.2439160389
 30
0.0
 10
-22.6196408141
 20
10.2524476399
 30
0.0
 10
-22.6249401918
 20
10.2598341131
 30
0.0
 10
-22.6315072891
 20
10.2700821782
 30
0.0
 10
-22.6432320898
 20
10.2878301796
 30
0.0
 10
-22.6598602465
 20
10.3132818398
 30
0.0
 10
-22.6798663603
 20
10.3437818443
 30
0.0
 10
-22.6998576648
 20
10.3742940041
 30
0.0
 10
-22.7198558806
 20
10.40479953
 30
0.0
 10
-22.7398412604
 20
10.4353194364
 30
0.0
 10
-22.7565327709
 20
10.4607102851
 30
0.0
 10
-22.7681446866
 20
10.4785666417
 30
0.0
 10
-22.7748926303
 20
10.4886411173
 30
0.0
 10
-22.7796365102
 20
10.4965607978
 30
0.0
 10
-22.7855924195
 20
10.5030897618
 30
0.0
 10
-22.7931108618
 20
10.5122801457
 30
0.0
 10
-22.8064651185
 20
10.5281372898
 30
0.0
 10
-22.8254395937
 20
10.5509086146
 30
0.0
 10
-22.8482532827
 20
10.5781831827
 30
0.0
 10
-22.8710545517
 20
10.6054726185
 30
0.0
 10
-22.8938611818
 20
10.6327536049
 30
0.0
 10
-22.9166587873
 20
10.6600535215
 30
0.0
 10
-22.9356824067
 20
10.6827473926
 30
0.0
 10
-22.9489490973
 20
10.6987425451
 30
0.0
 10
-22.956607824
 20
10.7077118339
 30
0.0
 10
-22.962132828
 20
10.7149199262
 30
0.0
 10
-22.9684951156
 20
10.7202889146
 30
0.0
 10
-22.9766861117
 20
10.7280890659
 30
0.0
 10
-22.9911564289
 20
10.7414404436
 30
0.0
 10
-23.0117571652
 20
10.7606701038
 30
0.0
 10
-23.0365085207
 20
10.7836788014
 30
0.0
 10
-23.061251821
 20
10.8067050561
 30
0.0
 10
-23.0859968699
 20
10.829727977
 30
0.0
 10
-23.1066186282
 20
10.8489102261
 30
0.0
 10
-23.1231130384
 20
10.8642661364
 30
0.0
 10
-23.1354923049
 20
10.875754847
 30
0.0
 10
-23.1457814124
 20
10.8854186331
 30
0.0
 10
-23.1540731441
 20
10.8929481078
 30
0.0
 10
-23.1601267747
 20
10.8991459601
 30
0.0
 10
-23.1668108548
 20
10.9032416042
 30
0.0
 10
-23.1755027374
 20
10.9094367917
 30
0.0
 10
-23.1864431484
 20
10.9169288318
 30
0.0
 10
-23.1995393003
 20
10.9260271198
 30
0.0
 10
-23.2170121338
 20
10.9381205055
 30
0.0
 10
-23.2388492961
 20
10.9532501244
 30
0.0
 10
-23.2650555665
 20
10.9714003082
 30
0.0
 10
-23.2912613416
 20
10.9895513088
 30
0.0
 10
-23.3130997419
 20
11.0046788857
 30
0.0
 10
-23.3305700994
 20
11.0167763555
 30
0.0
 10
-23.3436738032
 20
11.0258621871
 30
0.0
 10
-23.3545905886
 20
11.0333931959
 30
0.0
 10
-23.3622381612
 20
11.0387444199
 30
0.0
 10
-23.3665991111
 20
11.0416781011
 30
0.0
 10
-23.3698954346
 20
11.0442281257
 30
0.0
 10
-23.3730938597
 20
11.0454411762
 30
0.0
 10
-23.3773925746
 20
11.0475249284
 30
0.0
 10
-23.3848994153
 20
11.050954213
 30
0.0
 10
-23.3956317917
 20
11.0559667886
 30
0.0
 10
-23.4085070827
 20
11.0619332544
 30
0.0
 10
-23.425675382
 20
11.0699055331
 30
0.0
 10
-23.447135323
 20
11.0798650123
 30
0.0
 10
-23.4728874643
 20
11.0918190727
 30
0.0
 10
-23.4986394503
 20
11.1037717822
 30
0.0
 10
-23.5200997794
 20
11.1137346388
 30
0.0
 10
-23.5372673024
 20
11.1217001627
 30
0.0
 10
-23.5501449611
 20
11.1276872307
 30
0.0
 10
-23.5608699304
 20
11.1326353543
 30
0.0
 10
-23.5683899938
 20
11.1361796955
 30
0.0
 10
-23.5726675227
 20
11.1380790981
 30
0.0
 10
-23.5759310242
 20
11.1398584113
 30
0.0
 10
-23.5789829317
 20
11.1402816473
 30
0.0
 10
-23.583125948
 20
11.1413189769
 30
0.0
 10
-23.5903418387
 20
11.1429139172
 30
0.0
 10
-23.6006682325
 20
11.1453076242
 30
0.0
 10
-23.6130522093
 20
11.1481307529
 30
0.0
 10
-23.6295668682
 20
11.1519121583
 30
0.0
 10
-23.6502092571
 20
11.1566329613
 30
0.0
 10
-23.6749805762
 20
11.1623006523
 30
0.0
 10
-23.6997515809
 20
11.1679669595
 30
0.0
 10
-23.7203947558
 20
11.1726912222
 30
0.0
 10
-23.7369078427
 20
11.176465708
 30
0.0
 10
-23.749296614
 20
11.1793099413
 30
0.0
 10
-23.7596080086
 20
11.1816376247
 30
0.0
 10
-23.7668506752
 20
11.1833504271
 30
0.0
 10
-23.77095079
 20
11.1841989121
 30
0.0
 10
-23.7741344771
 20
11.1852022183
 30
0.0
 10
-23.7769030358
 20
11.184802884
 30
0.0
 10
-23.7807392489
 20
11.1847596949
 30
0.0
 10
-23.787385156
 20
11.1844561602
 30
0.0
 10
-23.796914581
 20
11.1841417165
 30
0.0
 10
-23.8083347929
 20
11.1837133708
 30
0.0
 10
-23.8235670183
 20
11.1831600686
 30
0.0
 10
-23.8426054744
 20
11.1824622832
 30
0.0
 10
-23.8654524707
 20
11.1816277598
 30
0.0
 10
-23.8882989918
 20
11.1807918123
 30
0.0
 10
-23.9073386358
 20
11.1800975872
 30
0.0
 10
-23.9225684852
 20
11.1795371643
 30
0.0
 10
-23.9339959438
 20
11.1791305369
 30
0.0
 10
-23.9435026983
 20
11.1787481493
 30
0.0
 10
-23.9501890758
 20
11.1785659048
 30
0.0
 10
-23.9539604451
 20
11.1783283785
 30
0.0
 10
-23.956928183
 20
11.178525986
 30
0.0
 10
-23.9593637862
 20
11.1772872775
 30
0.0
 10
-23.9627968717
 20
11.1761366693
 30
0.0
 10
-23.96871829
 20
11.1738896783
 30
0.0
 10
-23.9772226725
 20
11.1708017295
 30
0.0
 10
-23.987408578
 20
11.1670439533
 30
0.0
 10
-24.0009965491
 20
11.1620518376
 30
0.0
 10
-24.0179791677
 20
11.1558053921
 30
0.0
 10
-24.0383594219
 20
11.1483125232
 30
0.0
 10
-24.0587389811
 20
11.1408182726
 30
0.0
 10
-24.0757233372
 20
11.1345752815
 30
0.0
 10
-24.0893078332
 20
11.1295762569
 30
0.0
 10
-24.0995043378
 20
11.125839553
 30
0.0
 10
-24.1079755617
 20
11.1226856812
 30
0.0
 10
-24.1139561733
 20
11.1205563729
 30
0.0
 10
-24.1172944163
 20
11.1192172074
 30
0.0
 10
-24.1200213451
 20
11.1185576864
 30
0.0
 10
-24.1218949125
 20
11.1165799622
 30
0.0
 10
-24.1246906643
 20
11.1144028006
 30
0.0
 10
-24.1294445438
 20
11.1103785366
 30
0.0
 10
-24.1363083072
 20
11.1047415909
 30
0.0
 10
-24.1445137869
 20
11.097929314
 30
0.0
 10
-24.1554652717
 20
11.0888630298
 30
0.0
 10
-24.1691508804
 20
11.0775243914
 30
0.0
 10
-24.1855753302
 20
11.0639206572
 30
0.0
 10
-24.2019988979
 20
11.0503156485
 30
0.0
 10
-24.215686712
 20
11.0389801963
 30
0.0
 10
-24.2266337858
 20
11.0299075396
 30
0.0
 10
-24.2348527191
 20
11.0231146987
 30
0.0
 10
-24.2416743941
 20
11.0174169489
 30
0.0
 10
-24.2465034078
 20
11.0135012295
 30
0.0
 10
-24.2491787758
 20
11.0111501524
 30
0.0
 10
-24.2514221237
 20
11.0097066411
 30
0.0
 10
-24.2527602181
 20
11.0070407051
 30
0.0
 10
-24.2548601065
 20
11.0039125191
 30
0.0
 10
-24.2583877915
 20
10.9982395282
 30
0.0
 10
-24.2635042576
 20
10.9902391202
 30
0.0
 10
-24.2696110933
 20
10.9805941721
 30
0.0
 10
-24.2777650457
 20
10.9677497755
 30
0.0
 10
-24.2879535097
 20
10.9516889189
 30
0.0
 10
-24.3001814967
 20
10.9324183221
 30
0.0
 10
-24.3124085251
 20
10.9131465782
 30
0.0
 10
-24.3225993856
 20
10.8970885891
 30
0.0
 10
-24.3307485448
 20
10.8842384575
 30
0.0
 10
-24.3368699997
 20
10.8746110013
 30
0.0
 10
-24.341940731
 20
10.8665558711
 30
0.0
 10
-24.3455500596
 20
10.8609805678
 30
0.0
 10
-24.3475191345
 20
10.8576958618
 30
0.0
 10
-24.349259046
 20
10.855510705
 30
0.0
 10
-24.3499932355
 20
10.8522614668
 30
0.0
 10
-24.3513229619
 20
10.8483003126
 30
0.0
 10
-24.3534865356
 20
10.8411953608
 30
0.0
 10
-24.3566628076
 20
10.8311358408
 30
0.0
 10
-24.3604377565
 20
10.8190257168
 30
0.0
 10
-24.365483803
 20
10.8028924073
 30
0.0
 10
-24.3717869448
 20
10.7827211022
 30
0.0
 10
-24.3793527415
 20
10.7585176597
 30
0.0
 10
-24.3869174982
 20
10.7343131916
 30
0.0
 10
-24.3932232403
 20
10.7141444505
 30
0.0
 10
-24.3982640862
 20
10.698006013
 30
0.0
 10
-24.402054897
 20
10.6859115294
 30
0.0
 10
-24.4051815462
 20
10.6758030798
 30
0.0
 10
-24.4074337041
 20
10.6687854747
 30
0.0
 10
-24.4086214964
 20
10.6646843692
 30
0.0
 10
-24.4097916621
 20
10.6618650167
 30
0.0
 10
-24.4098941193
 20
10.6580652802
 30
0.0
 10
-24.4104031575
 20
10.6533409338
 30
0.0
 10
-24.411120453
 20
10.6449139979
 30
0.0
 10
-24.4122358799
 20
10.6329588175
 30
0.0
 10
-24.4135355615
 20
10.6185769461
 30
0.0
 10
-24.415282033
 20
10.5994135712
 30
0.0
 10
-24.4174604784
 20
10.5754550883
 30
0.0
 10
-24.4209485874
 20
10.5371238997
 30
0.0
 10
-24.4253078268
 20
10.4892090904
 30
0.0
 10
-24.4287954917
 20
10.450877494
 30
0.0
 10
-24.43053929
 20
10.4317116644
 30
0.0
  0
SPLINE
  5
24A
100
AcDbEntity
  8
0
100
AcDbSpline
 62
7
  6
CONTINUOUS
 70
0
 71
3
 72
227
 73
223
 74
0
 42
0.0000001
 43
0.0000001
 44
0.0000000001
 40
0.0
 40
0.0
 40
0.0
 40
0.0
 40
0.015625
 40
0.03125
 40
0.0390625
 40
0.046875
 40
0.05078125
 40
0.0546875
 40
0.05859375
 40
0.060546875
 40
0.0625
 40
0.064453125
 40
0.06640625
 40
0.0703125
 40
0.07421875
 40
0.078125
 40
0.0859375
 40
0.09375
 40
0.1015625
 40
0.109375
 40
0.1171875
 40
0.12109375
 40
0.123046875
 40
0.125
 40
0.126953125
 40
0.12890625
 40
0.1328125
 40
0.140625
 40
0.1484375
 40
0.15625
 40
0.1640625
 40
0.171875
 40
0.1796875
 40
0.18359375
 40
0.185546875
 40
0.1875
 40
0.189453125
 40
0.19140625
 40
0.1953125
 40
0.203125
 40
0.2109375
 40
0.21875
 40
0.2265625
 40
0.234375
 40
0.2421875
 40
0.24609375
 40
0.248046875
 40
0.25
 40
0.251953125
 40
0.25390625
 40
0.2578125
 40
0.265625
 40
0.2734375
 40
0.28125
 40
0.2890625
 40
0.296875
 40
0.3046875
 40
0.30859375
 40
0.310546875
 40
0.3125
 40
0.314453125
 40
0.31640625
 40
0.3203125
 40
0.328125
 40
0.3359375
 40
0.34375
 40
0.3515625
 40
0.359375
 40
0.3671875
 40
0.37109375
 40
0.373046875
 40
0.375
 40
0.376953125
 40
0.37890625
 40
0.3828125
 40
0.390625
 40
0.3984375
 40
0.40625
 40
0.4140625
 40
0.421875
 40
0.42578125
 40
0.4296875
 40
0.43359375
 40
0.435546875
 40
0.4375
 40
0.439453125
 40
0.44140625
 40
0.4453125
 40
0.44921875
 40
0.453125
 40
0.4609375
 40
0.46875
 40
0.4765625
 40
0.484375
 40
0.48828125
 40
0.4921875
 40
0.49609375
 40
0.498046875
 40
0.4990234375
 40
0.5
 40
0.5009765625
 40
0.501953125
 40
0.50390625
 40
0.5078125
 40
0.51171875
 40
0.515625
 40
0.5234375
 40
0.53125
 40
0.5390625
 40
0.546875
 40
0.55078125
 40
0.5546875
 40
0.55859375
 40
0.560546875
 40
0.5615234375
 40
0.5625
 40
0.5634765625
 40
0.564453125
 40
0.56640625
 40
0.5703125
 40
0.57421875
 40
0.578125
 40
0.5859375
 40
0.59375
 40
0.6015625
 40
0.609375
 40
0.61328125
 40
0.6171875
 40
0.62109375
 40
0.623046875
 40
0.6240234375
 40
0.625
 40
0.6259765625
 40
0.626953125
 40
0.62890625
 40
0.6328125
 40
0.63671875
 40
0.640625
 40
0.6484375
 40
0.65625
 40
0.6640625
 40
0.671875
 40
0.67578125
 40
0.6796875
 40
0.68359375
 40
0.685546875
 40
0.6865234375
 40
0.6875
 40
0.6884765625
 40
0.689453125
 40
0.69140625
 40
0.6953125
 40
0.69921875
 40
0.703125
 40
0.7109375
 40
0.71875
 40
0.7265625
 40
0.734375
 40
0.73828125
 40
0.7421875
 40
0.74609375
 40
0.748046875
 40
0.7490234375
 40
0.75
 40
0.7509765625
 40
0.751953125
 40
0.75390625
 40
0.7578125
 40
0.76171875
 40
0.765625
 40
0.7734375
 40
0.78125
 40
0.7890625
 40
0.796875
 40
0.80078125
 40
0.8046875
 40
0.80859375
 40
0.810546875
 40
0.8115234375
 40
0.8125
 40
0.8134765625
 40
0.814453125
 40
0.81640625
 40
0.8203125
 40
0.82421875
 40
0.828125
 40
0.8359375
 40
0.84375
 40
0.8515625
 40
0.859375
 40
0.86328125
 40
0.8671875
 40
0.87109375
 40
0.873046875
 40
0.8740234375
 40
0.875
 40
0.8759765625
 40
0.876953125
 40
0.87890625
 40
0.8828125
 40
0.88671875
 40
0.890625
 40
0.8984375
 40
0.90625
 40
0.9140625
 40
0.921875
 40
0.92578125
 40
0.9296875
 40
0.93359375
 40
0.935546875
 40
0.9365234375
 40
0.9375
 40
0.9384765625
 40
0.939453125
 40
0.94140625
 40
0.9453125
 40
0.94921875
 40
0.953125
 40
0.9609375
 40
0.96875
 40
0.984375
 40
1.0
 40
1.0
 40
1.0
 40
1.0
 10
-24.43053929
 20
10.4317117715
 30
0.0
 10
-24.4288559476
 20
10.4109165089
 30
0.0
 10
-24.4254894559
 20
10.369326051
 30
0.0
 10
-24.4212803764
 20
10.3173376422
 30
0.0
 10
-24.4179151389
 20
10.2757476218
 30
0.0
 10
-24.4158072827
 20
10.2497522607
 30
0.0
 10
-24.4141314899
 20
10.2289596311
 30
0.0
 10
-24.4128459183
 20
10.2133551401
 30
0.0
 10
-24.4118659936
 20
10.2003832688
 30
0.0
 10
-24.4108770936
 20
10.1899342903
 30
0.0
 10
-24.4106954682
 20
10.1822928782
 30
0.0
 10
-24.4083761243
 20
10.1739059197
 30
0.0
 10
-24.4060303984
 20
10.1629837374
 30
0.0
 10
-24.4028420426
 20
10.1492416577
 30
0.0
 10
-24.3991256691
 20
10.132789407
 30
0.0
 10
-24.3941322427
 20
10.1108397174
 30
0.0
 10
-24.3879032893
 20
10.0834071579
 30
0.0
 10
-24.3804243554
 20
10.0504862676
 30
0.0
 10
-24.3729416536
 20
10.0175653685
 30
0.0
 10
-24.3654782132
 20
9.9846463237
 30
0.0
 10
-24.3591976147
 20
9.957207613
 30
0.0
 10
-24.354921005
 20
9.9380126682
 30
0.0
 10
-24.3522901603
 20
9.9270251471
 30
0.0
 10
-24.3508439988
 20
9.9188379778
 30
0.0
 10
-24.3473834827
 20
9.9104464129
 30
0.0
 10
-24.3434720919
 20
9.8993289551
 30
0.0
 10
-24.3362997764
 20
9.8798401862
 30
0.0
 10
-24.3262248751
 20
9.8520164532
 30
0.0
 10
-24.3140612285
 20
9.8186205462
 30
0.0
 10
-24.3019186197
 20
9.7852265644
 30
0.0
 10
-24.289765625
 20
9.7518323088
 30
0.0
 10
-24.2776331363
 20
9.7184372234
 30
0.0
 10
-24.2674630306
 20
9.6906109796
 30
0.0
 10
-24.2604603519
 20
9.6711266846
 30
0.0
 10
-24.256277196
 20
9.6600020596
 30
0.0
 10
-24.253651449
 20
9.6516325097
 30
0.0
 10
-24.2490700349
 20
9.6433626555
 30
0.0
 10
-24.2436436425
 20
9.6323014076
 30
0.0
 10
-24.2338296146
 20
9.6129604323
 30
0.0
 10
-24.2199758288
 20
9.5853219466
 30
0.0
 10
-24.2032797604
 20
9.5521596164
 30
0.0
 10
-24.1866037875
 20
9.518995509
 30
0.0
 10
-24.1699189578
 20
9.4858346581
 30
0.0
 10
-24.1532494596
 20
9.4526625582
 30
0.0
 10
-24.139314487
 20
9.4250539244
 30
0.0
 10
-24.1296451193
 20
9.4056597584
 30
0.0
 10
-24.1239869753
 20
9.3946837241
 30
0.0
 10
-24.1201174224
 20
9.3861521231
 30
0.0
 10
-24.1148180446
 20
9.37876565
 30
0.0
 10
-24.1082509473
 20
9.3685175848
 30
0.0
 10
-24.0965261466
 20
9.3507695834
 30
0.0
 10
-24.0798979899
 20
9.3253179232
 30
0.0
 10
-24.0598918762
 20
9.2948179188
 30
0.0
 10
-24.0399005717
 20
9.2643057589
 30
0.0
 10
-24.0199023558
 20
9.233800233
 30
0.0
 10
-23.999916976
 20
9.2032803266
 30
0.0
 10
-23.9832254655
 20
9.177889478
 30
0.0
 10
-23.9716135498
 20
9.1600331213
 30
0.0
 10
-23.9648656062
 20
9.1499586457
 30
0.0
 10
-23.9601217262
 20
9.1420389653
 30
0.0
 10
-23.9541658169
 20
9.1355100013
 30
0.0
 10
-23.9466473746
 20
9.1263196173
 30
0.0
 10
-23.9332931179
 20
9.1104624732
 30
0.0
 10
-23.9143186427
 20
9.0876911484
 30
0.0
 10
-23.8915049538
 20
9.0604165804
 30
0.0
 10
-23.8687036848
 20
9.0331271445
 30
0.0
 10
-23.8458970546
 20
9.0058461581
 30
0.0
 10
-23.8230994492
 20
8.9785462415
 30
0.0
 10
-23.8040758298
 20
8.9558523705
 30
0.0
 10
-23.7908091391
 20
8.9398572179
 30
0.0
 10
-23.7831504125
 20
8.9308879292
 30
0.0
 10
-23.7776254084
 20
8.9236798368
 30
0.0
 10
-23.7712631208
 20
8.9183108484
 30
0.0
 10
-23.7630721247
 20
8.9105106971
 30
0.0
 10
-23.7486018075
 20
8.8971593195
 30
0.0
 10
-23.7280010712
 20
8.8779296592
 30
0.0
 10
-23.7032497158
 20
8.8549209616
 30
0.0
 10
-23.6785064154
 20
8.8318947069
 30
0.0
 10
-23.6537613666
 20
8.808871786
 30
0.0
 10
-23.6331396082
 20
8.7896895369
 30
0.0
 10
-23.6166451981
 20
8.7743336267
 30
0.0
 10
-23.6042659315
 20
8.762844916
 30
0.0
 10
-23.593976824
 20
8.7531811299
 30
0.0
 10
-23.5856850924
 20
8.7456516553
 30
0.0
 10
-23.5796314617
 20
8.739453803
 30
0.0
 10
-23.5729473816
 20
8.7353581588
 30
0.0
 10
-23.5642554991
 20
8.7291629713
 30
0.0
 10
-23.553315088
 20
8.7216709312
 30
0.0
 10
-23.5402189362
 20
8.7125726433
 30
0.0
 10
-23.5227461026
 20
8.7004792575
 30
0.0
 10
-23.5009089404
 20
8.6853496386
 30
0.0
 10
-23.47470267
 20
8.6671994548
 30
0.0
 10
-23.4484968948
 20
8.6490484542
 30
0.0
 10
-23.4266584945
 20
8.6339208773
 30
0.0
 10
-23.409188137
 20
8.6218234075
 30
0.0
 10
-23.3960844333
 20
8.6127375759
 30
0.0
 10
-23.3851676478
 20
8.6052065671
 30
0.0
 10
-23.3775200752
 20
8.5998553432
 30
0.0
 10
-23.3731591253
 20
8.5969216619
 30
0.0
 10
-23.3698628018
 20
8.5943716373
 30
0.0
 10
-23.3666643767
 20
8.5931585868
 30
0.0
 10
-23.3623656619
 20
8.5910748346
 30
0.0
 10
-23.3548588211
 20
8.5876455501
 30
0.0
 10
-23.3441264447
 20
8.5826329745
 30
0.0
 10
-23.3312511537
 20
8.5766665086
 30
0.0
 10
-23.3140828544
 20
8.56869423
 30
0.0
 10
-23.2926229134
 20
8.5587347507
 30
0.0
 10
-23.2668707722
 20
8.5467806903
 30
0.0
 10
-23.2411187862
 20
8.5348279808
 30
0.0
 10
-23.219658457
 20
8.5248651242
 30
0.0
 10
-23.202490934
 20
8.5168996003
 30
0.0
 10
-23.1896132754
 20
8.5109125324
 30
0.0
 10
-23.178888306
 20
8.5059644087
 30
0.0
 10
-23.1713682426
 20
8.5024200676
 30
0.0
 10
-23.1670907137
 20
8.5005206649
 30
0.0
 10
-23.1638272122
 20
8.4987413517
 30
0.0
 10
-23.1607753048
 20
8.4983181157
 30
0.0
 10
-23.1566322885
 20
8.4972807861
 30
0.0
 10
-23.1494163977
 20
8.4956858458
 30
0.0
 10
-23.139090004
 20
8.4932921388
 30
0.0
 10
-23.1267060272
 20
8.4904690101
 30
0.0
 10
-23.1101913682
 20
8.4866876047
 30
0.0
 10
-23.0895489794
 20
8.4819668017
 30
0.0
 10
-23.0647776602
 20
8.4762991107
 30
0.0
 10
-23.0400066555
 20
8.4706328036
 30
0.0
 10
-23.0193634807
 20
8.4659085409
 30
0.0
 10
-23.0028503937
 20
8.462134055
 30
0.0
 10
-22.9904616224
 20
8.4592898218
 30
0.0
 10
-22.9801502278
 20
8.4569621383
 30
0.0
 10
-22.9729075612
 20
8.4552493359
 30
0.0
 10
-22.9688074465
 20
8.454400851
 30
0.0
 10
-22.9656237593
 20
8.4533975447
 30
0.0
 10
-22.9628552006
 20
8.4537968791
 30
0.0
 10
-22.9590189876
 20
8.4538400681
 30
0.0
 10
-22.9523730804
 20
8.4541436028
 30
0.0
 10
-22.9428436554
 20
8.4544580466
 30
0.0
 10
-22.9314234435
 20
8.4548863922
 30
0.0
 10
-22.9161912181
 20
8.4554396944
 30
0.0
 10
-22.8971527621
 20
8.4561374798
 30
0.0
 10
-22.8743057658
 20
8.4569720032
 30
0.0
 10
-22.8514592446
 20
8.4578079508
 30
0.0
 10
-22.8324196006
 20
8.4585021758
 30
0.0
 10
-22.8171897512
 20
8.4590625987
 30
0.0
 10
-22.8057622926
 20
8.4594692261
 30
0.0
 10
-22.7962555382
 20
8.4598516138
 30
0.0
 10
-22.7895691606
 20
8.4600338582
 30
0.0
 10
-22.7857977913
 20
8.4602713846
 30
0.0
 10
-22.7828300534
 20
8.460073777
 30
0.0
 10
-22.7803944502
 20
8.4613124855
 30
0.0
 10
-22.7769613647
 20
8.4624630937
 30
0.0
 10
-22.7710399465
 20
8.4647100847
 30
0.0
 10
-22.7625355639
 20
8.4677980335
 30
0.0
 10
-22.7523496585
 20
8.4715558098
 30
0.0
 10
-22.7387616873
 20
8.4765479254
 30
0.0
 10
-22.7217790687
 20
8.482794371
 30
0.0
 10
-22.7013988145
 20
8.4902872398
 30
0.0
 10
-22.6810192554
 20
8.4977814904
 30
0.0
 10
-22.6640348992
 20
8.5040244815
 30
0.0
 10
-22.6504504032
 20
8.5090235061
 30
0.0
 10
-22.6402538986
 20
8.51276021
 30
0.0
 10
-22.6317826747
 20
8.5159140819
 30
0.0
 10
-22.6258020631
 20
8.5180433901
 30
0.0
 10
-22.6224638201
 20
8.5193825556
 30
0.0
 10
-22.6197368913
 20
8.5200420767
 30
0.0
 10
-22.6178633239
 20
8.5220198008
 30
0.0
 10
-22.6150675721
 20
8.5241969624
 30
0.0
 10
-22.6103136926
 20
8.5282212264
 30
0.0
 10
-22.6034499293
 20
8.5338581721
 30
0.0
 10
-22.5952444495
 20
8.5406704491
 30
0.0
 10
-22.5842929647
 20
8.5497367332
 30
0.0
 10
-22.5706073561
 20
8.5610753717
 30
0.0
 10
-22.5541829062
 20
8.5746791059
 30
0.0
 10
-22.5377593386
 20
8.5882841146
 30
0.0
 10
-22.5240715244
 20
8.5996195668
 30
0.0
 10
-22.5131244507
 20
8.6086922234
 30
0.0
 10
-22.5049055173
 20
8.6154850643
 30
0.0
 10
-22.4980838423
 20
8.6211828141
 30
0.0
 10
-22.4932548287
 20
8.6250985335
 30
0.0
 10
-22.4905794606
 20
8.6274496107
 30
0.0
 10
-22.4883361127
 20
8.6288931219
 30
0.0
 10
-22.4869980183
 20
8.631559058
 30
0.0
 10
-22.4848981299
 20
8.6346872439
 30
0.0
 10
-22.4813704449
 20
8.6403602349
 30
0.0
 10
-22.4762539788
 20
8.6483606428
 30
0.0
 10
-22.4701471431
 20
8.658005591
 30
0.0
 10
-22.4619931907
 20
8.6708499875
 30
0.0
 10
-22.4518047268
 20
8.6869108441
 30
0.0
 10
-22.4395767397
 20
8.706181441
 30
0.0
 10
-22.4273497114
 20
8.7254531848
 30
0.0
 10
-22.4171588508
 20
8.7415111739
 30
0.0
 10
-22.4090096916
 20
8.7543613055
 30
0.0
 10
-22.4028882367
 20
8.7639887617
 30
0.0
 10
-22.3978175054
 20
8.7720438919
 30
0.0
 10
-22.3942081768
 20
8.7776191953
 30
0.0
 10
-22.3922391019
 20
8.7809039012
 30
0.0
 10
-22.3904991904
 20
8.783089058
 30
0.0
 10
-22.3897650009
 20
8.7863382963
 30
0.0
 10
-22.3884352745
 20
8.7902994504
 30
0.0
 10
-22.3862717009
 20
8.7974044022
 30
0.0
 10
-22.3830954289
 20
8.8074639223
 30
0.0
 10
-22.37932048
 20
8.8195740462
 30
0.0
 10
-22.3742744334
 20
8.8357073558
 30
0.0
 10
-22.3679712916
 20
8.8558786609
 30
0.0
 10
-22.3604054949
 20
8.8800821033
 30
0.0
 10
-22.3528407383
 20
8.9042865714
 30
0.0
 10
-22.3465349962
 20
8.9244553125
 30
0.0
 10
-22.3414941503
 20
8.9405937501
 30
0.0
 10
-22.3377033394
 20
8.9526882336
 30
0.0
 10
-22.3345766902
 20
8.9627966833
 30
0.0
 10
-22.3323245323
 20
8.9698142883
 30
0.0
 10
-22.33113674
 20
8.9739153938
 30
0.0
 10
-22.3299665743
 20
8.9767347463
 30
0.0
 10
-22.3298641172
 20
8.9805344828
 30
0.0
 10
-22.3293550789
 20
8.9852588292
 30
0.0
 10
-22.3286377834
 20
8.9936857651
 30
0.0
 10
-22.3275223566
 20
9.0056409456
 30
0.0
 10
-22.326222675
 20
9.0200228169
 30
0.0
 10
-22.3244762034
 20
9.0391861918
 30
0.0
 10
-22.3222977581
 20
9.0631446748
 30
0.0
 10
-22.3188096491
 20
9.1014758634
 30
0.0
 10
-22.3144504096
 20
9.1493906726
 30
0.0
 10
-22.3109627447
 20
9.187722269
 30
0.0
 10
-22.3092189464
 20
9.2068880986
 30
0.0
  0
SPLINE
  5
24B
100
AcDbEntity
  8
0
100
AcDbSpline
 62
7
  6
CONTINUOUS
 70
0
 71
3
 72
227
 73
223
 74
0
 42
0.0000001
 43
0.0000001
 44
0.0000000001
 40
0.0
 40
0.0
 40
0.0
 40
0.0
 40
0.015625
 40
0.03125
 40
0.0390625
 40
0.046875
 40
0.05078125
 40
0.0546875
 40
0.05859375
 40
0.060546875
 40
0.0625
 40
0.064453125
 40
0.06640625
 40
0.0703125
 40
0.07421875
 40
0.078125
 40
0.0859375
 40
0.09375
 40
0.1015625
 40
0.109375
 40
0.1171875
 40
0.12109375
 40
0.123046875
 40
0.125
 40
0.126953125
 40
0.12890625
 40
0.1328125
 40
0.140625
 40
0.1484375
 40
0.15625
 40
0.1640625
 40
0.171875
 40
0.1796875
 40
0.18359375
 40
0.185546875
 40
0.1875
 40
0.189453125
 40
0.19140625
 40
0.1953125
 40
0.203125
 40
0.2109375
 40
0.21875
 40
0.2265625
 40
0.234375
 40
0.2421875
 40
0.24609375
 40
0.248046875
 40
0.25
 40
0.251953125
 40
0.25390625
 40
0.2578125
 40
0.265625
 40
0.2734375
 40
0.28125
 40
0.2890625
 40
0.296875
 40
0.3046875
 40
0.30859375
 40
0.310546875
 40
0.3125
 40
0.314453125
 40
0.31640625
 40
0.3203125
 40
0.328125
 40
0.3359375
 40
0.34375
 40
0.3515625
 40
0.359375
 40
0.3671875
 40
0.37109375
 40
0.373046875
 40
0.375
 40
0.376953125
 40
0.37890625
 40
0.3828125
 40
0.390625
 40
0.3984375
 40
0.40625
 40
0.4140625
 40
0.421875
 40
0.42578125
 40
0.4296875
 40
0.43359375
 40
0.435546875
 40
0.4375
 40
0.439453125
 40
0.44140625
 40
0.4453125
 40
0.44921875
 40
0.453125
 40
0.4609375
 40
0.46875
 40
0.4765625
 40
0.484375
 40
0.48828125
 40
0.4921875
 40
0.49609375
 40
0.498046875
 40
0.4990234375
 40
0.5
 40
0.5009765625
 40
0.501953125
 40
0.50390625
 40
0.5078125
 40
0.51171875
 40
0.515625
 40
0.5234375
 40
0.53125
 40
0.5390625
 40
0.546875
 40
0.55078125
 40
0.5546875
 40
0.55859375
 40
0.560546875
 40
0.5615234375
 40
0.5625
 40
0.5634765625
 40
0.564453125
 40
0.56640625
 40
0.5703125
 40
0.57421875
 40
0.578125
 40
0.5859375
 40
0.59375
 40
0.6015625
 40
0.609375
 40
0.61328125
 40
0.6171875
 40
0.62109375
 40
0.623046875
 40
0.6240234375
 40
0.625
 40
0.6259765625
 40
0.626953125
 40
0.62890625
 40
0.6328125
 40
0.63671875
 40
0.640625
 40
0.6484375
 40
0.65625
 40
0.6640625
 40
0.671875
 40
0.67578125
 40
0.6796875
 40
0.68359375
 40
0.685546875
 40
0.6865234375
 40
0.6875
 40
0.6884765625
 40
0.689453125
 40
0.69140625
 40
0.6953125
 40
0.69921875
 40
0.703125
 40
0.7109375
 40
0.71875
 40
0.7265625
 40
0.734375
 40
0.73828125
 40
0.7421875
 40
0.74609375
 40
0.748046875
 40
0.7490234375
 40
0.75
 40
0.7509765625
 40
0.751953125
 40
0.75390625
 40
0.7578125
 40
0.76171875
 40
0.765625
 40
0.7734375
 40
0.78125
 40
0.7890625
 40
0.796875
 40
0.80078125
 40
0.8046875
 40
0.80859375
 40
0.810546875
 40
0.8115234375
 40
0.8125
 40
0.8134765625
 40
0.814453125
 40
0.81640625
 40
0.8203125
 40
0.82421875
 40
0.828125
 40
0.8359375
 40
0.84375
 40
0.8515625
 40
0.859375
 40
0.86328125
 40
0.8671875
 40
0.87109375
 40
0.873046875
 40
0.8740234375
 40
0.875
 40
0.8759765625
 40
0.876953125
 40
0.87890625
 40
0.8828125
 40
0.88671875
 40
0.890625
 40
0.8984375
 40
0.90625
 40
0.9140625
 40
0.921875
 40
0.92578125
 40
0.9296875
 40
0.93359375
 40
0.935546875
 40
0.9365234375
 40
0.9375
 40
0.9384765625
 40
0.939453125
 40
0.94140625
 40
0.9453125
 40
0.94921875
 40
0.953125
 40
0.9609375
 40
0.96875
 40
0.984375
 40
1.0
 40
1.0
 40
1.0
 40
1.0
 10
23.3698791182
 20
-17.1676507374
 30
0.0
 10
23.3681957759
 20
-17.1468554749
 30
0.0
 10
23.3648292841
 20
-17.105265017
 30
0.0
 10
23.3606202046
 20
-17.0532766081
 30
0.0
 10
23.3572549672
 20
-17.0116865877
 30
0.0
 10
23.3551471109
 20
-16.9856912266
 30
0.0
 10
23.3534713181
 20
-16.964898597
 30
0.0
 10
23.3521857466
 20
-16.949294106
 30
0.0
 10
23.3512058218
 20
-16.9363222347
 30
0.0
 10
23.3502169218
 20
-16.9258732562
 30
0.0
 10
23.3500352964
 20
-16.9182318441
 30
0.0
 10
23.3477159525
 20
-16.9098448856
 30
0.0
 10
23.3453702266
 20
-16.8989227033
 30
0.0
 10
23.3421818708
 20
-16.8851806237
 30
0.0
 10
23.3384654973
 20
-16.8687283729
 30
0.0
 10
23.3334720709
 20
-16.8467786833
 30
0.0
 10
23.3272431176
 20
-16.8193461238
 30
0.0
 10
23.3197641836
 20
-16.7864252336
 30
0.0
 10
23.3122814818
 20
-16.7535043345
 30
0.0
 10
23.3048180414
 20
-16.7205852896
 30
0.0
 10
23.2985374429
 20
-16.6931465789
 30
0.0
 10
23.2942608332
 20
-16.6739516341
 30
0.0
 10
23.2916299885
 20
-16.662964113
 30
0.0
 10
23.2901838271
 20
-16.6547769437
 30
0.0
 10
23.2867233109
 20
-16.6463853788
 30
0.0
 10
23.2828119201
 20
-16.635267921
 30
0.0
 10
23.2756396046
 20
-16.6157791522
 30
0.0
 10
23.2655647033
 20
-16.5879554192
 30
0.0
 10
23.2534010568
 20
-16.5545595121
 30
0.0
 10
23.241258448
 20
-16.5211655304
 30
0.0
 10
23.2291054532
 20
-16.4877712747
 30
0.0
 10
23.2169729645
 20
-16.4543761894
 30
0.0
 10
23.2068028588
 20
-16.4265499456
 30
0.0
 10
23.1998001801
 20
-16.4070656505
 30
0.0
 10
23.1956170242
 20
-16.3959410255
 30
0.0
 10
23.1929912772
 20
-16.3875714757
 30
0.0
 10
23.1884098632
 20
-16.3793016214
 30
0.0
 10
23.1829834707
 20
-16.3682403736
 30
0.0
 10
23.1731694428
 20
-16.3488993982
 30
0.0
 10
23.159315657
 20
-16.3212609125
 30
0.0
 10
23.1426195886
 20
-16.2880985824
 30
0.0
 10
23.1259436157
 20
-16.2549344749
 30
0.0
 10
23.109258786
 20
-16.221773624
 30
0.0
 10
23.0925892878
 20
-16.1886015241
 30
0.0
 10
23.0786543152
 20
-16.1609928903
 30
0.0
 10
23.0689849475
 20
-16.1415987243
 30
0.0
 10
23.0633268035
 20
-16.13062269
 30
0.0
 10
23.0594572506
 20
-16.1220910891
 30
0.0
 10
23.0541578728
 20
-16.1147046159
 30
0.0
 10
23.0475907756
 20
-16.1044565508
 30
0.0
 10
23.0358659749
 20
-16.0867085494
 30
0.0
 10
23.0192378182
 20
-16.0612568891
 30
0.0
 10
22.9992317044
 20
-16.0307568847
 30
0.0
 10
22.9792403999
 20
-16.0002447248
 30
0.0
 10
22.959242184
 20
-15.9697391989
 30
0.0
 10
22.9392568042
 20
-15.9392192925
 30
0.0
 10
22.9225652937
 20
-15.9138284439
 30
0.0
 10
22.910953378
 20
-15.8959720873
 30
0.0
 10
22.9042054344
 20
-15.8858976116
 30
0.0
 10
22.8994615544
 20
-15.8779779312
 30
0.0
 10
22.8935056452
 20
-15.8714489672
 30
0.0
 10
22.8859872028
 20
-15.8622585832
 30
0.0
 10
22.8726329462
 20
-15.8464014392
 30
0.0
 10
22.8536584709
 20
-15.8236301144
 30
0.0
 10
22.830844782
 20
-15.7963555463
 30
0.0
 10
22.808043513
 20
-15.7690661104
 30
0.0
 10
22.7852368828
 20
-15.7417851241
 30
0.0
 10
22.7624392774
 20
-15.7144852075
 30
0.0
 10
22.743415658
 20
-15.6917913364
 30
0.0
 10
22.7301489674
 20
-15.6757961839
 30
0.0
 10
22.7224902407
 20
-15.6668268951
 30
0.0
 10
22.7169652366
 20
-15.6596188027
 30
0.0
 10
22.7106029491
 20
-15.6542498144
 30
0.0
 10
22.7024119529
 20
-15.6464496631
 30
0.0
 10
22.6879416357
 20
-15.6330982854
 30
0.0
 10
22.6673408995
 20
-15.6138686252
 30
0.0
 10
22.642589544
 20
-15.5908599276
 30
0.0
 10
22.6178462436
 20
-15.5678336729
 30
0.0
 10
22.5931011948
 20
-15.5448107519
 30
0.0
 10
22.5724794365
 20
-15.5256285029
 30
0.0
 10
22.5559850263
 20
-15.5102725926
 30
0.0
 10
22.5436057597
 20
-15.4987838819
 30
0.0
 10
22.5333166522
 20
-15.4891200959
 30
0.0
 10
22.5250249206
 20
-15.4815906212
 30
0.0
 10
22.5189712899
 20
-15.4753927689
 30
0.0
 10
22.5122872099
 20
-15.4712971247
 30
0.0
 10
22.5035953273
 20
-15.4651019372
 30
0.0
 10
22.4926549162
 20
-15.4576098972
 30
0.0
 10
22.4795587644
 20
-15.4485116092
 30
0.0
 10
22.4620859309
 20
-15.4364182234
 30
0.0
 10
22.4402487686
 20
-15.4212886045
 30
0.0
 10
22.4140424982
 20
-15.4031384207
 30
0.0
 10
22.387836723
 20
-15.3849874201
 30
0.0
 10
22.3659983227
 20
-15.3698598432
 30
0.0
 10
22.3485279652
 20
-15.3577623734
 30
0.0
 10
22.3354242615
 20
-15.3486765418
 30
0.0
 10
22.324507476
 20
-15.3411455331
 30
0.0
 10
22.3168599034
 20
-15.3357943091
 30
0.0
 10
22.3124989535
 20
-15.3328606278
 30
0.0
 10
22.30920263
 20
-15.3303106033
 30
0.0
 10
22.3060042049
 20
-15.3290975527
 30
0.0
 10
22.3017054901
 20
-15.3270138005
 30
0.0
 10
22.2941986493
 20
-15.323584516
 30
0.0
 10
22.283466273
 20
-15.3185719404
 30
0.0
 10
22.270590982
 20
-15.3126054745
 30
0.0
 10
22.2534226827
 20
-15.3046331959
 30
0.0
 10
22.2319627417
 20
-15.2946737167
 30
0.0
 10
22.2062106004
 20
-15.2827196562
 30
0.0
 10
22.1804586144
 20
-15.2707669467
 30
0.0
 10
22.1589982853
 20
-15.2608040901
 30
0.0
 10
22.1418307622
 20
-15.2528385663
 30
0.0
 10
22.1289531036
 20
-15.2468514983
 30
0.0
 10
22.1182281342
 20
-15.2419033747
 30
0.0
 10
22.1107080708
 20
-15.2383590335
 30
0.0
 10
22.1064305419
 20
-15.2364596308
 30
0.0
 10
22.1031670404
 20
-15.2346803176
 30
0.0
 10
22.100115133
 20
-15.2342570816
 30
0.0
 10
22.0959721167
 20
-15.2332197521
 30
0.0
 10
22.0887562259
 20
-15.2316248118
 30
0.0
 10
22.0784298322
 20
-15.2292311048
 30
0.0
 10
22.0660458554
 20
-15.226407976
 30
0.0
 10
22.0495311964
 20
-15.2226265706
 30
0.0
 10
22.0288888076
 20
-15.2179057677
 30
0.0
 10
22.0041174885
 20
-15.2122380767
 30
0.0
 10
21.9793464837
 20
-15.2065717695
 30
0.0
 10
21.9587033089
 20
-15.2018475068
 30
0.0
 10
21.9421902219
 20
-15.1980730209
 30
0.0
 10
21.9298014506
 20
-15.1952287877
 30
0.0
 10
21.919490056
 20
-15.1929011043
 30
0.0
 10
21.9122473895
 20
-15.1911883018
 30
0.0
 10
21.9081472747
 20
-15.1903398169
 30
0.0
 10
21.9049635875
 20
-15.1893365107
 30
0.0
 10
21.9021950288
 20
-15.189735845
 30
0.0
 10
21.8983588158
 20
-15.1897790341
 30
0.0
 10
21.8917129086
 20
-15.1900825687
 30
0.0
 10
21.8821834836
 20
-15.1903970125
 30
0.0
 10
21.8707632717
 20
-15.1908253582
 30
0.0
 10
21.8555310463
 20
-15.1913786603
 30
0.0
 10
21.8364925903
 20
-15.1920764458
 30
0.0
 10
21.813645594
 20
-15.1929109692
 30
0.0
 10
21.7907990729
 20
-15.1937469167
 30
0.0
 10
21.7717594288
 20
-15.1944411418
 30
0.0
 10
21.7565295794
 20
-15.1950015647
 30
0.0
 10
21.7451021208
 20
-15.195408192
 30
0.0
 10
21.7355953664
 20
-15.1957905797
 30
0.0
 10
21.7289089888
 20
-15.1959728242
 30
0.0
 10
21.7251376195
 20
-15.1962103505
 30
0.0
 10
21.7221698816
 20
-15.1960127429
 30
0.0
 10
21.7197342784
 20
-15.1972514514
 30
0.0
 10
21.716301193
 20
-15.1984020596
 30
0.0
 10
21.7103797747
 20
-15.2006490507
 30
0.0
 10
21.7018753921
 20
-15.2037369994
 30
0.0
 10
21.6916894867
 20
-15.2074947757
 30
0.0
 10
21.6781015155
 20
-15.2124868913
 30
0.0
 10
21.661118897
 20
-15.2187333369
 30
0.0
 10
21.6407386428
 20
-15.2262262057
 30
0.0
 10
21.6203590836
 20
-15.2337204564
 30
0.0
 10
21.6033747274
 20
-15.2399634475
 30
0.0
 10
21.5897902314
 20
-15.2449624721
 30
0.0
 10
21.5795937268
 20
-15.248699176
 30
0.0
 10
21.5711225029
 20
-15.2518530478
 30
0.0
 10
21.5651418913
 20
-15.2539823561
 30
0.0
 10
21.5618036483
 20
-15.2553215215
 30
0.0
 10
21.5590767195
 20
-15.2559810426
 30
0.0
 10
21.5572031522
 20
-15.2579587668
 30
0.0
 10
21.5544074003
 20
-15.2601359283
 30
0.0
 10
21.5496535208
 20
-15.2641601923
 30
0.0
 10
21.5427897575
 20
-15.2697971381
 30
0.0
 10
21.5345842777
 20
-15.276609415
 30
0.0
 10
21.5236327929
 20
-15.2856756992
 30
0.0
 10
21.5099471843
 20
-15.2970143376
 30
0.0
 10
21.4935227344
 20
-15.3106180718
 30
0.0
 10
21.4770991668
 20
-15.3242230805
 30
0.0
 10
21.4634113526
 20
-15.3355585327
 30
0.0
 10
21.4524642789
 20
-15.3446311893
 30
0.0
 10
21.4442453455
 20
-15.3514240302
 30
0.0
 10
21.4374236706
 20
-15.35712178
 30
0.0
 10
21.4325946569
 20
-15.3610374995
 30
0.0
 10
21.4299192889
 20
-15.3633885766
 30
0.0
 10
21.4276759409
 20
-15.3648320879
 30
0.0
 10
21.4263378466
 20
-15.3674980239
 30
0.0
 10
21.4242379582
 20
-15.3706262098
 30
0.0
 10
21.4207102731
 20
-15.3762992008
 30
0.0
 10
21.4155938071
 20
-15.3842996087
 30
0.0
 10
21.4094869713
 20
-15.3939445569
 30
0.0
 10
21.4013330189
 20
-15.4067889534
 30
0.0
 10
21.391144555
 20
-15.4228498101
 30
0.0
 10
21.378916568
 20
-15.4421204069
 30
0.0
 10
21.3666895396
 20
-15.4613921508
 30
0.0
 10
21.3564986791
 20
-15.4774501399
 30
0.0
 10
21.3483495198
 20
-15.4903002715
 30
0.0
 10
21.3422280649
 20
-15.4999277276
 30
0.0
 10
21.3371573336
 20
-15.5079828578
 30
0.0
 10
21.333548005
 20
-15.5135581612
 30
0.0
 10
21.3315789301
 20
-15.5168428671
 30
0.0
 10
21.3298390186
 20
-15.5190280239
 30
0.0
 10
21.3291048291
 20
-15.5222772622
 30
0.0
 10
21.3277751027
 20
-15.5262384164
 30
0.0
 10
21.3256115291
 20
-15.5333433681
 30
0.0
 10
21.3224352571
 20
-15.5434028882
 30
0.0
 10
21.3186603082
 20
-15.5555130122
 30
0.0
 10
21.3136142617
 20
-15.5716463217
 30
0.0
 10
21.3073111199
 20
-15.5918176268
 30
0.0
 10
21.2997453231
 20
-15.6160210693
 30
0.0
 10
21.2921805665
 20
-15.6402255373
 30
0.0
 10
21.2858748244
 20
-15.6603942785
 30
0.0
 10
21.2808339785
 20
-15.676532716
 30
0.0
 10
21.2770431676
 20
-15.6886271996
 30
0.0
 10
21.2739165184
 20
-15.6987356492
 30
0.0
 10
21.2716643605
 20
-15.7057532542
 30
0.0
 10
21.2704765683
 20
-15.7098543598
 30
0.0
 10
21.2693064025
 20
-15.7126737122
 30
0.0
 10
21.2692039454
 20
-15.7164734487
 30
0.0
 10
21.2686949071
 20
-15.7211977952
 30
0.0
 10
21.2679776116
 20
-15.729624731
 30
0.0
 10
21.2668621848
 20
-15.7415799115
 30
0.0
 10
21.2655625032
 20
-15.7559617828
 30
0.0
 10
21.2638160317
 20
-15.7751251578
 30
0.0
 10
21.2616375863
 20
-15.7990836407
 30
0.0
 10
21.2581494773
 20
-15.8374148293
 30
0.0
 10
21.2537902378
 20
-15.8853296385
 30
0.0
 10
21.2503025729
 20
-15.923661235
 30
0.0
 10
21.2485587747
 20
-15.9428270645
 30
0.0
  0
SPLINE
  5
24C
100
AcDbEntity
  8
0
100
AcDbSpline
 62
7
  6
CONTINUOUS
 70
0
 71
3
 72
227
 73
223
 74
0
 42
0.0000001
 43
0.0000001
 44
0.0000000001
 40
0.0
 40
0.0
 40
0.0
 40
0.0
 40
0.015625
 40
0.03125
 40
0.0390625
 40
0.046875
 40
0.05078125
 40
0.0546875
 40
0.05859375
 40
0.060546875
 40
0.0625
 40
0.064453125
 40
0.06640625
 40
0.0703125
 40
0.07421875
 40
0.078125
 40
0.0859375
 40
0.09375
 40
0.1015625
 40
0.109375
 40
0.1171875
 40
0.12109375
 40
0.123046875
 40
0.125
 40
0.126953125
 40
0.12890625
 40
0.1328125
 40
0.140625
 40
0.1484375
 40
0.15625
 40
0.1640625
 40
0.171875
 40
0.1796875
 40
0.18359375
 40
0.185546875
 40
0.1875
 40
0.189453125
 40
0.19140625
 40
0.1953125
 40
0.203125
 40
0.2109375
 40
0.21875
 40
0.2265625
 40
0.234375
 40
0.2421875
 40
0.24609375
 40
0.248046875
 40
0.25
 40
0.251953125
 40
0.25390625
 40
0.2578125
 40
0.265625
 40
0.2734375
 40
0.28125
 40
0.2890625
 40
0.296875
 40
0.3046875
 40
0.30859375
 40
0.310546875
 40
0.3125
 40
0.314453125
 40
0.31640625
 40
0.3203125
 40
0.328125
 40
0.3359375
 40
0.34375
 40
0.3515625
 40
0.359375
 40
0.3671875
 40
0.37109375
 40
0.373046875
 40
0.375
 40
0.376953125
 40
0.37890625
 40
0.3828125
 40
0.390625
 40
0.3984375
 40
0.40625
 40
0.4140625
 40
0.421875
 40
0.42578125
 40
0.4296875
 40
0.43359375
 40
0.435546875
 40
0.4375
 40
0.439453125
 40
0.44140625
 40
0.4453125
 40
0.44921875
 40
0.453125
 40
0.4609375
 40
0.46875
 40
0.4765625
 40
0.484375
 40
0.48828125
 40
0.4921875
 40
0.49609375
 40
0.498046875
 40
0.4990234375
 40
0.5
 40
0.5009765625
 40
0.501953125
 40
0.50390625
 40
0.5078125
 40
0.51171875
 40
0.515625
 40
0.5234375
 40
0.53125
 40
0.5390625
 40
0.546875
 40
0.55078125
 40
0.5546875
 40
0.55859375
 40
0.560546875
 40
0.5615234375
 40
0.5625
 40
0.5634765625
 40
0.564453125
 40
0.56640625
 40
0.5703125
 40
0.57421875
 40
0.578125
 40
0.5859375
 40
0.59375
 40
0.6015625
 40
0.609375
 40
0.61328125
 40
0.6171875
 40
0.62109375
 40
0.623046875
 40
0.6240234375
 40
0.625
 40
0.6259765625
 40
0.626953125
 40
0.62890625
 40
0.6328125
 40
0.63671875
 40
0.640625
 40
0.6484375
 40
0.65625
 40
0.6640625
 40
0.671875
 40
0.67578125
 40
0.6796875
 40
0.68359375
 40
0.685546875
 40
0.6865234375
 40
0.6875
 40
0.6884765625
 40
0.689453125
 40
0.69140625
 40
0.6953125
 40
0.69921875
 40
0.703125
 40
0.7109375
 40
0.71875
 40
0.7265625
 40
0.734375
 40
0.73828125
 40
0.7421875
 40
0.74609375
 40
0.748046875
 40
0.7490234375
 40
0.75
 40
0.7509765625
 40
0.751953125
 40
0.75390625
 40
0.7578125
 40
0.76171875
 40
0.765625
 40
0.7734375
 40
0.78125
 40
0.7890625
 40
0.796875
 40
0.80078125
 40
0.8046875
 40
0.80859375
 40
0.810546875
 40
0.8115234375
 40
0.8125
 40
0.8134765625
 40
0.814453125
 40
0.81640625
 40
0.8203125
 40
0.82421875
 40
0.828125
 40
0.8359375
 40
0.84375
 40
0.8515625
 40
0.859375
 40
0.86328125
 40
0.8671875
 40
0.87109375
 40
0.873046875
 40
0.8740234375
 40
0.875
 40
0.8759765625
 40
0.876953125
 40
0.87890625
 40
0.8828125
 40
0.88671875
 40
0.890625
 40
0.8984375
 40
0.90625
 40
0.9140625
 40
0.921875
 40
0.92578125
 40
0.9296875
 40
0.93359375
 40
0.935546875
 40
0.9365234375
 40
0.9375
 40
0.9384765625
 40
0.939453125
 40
0.94140625
 40
0.9453125
 40
0.94921875
 40
0.953125
 40
0.9609375
 40
0.96875
 40
0.984375
 40
1.0
 40
1.0
 40
1.0
 40
1.0
 10
21.2485587747
 20
-15.9428269575
 30
0.0
 10
21.250242117
 20
-15.9636222201
 30
0.0
 10
21.2536086087
 20
-16.0052126779
 30
0.0
 10
21.2578176882
 20
-16.0572010868
 30
0.0
 10
21.2611829257
 20
-16.0987911072
 30
0.0
 10
21.263290782
 20
-16.1247864683
 30
0.0
 10
21.2649665747
 20
-16.1455790979
 30
0.0
 10
21.2662521463
 20
-16.1611835889
 30
0.0
 10
21.2672320711
 20
-16.1741554602
 30
0.0
 10
21.2682209711
 20
-16.1846044387
 30
0.0
 10
21.2684025964
 20
-16.1922458508
 30
0.0
 10
21.2707219403
 20
-16.2006328093
 30
0.0
 10
21.2730676662
 20
-16.2115549916
 30
0.0
 10
21.276256022
 20
-16.2252970712
 30
0.0
 10
21.2799723955
 20
-16.241749322
 30
0.0
 10
21.284965822
 20
-16.2636990116
 30
0.0
 10
21.2911947753
 20
-16.2911315711
 30
0.0
 10
21.2986737093
 20
-16.3240524613
 30
0.0
 10
21.3061564111
 20
-16.3569733604
 30
0.0
 10
21.3136198515
 20
-16.3898924053
 30
0.0
 10
21.3199004499
 20
-16.417331116
 30
0.0
 10
21.3241770596
 20
-16.4365260608
 30
0.0
 10
21.3268079044
 20
-16.4475135819
 30
0.0
 10
21.3282540658
 20
-16.4557007512
 30
0.0
 10
21.331714582
 20
-16.4640923161
 30
0.0
 10
21.3356259727
 20
-16.4752097739
 30
0.0
 10
21.3427982883
 20
-16.4946985427
 30
0.0
 10
21.3528731896
 20
-16.5225222757
 30
0.0
 10
21.3650368361
 20
-16.5559181828
 30
0.0
 10
21.3771794449
 20
-16.5893121646
 30
0.0
 10
21.3893324396
 20
-16.6227064202
 30
0.0
 10
21.4014649284
 20
-16.6561015056
 30
0.0
 10
21.411635034
 20
-16.6839277493
 30
0.0
 10
21.4186377127
 20
-16.7034120444
 30
0.0
 10
21.4228208686
 20
-16.7145366694
 30
0.0
 10
21.4254466157
 20
-16.7229062192
 30
0.0
 10
21.4300280297
 20
-16.7311760735
 30
0.0
 10
21.4354544221
 20
-16.7422373213
 30
0.0
 10
21.44526845
 20
-16.7615782967
 30
0.0
 10
21.4591222358
 20
-16.7892167824
 30
0.0
 10
21.4758183043
 20
-16.8223791125
 30
0.0
 10
21.4924942772
 20
-16.85554322
 30
0.0
 10
21.5091791068
 20
-16.8887040709
 30
0.0
 10
21.525848605
 20
-16.9218761708
 30
0.0
 10
21.5397835777
 20
-16.9494848046
 30
0.0
 10
21.5494529454
 20
-16.9688789706
 30
0.0
 10
21.5551110894
 20
-16.9798550049
 30
0.0
 10
21.5589806423
 20
-16.9883866058
 30
0.0
 10
21.5642800201
 20
-16.995773079
 30
0.0
 10
21.5708471173
 20
-17.0060211441
 30
0.0
 10
21.582571918
 20
-17.0237691455
 30
0.0
 10
21.5992000747
 20
-17.0492208058
 30
0.0
 10
21.6192061885
 20
-17.0797208102
 30
0.0
 10
21.639197493
 20
-17.1102329701
 30
0.0
 10
21.6591957088
 20
-17.140738496
 30
0.0
 10
21.6791810886
 20
-17.1712584024
 30
0.0
 10
21.6958725992
 20
-17.196649251
 30
0.0
 10
21.7074845149
 20
-17.2145056076
 30
0.0
 10
21.7142324585
 20
-17.2245800833
 30
0.0
 10
21.7189763385
 20
-17.2324997637
 30
0.0
 10
21.7249322477
 20
-17.2390287277
 30
0.0
 10
21.7324506901
 20
-17.2482191117
 30
0.0
 10
21.7458049467
 20
-17.2640762558
 30
0.0
 10
21.7647794219
 20
-17.2868475805
 30
0.0
 10
21.7875931109
 20
-17.3141221486
 30
0.0
 10
21.8103943799
 20
-17.3414115845
 30
0.0
 10
21.8332010101
 20
-17.3686925709
 30
0.0
 10
21.8559986155
 20
-17.3959924874
 30
0.0
 10
21.8750222349
 20
-17.4186863585
 30
0.0
 10
21.8882889255
 20
-17.434681511
 30
0.0
 10
21.8959476522
 20
-17.4436507998
 30
0.0
 10
21.9014726562
 20
-17.4508588922
 30
0.0
 10
21.9078349438
 20
-17.4562278806
 30
0.0
 10
21.91602594
 20
-17.4640280318
 30
0.0
 10
21.9304962571
 20
-17.4773794095
 30
0.0
 10
21.9510969934
 20
-17.4966090697
 30
0.0
 10
21.9758483489
 20
-17.5196177673
 30
0.0
 10
22.0005916492
 20
-17.542644022
 30
0.0
 10
22.0253366981
 20
-17.565666943
 30
0.0
 10
22.0459584564
 20
-17.584849192
 30
0.0
 10
22.0624528666
 20
-17.6002051023
 30
0.0
 10
22.0748321331
 20
-17.611693813
 30
0.0
 10
22.0851212406
 20
-17.6213575991
 30
0.0
 10
22.0934129723
 20
-17.6288870737
 30
0.0
 10
22.0994666029
 20
-17.635084926
 30
0.0
 10
22.106150683
 20
-17.6391805702
 30
0.0
 10
22.1148425656
 20
-17.6453757577
 30
0.0
 10
22.1257829767
 20
-17.6528677977
 30
0.0
 10
22.1388791285
 20
-17.6619660857
 30
0.0
 10
22.156351962
 20
-17.6740594715
 30
0.0
 10
22.1781891243
 20
-17.6891890904
 30
0.0
 10
22.2043953947
 20
-17.7073392742
 30
0.0
 10
22.2306011698
 20
-17.7254902748
 30
0.0
 10
22.2524395701
 20
-17.7406178517
 30
0.0
 10
22.2699099276
 20
-17.7527153215
 30
0.0
 10
22.2830136314
 20
-17.7618011531
 30
0.0
 10
22.2939304169
 20
-17.7693321618
 30
0.0
 10
22.3015779894
 20
-17.7746833858
 30
0.0
 10
22.3059389394
 20
-17.7776170671
 30
0.0
 10
22.3092352628
 20
-17.7801670917
 30
0.0
 10
22.3124336879
 20
-17.7813801422
 30
0.0
 10
22.3167324028
 20
-17.7834638944
 30
0.0
 10
22.3242392436
 20
-17.7868931789
 30
0.0
 10
22.3349716199
 20
-17.7919057545
 30
0.0
 10
22.3478469109
 20
-17.7978722204
 30
0.0
 10
22.3650152102
 20
-17.805844499
 30
0.0
 10
22.3864751512
 20
-17.8158039782
 30
0.0
 10
22.4122272925
 20
-17.8277580387
 30
0.0
 10
22.4379792785
 20
-17.8397107482
 30
0.0
 10
22.4594396076
 20
-17.8496736048
 30
0.0
 10
22.4766071306
 20
-17.8576391286
 30
0.0
 10
22.4894847893
 20
-17.8636261966
 30
0.0
 10
22.5002097587
 20
-17.8685743203
 30
0.0
 10
22.507729822
 20
-17.8721186614
 30
0.0
 10
22.512007351
 20
-17.8740180641
 30
0.0
 10
22.5152708524
 20
-17.8757973773
 30
0.0
 10
22.5183227599
 20
-17.8762206133
 30
0.0
 10
22.5224657762
 20
-17.8772579428
 30
0.0
 10
22.5296816669
 20
-17.8788528831
 30
0.0
 10
22.5400080607
 20
-17.8812465901
 30
0.0
 10
22.5523920375
 20
-17.8840697189
 30
0.0
 10
22.5689066965
 20
-17.8878511243
 30
0.0
 10
22.5895490853
 20
-17.8925719272
 30
0.0
 10
22.6143204044
 20
-17.8982396183
 30
0.0
 10
22.6390914092
 20
-17.9039059254
 30
0.0
 10
22.659734584
 20
-17.9086301881
 30
0.0
 10
22.676247671
 20
-17.912404674
 30
0.0
 10
22.6886364423
 20
-17.9152489072
 30
0.0
 10
22.6989478369
 20
-17.9175765906
 30
0.0
 10
22.7061905034
 20
-17.9192893931
 30
0.0
 10
22.7102906182
 20
-17.920137878
 30
0.0
 10
22.7134743054
 20
-17.9211411842
 30
0.0
 10
22.716242864
 20
-17.9207418499
 30
0.0
 10
22.7200790771
 20
-17.9206986608
 30
0.0
 10
22.7267249842
 20
-17.9203951262
 30
0.0
 10
22.7362544092
 20
-17.9200806824
 30
0.0
 10
22.7476746212
 20
-17.9196523367
 30
0.0
 10
22.7629068465
 20
-17.9190990346
 30
0.0
 10
22.7819453026
 20
-17.9184012491
 30
0.0
 10
22.8047922989
 20
-17.9175667257
 30
0.0
 10
22.82763882
 20
-17.9167307782
 30
0.0
 10
22.846678464
 20
-17.9160365531
 30
0.0
 10
22.8619083135
 20
-17.9154761302
 30
0.0
 10
22.8733357721
 20
-17.9150695029
 30
0.0
 10
22.8828425265
 20
-17.9146871152
 30
0.0
 10
22.889528904
 20
-17.9145048708
 30
0.0
 10
22.8933002733
 20
-17.9142673444
 30
0.0
 10
22.8962680112
 20
-17.914464952
 30
0.0
 10
22.8987036144
 20
-17.9132262435
 30
0.0
 10
22.9021366999
 20
-17.9120756353
 30
0.0
 10
22.9080581182
 20
-17.9098286442
 30
0.0
 10
22.9165625008
 20
-17.9067406955
 30
0.0
 10
22.9267484062
 20
-17.9029829192
 30
0.0
 10
22.9403363773
 20
-17.8979908036
 30
0.0
 10
22.9573189959
 20
-17.891744358
 30
0.0
 10
22.9776992501
 20
-17.8842514892
 30
0.0
 10
22.9980788093
 20
-17.8767572385
 30
0.0
 10
23.0150631654
 20
-17.8705142475
 30
0.0
 10
23.0286476614
 20
-17.8655152229
 30
0.0
 10
23.038844166
 20
-17.8617785189
 30
0.0
 10
23.04731539
 20
-17.8586246471
 30
0.0
 10
23.0532960015
 20
-17.8564953388
 30
0.0
 10
23.0566342446
 20
-17.8551561734
 30
0.0
 10
23.0593611733
 20
-17.8544966523
 30
0.0
 10
23.0612347407
 20
-17.8525189281
 30
0.0
 10
23.0640304926
 20
-17.8503417666
 30
0.0
 10
23.068784372
 20
-17.8463175026
 30
0.0
 10
23.0756481354
 20
-17.8406805569
 30
0.0
 10
23.0838536152
 20
-17.8338682799
 30
0.0
 10
23.0948050999
 20
-17.8248019957
 30
0.0
 10
23.1084907086
 20
-17.8134633573
 30
0.0
 10
23.1249151584
 20
-17.7998596231
 30
0.0
 10
23.1413387261
 20
-17.7862546144
 30
0.0
 10
23.1550265402
 20
-17.7749191622
 30
0.0
 10
23.165973614
 20
-17.7658465056
 30
0.0
 10
23.1741925474
 20
-17.7590536647
 30
0.0
 10
23.1810142223
 20
-17.7533559149
 30
0.0
 10
23.185843236
 20
-17.7494401955
 30
0.0
 10
23.188518604
 20
-17.7470891183
 30
0.0
 10
23.190761952
 20
-17.745645607
 30
0.0
 10
23.1921000463
 20
-17.742979671
 30
0.0
 10
23.1941999347
 20
-17.7398514851
 30
0.0
 10
23.1977276197
 20
-17.7341784941
 30
0.0
 10
23.2028440858
 20
-17.7261780862
 30
0.0
 10
23.2089509216
 20
-17.716533138
 30
0.0
 10
23.2171048739
 20
-17.7036887415
 30
0.0
 10
23.2272933379
 20
-17.6876278848
 30
0.0
 10
23.2395213249
 20
-17.668357288
 30
0.0
 10
23.2517483533
 20
-17.6490855442
 30
0.0
 10
23.2619392138
 20
-17.633027555
 30
0.0
 10
23.270088373
 20
-17.6201774234
 30
0.0
 10
23.2762098279
 20
-17.6105499673
 30
0.0
 10
23.2812805592
 20
-17.6024948371
 30
0.0
 10
23.2848898879
 20
-17.5969195337
 30
0.0
 10
23.2868589627
 20
-17.5936348278
 30
0.0
 10
23.2885988742
 20
-17.591449671
 30
0.0
 10
23.2893330637
 20
-17.5882004327
 30
0.0
 10
23.2906627901
 20
-17.5842392786
 30
0.0
 10
23.2928263638
 20
-17.5771343268
 30
0.0
 10
23.2960026358
 20
-17.5670748067
 30
0.0
 10
23.2997775847
 20
-17.5549646828
 30
0.0
 10
23.3048236312
 20
-17.5388313732
 30
0.0
 10
23.311126773
 20
-17.5186600681
 30
0.0
 10
23.3186925698
 20
-17.4944566256
 30
0.0
 10
23.3262573264
 20
-17.4702521576
 30
0.0
 10
23.3325630685
 20
-17.4500834164
 30
0.0
 10
23.3376039144
 20
-17.4339449789
 30
0.0
 10
23.3413947252
 20
-17.4218504953
 30
0.0
 10
23.3445213745
 20
-17.4117420457
 30
0.0
 10
23.3467735324
 20
-17.4047244407
 30
0.0
 10
23.3479613246
 20
-17.4006233351
 30
0.0
 10
23.3491314903
 20
-17.3978039827
 30
0.0
 10
23.3492339475
 20
-17.3940042462
 30
0.0
 10
23.3497429857
 20
-17.3892798998
 30
0.0
 10
23.3504602813
 20
-17.3808529639
 30
0.0
 10
23.3515757081
 20
-17.3688977834
 30
0.0
 10
23.3528753897
 20
-17.3545159121
 30
0.0
 10
23.3546218612
 20
-17.3353525371
 30
0.0
 10
23.3568003066
 20
-17.3113940542
 30
0.0
 10
23.3602884156
 20
-17.2730628656
 30
0.0
 10
23.3646476551
 20
-17.2251480564
 30
0.0
 10
23.3681353199
 20
-17.18681646
 30
0.0
 10
23.3698791182
 20
-17.1676506304
 30
0.0
  0
SPLINE
  5
24D
100
AcDbEntity
  8
0
100
AcDbSpline
 62
7
  6
CONTINUOUS
 70
0
 71
3
 72
152
 73
148
 74
0
 42
0.0000001
 43
0.0000001
 44
0.0000000001
 40
0.0
 40
0.0
 40
0.0
 40
0.0
 40
0.03125
 40
0.046875
 40
0.0625
 40
0.0703125
 40
0.078125
 40
0.08203125
 40
0.083984375
 40
0.0859375
 40
0.08984375
 40
0.09375
 40
0.1015625
 40
0.109375
 40
0.125
 40
0.140625
 40
0.1484375
 40
0.15625
 40
0.16015625
 40
0.1640625
 40
0.166015625
 40
0.16796875
 40
0.171875
 40
0.1796875
 40
0.1875
 40
0.203125
 40
0.21875
 40
0.2265625
 40
0.234375
 40
0.2421875
 40
0.24609375
 40
0.248046875
 40
0.25
 40
0.251953125
 40
0.25390625
 40
0.2578125
 40
0.265625
 40
0.2734375
 40
0.28125
 40
0.296875
 40
0.3125
 40
0.3203125
 40
0.328125
 40
0.33203125
 40
0.333984375
 40
0.3359375
 40
0.33984375
 40
0.34375
 40
0.359375
 40
0.375
 40
0.390625
 40
0.3984375
 40
0.40625
 40
0.41015625
 40
0.4140625
 40
0.416015625
 40
0.41796875
 40
0.421875
 40
0.4296875
 40
0.4375
 40
0.453125
 40
0.46875
 40
0.4765625
 40
0.484375
 40
0.4921875
 40
0.49609375
 40
0.498046875
 40
0.5
 40
0.501953125
 40
0.50390625
 40
0.5078125
 40
0.515625
 40
0.5234375
 40
0.53125
 40
0.546875
 40
0.5546875
 40
0.5625
 40
0.5703125
 40
0.578125
 40
0.58203125
 40
0.583984375
 40
0.5859375
 40
0.58984375
 40
0.59375
 40
0.6015625
 40
0.609375
 40
0.625
 40
0.640625
 40
0.6484375
 40
0.65625
 40
0.66015625
 40
0.6640625
 40
0.666015625
 40
0.6669921875
 40
0.66796875
 40
0.669921875
 40
0.671875
 40
0.6796875
 40
0.6875
 40
0.6953125
 40
0.703125
 40
0.71875
 40
0.7265625
 40
0.734375
 40
0.73828125
 40
0.7421875
 40
0.74609375
 40
0.748046875
 40
0.75
 40
0.751953125
 40
0.75390625
 40
0.7578125
 40
0.76171875
 40
0.765625
 40
0.7734375
 40
0.78125
 40
0.796875
 40
0.8046875
 40
0.8125
 40
0.8203125
 40
0.828125
 40
0.830078125
 40
0.83203125
 40
0.8330078125
 40
0.833984375
 40
0.8359375
 40
0.83984375
 40
0.84375
 40
0.8515625
 40
0.859375
 40
0.875
 40
0.890625
 40
0.8984375
 40
0.90625
 40
0.91015625
 40
0.9140625
 40
0.916015625
 40
0.9169921875
 40
0.91796875
 40
0.919921875
 40
0.921875
 40
0.9296875
 40
0.9375
 40
0.9453125
 40
0.953125
 40
0.96875
 40
1.0
 40
1.0
 40
1.0
 40
1.0
 10
30.0873935395
 20
-35.579430301
 30
0.0
 10
30.0846855746
 20
-35.5470841036
 30
0.0
 10
30.0806210324
 20
-35.4985639244
 30
0.0
 10
30.0752120221
 20
-35.4338738849
 30
0.0
 10
30.071809767
 20
-35.3934352501
 30
0.0
 10
30.069137265
 20
-35.3611011232
 30
0.0
 10
30.0673545079
 20
-35.3408540217
 30
0.0
 10
30.0663319242
 20
-35.3267577515
 30
0.0
 10
30.0653950157
 20
-35.3185827343
 30
0.0
 10
30.0631299054
 20
-35.3099556383
 30
0.0
 10
30.0607532922
 20
-35.2993265593
 30
0.0
 10
30.0566965568
 20
-35.2822335281
 30
0.0
 10
30.0517126954
 20
-35.2608968615
 30
0.0
 10
30.0436896557
 20
-35.2267416207
 30
0.0
 10
30.0336790858
 20
-35.1840533872
 30
0.0
 10
30.0236566738
 20
-35.1413626013
 30
0.0
 10
30.0156525814
 20
-35.1072114443
 30
0.0
 10
30.0106213519
 20
-35.0858645681
 30
0.0
 10
30.006661721
 20
-35.0687924665
 30
0.0
 10
30.0040379058
 20
-35.0581101061
 30
0.0
 10
30.0022802257
 20
-35.0495923806
 30
0.0
 10
29.9992762939
 20
-35.0409718416
 30
0.0
 10
29.9934404775
 20
-35.0258381367
 30
0.0
 10
29.9854056488
 20
-35.0042434815
 30
0.0
 10
29.9723811667
 20
-34.969678084
 30
0.0
 10
29.9561580275
 20
-34.9264762629
 30
0.0
 10
29.9399159799
 20
-34.8832721755
 30
0.0
 10
29.9269217512
 20
-34.8487104042
 30
0.0
 10
29.9171891966
 20
-34.8227859395
 30
0.0
 10
29.9090352575
 20
-34.8011920485
 30
0.0
 10
29.903413063
 20
-34.7860570547
 30
0.0
 10
29.9000667443
 20
-34.7774385724
 30
0.0
 10
29.8979334673
 20
-34.7708899598
 30
0.0
 10
29.89436116
 20
-34.764665308
 30
0.0
 10
29.8901000331
 20
-34.7562527714
 30
0.0
 10
29.8824091966
 20
-34.7415834796
 30
0.0
 10
29.8715445291
 20
-34.7205998399
 30
0.0
 10
29.8584547149
 20
-34.6954311764
 30
0.0
 10
29.8410193169
 20
-34.661869221
 30
0.0
 10
29.8192229458
 20
-34.6199155474
 30
0.0
 10
29.7974129599
 20
-34.5779714626
 30
0.0
 10
29.7799993455
 20
-34.5443941653
 30
0.0
 10
29.7690367081
 20
-34.5234586337
 30
0.0
 10
29.7615215121
 20
-34.5087029941
 30
0.0
 10
29.7569788811
 20
-34.5004288606
 30
0.0
 10
29.7515012796
 20
-34.4927485533
 30
0.0
 10
29.7449738531
 20
-34.4829451987
 30
0.0
 10
29.7290450166
 20
-34.4595841851
 30
0.0
 10
29.7052620508
 20
-34.4244727495
 30
0.0
 10
29.6734892474
 20
-34.3776963084
 30
0.0
 10
29.6470231165
 20
-34.3387108798
 30
0.0
 10
29.6258544104
 20
-34.3075152801
 30
0.0
 10
29.61260787
 20
-34.2880387029
 30
0.0
 10
29.6020482258
 20
-34.272409641
 30
0.0
 10
29.5953625274
 20
-34.2627506415
 30
0.0
 10
29.5902107815
 20
-34.2547733979
 30
0.0
 10
29.5843405208
 20
-34.247708999
 30
0.0
 10
29.5737337838
 20
-34.2357703551
 30
0.0
 10
29.55875545
 20
-34.2184939097
 30
0.0
 10
29.5346928076
 20
-34.1909751764
 30
0.0
 10
29.5046477262
 20
-34.1565348742
 30
0.0
 10
29.4745913941
 20
-34.1221076401
 30
0.0
 10
29.4505467528
 20
-34.0945679978
 30
0.0
 10
29.4325187492
 20
-34.0738989905
 30
0.0
 10
29.417476978
 20
-34.0567215091
 30
0.0
 10
29.4069840551
 20
-34.0446054658
 30
0.0
 10
29.4009313719
 20
-34.0378253873
 30
0.0
 10
29.396551665
 20
-34.0323364344
 30
0.0
 10
29.3915610998
 20
-34.0283913701
 30
0.0
 10
29.3851200872
 20
-34.0225927587
 30
0.0
 10
29.3737490394
 20
-34.0126960991
 30
0.0
 10
29.3575565908
 20
-33.9984268238
 30
0.0
 10
29.3381034225
 20
-33.981359897
 30
0.0
 10
29.312173693
 20
-33.9585841146
 30
0.0
 10
29.2862414537
 20
-33.9358152054
 30
0.0
 10
29.2603108728
 20
-33.9130405865
 30
0.0
 10
29.2408604719
 20
-33.8959698782
 30
0.0
 10
29.2214191025
 20
-33.8788610013
 30
0.0
 10
29.2051899107
 20
-33.8647222858
 30
0.0
 10
29.1938844315
 20
-33.8545926518
 30
0.0
 10
29.1873383643
 20
-33.8491673132
 30
0.0
 10
29.1804691513
 20
-33.8451093254
 30
0.0
 10
29.1719932796
 20
-33.8395686619
 30
0.0
 10
29.1583700518
 20
-33.8309652428
 30
0.0
 10
29.1413621873
 20
-33.8201213648
 30
0.0
 10
29.1141377811
 20
-33.8028213412
 30
0.0
 10
29.0801112641
 20
-33.7811783695
 30
0.0
 10
29.0460835627
 20
-33.7595444403
 30
0.0
 10
29.0188610516
 20
-33.7422299487
 30
0.0
 10
29.0018484494
 20
-33.7314222407
 30
0.0
 10
28.9882349337
 20
-33.7227446732
 30
0.0
 10
28.9797343378
 20
-33.7173927717
 30
0.0
 10
28.9737681838
 20
-33.7135029954
 30
0.0
 10
28.9703835749
 20
-33.7115046988
 30
0.0
 10
28.9670917041
 20
-33.7103517259
 30
0.0
 10
28.9629451674
 20
-33.7086215746
 30
0.0
 10
28.9530195683
 20
-33.7047070182
 30
0.0
 10
28.9381202122
 20
-33.6987353034
 30
0.0
 10
28.9182606656
 20
-33.6908300981
 30
0.0
 10
28.8983994488
 20
-33.6829096459
 30
0.0
 10
28.8719183857
 20
-33.6723542521
 30
0.0
 10
28.8454373066
 20
-33.6617980969
 30
0.0
 10
28.8189558562
 20
-33.651240319
 30
0.0
 10
28.8024058914
 20
-33.6446463992
 30
0.0
 10
28.7891637522
 20
-33.6393604096
 30
0.0
 10
28.779238085
 20
-33.6354256639
 30
0.0
 10
28.7709478078
 20
-33.6320520767
 30
0.0
 10
28.7643579485
 20
-33.6295654515
 30
0.0
 10
28.7592997994
 20
-33.6271205283
 30
0.0
 10
28.7546834873
 20
-33.6268893002
 30
0.0
 10
28.7483740651
 20
-33.6258077236
 30
0.0
 10
28.7405402404
 20
-33.6247210585
 30
0.0
 10
28.7311169853
 20
-33.6233035016
 30
0.0
 10
28.718560561
 20
-33.6214530876
 30
0.0
 10
28.7028623252
 20
-33.6191265034
 30
0.0
 10
28.6777466313
 20
-33.6154114715
 30
0.0
 10
28.652630695
 20
-33.6116948356
 30
0.0
 10
28.6275143732
 20
-33.6079773849
 30
0.0
 10
28.6086785307
 20
-33.6051933451
 30
0.0
 10
28.5898372857
 20
-33.6023935198
 30
0.0
 10
28.5757215102
 20
-33.6003379711
 30
0.0
 10
28.5662874177
 20
-33.5988986712
 30
0.0
 10
28.5623916278
 20
-33.5984015419
 30
0.0
 10
28.5591931566
 20
-33.5977645423
 30
0.0
 10
28.5562939772
 20
-33.5980026641
 30
0.0
 10
28.5513594713
 20
-33.5988259792
 30
0.0
 10
28.5442376235
 20
-33.5997899989
 30
0.0
 10
28.5328832145
 20
-33.6014509892
 30
0.0
 10
28.518676312
 20
-33.6034866149
 30
0.0
 10
28.4959530771
 20
-33.606766416
 30
0.0
 10
28.4675460297
 20
-33.6108576167
 30
0.0
 10
28.4391412361
 20
-33.61495452
 30
0.0
 10
28.4164143952
 20
-33.618225197
 30
0.0
 10
28.4022165079
 20
-33.6202836329
 30
0.0
 10
28.3908436175
 20
-33.6218978623
 30
0.0
 10
28.3837688185
 20
-33.6229809226
 30
0.0
 10
28.378749808
 20
-33.623590428
 30
0.0
 10
28.3759860838
 20
-33.6241712726
 30
0.0
 10
28.373615136
 20
-33.6256280368
 30
0.0
 10
28.3705171986
 20
-33.627149599
 30
0.0
 10
28.3631926449
 20
-33.6310477624
 30
0.0
 10
28.3521594049
 20
-33.6367915108
 30
0.0
 10
28.3374749437
 20
-33.6445089962
 30
0.0
 10
28.322783387
 20
-33.6522106579
 30
0.0
 10
28.3031971204
 20
-33.6624850611
 30
0.0
 10
28.2689199935
 20
-33.6804626788
 30
0.0
 10
28.2395399968
 20
-33.6958729528
 30
0.0
 10
28.2199532439
 20
-33.7061462715
 30
0.0
  0
SPLINE
  5
24E
100
AcDbEntity
  8
0
100
AcDbSpline
 62
7
  6
CONTINUOUS
 70
0
 71
3
 72
65
 73
61
 74
0
 42
0.0000001
 43
0.0000001
 44
0.0000000001
 40
0.0
 40
0.0
 40
0.0
 40
0.0
 40
0.0625
 40
0.09375
 40
0.125
 40
0.140625
 40
0.15625
 40
0.1640625
 40
0.16796875
 40
0.171875
 40
0.1796875
 40
0.1875
 40
0.21875
 40
0.25
 40
0.28125
 40
0.3125
 40
0.3203125
 40
0.328125
 40
0.33203125
 40
0.3359375
 40
0.34375
 40
0.359375
 40
0.375
 40
0.40625
 40
0.4375
 40
0.453125
 40
0.46875
 40
0.484375
 40
0.4921875
 40
0.49609375
 40
0.5
 40
0.50390625
 40
0.5078125
 40
0.515625
 40
0.53125
 40
0.546875
 40
0.5625
 40
0.59375
 40
0.625
 40
0.640625
 40
0.65625
 40
0.6640625
 40
0.66796875
 40
0.671875
 40
0.6796875
 40
0.6875
 40
0.71875
 40
0.75
 40
0.78125
 40
0.8125
 40
0.8203125
 40
0.828125
 40
0.83203125
 40
0.8359375
 40
0.84375
 40
0.859375
 40
0.875
 40
0.90625
 40
0.9375
 40
1.0
 40
1.0
 40
1.0
 40
1.0
 10
29.7153973524
 20
-36.2960948383
 30
0.0
 10
29.728899351
 20
-36.2885234849
 30
0.0
 10
29.7491513527
 20
-36.2771648689
 30
0.0
 10
29.7761580059
 20
-36.2620263913
 30
0.0
 10
29.7930288638
 20
-36.2525516267
 30
0.0
 10
29.8065444748
 20
-36.2450019476
 30
0.0
 10
29.8149485703
 20
-36.2402146749
 30
0.0
 10
29.8209179363
 20
-36.2370013114
 30
0.0
 10
29.8241936667
 20
-36.2349496165
 30
0.0
 10
29.8269596546
 20
-36.2320862893
 30
0.0
 10
29.8305913758
 20
-36.2287845554
 30
0.0
 10
29.8391640651
 20
-36.220632011
 30
0.0
 10
29.8520838858
 20
-36.2084998365
 30
0.0
 10
29.8692730005
 20
-36.1922649453
 30
0.0
 10
29.8864816887
 20
-36.1760585185
 30
0.0
 10
29.8993574691
 20
-36.1638622992
 30
0.0
 10
29.9079864323
 20
-36.1557915899
 30
0.0
 10
29.9115151886
 20
-36.1523401214
 30
0.0
 10
29.9144936306
 20
-36.1497857515
 30
0.0
 10
29.9169036409
 20
-36.1464751003
 30
0.0
 10
29.9208570533
 20
-36.1403300763
 30
0.0
 10
29.9266425779
 20
-36.1317347991
 30
0.0
 10
29.935822438
 20
-36.1178799387
 30
0.0
 10
29.9473234371
 20
-36.1005961762
 30
0.0
 10
29.9588159641
 20
-36.0833011825
 30
0.0
 10
29.9680093797
 20
-36.0694642922
 30
0.0
 10
29.9749113427
 20
-36.0590960492
 30
0.0
 10
29.9806402264
 20
-36.0504248039
 30
0.0
 10
29.9846952053
 20
-36.0444159988
 30
0.0
 10
29.9869424297
 20
-36.0408870231
 30
0.0
 10
29.9888247786
 20
-36.038508962
 30
0.0
 10
29.9899543583
 20
-36.0351039045
 30
0.0
 10
29.9917230386
 20
-36.0309220555
 30
0.0
 10
29.9946958934
 20
-36.0234369166
 30
0.0
 10
29.9990067684
 20
-36.0128311063
 30
0.0
 10
30.0041525329
 20
-36.0000668496
 30
0.0
 10
30.0110226707
 20
-35.9830605672
 30
0.0
 10
30.0196101681
 20
-35.9618004761
 30
0.0
 10
30.0281869667
 20
-35.9405334291
 30
0.0
 10
30.0350742226
 20
-35.9235382762
 30
0.0
 10
30.0393195643
 20
-35.9128735717
 30
0.0
 10
30.0424099617
 20
-35.9054939764
 30
0.0
 10
30.043990247
 20
-35.9011429744
 30
0.0
 10
30.0448712578
 20
-35.8962869184
 30
0.0
 10
30.0462115413
 20
-35.8903894824
 30
0.0
 10
30.0492314534
 20
-35.8760935127
 30
0.0
 10
30.0538446043
 20
-35.8547097987
 30
0.0
 10
30.0599448336
 20
-35.8261611434
 30
0.0
 10
30.0660699475
 20
-35.7976321213
 30
0.0
 10
30.0706271082
 20
-35.7762042328
 30
0.0
 10
30.0737185634
 20
-35.7619647083
 30
0.0
 10
30.0749279436
 20
-35.7559639939
 30
0.0
 10
30.0760790558
 20
-35.751321039
 30
0.0
 10
30.0765587166
 20
-35.7461016811
 30
0.0
 10
30.0770861515
 20
-35.7366999948
 30
0.0
 10
30.0780024012
 20
-35.7234087445
 30
0.0
 10
30.0793774347
 20
-35.7020646546
 30
0.0
 10
30.0811273868
 20
-35.6754112917
 30
0.0
 10
30.0839098167
 20
-35.6327508938
 30
0.0
 10
30.0860005752
 20
-35.6007589742
 30
0.0
 10
30.0873935395
 20
-35.579430277
 30
0.0
  0
SPLINE
  5
24F
100
AcDbEntity
  8
0
100
AcDbSpline
 62
7
  6
CONTINUOUS
 70
0
 71
3
 72
147
 73
143
 74
0
 42
0.0000001
 43
0.0000001
 44
0.0000000001
 40
0.0
 40
0.0
 40
0.0
 40
0.0
 40
0.03125
 40
0.046875
 40
0.0625
 40
0.0703125
 40
0.078125
 40
0.08203125
 40
0.083984375
 40
0.0859375
 40
0.08984375
 40
0.09375
 40
0.1015625
 40
0.109375
 40
0.125
 40
0.140625
 40
0.1484375
 40
0.15625
 40
0.16015625
 40
0.1640625
 40
0.166015625
 40
0.16796875
 40
0.171875
 40
0.1796875
 40
0.1875
 40
0.203125
 40
0.21875
 40
0.2265625
 40
0.234375
 40
0.2421875
 40
0.24609375
 40
0.248046875
 40
0.25
 40
0.251953125
 40
0.25390625
 40
0.2578125
 40
0.265625
 40
0.2734375
 40
0.28125
 40
0.296875
 40
0.3125
 40
0.3203125
 40
0.328125
 40
0.33203125
 40
0.333984375
 40
0.3359375
 40
0.33984375
 40
0.34375
 40
0.359375
 40
0.375
 40
0.390625
 40
0.40625
 40
0.41015625
 40
0.4140625
 40
0.416015625
 40
0.41796875
 40
0.421875
 40
0.4296875
 40
0.4375
 40
0.453125
 40
0.46875
 40
0.4765625
 40
0.484375
 40
0.4921875
 40
0.49609375
 40
0.498046875
 40
0.5
 40
0.501953125
 40
0.50390625
 40
0.5078125
 40
0.515625
 40
0.5234375
 40
0.53125
 40
0.546875
 40
0.5625
 40
0.5703125
 40
0.578125
 40
0.58203125
 40
0.583984375
 40
0.5859375
 40
0.58984375
 40
0.59375
 40
0.6015625
 40
0.609375
 40
0.625
 40
0.640625
 40
0.6484375
 40
0.65625
 40
0.66015625
 40
0.6640625
 40
0.666015625
 40
0.66796875
 40
0.669921875
 40
0.671875
 40
0.6796875
 40
0.6875
 40
0.6953125
 40
0.703125
 40
0.71875
 40
0.7265625
 40
0.734375
 40
0.7421875
 40
0.74609375
 40
0.748046875
 40
0.75
 40
0.751953125
 40
0.75390625
 40
0.7578125
 40
0.765625
 40
0.7734375
 40
0.78125
 40
0.796875
 40
0.8046875
 40
0.8125
 40
0.8203125
 40
0.828125
 40
0.830078125
 40
0.83203125
 40
0.8330078125
 40
0.833984375
 40
0.8359375
 40
0.83984375
 40
0.84375
 40
0.8515625
 40
0.859375
 40
0.875
 40
0.890625
 40
0.8984375
 40
0.90625
 40
0.91015625
 40
0.9140625
 40
0.916015625
 40
0.9169921875
 40
0.91796875
 40
0.919921875
 40
0.921875
 40
0.9296875
 40
0.9375
 40
0.9453125
 40
0.953125
 40
0.96875
 40
1.0
 40
1.0
 40
1.0
 40
1.0
 10
-29.0267333677
 20
-1.4476742988
 30
0.0
 10
-29.0292583812
 20
-1.4164814049
 30
0.0
 10
-29.0330483245
 20
-1.369691219
 30
0.0
 10
-29.0380918903
 20
-1.3073076847
 30
0.0
 10
-29.0412643102
 20
-1.2683109338
 30
0.0
 10
-29.0437562101
 20
-1.2371295886
 30
0.0
 10
-29.0454186419
 20
-1.2176046302
 30
0.0
 10
-29.0463719264
 20
-1.2040105442
 30
0.0
 10
-29.0472458783
 20
-1.1961276777
 30
0.0
 10
-29.0493600427
 20
-1.1878122772
 30
0.0
 10
-29.051578101
 20
-1.1775661255
 30
0.0
 10
-29.0553643115
 20
-1.1610895177
 30
0.0
 10
-29.060015784
 20
-1.1405221004
 30
0.0
 10
-29.0675037655
 20
-1.1075983713
 30
0.0
 10
-29.076846714
 20
-1.0664493004
 30
0.0
 10
-29.086200744
 20
-1.0252976944
 30
0.0
 10
-29.0936709951
 20
-0.9923780216
 30
0.0
 10
-29.0983667934
 20
-0.9718004637
 30
0.0
 10
-29.102062136
 20
-0.9553446441
 30
0.0
 10
-29.1045115196
 20
-0.9450455712
 30
0.0
 10
-29.1061508438
 20
-0.9368388018
 30
0.0
 10
-29.1089590631
 20
-0.9285134252
 30
0.0
 10
-29.114416447
 20
-0.9138889177
 30
0.0
 10
-29.121929408
 20
-0.893025513
 30
0.0
 10
-29.1341084195
 20
-0.8596279918
 30
0.0
 10
-29.1492783363
 20
-0.8178866477
 30
0.0
 10
-29.164465801
 20
-0.7761431661
 30
0.0
 10
-29.1766167359
 20
-0.7427490648
 30
0.0
 10
-29.185716519
 20
-0.7177027195
 30
0.0
 10
-29.1933439971
 20
-0.6968330443
 30
0.0
 10
-29.1985960186
 20
-0.682219822
 30
0.0
 10
-29.2017333844
 20
-0.6738763534
 30
0.0
 10
-29.203702695
 20
-0.667599191
 30
0.0
 10
-29.2071387552
 20
-0.6613968002
 30
0.0
 10
-29.2112085505
 20
-0.6531008649
 30
0.0
 10
-29.2185690619
 20
-0.6385951274
 30
0.0
 10
-29.2289594781
 20
-0.6178663115
 30
0.0
 10
-29.2414812127
 20
-0.5929943646
 30
0.0
 10
-29.258158752
 20
-0.5598312424
 30
0.0
 10
-29.2790083899
 20
-0.5183747071
 30
0.0
 10
-29.2998698057
 20
-0.4769293599
 30
0.0
 10
-29.3165285005
 20
-0.4437483369
 30
0.0
 10
-29.3270103905
 20
-0.4230664664
 30
0.0
 10
-29.3342069396
 20
-0.4084764053
 30
0.0
 10
-29.3385395184
 20
-0.4003156357
 30
0.0
 10
-29.3437017282
 20
-0.3928193067
 30
0.0
 10
-29.3498709138
 20
-0.3832217808
 30
0.0
 10
-29.3649104018
 20
-0.360374697
 30
0.0
 10
-29.3873709166
 20
-0.3260247725
 30
0.0
 10
-29.417377876
 20
-0.2802738438
 30
0.0
 10
-29.4473570069
 20
-0.2344962032
 30
0.0
 10
-29.469880136
 20
-0.2002063804
 30
0.0
 10
-29.4848396168
 20
-0.1772825
 30
0.0
 10
-29.4911551923
 20
-0.1678254897
 30
0.0
 10
-29.4960153462
 20
-0.1600392255
 30
0.0
 10
-29.5015787592
 20
-0.1530599002
 30
0.0
 10
-29.5116414814
 20
-0.1412210017
 30
0.0
 10
-29.52584632
 20
-0.1241126841
 30
0.0
 10
-29.5486693183
 20
-0.0968486356
 30
0.0
 10
-29.577165557
 20
-0.0627315486
 30
0.0
 10
-29.6056727616
 20
-0.0286259927
 30
0.0
 10
-29.6284782147
 20
-0.0013434944
 30
0.0
 10
-29.6455766568
 20
0.0191311372
 30
0.0
 10
-29.6598443135
 20
0.0361516148
 30
0.0
 10
-29.6697943386
 20
0.04814797
 30
0.0
 10
-29.675538383
 20
0.0548749375
 30
0.0
 10
-29.6796821361
 20
0.0602810066
 30
0.0
 10
-29.6844538517
 20
0.064307748
 30
0.0
 10
-29.690597099
 20
0.070157861
 30
0.0
 10
-29.7014498354
 20
0.0801713982
 30
0.0
 10
-29.7169003996
 20
0.094593612
 30
0.0
 10
-29.7354638669
 20
0.1118502642
 30
0.0
 10
-29.7602074111
 20
0.1348758813
 30
0.0
 10
-29.7911379566
 20
0.1636573067
 30
0.0
 10
-29.8220737233
 20
0.1924201817
 30
0.0
 10
-29.8468089136
 20
0.2154754794
 30
0.0
 10
-29.8622993546
 20
0.2297818215
 30
0.0
 10
-29.8730806108
 20
0.2400031776
 30
0.0
 10
-29.8793384202
 20
0.2455202039
 30
0.0
 10
-29.8859619893
 20
0.2498176193
 30
0.0
 10
-29.8941162154
 20
0.255606982
 30
0.0
 10
-29.907232964
 20
0.2646365857
 30
0.0
 10
-29.923604939
 20
0.2760035411
 30
0.0
 10
-29.9498134744
 20
0.2941457382
 30
0.0
 10
-29.9825696706
 20
0.3168406676
 30
0.0
 10
-30.0153270398
 20
0.3395230295
 30
0.0
 10
-30.0415336984
 20
0.3576853345
 30
0.0
 10
-30.0579103653
 20
0.3690020202
 30
0.0
 10
-30.0710174955
 20
0.3781346768
 30
0.0
 10
-30.0791962075
 20
0.3836616944
 30
0.0
 10
-30.0857695145
 20
0.3884976241
 30
0.0
 10
-30.0906164289
 20
0.3909901604
 30
0.0
 10
-30.0954400667
 20
0.3931648134
 30
0.0
 10
-30.1050993158
 20
0.3976776394
 30
0.0
 10
-30.1195831611
 20
0.4043782028
 30
0.0
 10
-30.1388978254
 20
0.413351517
 30
0.0
 10
-30.1582117349
 20
0.4223144204
 30
0.0
 10
-30.183963812
 20
0.434268176
 30
0.0
 10
-30.2097162118
 20
0.4462234471
 30
0.0
 10
-30.2354674955
 20
0.4581717586
 30
0.0
 10
-30.2547839836
 20
0.4671523554
 30
0.0
 10
-30.2708714376
 20
0.4745745421
 30
0.0
 10
-30.2821515327
 20
0.4798910536
 30
0.0
 10
-30.2885678261
 20
0.4827401577
 30
0.0
 10
-30.2934630783
 20
0.4854091275
 30
0.0
 10
-30.2980409395
 20
0.4860439814
 30
0.0
 10
-30.304255464
 20
0.4875999759
 30
0.0
 10
-30.3150792999
 20
0.4899923857
 30
0.0
 10
-30.3305688918
 20
0.493582951
 30
0.0
 10
-30.3491448521
 20
0.4978176246
 30
0.0
 10
-30.3739168646
 20
0.5034898292
 30
0.0
 10
-30.3986875843
 20
0.5091542039
 30
0.0
 10
-30.4234591334
 20
0.5148225887
 30
0.0
 10
-30.4420365999
 20
0.5190696767
 30
0.0
 10
-30.460618433
 20
0.5233315622
 30
0.0
 10
-30.4745426045
 20
0.5264867343
 30
0.0
 10
-30.4838443599
 20
0.5286542949
 30
0.0
 10
-30.4876918571
 20
0.5294620471
 30
0.0
 10
-30.4908357195
 20
0.5303307928
 30
0.0
 10
-30.4937387109
 20
0.5303856813
 30
0.0
 10
-30.4987070317
 20
0.5301035991
 30
0.0
 10
-30.5058630242
 20
0.5298979178
 30
0.0
 10
-30.5172799794
 20
0.5294585687
 30
0.0
 10
-30.5315623531
 20
0.5289471518
 30
0.0
 10
-30.5544078671
 20
0.5281076785
 30
0.0
 10
-30.5829671704
 20
0.5270663053
 30
0.0
 10
-30.6115246855
 20
0.5260195664
 30
0.0
 10
-30.6343730605
 20
0.5251886781
 30
0.0
 10
-30.6486482817
 20
0.5246557987
 30
0.0
 10
-30.6600798995
 20
0.5242604477
 30
0.0
 10
-30.6671985651
 20
0.5239427592
 30
0.0
 10
-30.672233929
 20
0.5238618539
 30
0.0
 10
-30.6750294547
 20
0.5235942692
 30
0.0
 10
-30.6775167867
 20
0.5224929598
 30
0.0
 10
-30.6807312937
 20
0.5214012936
 30
0.0
 10
-30.6883594091
 20
0.518546751
 30
0.0
 10
-30.6998379977
 20
0.514363448
 30
0.0
 10
-30.715121969
 20
0.5087294062
 30
0.0
 10
-30.7304115079
 20
0.5031104259
 30
0.0
 10
-30.7507956173
 20
0.495613197
 30
0.0
 10
-30.7864687191
 20
0.4824955098
 30
0.0
 10
-30.8170453514
 20
0.4712509334
 30
0.0
 10
-30.8374298423
 20
0.4637547368
 30
0.0
  0
SPLINE
  5
250
100
AcDbEntity
  8
0
100
AcDbSpline
 62
7
  6
CONTINUOUS
 70
0
 71
3
 72
55
 73
51
 74
0
 42
0.0000001
 43
0.0000001
 44
0.0000000001
 40
0.0
 40
0.0
 40
0.0
 40
0.0
 40
0.0625
 40
0.09375
 40
0.125
 40
0.140625
 40
0.15625
 40
0.1640625
 40
0.171875
 40
0.1796875
 40
0.1875
 40
0.21875
 40
0.25
 40
0.28125
 40
0.3125
 40
0.3203125
 40
0.328125
 40
0.33203125
 40
0.3359375
 40
0.34375
 40
0.359375
 40
0.375
 40
0.4375
 40
0.46875
 40
0.484375
 40
0.4921875
 40
0.5
 40
0.5078125
 40
0.515625
 40
0.53125
 40
0.5625
 40
0.625
 40
0.640625
 40
0.65625
 40
0.6640625
 40
0.671875
 40
0.6796875
 40
0.6875
 40
0.71875
 40
0.75
 40
0.78125
 40
0.8125
 40
0.828125
 40
0.8359375
 40
0.84375
 40
0.859375
 40
0.875
 40
0.90625
 40
0.9375
 40
1.0
 40
1.0
 40
1.0
 40
1.0
 10
-29.3373572993
 20
-2.1342795905
 30
0.0
 10
-29.3260641618
 20
-2.1259557992
 30
0.0
 10
-29.3091268128
 20
-2.1134666554
 30
0.0
 10
-29.2865342521
 20
-2.096828291
 30
0.0
 10
-29.2724335449
 20
-2.0864005063
 30
0.0
 10
-29.2611081926
 20
-2.0781239583
 30
0.0
 10
-29.254131992
 20
-2.0728013199
 30
0.0
 10
-29.2483170812
 20
-2.0688862994
 30
0.0
 10
-29.2445964622
 20
-2.065010641
 30
0.0
 10
-29.241055337
 20
-2.0608717536
 30
0.0
 10
-29.2338807824
 20
-2.0527293399
 30
0.0
 10
-29.2231573114
 20
-2.0404595206
 30
0.0
 10
-29.2088393671
 20
-2.0241287664
 30
0.0
 10
-29.1945195181
 20
-2.0078018835
 30
0.0
 10
-29.1838003325
 20
-1.9955233537
 30
0.0
 10
-29.1766203021
 20
-1.9873920702
 30
0.0
 10
-29.1736793836
 20
-1.9839226324
 30
0.0
 10
-29.1712082134
 20
-1.9813370089
 30
0.0
 10
-29.1691701762
 20
-1.9780568011
 30
0.0
 10
-29.1658048619
 20
-1.97199373
 30
0.0
 10
-29.1608922192
 20
-1.963500475
 30
0.0
 10
-29.149190361
 20
-1.9429764561
 30
0.0
 10
-29.1354863514
 20
-1.9190969455
 30
0.0
 10
-29.1218604431
 20
-1.8951445816
 30
0.0
 10
-29.114961442
 20
-1.8832385727
 30
0.0
 10
-29.1111555074
 20
-1.87632525
 30
0.0
 10
-29.1079165859
 20
-1.8714498757
 30
0.0
 10
-29.1061473709
 20
-1.8653909751
 30
0.0
 10
-29.1032757482
 20
-1.8577253049
 30
0.0
 10
-29.0984894643
 20
-1.8441176531
 30
0.0
 10
-29.0887397399
 20
-1.8170475623
 30
0.0
 10
-29.0790967315
 20
-1.7898771096
 30
0.0
 10
-29.0707291591
 20
-1.7666994878
 30
0.0
 10
-29.067362081
 20
-1.7569043741
 30
0.0
 10
-29.0643920473
 20
-1.7493878004
 30
0.0
 10
-29.0629219895
 20
-1.742874481
 30
0.0
 10
-29.0616641919
 20
-1.7361157044
 30
0.0
 10
-29.0590395247
 20
-1.7227243311
 30
0.0
 10
-29.0551466514
 20
-1.7025854999
 30
0.0
 10
-29.0499389505
 20
-1.6757574792
 30
0.0
 10
-29.0447059237
 20
-1.6489448872
 30
0.0
 10
-29.0404438237
 20
-1.6265298361
 30
0.0
 10
-29.0372640469
 20
-1.6109821215
 30
0.0
 10
-29.0357539309
 20
-1.6018742443
 30
0.0
 10
-29.0353998855
 20
-1.5919245234
 30
0.0
 10
-29.0345614916
 20
-1.5797756185
 30
0.0
 10
-29.0334412782
 20
-1.560176282
 30
0.0
 10
-29.031965234
 20
-1.5357322919
 30
0.0
 10
-29.029646105
 20
-1.4965909292
 30
0.0
 10
-29.0278971864
 20
-1.4672418774
 30
0.0
 10
-29.0267333677
 20
-1.447674294
 30
0.0
  0
SPLINE
  5
251
100
AcDbEntity
  8
0
100
AcDbSpline
 62
7
  6
CONTINUOUS
 70
0
 71
3
 72
14
 73
10
 74
0
 42
0.0000001
 43
0.0000001
 44
0.0000000001
 40
0.0
 40
0.0
 40
0.0
 40
0.0
 40
0.2892717195
 40
0.4225368563
 40
0.5484972655
 40
0.6678936092
 40
0.7818680294
 40
0.8919524862
 40
1.0
 40
1.0
 40
1.0
 40
1.0
 10
-29.3802867583
 20
-2.4683607821
 30
0.0
 10
-29.3802867583
 20
-2.5950609292
 30
0.0
 10
-29.395078254
 20
-2.7810406501
 30
0.0
 10
-29.4522520469
 20
-3.0148005641
 30
0.0
 10
-29.5104174123
 20
-3.1705721064
 30
0.0
 10
-29.5845565003
 20
-3.3099660448
 30
0.0
 10
-29.674099379
 20
-3.4315829484
 30
0.0
 10
-29.7782133486
 20
-3.5340529578
 30
0.0
 10
-29.85701029
 20
-3.5890386346
 30
0.0
 10
-29.8979935048
 20
-3.6127025994
 30
0.0
  0
SPLINE
  5
252
100
AcDbEntity
  8
0
100
AcDbSpline
 62
7
  6
CONTINUOUS
 70
0
 71
3
 72
15
 73
11
 74
0
 42
0.0000001
 43
0.0000001
 44
0.0000000001
 40
0.0
 40
0.0
 40
0.0
 40
0.0
 40
0.1117127307
 40
0.2311418303
 40
0.3566675329
 40
0.4862813849
 40
0.6177397654
 40
0.7486978775
 40
0.8768380352
 40
1.0
 40
1.0
 40
1.0
 40
1.0
 10
-29.3802867583
 20
-2.4683607821
 30
0.0
 10
-29.3802867583
 20
-2.3523949671
 30
0.0
 10
-29.3978795378
 20
-2.1122692947
 30
0.0
 10
-29.4695001799
 20
-1.7482693994
 30
0.0
 10
-29.5853907482
 20
-1.3763710523
 30
0.0
 10
-29.7424988927
 20
-1.0064077769
 30
0.0
 10
-29.9366805115
 20
-0.6480844476
 30
0.0
 10
-30.1628318893
 20
-0.3108462937
 30
0.0
 10
-30.4149393426
 20
-0.0036275691
 30
0.0
 10
-30.6006281206
 20
0.1804617323
 30
0.0
 10
-30.6964903406
 20
0.2650566355
 30
0.0
  0
SPLINE
  5
253
100
AcDbEntity
  8
0
100
AcDbSpline
 62
7
  6
CONTINUOUS
 70
0
 71
3
 72
15
 73
11
 74
0
 42
0.0000001
 43
0.0000001
 44
0.0000000001
 40
0.0
 40
0.0
 40
0.0
 40
0.0
 40
0.1548119132
 40
0.3011856873
 40
0.4383150259
 40
0.5659078262
 40
0.6843183867
 40
0.7946787894
 40
0.898978493
 40
1.0
 40
1.0
 40
1.0
 40
1.0
 10
-30.7049584481
 20
0.2725035325
 30
0.0
 10
-30.7772108569
 20
0.3358219685
 30
0.0
 10
-30.9233034409
 20
0.4529219074
 30
0.0
 10
-31.1518049229
 20
0.6013709216
 30
0.0
 10
-31.3805185443
 20
0.715769589
 30
0.0
 10
-31.6058033896
 20
0.7941238107
 30
0.0
 10
-31.8241259499
 20
0.8349335575
 30
0.0
 10
-32.0320310741
 20
0.8370769239
 30
0.0
 10
-32.2257908054
 20
0.7999604193
 30
0.0
 10
-32.3438236694
 20
0.7487015311
 30
0.0
 10
-32.3981139177
 20
0.7173540019
 30
0.0
  0
SPLINE
  5
254
100
AcDbEntity
  8
0
100
AcDbSpline
 62
7
  6
CONTINUOUS
 70
0
 71
3
 72
11
 73
7
 74
0
 42
0.0000001
 43
0.0000001
 44
0.0000000001
 40
0.0
 40
0.0
 40
0.0
 40
0.0
 40
0.292485392
 40
0.5501748666
 40
0.7806869101
 40
1.0
 40
1.0
 40
1.0
 40
1.0
 10
-32.774399308
 20
-3.9783668384
 30
0.0
 10
-32.7840906972
 20
-3.9839625251
 30
0.0
 10
-32.8033483752
 20
-3.9929053855
 30
0.0
 10
-32.8330291877
 20
-3.9987024709
 30
0.0
 10
-32.8604372462
 20
-3.9953908549
 30
0.0
 10
-32.8759688489
 20
-3.9868976207
 30
0.0
 10
-32.8824567991
 20
-3.9815761248
 30
0.0
  0
SPLINE
  5
255
100
AcDbEntity
  8
0
100
AcDbSpline
 62
7
  6
CONTINUOUS
 70
0
 71
3
 72
11
 73
7
 74
0
 42
0.0000001
 43
0.0000001
 44
0.0000000001
 40
0.0
 40
0.0
 40
0.0
 40
0.0
 40
0.2377305775
 40
0.5009980168
 40
0.7632916127
 40
1.0
 40
1.0
 40
1.0
 40
1.0
 10
-32.0672925268
 20
-0.3867702951
 30
0.0
 10
-32.0876389553
 20
-0.398518068
 30
0.0
 10
-32.1259874739
 20
-0.4311681048
 30
0.0
 10
-32.1702953575
 20
-0.4929096048
 30
0.0
 10
-32.2002586675
 20
-0.5626384514
 30
0.0
 10
-32.208713883
 20
-0.6119961672
 30
0.0
 10
-32.208713883
 20
-0.6353895567
 30
0.0
  0
SPLINE
  5
256
100
AcDbEntity
  8
0
100
AcDbSpline
 62
7
  6
CONTINUOUS
 70
0
 71
3
 72
11
 73
7
 74
0
 42
0.0000001
 43
0.0000001
 44
0.0000000001
 40
0.0
 40
0.0
 40
0.0
 40
0.0
 40
0.2926624559
 40
0.550493306
 40
0.7807058457
 40
1.0
 40
1.0
 40
1.0
 40
1.0
 10
-32.208713883
 20
-4.3013320074
 30
0.0
 10
-32.208713883
 20
-4.3132109762
 30
0.0
 10
-32.2067337988
 20
-4.3356579306
 30
0.0
 10
-32.1963793271
 20
-4.3660240679
 30
0.0
 10
-32.1787141271
 20
-4.3894241055
 30
0.0
 10
-32.1624122666
 20
-4.3988521657
 30
0.0
 10
-32.1539789511
 20
-4.4016994423
 30
0.0
  0
SPLINE
  5
257
100
AcDbEntity
  8
0
100
AcDbSpline
 62
7
  6
CONTINUOUS
 70
0
 71
3
 72
12
 73
8
 74
0
 42
0.0000001
 43
0.0000001
 44
0.0000000001
 40
0.0
 40
0.0
 40
0.0
 40
0.0
 40
0.1188938645
 40
0.2382070645
 40
0.4809255316
 40
0.7334394873
 40
1.0
 40
1.0
 40
1.0
 40
1.0
 10
-31.1707855171
 20
-4.3475972029
 30
0.0
 10
-31.2055908047
 20
-4.3676933398
 30
0.0
 10
-31.2779327256
 20
-4.4036312282
 30
0.0
 10
-31.4316493627
 20
-4.4575698795
 30
0.0
 10
-31.6389082283
 20
-4.4900826715
 30
0.0
 10
-31.8975562771
 20
-4.4739675043
 30
0.0
 10
-32.0686015979
 20
-4.4305142068
 30
0.0
 10
-32.1539774134
 20
-4.4017006622
 30
0.0
  0
SPLINE
  5
258
100
AcDbEntity
  8
0
100
AcDbSpline
 62
7
  6
CONTINUOUS
 70
0
 71
3
 72
23
 73
19
 74
0
 42
0.0000001
 43
0.0000001
 44
0.0000000001
 40
0.0
 40
0.0
 40
0.0
 40
0.0
 40
0.0665277261
 40
0.1354285408
 40
0.2060606244
 40
0.277688258
 40
0.349524466
 40
0.4207714505
 40
0.4906615704
 40
0.5584982605
 40
0.6237004653
 40
0.6858466838
 40
0.7447223793
 40
0.8003611367
 40
0.8530666741
 40
0.9034036034
 40
0.9521078593
 40
1.0
 40
1.0
 40
1.0
 40
1.0
 10
-32.8824603296
 20
-3.9815730535
 30
0.0
 10
-32.9607446453
 20
-3.9173603944
 30
0.0
 10
-33.1137038125
 20
-3.778680635
 30
0.0
 10
-33.3267254039
 20
-3.5480354187
 30
0.0
 10
-33.5246720031
 20
-3.2944058603
 30
0.0
 10
-33.7042708755
 20
-3.0221309761
 30
0.0
 10
-33.8625140173
 20
-2.735845596
 30
0.0
 10
-33.996695751
 20
-2.4404171509
 30
0.0
 10
-34.1044903083
 20
-2.1408102522
 30
0.0
 10
-34.1839834532
 20
-1.8419549638
 30
0.0
 10
-34.2336675028
 20
-1.5486128201
 30
0.0
 10
-34.2523874472
 20
-1.2652623234
 30
0.0
 10
-34.2392342971
 20
-0.9960456886
 30
0.0
 10
-34.1933774145
 20
-0.7448504923
 30
0.0
 10
-34.1140177311
 20
-0.5156152032
 30
0.0
 10
-34.0004851822
 20
-0.3128901067
 30
0.0
 10
-33.8533452266
 20
-0.1423760406
 30
0.0
 10
-33.7340286655
 20
-0.0539859831
 30
0.0
 10
-33.6709063178
 20
-0.0175399306
 30
0.0
  0
SPLINE
  5
259
100
AcDbEntity
  8
0
100
AcDbSpline
 62
250
  6
CONTINUOUS
 70
0
 71
3
 72
26
 73
22
 74
0
 42
0.0000001
 43
0.0000001
 44
0.0000000001
 40
0.0
 40
0.0
 40
0.0
 40
0.0
 40
0.0538493853
 40
0.1029676921
 40
0.1262664183
 40
0.1490367291
 40
0.1715823972
 40
0.1942231273
 40
0.2172715273
 40
0.2410134282
 40
0.291410196
 40
0.3468364221
 40
0.4077930305
 40
0.4741101434
 40
0.5451146585
 40
0.6197735499
 40
0.6968105483
 40
0.7748043577
 40
0.8522796049
 40
0.9277858126
 40
1.0
 40
1.0
 40
1.0
 40
1.0
 10
-32.9158206642
 20
-0.2271149634
 30
0.0
 10
-33.0008748844
 20
-0.1998786032
 30
0.0
 10
-33.1686907803
 20
-0.1618473299
 30
0.0
 10
-33.3804233914
 20
-0.1624745695
 30
0.0
 10
-33.5353950415
 20
-0.1949243004
 30
0.0
 10
-33.6427663102
 20
-0.2338107586
 30
0.0
 10
-33.7423763382
 20
-0.2874025521
 30
0.0
 10
-33.8334201292
 20
-0.3552882253
 30
0.0
 10
-33.9152085782
 20
-0.4368914989
 30
0.0
 10
-34.0129995005
 20
-0.5655693341
 30
0.0
 10
-34.1084024185
 20
-0.7605701246
 30
0.0
 10
-34.1751994364
 20
-1.0306307655
 30
0.0
 10
-34.1962540248
 20
-1.334180963
 30
0.0
 10
-34.1714037237
 20
-1.6630521059
 30
0.0
 10
-34.1015700899
 20
-2.0084262245
 30
0.0
 10
-33.9887313175
 20
-2.3608335715
 30
0.0
 10
-33.836037933
 20
-2.7105141319
 30
0.0
 10
-33.647755337
 20
-3.0477194517
 30
0.0
 10
-33.4291246091
 20
-3.3630371989
 30
0.0
 10
-33.1863078565
 20
-3.6476277698
 30
0.0
 10
-33.0077727447
 20
-3.8163186737
 30
0.0
 10
-32.9158206642
 20
-3.8930574141
 30
0.0
  0
SPLINE
  5
25A
100
AcDbEntity
  8
0
100
AcDbSpline
 62
250
  6
CONTINUOUS
 70
0
 71
3
 72
26
 73
22
 74
0
 42
0.0000001
 43
0.0000001
 44
0.0000000001
 40
0.0
 40
0.0
 40
0.0
 40
0.0
 40
0.0538493853
 40
0.1029676921
 40
0.1262664183
 40
0.1490367291
 40
0.1715823972
 40
0.1942231273
 40
0.2172715273
 40
0.2410134282
 40
0.291410196
 40
0.3468364221
 40
0.4077930305
 40
0.4741101434
 40
0.5451146585
 40
0.6197735499
 40
0.6968105483
 40
0.7748043577
 40
0.8522796049
 40
0.9277858126
 40
1.0
 40
1.0
 40
1.0
 40
1.0
 10
-32.208713883
 20
-4.3013320074
 30
0.0
 10
-32.1236596629
 20
-4.3285683677
 30
0.0
 10
-31.955843767
 20
-4.366599641
 30
0.0
 10
-31.7441111559
 20
-4.3659724013
 30
0.0
 10
-31.5891395058
 20
-4.3335226705
 30
0.0
 10
-31.4817682371
 20
-4.2946362123
 30
0.0
 10
-31.3821582091
 20
-4.2410444187
 30
0.0
 10
-31.2911144181
 20
-4.1731587456
 30
0.0
 10
-31.2093259691
 20
-4.0915554719
 30
0.0
 10
-31.1115350468
 20
-3.9628776368
 30
0.0
 10
-31.0161321288
 20
-3.7678768463
 30
0.0
 10
-30.9493351109
 20
-3.4978162053
 30
0.0
 10
-30.9282805225
 20
-3.1942660079
 30
0.0
 10
-30.9531308236
 20
-2.8653948649
 30
0.0
 10
-31.0229644574
 20
-2.5200207463
 30
0.0
 10
-31.1358032298
 20
-2.1676133994
 30
0.0
 10
-31.2884966143
 20
-1.817932839
 30
0.0
 10
-31.4767792103
 20
-1.4807275191
 30
0.0
 10
-31.6954099381
 20
-1.165409772
 30
0.0
 10
-31.9382266908
 20
-0.880819201
 30
0.0
 10
-32.1167618026
 20
-0.7121282972
 30
0.0
 10
-32.208713883
 20
-0.6353895567
 30
0.0
  0
SPLINE
  5
25B
100
AcDbEntity
  8
0
100
AcDbSpline
 62
250
  6
CONTINUOUS
 70
0
 71
3
 72
15
 73
11
 74
0
 42
0.0000001
 43
0.0000001
 44
0.0000000001
 40
0.0
 40
0.0
 40
0.0
 40
0.0
 40
0.1121186429
 40
0.2322379903
 40
0.3585637491
 40
0.4888681752
 40
0.620678961
 40
0.7514344879
 40
0.8786320617
 40
1.0
 40
1.0
 40
1.0
 40
1.0
 10
-30.6530789644
 20
-3.2032550501
 30
0.0
 10
-30.6530789644
 20
-3.0820737674
 30
0.0
 10
-30.6722995695
 20
-2.8308613521
 30
0.0
 10
-30.750191758
 20
-2.4503865814
 30
0.0
 10
-30.875962841
 20
-2.0622606995
 30
0.0
 10
-31.0460203132
 20
-1.6776390503
 30
0.0
 10
-31.2554839631
 20
-1.3074899073
 30
0.0
 10
-31.4983744638
 20
-0.9624209551
 30
0.0
 10
-31.7676713897
 20
-0.6523560081
 30
0.0
 10
-31.9655122884
 20
-0.4695259886
 30
0.0
 10
-32.0672925268
 20
-0.3867702951
 30
0.0
  0
SPLINE
  5
25C
100
AcDbEntity
  8
0
100
AcDbSpline
 62
7
  6
CONTINUOUS
 70
0
 71
3
 72
9
 73
5
 74
0
 42
0.0000001
 43
0.0000001
 44
0.0000000001
 40
0.0
 40
0.0
 40
0.0
 40
0.0
 40
0.4749361528
 40
1.0
 40
1.0
 40
1.0
 40
1.0
 10
-32.0672925268
 20
0.4297788915
 30
0.0
 10
-31.9445043973
 20
0.3878230717
 30
0.0
 10
-31.695738915
 20
0.2700776642
 30
0.0
 10
-31.4714905214
 20
0.1120042228
 30
0.0
 10
-31.3601857456
 20
0.0215042982
 30
0.0
  0
SPLINE
  5
25D
100
AcDbEntity
  8
0
100
AcDbSpline
 62
250
  6
CONTINUOUS
 70
0
 71
3
 72
14
 73
10
 74
0
 42
0.0000001
 43
0.0000001
 44
0.0000000001
 40
0.0
 40
0.0
 40
0.0
 40
0.0
 40
0.1080479983
 40
0.2181329535
 40
0.3321078497
 40
0.4515049547
 40
0.5774676567
 40
0.7107275036
 40
1.0
 40
1.0
 40
1.0
 40
1.0
 10
-31.1707861459
 20
-4.3475961138
 30
0.0
 10
-31.1298018811
 20
-4.3239335861
 30
0.0
 10
-31.0510062641
 20
-4.2689449394
 30
0.0
 10
-30.9468910889
 20
-4.1664758307
 30
0.0
 10
-30.8573471875
 20
-4.0448586412
 30
0.0
 10
-30.783207829
 20
-3.9054630468
 30
0.0
 10
-30.7250460128
 20
-3.7496913894
 30
0.0
 10
-30.6678688217
 20
-3.5159335737
 30
0.0
 10
-30.6530789644
 20
-3.3299554801
 30
0.0
 10
-30.6530789644
 20
-3.2032550501
 30
0.0
  0
SPLINE
  5
25E
100
AcDbEntity
  8
0
100
AcDbSpline
 62
250
  6
CONTINUOUS
 70
0
 71
3
 72
13
 73
9
 74
0
 42
0.0000001
 43
0.0000001
 44
0.0000000001
 40
0.0
 40
0.0
 40
0.0
 40
0.0
 40
0.276900141
 40
0.531992998
 40
0.6529924128
 40
0.770623241
 40
0.8859122337
 40
1.0
 40
1.0
 40
1.0
 40
1.0
 10
-32.774399308
 20
0.0215042982
 30
0.0
 10
-32.8551635863
 20
0.0491008706
 30
0.0
 10
-33.01469364
 20
0.0906373497
 30
0.0
 10
-33.2169782133
 20
0.1045706678
 30
0.0
 10
-33.3687390851
 20
0.0898180937
 30
0.0
 10
-33.4756274259
 20
0.0667294695
 30
0.0
 10
-33.576906045
 20
0.0315400569
 30
0.0
 10
-33.6404517517
 20
0.0000417558
 30
0.0
 10
-33.6709056889
 20
-0.0175410198
 30
0.0
  0
SPLINE
  5
25F
100
AcDbEntity
  8
0
100
AcDbSpline
 62
7
  6
CONTINUOUS
 70
0
 71
3
 72
11
 73
7
 74
0
 42
0.0000001
 43
0.0000001
 44
0.0000000001
 40
0.0
 40
0.0
 40
0.0
 40
0.0
 40
0.2367100216
 40
0.4990051156
 40
0.7622711458
 40
1.0
 40
1.0
 40
1.0
 40
1.0
 10
-32.9158206642
 20
-0.2271149634
 30
0.0
 10
-32.9158206642
 20
-0.2037214124
 30
0.0
 10
-32.9073653471
 20
-0.1543633864
 30
0.0
 10
-32.8774018174
 20
-0.0846344407
 30
0.0
 10
-32.8330938949
 20
-0.0228931753
 30
0.0
 10
-32.794745589
 20
0.0097566105
 30
0.0
 10
-32.774399308
 20
0.0215042982
 30
0.0
  0
SPLINE
  5
260
100
AcDbEntity
  8
0
100
AcDbSpline
 62
7
  6
CONTINUOUS
 70
0
 71
3
 72
11
 73
7
 74
0
 42
0.0000001
 43
0.0000001
 44
0.0000000001
 40
0.0
 40
0.0
 40
0.0
 40
0.0
 40
0.2183124289
 40
0.45412416
 40
0.7139413124
 40
1.0
 40
1.0
 40
1.0
 40
1.0
 10
-32.8824567991
 20
-3.9815761248
 30
0.0
 10
-32.8879423355
 20
-3.977076821
 30
0.0
 10
-32.8979322351
 20
-3.9658905116
 30
0.0
 10
-32.9083680373
 20
-3.9449322266
 30
0.0
 10
-32.9145816321
 20
-3.920137038
 30
0.0
 10
-32.9158206642
 20
-3.9023537337
 30
0.0
 10
-32.9158206642
 20
-3.8930574141
 30
0.0
  0
SPLINE
  5
261
100
AcDbEntity
  8
0
100
AcDbSpline
 62
7
  6
CONTINUOUS
 70
0
 71
3
 72
14
 73
10
 74
0
 42
0.0000001
 43
0.0000001
 44
0.0000000001
 40
0.0
 40
0.0
 40
0.0
 40
0.0
 40
0.2892717195
 40
0.4225368563
 40
0.5484972655
 40
0.6678936092
 40
0.7818680294
 40
0.8919524862
 40
1.0
 40
1.0
 40
1.0
 40
1.0
 10
29.7338401489
 20
-36.6001167843
 30
0.0
 10
29.7338401489
 20
-36.7268169314
 30
0.0
 10
29.7190486532
 20
-36.9127966523
 30
0.0
 10
29.6618748603
 20
-37.1465565663
 30
0.0
 10
29.6037094949
 20
-37.3023281086
 30
0.0
 10
29.5295704069
 20
-37.441722047
 30
0.0
 10
29.4400275282
 20
-37.5633389506
 30
0.0
 10
29.3359135586
 20
-37.66580896
 30
0.0
 10
29.2571166172
 20
-37.7207946368
 30
0.0
 10
29.2161334024
 20
-37.7444586016
 30
0.0
  0
SPLINE
  5
262
100
AcDbEntity
  8
0
100
AcDbSpline
 62
7
  6
CONTINUOUS
 70
0
 71
3
 72
15
 73
11
 74
0
 42
0.0000001
 43
0.0000001
 44
0.0000000001
 40
0.0
 40
0.0
 40
0.0
 40
0.0
 40
0.1117127307
 40
0.2311418303
 40
0.3566675329
 40
0.4862813849
 40
0.6177397654
 40
0.7486978775
 40
0.8768380352
 40
1.0
 40
1.0
 40
1.0
 40
1.0
 10
29.7338401489
 20
-36.6001167843
 30
0.0
 10
29.7338401489
 20
-36.4841509693
 30
0.0
 10
29.7162473694
 20
-36.2440252969
 30
0.0
 10
29.6446267273
 20
-35.8800254016
 30
0.0
 10
29.528736159
 20
-35.5081270545
 30
0.0
 10
29.3716280145
 20
-35.138163779
 30
0.0
 10
29.1774463957
 20
-34.7798404498
 30
0.0
 10
28.9512950179
 20
-34.4426022959
 30
0.0
 10
28.6991875646
 20
-34.1353835713
 30
0.0
 10
28.5134987866
 20
-33.9512942699
 30
0.0
 10
28.4176365666
 20
-33.8666993667
 30
0.0
  0
SPLINE
  5
263
100
AcDbEntity
  8
0
100
AcDbSpline
 62
7
  6
CONTINUOUS
 70
0
 71
3
 72
15
 73
11
 74
0
 42
0.0000001
 43
0.0000001
 44
0.0000000001
 40
0.0
 40
0.0
 40
0.0
 40
0.0
 40
0.1548119132
 40
0.3011856873
 40
0.4383150259
 40
0.5659078262
 40
0.6843183867
 40
0.7946787894
 40
0.898978493
 40
1.0
 40
1.0
 40
1.0
 40
1.0
 10
28.4091684591
 20
-33.8592524697
 30
0.0
 10
28.3369160503
 20
-33.7959340337
 30
0.0
 10
28.1908234663
 20
-33.6788340948
 30
0.0
 10
27.9623219843
 20
-33.5303850806
 30
0.0
 10
27.7336083629
 20
-33.4159864132
 30
0.0
 10
27.5083235176
 20
-33.3376321915
 30
0.0
 10
27.2900009572
 20
-33.2968224447
 30
0.0
 10
27.0820958331
 20
-33.2946790783
 30
0.0
 10
26.8883361018
 20
-33.3317955829
 30
0.0
 10
26.7703032378
 20
-33.383054471
 30
0.0
 10
26.7160129895
 20
-33.4144020003
 30
0.0
  0
SPLINE
  5
264
100
AcDbEntity
  8
0
100
AcDbSpline
 62
7
  6
CONTINUOUS
 70
0
 71
3
 72
11
 73
7
 74
0
 42
0.0000001
 43
0.0000001
 44
0.0000000001
 40
0.0
 40
0.0
 40
0.0
 40
0.0
 40
0.292485392
 40
0.5501748666
 40
0.7806869101
 40
1.0
 40
1.0
 40
1.0
 40
1.0
 10
26.3397275992
 20
-38.1101228406
 30
0.0
 10
26.33003621
 20
-38.1157185273
 30
0.0
 10
26.310778532
 20
-38.1246613877
 30
0.0
 10
26.2810977195
 20
-38.1304584731
 30
0.0
 10
26.253689661
 20
-38.1271468571
 30
0.0
 10
26.2381580583
 20
-38.1186536229
 30
0.0
 10
26.2316701081
 20
-38.113332127
 30
0.0
  0
SPLINE
  5
265
100
AcDbEntity
  8
0
100
AcDbSpline
 62
7
  6
CONTINUOUS
 70
0
 71
3
 72
11
 73
7
 74
0
 42
0.0000001
 43
0.0000001
 44
0.0000000001
 40
0.0
 40
0.0
 40
0.0
 40
0.0
 40
0.2377305775
 40
0.5009980168
 40
0.7632916127
 40
1.0
 40
1.0
 40
1.0
 40
1.0
 10
27.0468343804
 20
-34.5185262973
 30
0.0
 10
27.0264879519
 20
-34.5302740702
 30
0.0
 10
26.9881394333
 20
-34.562924107
 30
0.0
 10
26.9438315497
 20
-34.624665607
 30
0.0
 10
26.9138682397
 20
-34.6943944536
 30
0.0
 10
26.9054130241
 20
-34.7437521694
 30
0.0
 10
26.9054130241
 20
-34.7671455589
 30
0.0
  0
SPLINE
  5
266
100
AcDbEntity
  8
0
100
AcDbSpline
 62
7
  6
CONTINUOUS
 70
0
 71
3
 72
11
 73
7
 74
0
 42
0.0000001
 43
0.0000001
 44
0.0000000001
 40
0.0
 40
0.0
 40
0.0
 40
0.0
 40
0.2926624559
 40
0.550493306
 40
0.7807058457
 40
1.0
 40
1.0
 40
1.0
 40
1.0
 10
26.9054130241
 20
-38.4330880096
 30
0.0
 10
26.9054130241
 20
-38.4449669784
 30
0.0
 10
26.9073931083
 20
-38.4674139328
 30
0.0
 10
26.91774758
 20
-38.4977800701
 30
0.0
 10
26.9354127801
 20
-38.5211801077
 30
0.0
 10
26.9517146406
 20
-38.5306081679
 30
0.0
 10
26.9601479561
 20
-38.5334554445
 30
0.0
  0
SPLINE
  5
267
100
AcDbEntity
  8
0
100
AcDbSpline
 62
7
  6
CONTINUOUS
 70
0
 71
3
 72
12
 73
8
 74
0
 42
0.0000001
 43
0.0000001
 44
0.0000000001
 40
0.0
 40
0.0
 40
0.0
 40
0.0
 40
0.1188938645
 40
0.2382070645
 40
0.4809255316
 40
0.7334394873
 40
1.0
 40
1.0
 40
1.0
 40
1.0
 10
27.9433413901
 20
-38.4793532051
 30
0.0
 10
27.9085361025
 20
-38.499449342
 30
0.0
 10
27.8361941816
 20
-38.5353872304
 30
0.0
 10
27.6824775445
 20
-38.5893258817
 30
0.0
 10
27.4752186789
 20
-38.6218386737
 30
0.0
 10
27.2165706301
 20
-38.6057235065
 30
0.0
 10
27.0455253093
 20
-38.562270209
 30
0.0
 10
26.9601494938
 20
-38.5334566644
 30
0.0
  0
SPLINE
  5
268
100
AcDbEntity
  8
0
100
AcDbSpline
 62
7
  6
CONTINUOUS
 70
0
 71
3
 72
23
 73
19
 74
0
 42
0.0000001
 43
0.0000001
 44
0.0000000001
 40
0.0
 40
0.0
 40
0.0
 40
0.0
 40
0.0665277261
 40
0.1354285408
 40
0.2060606244
 40
0.277688258
 40
0.349524466
 40
0.4207714505
 40
0.4906615704
 40
0.5584982605
 40
0.6237004653
 40
0.6858466838
 40
0.7447223793
 40
0.8003611367
 40
0.8530666741
 40
0.9034036034
 40
0.9521078593
 40
1.0
 40
1.0
 40
1.0
 40
1.0
 10
26.2316665776
 20
-38.1133290557
 30
0.0
 10
26.1533822619
 20
-38.0491163966
 30
0.0
 10
26.0004230947
 20
-37.9104366372
 30
0.0
 10
25.7874015033
 20
-37.6797914209
 30
0.0
 10
25.5894549041
 20
-37.4261618624
 30
0.0
 10
25.4098560317
 20
-37.1538869783
 30
0.0
 10
25.2516128899
 20
-36.8676015982
 30
0.0
 10
25.1174311562
 20
-36.5721731531
 30
0.0
 10
25.0096365989
 20
-36.2725662544
 30
0.0
 10
24.930143454
 20
-35.973710966
 30
0.0
 10
24.8804594044
 20
-35.6803688223
 30
0.0
 10
24.86173946
 20
-35.3970183256
 30
0.0
 10
24.8748926101
 20
-35.1278016908
 30
0.0
 10
24.9207494927
 20
-34.8766064945
 30
0.0
 10
25.0001091761
 20
-34.6473712054
 30
0.0
 10
25.113641725
 20
-34.4446461089
 30
0.0
 10
25.2607816806
 20
-34.2741320428
 30
0.0
 10
25.3800982417
 20
-34.1857419853
 30
0.0
 10
25.4432205894
 20
-34.1492959328
 30
0.0
  0
SPLINE
  5
269
100
AcDbEntity
  8
0
100
AcDbSpline
 62
250
  6
CONTINUOUS
 70
0
 71
3
 72
26
 73
22
 74
0
 42
0.0000001
 43
0.0000001
 44
0.0000000001
 40
0.0
 40
0.0
 40
0.0
 40
0.0
 40
0.0538493853
 40
0.1029676921
 40
0.1262664183
 40
0.1490367291
 40
0.1715823972
 40
0.1942231273
 40
0.2172715273
 40
0.2410134282
 40
0.291410196
 40
0.3468364221
 40
0.4077930305
 40
0.4741101434
 40
0.5451146585
 40
0.6197735499
 40
0.6968105483
 40
0.7748043577
 40
0.8522796049
 40
0.9277858126
 40
1.0
 40
1.0
 40
1.0
 40
1.0
 10
26.198306243
 20
-34.3588709656
 30
0.0
 10
26.1132520228
 20
-34.3316346054
 30
0.0
 10
25.9454361269
 20
-34.2936033321
 30
0.0
 10
25.7337035158
 20
-34.2942305717
 30
0.0
 10
25.5787318657
 20
-34.3266803026
 30
0.0
 10
25.471360597
 20
-34.3655667608
 30
0.0
 10
25.371750569
 20
-34.4191585543
 30
0.0
 10
25.280706778
 20
-34.4870442275
 30
0.0
 10
25.198918329
 20
-34.5686475011
 30
0.0
 10
25.1011274067
 20
-34.6973253363
 30
0.0
 10
25.0057244887
 20
-34.8923261268
 30
0.0
 10
24.9389274708
 20
-35.1623867677
 30
0.0
 10
24.9178728824
 20
-35.4659369652
 30
0.0
 10
24.9427231835
 20
-35.7948081081
 30
0.0
 10
25.0125568173
 20
-36.1401822267
 30
0.0
 10
25.1253955897
 20
-36.4925895737
 30
0.0
 10
25.2780889742
 20
-36.8422701341
 30
0.0
 10
25.4663715702
 20
-37.1794754539
 30
0.0
 10
25.6850022981
 20
-37.4947932011
 30
0.0
 10
25.9278190507
 20
-37.779383772
 30
0.0
 10
26.1063541625
 20
-37.9480746759
 30
0.0
 10
26.198306243
 20
-38.0248134163
 30
0.0
  0
SPLINE
  5
26A
100
AcDbEntity
  8
0
100
AcDbSpline
 62
250
  6
CONTINUOUS
 70
0
 71
3
 72
26
 73
22
 74
0
 42
0.0000001
 43
0.0000001
 44
0.0000000001
 40
0.0
 40
0.0
 40
0.0
 40
0.0
 40
0.0538493853
 40
0.1029676921
 40
0.1262664183
 40
0.1490367291
 40
0.1715823972
 40
0.1942231273
 40
0.2172715273
 40
0.2410134282
 40
0.291410196
 40
0.3468364221
 40
0.4077930305
 40
0.4741101434
 40
0.5451146585
 40
0.6197735499
 40
0.6968105483
 40
0.7748043577
 40
0.8522796049
 40
0.9277858126
 40
1.0
 40
1.0
 40
1.0
 40
1.0
 10
26.9054130241
 20
-38.4330880096
 30
0.0
 10
26.9904672443
 20
-38.4603243699
 30
0.0
 10
27.1582831402
 20
-38.4983556432
 30
0.0
 10
27.3700157513
 20
-38.4977284035
 30
0.0
 10
27.5249874014
 20
-38.4652786727
 30
0.0
 10
27.6323586701
 20
-38.4263922145
 30
0.0
 10
27.7319686981
 20
-38.3728004209
 30
0.0
 10
27.8230124891
 20
-38.3049147478
 30
0.0
 10
27.9048009381
 20
-38.2233114741
 30
0.0
 10
28.0025918604
 20
-38.094633639
 30
0.0
 10
28.0979947784
 20
-37.8996328485
 30
0.0
 10
28.1647917963
 20
-37.6295722075
 30
0.0
 10
28.1858463847
 20
-37.3260220101
 30
0.0
 10
28.1609960836
 20
-36.9971508671
 30
0.0
 10
28.0911624498
 20
-36.6517767485
 30
0.0
 10
27.9783236774
 20
-36.2993694016
 30
0.0
 10
27.8256302929
 20
-35.9496888412
 30
0.0
 10
27.6373476969
 20
-35.6124835213
 30
0.0
 10
27.418716969
 20
-35.2971657742
 30
0.0
 10
27.1759002164
 20
-35.0125752032
 30
0.0
 10
26.9973651046
 20
-34.8438842994
 30
0.0
 10
26.9054130241
 20
-34.7671455589
 30
0.0
  0
SPLINE
  5
26B
100
AcDbEntity
  8
0
100
AcDbSpline
 62
250
  6
CONTINUOUS
 70
0
 71
3
 72
15
 73
11
 74
0
 42
0.0000001
 43
0.0000001
 44
0.0000000001
 40
0.0
 40
0.0
 40
0.0
 40
0.0
 40
0.1121186429
 40
0.2322379903
 40
0.3585637491
 40
0.4888681752
 40
0.620678961
 40
0.7514344879
 40
0.8786320617
 40
1.0
 40
1.0
 40
1.0
 40
1.0
 10
28.4610479428
 20
-37.3350110523
 30
0.0
 10
28.4610479428
 20
-37.2138297696
 30
0.0
 10
28.4418273377
 20
-36.9626173543
 30
0.0
 10
28.3639351492
 20
-36.5821425836
 30
0.0
 10
28.2381640662
 20
-36.1940167017
 30
0.0
 10
28.068106594
 20
-35.8093950525
 30
0.0
 10
27.8586429441
 20
-35.4392459095
 30
0.0
 10
27.6157524434
 20
-35.0941769573
 30
0.0
 10
27.3464555175
 20
-34.7841120103
 30
0.0
 10
27.1486146188
 20
-34.6012819908
 30
0.0
 10
27.0468343804
 20
-34.5185262973
 30
0.0
  0
SPLINE
  5
26C
100
AcDbEntity
  8
0
100
AcDbSpline
 62
7
  6
CONTINUOUS
 70
0
 71
3
 72
9
 73
5
 74
0
 42
0.0000001
 43
0.0000001
 44
0.0000000001
 40
0.0
 40
0.0
 40
0.0
 40
0.0
 40
0.4749361528
 40
1.0
 40
1.0
 40
1.0
 40
1.0
 10
27.0468343804
 20
-33.7019771107
 30
0.0
 10
27.1696225099
 20
-33.7439329305
 30
0.0
 10
27.4183879922
 20
-33.861678338
 30
0.0
 10
27.6426363858
 20
-34.0197517794
 30
0.0
 10
27.7539411616
 20
-34.110251704
 30
0.0
  0
SPLINE
  5
26D
100
AcDbEntity
  8
0
100
AcDbSpline
 62
250
  6
CONTINUOUS
 70
0
 71
3
 72
14
 73
10
 74
0
 42
0.0000001
 43
0.0000001
 44
0.0000000001
 40
0.0
 40
0.0
 40
0.0
 40
0.0
 40
0.1080479983
 40
0.2181329535
 40
0.3321078497
 40
0.4515049547
 40
0.5774676567
 40
0.7107275036
 40
1.0
 40
1.0
 40
1.0
 40
1.0
 10
27.9433407613
 20
-38.479352116
 30
0.0
 10
27.9843250261
 20
-38.4556895883
 30
0.0
 10
28.0631206431
 20
-38.4007009416
 30
0.0
 10
28.1672358183
 20
-38.2982318329
 30
0.0
 10
28.2567797197
 20
-38.1766146434
 30
0.0
 10
28.3309190782
 20
-38.037219049
 30
0.0
 10
28.3890808944
 20
-37.8814473916
 30
0.0
 10
28.4462580854
 20
-37.6476895759
 30
0.0
 10
28.4610479428
 20
-37.4617114823
 30
0.0
 10
28.4610479428
 20
-37.3350110523
 30
0.0
  0
SPLINE
  5
26E
100
AcDbEntity
  8
0
100
AcDbSpline
 62
250
  6
CONTINUOUS
 70
0
 71
3
 72
13
 73
9
 74
0
 42
0.0000001
 43
0.0000001
 44
0.0000000001
 40
0.0
 40
0.0
 40
0.0
 40
0.0
 40
0.276900141
 40
0.531992998
 40
0.6529924128
 40
0.770623241
 40
0.8859122337
 40
1.0
 40
1.0
 40
1.0
 40
1.0
 10
26.3397275992
 20
-34.110251704
 30
0.0
 10
26.2589633209
 20
-34.0826551316
 30
0.0
 10
26.0994332672
 20
-34.0411186525
 30
0.0
 10
25.8971486939
 20
-34.0271853344
 30
0.0
 10
25.7453878221
 20
-34.0419379085
 30
0.0
 10
25.6384994813
 20
-34.0650265327
 30
0.0
 10
25.5372208622
 20
-34.1002159453
 30
0.0
 10
25.4736751555
 20
-34.1317142464
 30
0.0
 10
25.4432212183
 20
-34.149297022
 30
0.0
  0
SPLINE
  5
26F
100
AcDbEntity
  8
0
100
AcDbSpline
 62
7
  6
CONTINUOUS
 70
0
 71
3
 72
11
 73
7
 74
0
 42
0.0000001
 43
0.0000001
 44
0.0000000001
 40
0.0
 40
0.0
 40
0.0
 40
0.0
 40
0.2367100216
 40
0.4990051156
 40
0.7622711458
 40
1.0
 40
1.0
 40
1.0
 40
1.0
 10
26.198306243
 20
-34.3588709656
 30
0.0
 10
26.198306243
 20
-34.3354774146
 30
0.0
 10
26.2067615601
 20
-34.2861193886
 30
0.0
 10
26.2367250898
 20
-34.2163904429
 30
0.0
 10
26.2810330123
 20
-34.1546491775
 30
0.0
 10
26.3193813182
 20
-34.1219993917
 30
0.0
 10
26.3397275992
 20
-34.110251704
 30
0.0
  0
SPLINE
  5
270
100
AcDbEntity
  8
0
100
AcDbSpline
 62
7
  6
CONTINUOUS
 70
0
 71
3
 72
11
 73
7
 74
0
 42
0.0000001
 43
0.0000001
 44
0.0000000001
 40
0.0
 40
0.0
 40
0.0
 40
0.0
 40
0.2183124289
 40
0.45412416
 40
0.7139413124
 40
1.0
 40
1.0
 40
1.0
 40
1.0
 10
26.2316701081
 20
-38.113332127
 30
0.0
 10
26.2261845717
 20
-38.1088328232
 30
0.0
 10
26.2161946721
 20
-38.0976465138
 30
0.0
 10
26.2057588699
 20
-38.0766882288
 30
0.0
 10
26.1995452751
 20
-38.0518930402
 30
0.0
 10
26.198306243
 20
-38.0341097359
 30
0.0
 10
26.198306243
 20
-38.0248134163
 30
0.0
  0
SPLINE
  5
271
100
AcDbEntity
  8
RACCORDO
100
AcDbSpline
 62
7
  6
CONTINUOUS
 70
0
 71
3
 72
14
 73
10
 74
0
 42
0.0000001
 43
0.0000001
 44
0.0000000001
 40
0.0
 40
0.0
 40
0.0
 40
0.0
 40
0.2892733293
 40
0.4225360033
 40
0.5484972267
 40
0.6678933394
 40
0.781867896
 40
0.8919524249
 40
1.0
 40
1.0
 40
1.0
 40
1.0
 10
72.3016683763
 20
-106.8595225596
 30
0.0
 10
72.3016683763
 20
-107.163604534
 30
0.0
 10
72.2661708385
 20
-107.6099554725
 30
0.0
 10
72.1289482139
 20
-108.1709775863
 30
0.0
 10
71.9893543853
 20
-108.5448281749
 30
0.0
 10
71.8114193414
 20
-108.8793737331
 30
0.0
 10
71.5965179058
 20
-109.1712552837
 30
0.0
 10
71.3466444101
 20
-109.4171833222
 30
0.0
 10
71.1575331939
 20
-109.5491515696
 30
0.0
 10
71.05917265
 20
-109.6059437265
 30
0.0
  0
SPLINE
  5
272
100
AcDbEntity
  8
RACCORDO
100
AcDbSpline
 62
7
  6
CONTINUOUS
 70
0
 71
3
 72
15
 73
11
 74
0
 42
0.0000001
 43
0.0000001
 44
0.0000000001
 40
0.0
 40
0.0
 40
0.0
 40
0.0
 40
0.1141571495
 40
0.2373298232
 40
0.3669809215
 40
0.5000060513
 40
0.6330303396
 40
0.7626789794
 40
0.88584778
 40
1.0
 40
1.0
 40
1.0
 40
1.0
 10
68.0590276892
 20
31.9406612248
 30
0.0
 10
68.3494707832
 20
31.7729630224
 30
0.0
 10
68.9231455438
 20
31.3708036835
 30
0.0
 10
69.7124917485
 20
30.6322867774
 30
0.0
 10
70.4399212139
 20
29.7593194125
 30
0.0
 10
71.0780323162
 20
28.7846423769
 30
0.0
 10
71.6030689812
 20
27.7446900381
 30
0.0
 10
71.9953562852
 20
26.6782526088
 30
0.0
 10
72.2402410779
 20
25.6254301756
 30
0.0
 10
72.3016683763
 20
24.9275577208
 30
0.0
 10
72.3016683763
 20
24.5921920041
 30
0.0
  0
SPLINE
  5
273
100
AcDbEntity
  8
ASSI
100
AcDbSpline
 62
7
  6
CONTINUOUS
 70
0
 71
3
 72
11
 73
7
 74
0
 42
0.0000001
 43
0.0000001
 44
0.0000000001
 40
0.0
 40
0.0
 40
0.0
 40
0.0
 40
0.2435315127
 40
0.4999959424
 40
0.7564604739
 40
1.0
 40
1.0
 40
1.0
 40
1.0
 10
22.5088991184
 20
-15.6765369939
 30
0.0
 10
22.528260471
 20
-15.7839917677
 30
0.0
 10
22.5904795718
 20
-16.0008617283
 30
0.0
 10
22.7370576697
 20
-16.3082040352
 30
0.0
 10
22.9299501586
 20
-16.5888101979
 30
0.0
 10
23.0866701224
 20
-16.7511191833
 30
0.0
 10
23.1700537361
 20
-16.8216127854
 30
0.0
  0
SPLINE
  5
274
100
AcDbEntity
  8
ASSI
100
AcDbSpline
 62
7
  6
CONTINUOUS
 70
0
 71
3
 72
11
 73
7
 74
0
 42
0.0000001
 43
0.0000001
 44
0.0000000001
 40
0.0
 40
0.0
 40
0.0
 40
0.0
 40
0.2435315127
 40
0.4999959424
 40
0.7564604739
 40
1.0
 40
1.0
 40
1.0
 40
1.0
 10
-23.1701989462
 20
10.6980017351
 30
0.0
 10
-23.1508375937
 20
10.5905469612
 30
0.0
 10
-23.0886184929
 20
10.3736770007
 30
0.0
 10
-22.9420403949
 20
10.0663346938
 30
0.0
 10
-22.749147906
 20
9.785728531
 30
0.0
 10
-22.5924279422
 20
9.6234195456
 30
0.0
 10
-22.5090443285
 20
9.5529259436
 30
0.0
  0
SPLINE
  5
275
100
AcDbEntity
  8
SMUSSO
100
AcDbSpline
 62
7
  6
CONTINUOUS
 70
0
 71
3
 72
19
 73
15
 74
0
 42
0.0000001
 43
0.0000001
 44
0.0000000001
 40
0.0
 40
0.0
 40
0.0
 40
0.0
 40
0.0475176093
 40
0.0923511081
 40
0.1368690505
 40
0.1835214178
 40
0.2342325447
 40
0.2901093858
 40
0.3514718016
 40
0.4180113827
 40
0.5629867826
 40
0.7158258251
 40
0.8650353204
 40
1.0
 40
1.0
 40
1.0
 40
1.0
 10
-62.1781074294
 20
65.4018143459
 30
0.0
 10
-62.2017860685
 20
65.3549882102
 30
0.0
 10
-62.2584559941
 20
65.2686276325
 30
0.0
 10
-62.3745404909
 20
65.1685791151
 30
0.0
 10
-62.5143170996
 20
65.1077670076
 30
0.0
 10
-62.6716733305
 20
65.0882871522
 30
0.0
 10
-62.8410013536
 20
65.1093364501
 30
0.0
 10
-63.0176419531
 20
65.1691470334
 30
0.0
 10
-63.19713584
 20
65.2655183925
 30
0.0
 10
-63.4408132657
 20
65.4440943542
 30
0.0
 10
-63.7190563576
 20
65.7396122291
 30
0.0
 10
-63.9823671055
 20
66.1606001743
 30
0.0
 10
-64.1570090628
 20
66.6135171039
 30
0.0
 10
-64.2052957317
 20
66.9276367845
 30
0.0
 10
-64.2052957317
 20
67.0766749287
 30
0.0
  0
SPLINE
  5
276
100
AcDbEntity
  8
SMUSSO
100
AcDbSpline
 62
7
  6
CONTINUOUS
 70
0
 71
3
 72
14
 73
10
 74
0
 42
0.0000001
 43
0.0000001
 44
0.0000000001
 40
0.0
 40
0.0
 40
0.0
 40
0.0
 40
0.1520318686
 40
0.2924198086
 40
0.5404597133
 40
0.6541884059
 40
0.7657568791
 40
0.8796721491
 40
1.0
 40
1.0
 40
1.0
 40
1.0
 10
-64.2052957317
 20
67.0766749287
 30
0.0
 10
-64.2052957316
 20
67.1330102613
 30
0.0
 10
-64.1987906164
 20
67.241644028
 30
0.0
 10
-64.1586402589
 20
67.4380535958
 30
0.0
 10
-64.0755188398
 20
67.6112262762
 30
0.0
 10
-63.9481690446
 20
67.7342092376
 30
0.0
 10
-63.8378118149
 20
67.7971629025
 30
0.0
 10
-63.713112308
 20
67.8315089695
 30
0.0
 10
-63.625610411
 20
67.8349732356
 30
0.0
 10
-63.5810928277
 20
67.8324785968
 30
0.0
  0
SPLINE
  5
277
100
AcDbEntity
  8
SMUSSO
100
AcDbSpline
 62
7
  6
CONTINUOUS
 70
0
 71
3
 72
19
 73
15
 74
0
 42
0.0000001
 43
0.0000001
 44
0.0000000001
 40
0.0
 40
0.0
 40
0.0
 40
0.0
 40
0.0475176093
 40
0.0923511081
 40
0.1368690505
 40
0.1835214178
 40
0.2342325447
 40
0.2901093858
 40
0.3514718016
 40
0.4180113827
 40
0.5629867826
 40
0.7158258251
 40
0.8650353204
 40
1.0
 40
1.0
 40
1.0
 40
1.0
 10
-62.1781074294
 20
6.6159544168
 30
0.0
 10
-62.2017860685
 20
6.5691282811
 30
0.0
 10
-62.2584559941
 20
6.4827677034
 30
0.0
 10
-62.3745404909
 20
6.382719186
 30
0.0
 10
-62.5143170996
 20
6.3219070785
 30
0.0
 10
-62.6716733305
 20
6.3024272232
 30
0.0
 10
-62.8410013536
 20
6.323476521
 30
0.0
 10
-63.0176419531
 20
6.3832871043
 30
0.0
 10
-63.19713584
 20
6.4796584634
 30
0.0
 10
-63.4408132657
 20
6.6582344251
 30
0.0
 10
-63.7190563576
 20
6.9537523
 30
0.0
 10
-63.9823671055
 20
7.3747402452
 30
0.0
 10
-64.1570090628
 20
7.8276571748
 30
0.0
 10
-64.2052957317
 20
8.1417768554
 30
0.0
 10
-64.2052957317
 20
8.2908149996
 30
0.0
  0
SPLINE
  5
278
100
AcDbEntity
  8
SMUSSO
100
AcDbSpline
 62
7
  6
CONTINUOUS
 70
0
 71
3
 72
14
 73
10
 74
0
 42
0.0000001
 43
0.0000001
 44
0.0000000001
 40
0.0
 40
0.0
 40
0.0
 40
0.0
 40
0.1520318686
 40
0.2924198086
 40
0.5404597133
 40
0.6541884059
 40
0.7657568791
 40
0.8796721491
 40
1.0
 40
1.0
 40
1.0
 40
1.0
 10
-64.2052957317
 20
8.2908149996
 30
0.0
 10
-64.2052957316
 20
8.3471503322
 30
0.0
 10
-64.1987906164
 20
8.4557840989
 30
0.0
 10
-64.1586402589
 20
8.6521936667
 30
0.0
 10
-64.0755188398
 20
8.8253663471
 30
0.0
 10
-63.9481690446
 20
8.9483493085
 30
0.0
 10
-63.8378118149
 20
9.0113029734
 30
0.0
 10
-63.713112308
 20
9.0456490405
 30
0.0
 10
-63.625610411
 20
9.0491133065
 30
0.0
 10
-63.5810928277
 20
9.0466186677
 30
0.0
  0
SPLINE
  5
279
100
AcDbEntity
  8
SMUSSO
100
AcDbSpline
 62
7
  6
CONTINUOUS
 70
0
 71
3
 72
19
 73
15
 74
0
 42
0.0000001
 43
0.0000001
 44
0.0000000001
 40
0.0
 40
0.0
 40
0.0
 40
0.0
 40
0.0475176093
 40
0.0923511081
 40
0.1368690505
 40
0.1835214178
 40
0.2342325447
 40
0.2901093858
 40
0.3514718016
 40
0.4180113827
 40
0.5629867826
 40
0.7158258251
 40
0.8650353204
 40
1.0
 40
1.0
 40
1.0
 40
1.0
 10
65.1718238623
 20
-8.1284399124
 30
0.0
 10
65.1481452232
 20
-8.1752660481
 30
0.0
 10
65.0914752976
 20
-8.2616266258
 30
0.0
 10
64.9753908008
 20
-8.3616751433
 30
0.0
 10
64.8356141921
 20
-8.4224872507
 30
0.0
 10
64.6782579612
 20
-8.4419671061
 30
0.0
 10
64.5089299381
 20
-8.4209178082
 30
0.0
 10
64.3322893386
 20
-8.3611072249
 30
0.0
 10
64.1527954517
 20
-8.2647358658
 30
0.0
 10
63.909118026
 20
-8.0861599041
 30
0.0
 10
63.6308749341
 20
-7.7906420293
 30
0.0
 10
63.3675641862
 20
-7.369654084
 30
0.0
 10
63.1929222289
 20
-6.9167371544
 30
0.0
 10
63.14463556
 20
-6.6026174739
 30
0.0
 10
63.14463556
 20
-6.4535793296
 30
0.0
  0
SPLINE
  5
27A
100
AcDbEntity
  8
SMUSSO
100
AcDbSpline
 62
7
  6
CONTINUOUS
 70
0
 71
3
 72
14
 73
10
 74
0
 42
0.0000001
 43
0.0000001
 44
0.0000000001
 40
0.0
 40
0.0
 40
0.0
 40
0.0
 40
0.1520318686
 40
0.2924198086
 40
0.5404597133
 40
0.6541884059
 40
0.7657568791
 40
0.8796721491
 40
1.0
 40
1.0
 40
1.0
 40
1.0
 10
63.14463556
 20
-6.4535793296
 30
0.0
 10
63.1446355601
 20
-6.3972439971
 30
0.0
 10
63.1511406753
 20
-6.2886102304
 30
0.0
 10
63.1912910328
 20
-6.0922006625
 30
0.0
 10
63.2744124519
 20
-5.9190279822
 30
0.0
 10
63.4017622471
 20
-5.7960450207
 30
0.0
 10
63.5121194768
 20
-5.7330913558
 30
0.0
 10
63.6368189837
 20
-5.6987452888
 30
0.0
 10
63.7243208807
 20
-5.6952810227
 30
0.0
 10
63.768838464
 20
-5.6977756615
 30
0.0
  0
SPLINE
  5
27B
100
AcDbEntity
  8
SMUSSO
100
AcDbSpline
 62
7
  6
CONTINUOUS
 70
0
 71
3
 72
19
 73
15
 74
0
 42
0.0000001
 43
0.0000001
 44
0.0000000001
 40
0.0
 40
0.0
 40
0.0
 40
0.0
 40
0.0475176093
 40
0.0923511081
 40
0.1368690505
 40
0.1835214178
 40
0.2342325447
 40
0.2901093858
 40
0.3514718016
 40
0.4180113827
 40
0.5629867826
 40
0.7158258251
 40
0.8650353204
 40
1.0
 40
1.0
 40
1.0
 40
1.0
 10
65.1718238623
 20
-66.9142998415
 30
0.0
 10
65.1481452232
 20
-66.9611259772
 30
0.0
 10
65.0914752976
 20
-67.0474865549
 30
0.0
 10
64.9753908008
 20
-67.1475350723
 30
0.0
 10
64.8356141921
 20
-67.2083471798
 30
0.0
 10
64.6782579612
 20
-67.2278270352
 30
0.0
 10
64.5089299381
 20
-67.2067777373
 30
0.0
 10
64.3322893386
 20
-67.146967154
 30
0.0
 10
64.1527954517
 20
-67.0505957949
 30
0.0
 10
63.909118026
 20
-66.8720198332
 30
0.0
 10
63.6308749341
 20
-66.5765019583
 30
0.0
 10
63.3675641862
 20
-66.1555140131
 30
0.0
 10
63.1929222289
 20
-65.7025970835
 30
0.0
 10
63.14463556
 20
-65.3884774029
 30
0.0
 10
63.14463556
 20
-65.2394392587
 30
0.0
  0
SPLINE
  5
27C
100
AcDbEntity
  8
SMUSSO
100
AcDbSpline
 62
7
  6
CONTINUOUS
 70
0
 71
3
 72
14
 73
10
 74
0
 42
0.0000001
 43
0.0000001
 44
0.0000000001
 40
0.0
 40
0.0
 40
0.0
 40
0.0
 40
0.1520318686
 40
0.2924198086
 40
0.5404597133
 40
0.6541884059
 40
0.7657568791
 40
0.8796721491
 40
1.0
 40
1.0
 40
1.0
 40
1.0
 10
63.14463556
 20
-65.2394392587
 30
0.0
 10
63.1446355601
 20
-65.1831039261
 30
0.0
 10
63.1511406753
 20
-65.0744701595
 30
0.0
 10
63.1912910328
 20
-64.8780605916
 30
0.0
 10
63.2744124519
 20
-64.7048879112
 30
0.0
 10
63.4017622471
 20
-64.5819049498
 30
0.0
 10
63.5121194768
 20
-64.5189512849
 30
0.0
 10
63.6368189837
 20
-64.4846052179
 30
0.0
 10
63.7243208807
 20
-64.4811409518
 30
0.0
 10
63.768838464
 20
-64.4836355906
 30
0.0
  0
SPLINE
  5
27D
100
AcDbEntity
  8
RACCORDO
100
AcDbSpline
 62
7
  6
CONTINUOUS
 70
0
 71
3
 72
15
 73
11
 74
0
 42
0.0000001
 43
0.0000001
 44
0.0000000001
 40
0.0
 40
0.0
 40
0.0
 40
0.0
 40
0.11415222
 40
0.2373210206
 40
0.3669696604
 40
0.4999939487
 40
0.6330190785
 40
0.7626701768
 40
0.8858428505
 40
1.0
 40
1.0
 40
1.0
 40
1.0
 10
-72.3016683763
 20
-24.5921920041
 30
0.0
 10
-72.3016683763
 20
-24.9275577208
 30
0.0
 10
-72.2402410779
 20
-25.6254301756
 30
0.0
 10
-71.9953562852
 20
-26.6782526088
 30
0.0
 10
-71.6030689812
 20
-27.7446900381
 30
0.0
 10
-71.0780323162
 20
-28.7846423769
 30
0.0
 10
-70.4399212139
 20
-29.7593194125
 30
0.0
 10
-69.7124917485
 20
-30.6322867774
 30
0.0
 10
-68.9231455438
 20
-31.3708036835
 30
0.0
 10
-68.3494707832
 20
-31.7729630224
 30
0.0
 10
-68.0590276892
 20
-31.9406612248
 30
0.0
  0
SPLINE
  5
27E
100
AcDbEntity
  8
RACCORDO
100
AcDbSpline
 62
7
  6
CONTINUOUS
 70
0
 71
3
 72
14
 73
10
 74
0
 42
0.0000001
 43
0.0000001
 44
0.0000000001
 40
0.0
 40
0.0
 40
0.0
 40
0.0
 40
0.2892787613
 40
0.4225429658
 40
0.5485046797
 40
0.667900194
 40
0.7818731389
 40
0.8919552647
 40
1.0
 40
1.0
 40
1.0
 40
1.0
 10
66.9983675174
 20
-109.9211085504
 30
0.0
 10
67.2617503933
 20
-110.0731825219
 30
0.0
 10
67.6661127963
 20
-110.2656589852
 30
0.0
 10
68.2206709771
 20
-110.4273693262
 30
0.0
 10
68.6142916529
 20
-110.4934184427
 30
0.0
 10
68.9930391785
 20
-110.5065986974
 30
0.0
 10
69.3533158241
 20
-110.4664209701
 30
0.0
 10
69.6912741506
 20
-110.3729676092
 30
0.0
 10
69.9001397822
 20
-110.2751547898
 30
0.0
 10
69.9985124783
 20
-110.2183556164
 30
0.0
  0
SPLINE
  5
27F
100
AcDbEntity
  8
ASSI
100
AcDbSpline
 62
7
  6
CONTINUOUS
 70
0
 71
3
 72
17
 73
13
 74
0
 42
0.0000001
 43
0.0000001
 44
0.0000000001
 40
0.0
 40
0.0
 40
0.0
 40
0.0
 40
0.1286807625
 40
0.2702709961
 40
0.417427602
 40
0.5617760301
 40
0.6954482503
 40
0.81271455
 40
0.8646793261
 40
0.9125126121
 40
0.9571411002
 40
1.0
 40
1.0
 40
1.0
 40
1.0
 10
23.1931024229
 20
-17.0655820891
 30
0.0
 10
23.1931024229
 20
-16.9587427571
 30
0.0
 10
23.1632085688
 20
-16.7340905581
 30
0.0
 10
23.0516526067
 20
-16.404229065
 30
0.0
 10
22.8797287703
 20
-16.0864626258
 30
0.0
 10
22.6612817732
 20
-15.8068495921
 30
0.0
 10
22.4141497057
 20
-15.5879813165
 30
0.0
 10
22.1904687678
 20
-15.4656731672
 30
0.0
 10
22.0154953476
 20
-15.4191171203
 30
0.0
 10
21.8950711763
 20
-15.4102631732
 30
0.0
 10
21.7829372337
 20
-15.4266971479
 30
0.0
 10
21.7150067483
 20
-15.4549342533
 30
0.0
 10
21.6841903478
 20
-15.4727273031
 30
0.0
  0
SPLINE
  5
280
100
AcDbEntity
  8
ASSI
100
AcDbSpline
 62
7
  6
CONTINUOUS
 70
0
 71
3
 72
17
 73
13
 74
0
 42
0.0000001
 43
0.0000001
 44
0.0000000001
 40
0.0
 40
0.0
 40
0.0
 40
0.0
 40
0.1286807625
 40
0.2702709961
 40
0.417427602
 40
0.5617760301
 40
0.6954482503
 40
0.81271455
 40
0.8646793261
 40
0.9125126121
 40
0.9571411002
 40
1.0
 40
1.0
 40
1.0
 40
1.0
 10
-22.4859956417
 20
9.3089566399
 30
0.0
 10
-22.4859956417
 20
9.4157959718
 30
0.0
 10
-22.5158894959
 20
9.6404481709
 30
0.0
 10
-22.6274454579
 20
9.970309664
 30
0.0
 10
-22.7993692944
 20
10.2880761032
 30
0.0
 10
-23.0178162914
 20
10.5676891369
 30
0.0
 10
-23.264948359
 20
10.7865574125
 30
0.0
 10
-23.4886292969
 20
10.9088655617
 30
0.0
 10
-23.6636027171
 20
10.9554216087
 30
0.0
 10
-23.7840268883
 20
10.9642755558
 30
0.0
 10
-23.896160831
 20
10.947841581
 30
0.0
 10
-23.9640913163
 20
10.9196044757
 30
0.0
 10
-23.9949077169
 20
10.9018114258
 30
0.0
  0
SPLINE
  5
281
100
AcDbEntity
  8
RACCORDO
100
AcDbSpline
 62
7
  6
CONTINUOUS
 70
0
 71
3
 72
15
 73
11
 74
0
 42
0.0000001
 43
0.0000001
 44
0.0000000001
 40
0.0
 40
0.0
 40
0.0
 40
0.0
 40
0.1141513011
 40
0.2373208541
 40
0.3669696584
 40
0.4999939487
 40
0.6330190805
 40
0.7626703434
 40
0.8858437694
 40
1.0
 40
1.0
 40
1.0
 40
1.0
 10
-18.5615530061
 20
-19.9003681225
 30
0.0
 10
-18.5615530061
 20
-20.6828818354
 30
0.0
 10
-18.418221289
 20
-22.3112493634
 30
0.0
 10
-17.8468307284
 20
-24.7678367872
 30
0.0
 10
-16.9314886082
 20
-27.2561960602
 30
0.0
 10
-15.7064000154
 20
-29.682751065
 30
0.0
 10
-14.2174760224
 20
-31.9569998889
 30
0.0
 10
-12.5201385767
 20
-33.9939307734
 30
0.0
 10
-10.678325609
 20
-35.7171314484
 30
0.0
 10
-9.3397531723
 20
-36.6555036453
 30
0.0
 10
-8.6620580695
 20
-37.0467963042
 30
0.0
  0
SPLINE
  5
282
100
AcDbEntity
  8
RACCORDO
100
AcDbSpline
 62
7
  6
CONTINUOUS
 70
0
 71
3
 72
15
 73
11
 74
0
 42
0.0000001
 43
0.0000001
 44
0.0000000001
 40
0.0
 40
0.0
 40
0.0
 40
0.0
 40
0.1486063442
 40
0.2894994524
 40
0.4227226855
 40
0.5486422708
 40
0.6680003462
 40
0.7819381098
 40
0.8919872034
 40
1.0
 40
1.0
 40
1.0
 40
1.0
 10
18.5615530061
 20
-42.5596080522
 30
0.0
 10
18.5615530061
 20
-42.9242243541
 30
0.0
 10
18.5321935829
 20
-43.6350244192
 30
0.0
 10
18.3922285186
 20
-44.6643650863
 30
0.0
 10
18.1585254305
 20
-45.6197343186
 30
0.0
 10
17.8328256482
 20
-46.4919750672
 30
0.0
 10
17.4176408515
 20
-47.2726007373
 30
0.0
 10
16.9162022413
 20
-47.9536507849
 30
0.0
 10
16.3331627341
 20
-48.527482296
 30
0.0
 10
15.8919028504
 20
-48.8354068397
 30
0.0
 10
15.6623949784
 20
-48.9679217994
 30
0.0
  0
SPLINE
  5
283
100
AcDbEntity
  8
RACCORDO
100
AcDbSpline
 62
7
  6
CONTINUOUS
 70
0
 71
3
 72
14
 73
10
 74
0
 42
0.0000001
 43
0.0000001
 44
0.0000000001
 40
0.0
 40
0.0
 40
0.0
 40
0.0
 40
0.2866000166
 40
0.4197333273
 40
0.5462322722
 40
0.6665870351
 40
0.7815751969
 40
0.8922663877
 40
1.0
 40
1.0
 40
1.0
 40
1.0
 10
9.7227182413
 20
-47.6619357307
 30
0.0
 10
10.2809674965
 20
-47.9842618541
 30
0.0
 10
11.1359778913
 20
-48.3986708029
 30
0.0
 10
12.3076894323
 20
-48.7734296069
 30
0.0
 10
13.1458345499
 20
-48.9492893252
 30
0.0
 10
13.958076296
 20
-49.0250569239
 30
0.0
 10
14.7382382182
 20
-48.9996780115
 30
0.0
 10
15.4797762656
 20
-48.8729060887
 30
0.0
 10
15.9488148678
 20
-48.7195843928
 30
0.0
 10
16.1726772922
 20
-48.6268376121
 30
0.0
  0
SPLINE
  5
284
100
AcDbEntity
  8
RACCORDO
100
AcDbSpline
 62
7
  6
CONTINUOUS
 70
0
 71
3
 72
15
 73
11
 74
0
 42
0.0000001
 43
0.0000001
 44
0.0000000001
 40
0.0
 40
0.0
 40
0.0
 40
0.0
 40
0.1141562306
 40
0.2373296566
 40
0.3669809195
 40
0.5000060513
 40
0.6330303416
 40
0.7626791459
 40
0.8858486989
 40
1.0
 40
1.0
 40
1.0
 40
1.0
 10
8.6620580695
 20
5.6126906476
 30
0.0
 10
9.3397531723
 20
5.2213979888
 30
0.0
 10
10.678325609
 20
4.2830257919
 30
0.0
 10
12.5201385767
 20
2.5598251169
 30
0.0
 10
14.2174760224
 20
0.5228942324
 30
0.0
 10
15.7064000154
 20
-1.7513545915
 30
0.0
 10
16.9314886082
 20
-4.1779095963
 30
0.0
 10
17.8468307284
 20
-6.6662688693
 30
0.0
 10
18.418221289
 20
-9.1228562931
 30
0.0
 10
18.5615530061
 20
-10.7512238211
 30
0.0
 10
18.5615530061
 20
-11.533737534
 30
0.0
  0
SPLINE
  5
285
100
AcDbEntity
  8
SMUSSO
100
AcDbSpline
 62
7
  6
CONTINUOUS
 70
0
 71
3
 72
15
 73
11
 74
0
 42
0.0000001
 43
0.0000001
 44
0.0000000001
 40
0.0
 40
0.0
 40
0.0
 40
0.0
 40
0.1141523975
 40
0.2373236374
 40
0.3669741715
 40
0.4999998272
 40
0.6330256023
 40
0.7626763026
 40
0.8858445491
 40
1.0
 40
1.0
 40
1.0
 40
1.0
 10
63.1444305496
 20
-64.0147360801
 30
0.0
 10
63.2896607891
 20
-64.0985740067
 30
0.0
 10
63.5765220469
 20
-64.2996370299
 30
0.0
 10
63.9712266854
 20
-64.6688899581
 30
0.0
 10
64.3349783773
 20
-65.1053795326
 30
0.0
 10
64.654066111
 20
-65.5927369136
 30
0.0
 10
64.916613726
 20
-66.1127397324
 30
0.0
 10
65.1127806956
 20
-66.6459869809
 30
0.0
 10
65.235237761
 20
-67.1724315596
 30
0.0
 10
65.2659559035
 20
-67.5213902929
 30
0.0
 10
65.2659559035
 20
-67.6890868187
 30
0.0
  0
SPLINE
  5
286
100
AcDbEntity
  8
RACCORDO
100
AcDbSpline
 62
7
  6
CONTINUOUS
 70
0
 71
3
 72
14
 73
10
 74
0
 42
0.0000001
 43
0.0000001
 44
0.0000000001
 40
0.0
 40
0.0
 40
0.0
 40
0.0
 40
0.1080475751
 40
0.218132104
 40
0.3321066606
 40
0.4515027733
 40
0.5774639967
 40
0.7107266707
 40
1.0
 40
1.0
 40
1.0
 40
1.0
 10
-71.05917265
 20
109.6059437265
 30
0.0
 10
-71.1575331939
 20
109.5491515696
 30
0.0
 10
-71.3466444101
 20
109.4171833222
 30
0.0
 10
-71.5965179058
 20
109.1712552837
 30
0.0
 10
-71.8114193414
 20
108.8793737331
 30
0.0
 10
-71.9893543853
 20
108.5448281749
 30
0.0
 10
-72.1289482139
 20
108.1709775863
 30
0.0
 10
-72.2661708385
 20
107.6099554725
 30
0.0
 10
-72.3016683763
 20
107.163604534
 30
0.0
 10
-72.3016683763
 20
106.8595225596
 30
0.0
  0
SPLINE
  5
287
100
AcDbEntity
  8
RACCORDO
100
AcDbSpline
 62
7
  6
CONTINUOUS
 70
0
 71
3
 72
14
 73
10
 74
0
 42
0.0000001
 43
0.0000001
 44
0.0000000001
 40
0.0
 40
0.0
 40
0.0
 40
0.0
 40
0.1080447353
 40
0.2181268611
 40
0.332099806
 40
0.4514953203
 40
0.5774570342
 40
0.7107212387
 40
1.0
 40
1.0
 40
1.0
 40
1.0
 10
-69.9985124783
 20
110.2183556164
 30
0.0
 10
-69.9001397822
 20
110.2751547898
 30
0.0
 10
-69.6912741506
 20
110.3729676092
 30
0.0
 10
-69.3533158241
 20
110.4664209701
 30
0.0
 10
-68.9930391785
 20
110.5065986974
 30
0.0
 10
-68.6142916529
 20
110.4934184427
 30
0.0
 10
-68.2206709771
 20
110.4273693262
 30
0.0
 10
-67.6661127963
 20
110.2656589852
 30
0.0
 10
-67.2617503933
 20
110.0731825219
 30
0.0
 10
-66.9983675174
 20
109.9211085504
 30
0.0
  0
SPLINE
  5
288
100
AcDbEntity
  8
SMUSSO
100
AcDbSpline
 62
7
  6
CONTINUOUS
 70
0
 71
3
 72
15
 73
11
 74
0
 42
0.0000001
 43
0.0000001
 44
0.0000000001
 40
0.0
 40
0.0
 40
0.0
 40
0.0
 40
0.1141523975
 40
0.2373236374
 40
0.3669741715
 40
0.4999998272
 40
0.6330256023
 40
0.7626763026
 40
0.8858445491
 40
1.0
 40
1.0
 40
1.0
 40
1.0
 10
63.1444305496
 20
-5.2288761511
 30
0.0
 10
63.2896607891
 20
-5.3127140776
 30
0.0
 10
63.5765220469
 20
-5.5137771008
 30
0.0
 10
63.9712266854
 20
-5.8830300291
 30
0.0
 10
64.3349783773
 20
-6.3195196035
 30
0.0
 10
64.654066111
 20
-6.8068769846
 30
0.0
 10
64.916613726
 20
-7.3268798033
 30
0.0
 10
65.1127806956
 20
-7.8601270518
 30
0.0
 10
65.235237761
 20
-8.3865716305
 30
0.0
 10
65.2659559035
 20
-8.7355303638
 30
0.0
 10
65.2659559035
 20
-8.9032268896
 30
0.0
  0
SPLINE
  5
289
100
AcDbEntity
  8
RACCORDO
100
AcDbSpline
 62
7
  6
CONTINUOUS
 70
0
 71
3
 72
15
 73
11
 74
0
 42
0.0000001
 43
0.0000001
 44
0.0000000001
 40
0.0
 40
0.0
 40
0.0
 40
0.0
 40
0.1080099549
 40
0.2180566433
 40
0.331992793
 40
0.4513502673
 40
0.5772703403
 40
0.7104950976
 40
0.8513906066
 40
1.0
 40
1.0
 40
1.0
 40
1.0
 10
-16.7230551502
 20
16.9214042529
 30
0.0
 10
-16.4935189231
 20
17.0539355846
 30
0.0
 10
-16.0061668286
 20
17.2821666008
 30
0.0
 10
-15.2175972029
 20
17.5002258629
 30
0.0
 10
-14.3769567165
 20
17.5939790179
 30
0.0
 10
-13.4931941955
 20
17.5632180214
 30
0.0
 10
-12.5748224855
 20
17.4091254708
 30
0.0
 10
-11.6304503327
 20
17.1337704301
 30
0.0
 10
-10.6688820582
 20
16.7402247605
 30
0.0
 10
-10.0385339356
 20
16.410178098
 30
0.0
 10
-9.7227182413
 20
16.2278300742
 30
0.0
  0
SPLINE
  5
28A
100
AcDbEntity
  8
RACCORDO
100
AcDbSpline
 62
7
  6
CONTINUOUS
 70
0
 71
3
 72
14
 73
10
 74
0
 42
0.0000001
 43
0.0000001
 44
0.0000000001
 40
0.0
 40
0.0
 40
0.0
 40
0.0
 40
0.1077364327
 40
0.2184301395
 40
0.3334200969
 40
0.4537756493
 40
0.5802742349
 40
0.7134060179
 40
1.0
 40
1.0
 40
1.0
 40
1.0
 10
-16.1726848214
 20
17.1927003897
 30
0.0
 10
-16.3648917469
 20
17.0452093899
 30
0.0
 10
-16.7321036107
 20
16.7156964901
 30
0.0
 10
-17.2125469943
 20
16.1369636111
 30
0.0
 10
-17.6245123893
 20
15.4741164039
 30
0.0
 10
-17.9649428873
 20
14.7329424957
 30
0.0
 10
-18.2316644685
 20
13.9193150009
 30
0.0
 10
-18.4929286415
 20
12.7174526999
 30
0.0
 10
-18.5615530061
 20
11.769987357
 30
0.0
 10
-18.5615530061
 20
11.1255023956
 30
0.0
  0
SPLINE
  5
28B
100
AcDbEntity
  8
SMUSSO
100
AcDbSpline
 62
7
  6
CONTINUOUS
 70
0
 71
3
 72
15
 73
11
 74
0
 42
0.0000001
 43
0.0000001
 44
0.0000000001
 40
0.0
 40
0.0
 40
0.0
 40
0.0
 40
0.1141523975
 40
0.2373236374
 40
0.3669741715
 40
0.4999998272
 40
0.6330256023
 40
0.7626763026
 40
0.8858445491
 40
1.0
 40
1.0
 40
1.0
 40
1.0
 10
-64.2055007421
 20
9.5155181782
 30
0.0
 10
-64.0602705026
 20
9.4316802516
 30
0.0
 10
-63.7734092448
 20
9.2306172284
 30
0.0
 10
-63.3787046063
 20
8.8613643002
 30
0.0
 10
-63.0149529144
 20
8.4248747257
 30
0.0
 10
-62.6958651807
 20
7.9375173447
 30
0.0
 10
-62.4333175657
 20
7.4175145259
 30
0.0
 10
-62.2371505961
 20
6.8842672775
 30
0.0
 10
-62.1146935307
 20
6.3578226987
 30
0.0
 10
-62.0839753882
 20
6.0088639654
 30
0.0
 10
-62.0839753882
 20
5.8411674396
 30
0.0
  0
SPLINE
  5
28C
100
AcDbEntity
  8
SMUSSO
100
AcDbSpline
 62
7
  6
CONTINUOUS
 70
0
 71
3
 72
15
 73
11
 74
0
 42
0.0000001
 43
0.0000001
 44
0.0000000001
 40
0.0
 40
0.0
 40
0.0
 40
0.0
 40
0.1141523975
 40
0.2373236374
 40
0.3669741715
 40
0.4999998272
 40
0.6330256023
 40
0.7626763026
 40
0.8858445491
 40
1.0
 40
1.0
 40
1.0
 40
1.0
 10
-64.2055007421
 20
68.3013781073
 30
0.0
 10
-64.0602705026
 20
68.2175401807
 30
0.0
 10
-63.7734092448
 20
68.0164771575
 30
0.0
 10
-63.3787046063
 20
67.6472242293
 30
0.0
 10
-63.0149529144
 20
67.2107346548
 30
0.0
 10
-62.6958651807
 20
66.7233772738
 30
0.0
 10
-62.4333175657
 20
66.203374455
 30
0.0
 10
-62.2371505961
 20
65.6701272066
 30
0.0
 10
-62.1146935307
 20
65.1436826278
 30
0.0
 10
-62.0839753882
 20
64.7947238945
 30
0.0
 10
-62.0839753882
 20
64.6270273687
 30
0.0
  0
SPLINE
  5
28D
100
AcDbEntity
  8
ASSI
100
AcDbSpline
 62
7
  6
CONTINUOUS
 70
0
 71
3
 72
11
 73
7
 74
0
 42
0.0000001
 43
0.0000001
 44
0.0000000001
 40
0.0
 40
0.0
 40
0.0
 40
0.0
 40
0.2177717149
 40
0.4509547636
 40
0.7101913593
 40
1.0
 40
1.0
 40
1.0
 40
1.0
 10
-22.7448505196
 20
8.7367883372
 30
0.0
 10
-22.7036243508
 20
8.7605918725
 30
0.0
 10
-22.6264616993
 20
8.8254310871
 30
0.0
 10
-22.544392473
 20
8.9597117826
 30
0.0
 10
-22.4955600761
 20
9.1251687802
 30
0.0
 10
-22.4859956417
 20
9.2456047635
 30
0.0
 10
-22.4859956417
 20
9.3089566399
 30
0.0
  0
SPLINE
  5
28E
100
AcDbEntity
  8
ASSI
100
AcDbSpline
 62
7
  6
CONTINUOUS
 70
0
 71
3
 72
11
 73
7
 74
0
 42
0.0000001
 43
0.0000001
 44
0.0000000001
 40
0.0
 40
0.0
 40
0.0
 40
0.0
 40
0.2177717149
 40
0.4509547636
 40
0.7101913593
 40
1.0
 40
1.0
 40
1.0
 40
1.0
 10
22.9342475451
 20
-17.6377503918
 30
0.0
 10
22.9754737139
 20
-17.6139468565
 30
0.0
 10
23.0526363653
 20
-17.5491076418
 30
0.0
 10
23.1347055916
 20
-17.4148269464
 30
0.0
 10
23.1835379886
 20
-17.2493699488
 30
0.0
 10
23.1931024229
 20
-17.1289339655
 30
0.0
 10
23.1931024229
 20
-17.0655820891
 30
0.0
  0
SPLINE
  5
28F
100
AcDbEntity
  8
RACCORDO
100
AcDbSpline
 62
7
  6
CONTINUOUS
 70
0
 71
3
 72
15
 73
11
 74
0
 42
0.0000001
 43
0.0000001
 44
0.0000000001
 40
0.0
 40
0.0
 40
0.0
 40
0.0
 40
0.1141562306
 40
0.2373296566
 40
0.3669809195
 40
0.5000060513
 40
0.6330303416
 40
0.7626791459
 40
0.8858486989
 40
1.0
 40
1.0
 40
1.0
 40
1.0
 10
-9.7227182413
 20
-37.6592081942
 30
0.0
 10
-10.4004133441
 20
-37.2679155353
 30
0.0
 10
-11.7389857808
 20
-36.3295433384
 30
0.0
 10
-13.5807987485
 20
-34.6063426634
 30
0.0
 10
-15.2781361942
 20
-32.5694117789
 30
0.0
 10
-16.7670601872
 20
-30.295162955
 30
0.0
 10
-17.99214878
 20
-27.8686079502
 30
0.0
 10
-18.9074909002
 20
-25.3802486772
 30
0.0
 10
-19.4788814608
 20
-22.9236612534
 30
0.0
 10
-19.6222131779
 20
-21.2952937254
 30
0.0
 10
-19.6222131779
 20
-20.5127800125
 30
0.0
  0
SPLINE
  5
290
100
AcDbEntity
  8
SMUSSO
100
AcDbSpline
 62
7
  6
CONTINUOUS
 70
0
 71
3
 72
23
 73
19
 74
0
 42
0.0000001
 43
0.0000001
 44
0.0000000001
 40
0.0
 40
0.0
 40
0.0
 40
0.0
 40
0.0603790103
 40
0.1143899065
 40
0.1629705559
 40
0.2083417274
 40
0.2537136742
 40
0.3022966354
 40
0.3563118521
 40
0.4166928041
 40
0.4832808977
 40
0.5551288465
 40
0.6307553348
 40
0.7083498309
 40
0.7859439059
 40
0.8615690573
 40
0.9334130003
 40
1.0
 40
1.0
 40
1.0
 40
1.0
 10
-62.0839753882
 20
64.6270273687
 30
0.0
 10
-62.0839753886
 20
64.474975135
 30
0.0
 10
-62.1069581139
 20
64.1859005055
 30
0.0
 10
-62.224076608
 20
63.7888254781
 30
0.0
 10
-62.4213295207
 20
63.4664010991
 30
0.0
 10
-62.6951148617
 20
63.236136091
 30
0.0
 10
-63.0314465236
 20
63.1141991556
 30
0.0
 10
-63.4092994665
 20
63.1046118423
 30
0.0
 10
-63.8118378231
 20
63.2018004648
 30
0.0
 10
-64.2257177423
 20
63.3987785638
 30
0.0
 10
-64.6372604778
 20
63.687310095
 30
0.0
 10
-65.0320534405
 20
64.0566446948
 30
0.0
 10
-65.3957350184
 20
64.4931061759
 30
0.0
 10
-65.714799244
 20
64.9804517089
 30
0.0
 10
-65.9773149556
 20
65.5004264093
 30
0.0
 10
-66.1734597263
 20
66.0336423057
 30
0.0
 10
-66.2959018473
 20
66.560053323
 30
0.0
 10
-66.3266160752
 20
66.9089891387
 30
0.0
 10
-66.3266160753
 20
67.0766749287
 30
0.0
  0
SPLINE
  5
291
100
AcDbEntity
  8
SMUSSO
100
AcDbSpline
 62
7
  6
CONTINUOUS
 70
0
 71
3
 72
15
 73
11
 74
0
 42
0.0000001
 43
0.0000001
 44
0.0000000001
 40
0.0
 40
0.0
 40
0.0
 40
0.0
 40
0.1449029568
 40
0.2745240686
 40
0.3911135539
 40
0.4999998782
 40
0.6088860487
 40
0.7254757245
 40
0.8550999935
 40
1.0
 40
1.0
 40
1.0
 40
1.0
 10
-66.3266160753
 20
67.0766749287
 30
0.0
 10
-66.3266160749
 20
67.2287183371
 30
0.0
 10
-66.3036359395
 20
67.5177770322
 30
0.0
 10
-66.1865314632
 20
67.91483294
 30
0.0
 10
-65.9893033541
 20
68.2372489872
 30
0.0
 10
-65.7155501893
 20
68.467519488
 30
0.0
 10
-65.3792602306
 20
68.5894827751
 30
0.0
 10
-65.0014228132
 20
68.5990952773
 30
0.0
 10
-64.5990036191
 20
68.5020079463
 30
0.0
 10
-64.3371757517
 20
68.3773909254
 30
0.0
 10
-64.2055007421
 20
68.3013781073
 30
0.0
  0
SPLINE
  5
292
100
AcDbEntity
  8
SMUSSO
100
AcDbSpline
 62
7
  6
CONTINUOUS
 70
0
 71
3
 72
23
 73
19
 74
0
 42
0.0000001
 43
0.0000001
 44
0.0000000001
 40
0.0
 40
0.0
 40
0.0
 40
0.0
 40
0.0603790103
 40
0.1143899065
 40
0.1629705559
 40
0.2083417274
 40
0.2537136742
 40
0.3022966354
 40
0.3563118521
 40
0.4166928041
 40
0.4832808977
 40
0.5551288465
 40
0.6307553348
 40
0.7083498309
 40
0.7859439059
 40
0.8615690573
 40
0.9334130003
 40
1.0
 40
1.0
 40
1.0
 40
1.0
 10
-62.0839753882
 20
5.8411674396
 30
0.0
 10
-62.0839753886
 20
5.6891152059
 30
0.0
 10
-62.1069581139
 20
5.4000405764
 30
0.0
 10
-62.224076608
 20
5.002965549
 30
0.0
 10
-62.4213295207
 20
4.68054117
 30
0.0
 10
-62.6951148617
 20
4.4502761619
 30
0.0
 10
-63.0314465236
 20
4.3283392265
 30
0.0
 10
-63.4092994665
 20
4.3187519132
 30
0.0
 10
-63.8118378231
 20
4.4159405357
 30
0.0
 10
-64.2257177423
 20
4.6129186347
 30
0.0
 10
-64.6372604778
 20
4.9014501659
 30
0.0
 10
-65.0320534405
 20
5.2707847657
 30
0.0
 10
-65.3957350184
 20
5.7072462468
 30
0.0
 10
-65.714799244
 20
6.1945917798
 30
0.0
 10
-65.9773149556
 20
6.7145664802
 30
0.0
 10
-66.1734597263
 20
7.2477823767
 30
0.0
 10
-66.2959018473
 20
7.7741933939
 30
0.0
 10
-66.3266160752
 20
8.1231292096
 30
0.0
 10
-66.3266160753
 20
8.2908149996
 30
0.0
  0
SPLINE
  5
293
100
AcDbEntity
  8
SMUSSO
100
AcDbSpline
 62
7
  6
CONTINUOUS
 70
0
 71
3
 72
15
 73
11
 74
0
 42
0.0000001
 43
0.0000001
 44
0.0000000001
 40
0.0
 40
0.0
 40
0.0
 40
0.0
 40
0.1449029568
 40
0.2745240686
 40
0.3911135539
 40
0.4999998782
 40
0.6088860487
 40
0.7254757245
 40
0.8550999935
 40
1.0
 40
1.0
 40
1.0
 40
1.0
 10
-66.3266160753
 20
8.2908149996
 30
0.0
 10
-66.3266160749
 20
8.442858408
 30
0.0
 10
-66.3036359395
 20
8.7319171032
 30
0.0
 10
-66.1865314632
 20
9.128973011
 30
0.0
 10
-65.9893033541
 20
9.4513890581
 30
0.0
 10
-65.7155501893
 20
9.6816595589
 30
0.0
 10
-65.3792602306
 20
9.803622846
 30
0.0
 10
-65.0014228132
 20
9.8132353482
 30
0.0
 10
-64.5990036191
 20
9.7161480173
 30
0.0
 10
-64.3371757517
 20
9.5915309963
 30
0.0
 10
-64.2055007421
 20
9.5155181782
 30
0.0
  0
SPLINE
  5
294
100
AcDbEntity
  8
SMUSSO
100
AcDbSpline
 62
7
  6
CONTINUOUS
 70
0
 71
3
 72
23
 73
19
 74
0
 42
0.0000001
 43
0.0000001
 44
0.0000000001
 40
0.0
 40
0.0
 40
0.0
 40
0.0
 40
0.0603790103
 40
0.1143899065
 40
0.1629705559
 40
0.2083417274
 40
0.2537136742
 40
0.3022966354
 40
0.3563118521
 40
0.4166928041
 40
0.4832808977
 40
0.5551288465
 40
0.6307553348
 40
0.7083498309
 40
0.7859439059
 40
0.8615690573
 40
0.9334130003
 40
1.0
 40
1.0
 40
1.0
 40
1.0
 10
65.2659559035
 20
-8.9032268896
 30
0.0
 10
65.2659559031
 20
-9.0552791233
 30
0.0
 10
65.2429731778
 20
-9.3443537528
 30
0.0
 10
65.1258546837
 20
-9.7414287802
 30
0.0
 10
64.928601771
 20
-10.0638531592
 30
0.0
 10
64.65481643
 20
-10.2941181673
 30
0.0
 10
64.3184847681
 20
-10.4160551028
 30
0.0
 10
63.9406318252
 20
-10.425642416
 30
0.0
 10
63.5380934686
 20
-10.3284537935
 30
0.0
 10
63.1242135494
 20
-10.1314756946
 30
0.0
 10
62.7126708139
 20
-9.8429441634
 30
0.0
 10
62.3178778512
 20
-9.4736095636
 30
0.0
 10
61.9541962733
 20
-9.0371480825
 30
0.0
 10
61.6351320477
 20
-8.5498025494
 30
0.0
 10
61.3726163361
 20
-8.029827849
 30
0.0
 10
61.1764715654
 20
-7.4966119526
 30
0.0
 10
61.0540294444
 20
-6.9702009353
 30
0.0
 10
61.0233152165
 20
-6.6212651196
 30
0.0
 10
61.0233152164
 20
-6.4535793296
 30
0.0
  0
SPLINE
  5
295
100
AcDbEntity
  8
SMUSSO
100
AcDbSpline
 62
7
  6
CONTINUOUS
 70
0
 71
3
 72
15
 73
11
 74
0
 42
0.0000001
 43
0.0000001
 44
0.0000000001
 40
0.0
 40
0.0
 40
0.0
 40
0.0
 40
0.1449029568
 40
0.2745240686
 40
0.3911135539
 40
0.4999998782
 40
0.6088860487
 40
0.7254757245
 40
0.8550999935
 40
1.0
 40
1.0
 40
1.0
 40
1.0
 10
61.0233152164
 20
-6.4535793296
 30
0.0
 10
61.0233152168
 20
-6.3015359213
 30
0.0
 10
61.0462953522
 20
-6.0124772261
 30
0.0
 10
61.1633998285
 20
-5.6154213183
 30
0.0
 10
61.3606279376
 20
-5.2930052712
 30
0.0
 10
61.6343811024
 20
-5.0627347703
 30
0.0
 10
61.9706710611
 20
-4.9407714832
 30
0.0
 10
62.3485084785
 20
-4.931158981
 30
0.0
 10
62.7509276726
 20
-5.028246312
 30
0.0
 10
63.0127555399
 20
-5.1528633329
 30
0.0
 10
63.1444305496
 20
-5.2288761511
 30
0.0
  0
SPLINE
  5
296
100
AcDbEntity
  8
SMUSSO
100
AcDbSpline
 62
7
  6
CONTINUOUS
 70
0
 71
3
 72
23
 73
19
 74
0
 42
0.0000001
 43
0.0000001
 44
0.0000000001
 40
0.0
 40
0.0
 40
0.0
 40
0.0
 40
0.0603790103
 40
0.1143899065
 40
0.1629705559
 40
0.2083417274
 40
0.2537136742
 40
0.3022966354
 40
0.3563118521
 40
0.4166928041
 40
0.4832808977
 40
0.5551288465
 40
0.6307553348
 40
0.7083498309
 40
0.7859439059
 40
0.8615690573
 40
0.9334130003
 40
1.0
 40
1.0
 40
1.0
 40
1.0
 10
65.2659559035
 20
-67.6890868187
 30
0.0
 10
65.2659559031
 20
-67.8411390524
 30
0.0
 10
65.2429731778
 20
-68.1302136819
 30
0.0
 10
65.1258546837
 20
-68.5272887093
 30
0.0
 10
64.928601771
 20
-68.8497130883
 30
0.0
 10
64.65481643
 20
-69.0799780964
 30
0.0
 10
64.3184847681
 20
-69.2019150318
 30
0.0
 10
63.9406318252
 20
-69.2115023451
 30
0.0
 10
63.5380934686
 20
-69.1143137226
 30
0.0
 10
63.1242135494
 20
-68.9173356236
 30
0.0
 10
62.7126708139
 20
-68.6288040925
 30
0.0
 10
62.3178778512
 20
-68.2594694926
 30
0.0
 10
61.9541962733
 20
-67.8230080115
 30
0.0
 10
61.6351320477
 20
-67.3356624785
 30
0.0
 10
61.3726163361
 20
-66.8156877781
 30
0.0
 10
61.1764715654
 20
-66.2824718817
 30
0.0
 10
61.0540294444
 20
-65.7560608644
 30
0.0
 10
61.0233152165
 20
-65.4071250487
 30
0.0
 10
61.0233152164
 20
-65.2394392587
 30
0.0
  0
SPLINE
  5
297
100
AcDbEntity
  8
SMUSSO
100
AcDbSpline
 62
7
  6
CONTINUOUS
 70
0
 71
3
 72
15
 73
11
 74
0
 42
0.0000001
 43
0.0000001
 44
0.0000000001
 40
0.0
 40
0.0
 40
0.0
 40
0.0
 40
0.1449029568
 40
0.2745240686
 40
0.3911135539
 40
0.4999998782
 40
0.6088860487
 40
0.7254757245
 40
0.8550999935
 40
1.0
 40
1.0
 40
1.0
 40
1.0
 10
61.0233152164
 20
-65.2394392587
 30
0.0
 10
61.0233152168
 20
-65.0873958503
 30
0.0
 10
61.0462953522
 20
-64.7983371552
 30
0.0
 10
61.1633998285
 20
-64.4012812474
 30
0.0
 10
61.3606279376
 20
-64.0788652003
 30
0.0
 10
61.6343811024
 20
-63.8485946994
 30
0.0
 10
61.9706710611
 20
-63.7266314123
 30
0.0
 10
62.3485084785
 20
-63.7170189101
 30
0.0
 10
62.7509276726
 20
-63.8141062411
 30
0.0
 10
63.0127555399
 20
-63.938723262
 30
0.0
 10
63.1444305496
 20
-64.0147360801
 30
0.0
  0
SPLINE
  5
298
100
AcDbEntity
  8
RACCORDO
100
AcDbSpline
 62
7
  6
CONTINUOUS
 70
0
 71
3
 72
15
 73
11
 74
0
 42
0.0000001
 43
0.0000001
 44
0.0000000001
 40
0.0
 40
0.0
 40
0.0
 40
0.0
 40
0.11415222
 40
0.2373210206
 40
0.3669696604
 40
0.4999939487
 40
0.6330190785
 40
0.7626701768
 40
0.8858428505
 40
1.0
 40
1.0
 40
1.0
 40
1.0
 10
71.2410082045
 20
23.9797801141
 30
0.0
 10
71.2410082045
 20
24.3151458308
 30
0.0
 10
71.1795809061
 20
25.0130182856
 30
0.0
 10
70.9346961134
 20
26.0658407189
 30
0.0
 10
70.5424088094
 20
27.1322781481
 30
0.0
 10
70.0173721444
 20
28.1722304869
 30
0.0
 10
69.3792610421
 20
29.1469075225
 30
0.0
 10
68.6518315768
 20
30.0198748874
 30
0.0
 10
67.862485372
 20
30.7583917935
 30
0.0
 10
67.2888106114
 20
31.1605511324
 30
0.0
 10
66.9983675174
 20
31.3282493348
 30
0.0
  0
SPLINE
  5
299
100
AcDbEntity
  8
RACCORDO
100
AcDbSpline
 62
7
  6
CONTINUOUS
 70
0
 71
3
 72
14
 73
10
 74
0
 42
0.0000001
 43
0.0000001
 44
0.0000000001
 40
0.0
 40
0.0
 40
0.0
 40
0.0
 40
0.1080475751
 40
0.218132104
 40
0.3321066606
 40
0.4515027733
 40
0.5774639967
 40
0.7107266707
 40
1.0
 40
1.0
 40
1.0
 40
1.0
 10
69.9985124783
 20
-110.2183556164
 30
0.0
 10
70.0968730221
 20
-110.1615634596
 30
0.0
 10
70.2859842383
 20
-110.0295952122
 30
0.0
 10
70.535857734
 20
-109.7836671737
 30
0.0
 10
70.7507591696
 20
-109.4917856231
 30
0.0
 10
70.9286942135
 20
-109.1572400648
 30
0.0
 10
71.0682880421
 20
-108.7833894763
 30
0.0
 10
71.2055106668
 20
-108.2223673625
 30
0.0
 10
71.2410082045
 20
-107.776016424
 30
0.0
 10
71.2410082045
 20
-107.4719344496
 30
0.0
  0
SPLINE
  5
29A
100
AcDbEntity
  8
RACCORDO
100
AcDbSpline
 62
7
  6
CONTINUOUS
 70
0
 71
3
 72
14
 73
10
 74
0
 42
0.0000001
 43
0.0000001
 44
0.0000000001
 40
0.0
 40
0.0
 40
0.0
 40
0.0
 40
0.2892787613
 40
0.4225429658
 40
0.5485046797
 40
0.667900194
 40
0.7818731389
 40
0.8919552647
 40
1.0
 40
1.0
 40
1.0
 40
1.0
 10
-68.0590276892
 20
109.3086966604
 30
0.0
 10
-68.322410565
 20
109.4607706319
 30
0.0
 10
-68.7267729681
 20
109.6532470952
 30
0.0
 10
-69.2813311488
 20
109.8149574362
 30
0.0
 10
-69.6749518247
 20
109.8810065528
 30
0.0
 10
-70.0536993502
 20
109.8941868075
 30
0.0
 10
-70.4139759959
 20
109.8540090801
 30
0.0
 10
-70.7519343224
 20
109.7605557192
 30
0.0
 10
-70.960799954
 20
109.6627428998
 30
0.0
 10
-71.05917265
 20
109.6059437265
 30
0.0
  0
SPLINE
  5
29B
100
AcDbEntity
  8
RACCORDO
100
AcDbSpline
 62
7
  6
CONTINUOUS
 70
0
 71
3
 72
15
 73
11
 74
0
 42
0.0000001
 43
0.0000001
 44
0.0000000001
 40
0.0
 40
0.0
 40
0.0
 40
0.0
 40
0.1080099549
 40
0.2180566433
 40
0.331992793
 40
0.4513502673
 40
0.5772703403
 40
0.7104950976
 40
0.8513906066
 40
1.0
 40
1.0
 40
1.0
 40
1.0
 10
15.6623949784
 20
-48.9679217994
 30
0.0
 10
15.4328587513
 20
-49.1004531311
 30
0.0
 10
14.9455066568
 20
-49.3286841473
 30
0.0
 10
14.1569370312
 20
-49.5467434094
 30
0.0
 10
13.3162965447
 20
-49.6404965644
 30
0.0
 10
12.4325340237
 20
-49.6097355679
 30
0.0
 10
11.5141623138
 20
-49.4556430173
 30
0.0
 10
10.5697901609
 20
-49.1802879767
 30
0.0
 10
9.6082218864
 20
-48.786742307
 30
0.0
 10
8.9778737639
 20
-48.4566956445
 30
0.0
 10
8.6620580695
 20
-48.2743476207
 30
0.0
  0
SPLINE
  5
29C
100
AcDbEntity
  8
ASSI
100
AcDbSpline
 62
7
  6
CONTINUOUS
 70
0
 71
3
 72
11
 73
7
 74
0
 42
0.0000001
 43
0.0000001
 44
0.0000000001
 40
0.0
 40
0.0
 40
0.0
 40
0.0
 40
0.2177717149
 40
0.4509547636
 40
0.7101913593
 40
1.0
 40
1.0
 40
1.0
 40
1.0
 10
-23.9949077169
 20
10.9018114258
 30
0.0
 10
-24.0361338856
 20
10.8780078906
 30
0.0
 10
-24.1132965371
 20
10.8131686759
 30
0.0
 10
-24.1953657634
 20
10.6788879804
 30
0.0
 10
-24.2441981604
 20
10.5134309829
 30
0.0
 10
-24.2537625947
 20
10.3929949995
 30
0.0
 10
-24.2537625947
 20
10.3296431232
 30
0.0
  0
SPLINE
  5
29D
100
AcDbEntity
  8
ASSI
100
AcDbSpline
 62
7
  6
CONTINUOUS
 70
0
 71
3
 72
11
 73
7
 74
0
 42
0.0000001
 43
0.0000001
 44
0.0000000001
 40
0.0
 40
0.0
 40
0.0
 40
0.0
 40
0.2177717149
 40
0.4509547636
 40
0.7101913593
 40
1.0
 40
1.0
 40
1.0
 40
1.0
 10
21.6841903478
 20
-15.4727273031
 30
0.0
 10
21.642964179
 20
-15.4965308384
 30
0.0
 10
21.5658015275
 20
-15.5613700531
 30
0.0
 10
21.4837323012
 20
-15.6956507485
 30
0.0
 10
21.4348999043
 20
-15.8611077461
 30
0.0
 10
21.42533547
 20
-15.9815437294
 30
0.0
 10
21.42533547
 20
-16.0448956058
 30
0.0
  0
SPLINE
  5
29E
100
AcDbEntity
  8
ASSI
100
AcDbSpline
 62
7
  6
CONTINUOUS
 70
0
 71
3
 72
17
 73
13
 74
0
 42
0.0000001
 43
0.0000001
 44
0.0000000001
 40
0.0
 40
0.0
 40
0.0
 40
0.0
 40
0.1286807625
 40
0.2702709961
 40
0.417427602
 40
0.5617760301
 40
0.6954482503
 40
0.81271455
 40
0.8646793261
 40
0.9125126121
 40
0.9571411002
 40
1.0
 40
1.0
 40
1.0
 40
1.0
 10
21.42533547
 20
-16.0448956058
 30
0.0
 10
21.42533547
 20
-16.1517349378
 30
0.0
 10
21.4552293241
 20
-16.3763871368
 30
0.0
 10
21.5667852862
 20
-16.7062486299
 30
0.0
 10
21.7387091226
 20
-17.0240150691
 30
0.0
 10
21.9571561197
 20
-17.3036281028
 30
0.0
 10
22.2042881872
 20
-17.5224963784
 30
0.0
 10
22.4279691251
 20
-17.6448045277
 30
0.0
 10
22.6029425453
 20
-17.6913605746
 30
0.0
 10
22.7233667166
 20
-17.7002145217
 30
0.0
 10
22.8355006592
 20
-17.683780547
 30
0.0
 10
22.9034311446
 20
-17.6555434416
 30
0.0
 10
22.9342475451
 20
-17.6377503918
 30
0.0
  0
SPLINE
  5
29F
100
AcDbEntity
  8
RACCORDO
100
AcDbSpline
 62
7
  6
CONTINUOUS
 70
0
 71
3
 72
15
 73
11
 74
0
 42
0.0000001
 43
0.0000001
 44
0.0000000001
 40
0.0
 40
0.0
 40
0.0
 40
0.0
 40
0.1486063442
 40
0.2894994524
 40
0.4227226855
 40
0.5486422708
 40
0.6680003462
 40
0.7819381098
 40
0.8919872034
 40
1.0
 40
1.0
 40
1.0
 40
1.0
 10
-19.6222131779
 20
10.5130905057
 30
0.0
 10
-19.6222131779
 20
10.8777068076
 30
0.0
 10
-19.5928537547
 20
11.5885068727
 30
0.0
 10
-19.4528886904
 20
12.6178475398
 30
0.0
 10
-19.2191856023
 20
13.5732167721
 30
0.0
 10
-18.89348582
 20
14.4454575207
 30
0.0
 10
-18.4783010233
 20
15.2260831908
 30
0.0
 10
-17.9768624131
 20
15.9071332384
 30
0.0
 10
-17.3938229059
 20
16.4809647495
 30
0.0
 10
-16.9525630222
 20
16.7888892932
 30
0.0
 10
-16.7230551502
 20
16.9214042529
 30
0.0
  0
SPLINE
  5
2A0
100
AcDbEntity
  8
ASSI
100
AcDbSpline
 62
7
  6
CONTINUOUS
 70
0
 71
3
 72
17
 73
13
 74
0
 42
0.0000001
 43
0.0000001
 44
0.0000000001
 40
0.0
 40
0.0
 40
0.0
 40
0.0
 40
0.1286807625
 40
0.2702709961
 40
0.417427602
 40
0.5617760301
 40
0.6954482503
 40
0.81271455
 40
0.8646793261
 40
0.9125126121
 40
0.9571411002
 40
1.0
 40
1.0
 40
1.0
 40
1.0
 10
-24.2537625947
 20
10.3296431232
 30
0.0
 10
-24.2537625947
 20
10.2228037912
 30
0.0
 10
-24.2238687405
 20
9.9981515922
 30
0.0
 10
-24.1123127785
 20
9.6682900991
 30
0.0
 10
-23.940388942
 20
9.3505236599
 30
0.0
 10
-23.721941945
 20
9.0709106261
 30
0.0
 10
-23.4748098775
 20
8.8520423506
 30
0.0
 10
-23.2511289396
 20
8.7297342013
 30
0.0
 10
-23.0761555193
 20
8.6831781544
 30
0.0
 10
-22.9557313481
 20
8.6743242072
 30
0.0
 10
-22.8435974054
 20
8.690758182
 30
0.0
 10
-22.7756669201
 20
8.7189952874
 30
0.0
 10
-22.7448505196
 20
8.7367883372
 30
0.0
  0
ENDSEC
  0
SECTION
  2
OBJECTS
  0
DICTIONARY
  5
C
100
AcDbDictionary
280
0
281
1
  3
ACAD_GROUP
350
D
  3
ACAD_MLINESTYLE
350
17
  3
ACAD_LAYOUT
350
1A
  3
ACAD_PLOTSETTINGS
350
19
  3
ACAD_PLOTSTYLENAME
350
E
  0
DICTIONARY
  5
D
102
{ACAD_REACTORS
330
C
102
}
100
AcDbDictionary
280
0
281
1
  0
ACDBDICTIONARYWDFLT
  5
E
102
{ACAD_REACTORS
330
C
102
}
100
AcDbDictionary
281
1
  3
Normal
350
F
100
AcDbDictionaryWithDefault
340
F
  0
DICTIONARY
  5
17
102
{ACAD_REACTORS
330
C
102
}
100
AcDbDictionary
280
0
281
1
  3
Standard
350
18
  0
DICTIONARY
  5
19
102
{ACAD_REACTORS
330
C
102
}
100
AcDbDictionary
281
1
  0
DICTIONARY
  5
1A
102
{ACAD_REACTORS
330
C
102
}
100
AcDbDictionary
281
1
  3
Model
350
2A1
  3
Layout1
350
2A2
  0
ACDBPLACEHOLDER
  5
F
102
{ACAD_REACTORS
330
E
102
}
  0
MLINESTYLE
  5
18
102
{ACAD_REACTORS
330
17
102
}
100
AcDbMlineStyle
  2
STANDARD
 70
0
  3

 62
256
 51
90.0
 52
90.0
 71
2
 49
0.5
 62
256
  6
BYLAYER
 49
-0.5
 62
256
  6
BYLAYER
  0
LAYOUT
  5
2A1
102
{ACAD_REACTORS
330
1A
102
}
100
AcDbPlotSettings
  1

  2
none_device
  4
ISO_A4_(297.00_x_210.00_MM)
  6

 40
0.0
 41
0.0
 42
0.0
 43
0.0
 44
297.0
 45
210.0
 46
0.0
 47
0.0
 48
0.0
 49
0.0
140
0.0
141
0.0
142
1.0
143
1.0
 70
1024
 72
1
 73
0
 74
0
  7

 75
0
147
1.0
148
0.0
149
0.0
100
AcDbLayout
  1
Model
 70
0
 71
0
 10
0.0
 20
0.0
 11
297.0
 21
210.0
 12
0.0
 22
0.0
 32
0.0
 14
0.0
 24
0.0
 34
0.0
 15
0.0
 25
0.0
 35
0.0
146
0.0
 13
0.0
 23
0.0
 33
0.0
 16
1.0
 26
0.0
 36
0.0
 17
0.0
 27
1.0
 37
0.0
 76
0
330
212
345
0
346
0
  0
LAYOUT
  5
2A2
102
{ACAD_REACTORS
330
1A
102
}
100
AcDbPlotSettings
  1

  2
none_device
  4
ISO_A4_(297.00_x_210.00_MM)
  6

 40
0.0
 41
0.0
 42
0.0
 43
0.0
 44
297.0
 45
210.0
 46
0.0
 47
0.0
 48
0.0
 49
0.0
140
0.0
141
0.0
142
1.0
143
1.0
 70
0
 72
1
 73
0
 74
0
  7

 75
0
147
1.0
148
0.0
149
0.0
100
AcDbLayout
  1
Layout1
 70
0
 71
1
 10
0.0
 20
0.0
 11
297.0
 21
210.0
 12
0.0
 22
0.0
 32
0.0
 14
0.0
 24
0.0
 34
0.0
 15
0.0
 25
0.0
 35
0.0
146
0.0
 13
0.0
 23
0.0
 33
0.0
 16
1.0
 26
0.0
 36
0.0
 17
0.0
 27
1.0
 37
0.0
 76
0
330
213
345
0
346
0
  0
ENDSEC
  0
EOF
