  0
SECTION
  2
HEADER
  9
$ACADVER
  1
AC1024
  9
$DWGCODEPAGE
  3
ANSI_1252
  9
$EXTMAX
 10
297.0
 20
210.0
 30
0.0
  9
$EXTMIN
 10
0.0
 20
0.0
 30
0.0
  9
$LIMMIN
 10
0.0
 20
0.0
  9
$LIMMAX
 10
297.0
 20
210.0
  9
$VIEWCTR
 10
148.5
 20
105.0
  9
$VIEWSIZE
 40
210.0
  9
$CLAYER
  8
0
  9
$LTSCALE
 40
16.335
  9
$CELTYPE
  6
BYLAYER
  9
$DIMSCALE
 40
1.0
  9
$DIMASZ
 40
3.0
  9
$DIMEXO
 40
0.5
  9
$DIMDLI
 40
11.286
  9
$DIMEXE
 40
1.5
  9
$DIMCEN
 40
2.673
  9
$DIMLFAC
 40
1.0
  9
$DIMBLK
  1
_FILLED
  9
$DIMALT
 70
0
  9
$DIMALTF
 40
0.0393700787
  9
$DIMTXT
 40
3.0
  9
$DIMTOL
 70
1
  9
$DIMLIM
 70
0
  9
$DIMTFAC
 40
1.0
  9
$DIMTP
 40
0.01
  9
$DIMTM
 40
0.01
  9
$DIMGAP
 40
0.625
  9
$DIMDSEP
 70
44
  9
$AUNITS
 70
0
  9
$PDMODE
 70
3
  9
$PDSIZE
 40
3.0
  9
$HANDSEED
  5
2B1
  9
$TILEMODE
 70
1
  9
$MEASUREMENT
 70
1
  9
$INSUNITS
 70
4
  0
ENDSEC
  0
SECTION
  2
CLASSES
  0
CLASS
  1
ACDBDICTIONARYWDFLT
  2
AcDbDictionaryWithDefault
  3
AutoCAD 2000
 90
0
 91
1
280
0
281
0
  0
CLASS
  1
ACDBPLACEHOLDER
  2
AcDbPlaceHolder
  3
AutoCAD 2000
 90
0
 91
1
280
0
281
0
  0
CLASS
  1
LAYOUT
  2
AcDbLayout
  3
AutoCAD 2000
 90
0
 91
0
280
0
281
0
  0
ENDSEC
  0
SECTION
  2
TABLES
  0
TABLE
  2
VPORT
  5
8
100
AcDbSymbolTable
 70
2
  0
VPORT
  5
1F4
100
AcDbSymbolTableRecord
100
AcDbViewportTableRecord
  2
*ACTIVE
 70
0
 10
0.0
 20
0.0
 11
1.0
 21
1.0
 12
148.5
 22
105.0
 13
0.0
 23
0.0
 14
1.0
 24
1.0
 15
0.0
 25
0.0
 16
0.0
 26
0.0
 36
1.0
 17
0.0
 27
0.0
 37
0.0
 40
210.0
 41
1.4142857143
 42
50.0
 43
0.0
 44
0.0
 50
0.0
 51
0.0
 71
0
 72
100
 73
1
 74
1
 75
0
 76
0
 77
0
 78
0
  0
ENDTAB
  0
TABLE
  2
LTYPE
  5
5
100
AcDbSymbolTable
 70
6
  0
LTYPE
  5
14
100
AcDbSymbolTableRecord
100
AcDbLinetypeTableRecord
  2
BYBLOCK
 70
0
  3

 72
65
 73
0
 40
0.0
  0
LTYPE
  5
15
100
AcDbSymbolTableRecord
100
AcDbLinetypeTableRecord
  2
BYLAYER
 70
0
  3

 72
65
 73
0
 40
0.0
  0
LTYPE
  5
16
100
AcDbSymbolTableRecord
100
AcDbLinetypeTableRecord
  2
CONTINUOUS
 70
64
  3
Solid line
 72
65
 73
0
 40
0.0
  0
LTYPE
  5
1F5
100
AcDbSymbolTableRecord
100
AcDbLinetypeTableRecord
  2
CENTER
 70
64
  3
____ _ ____ _ ____ _ ____ _ ____ _ ____ _ ____
 72
65
 73
4
 40
0.6
 49
0.375
 74
0
 49
-0.075
 74
0
 49
0.075
 74
0
 49
-0.075
 74
0
  0
LTYPE
  5
1F6
100
AcDbSymbolTableRecord
100
AcDbLinetypeTableRecord
  2
HIDDEN
 70
64
  3
- - - - - - - - - - - - - - - - - - - -
 72
65
 73
2
 40
0.2
 49
0.1
 74
0
 49
-0.1
 74
0
  0
LTYPE
  5
1F7
100
AcDbSymbolTableRecord
100
AcDbLinetypeTableRecord
  2
PHANTOM
 70
64
  3
_____ _ _ _____ _ _ _____ _ _ _____
 72
65
 73
6
 40
0.8
 49
0.45
 74
0
 49
-0.05
 74
0
 49
0.1
 74
0
 49
-0.05
 74
0
 49
0.1
 74
0
 49
-0.05
 74
0
  0
LTYPE
  5
1F8
100
AcDbSymbolTableRecord
100
AcDbLinetypeTableRecord
  2
DOT
 70
64
  3
. . . . . . . . . . . . . . . . . . . .
 72
65
 73
2
 40
0.2
 49
0.1
 74
0
 49
-0.1
 74
0
  0
LTYPE
  5
1F9
100
AcDbSymbolTableRecord
100
AcDbLinetypeTableRecord
  2
DASHED
 70
64
  3
- - - - - - - - - - - - - - - - - - - -
 72
65
 73
2
 40
0.2
 49
0.1
 74
0
 49
-0.1
 74
0
  0
ENDTAB
  0
TABLE
  2
LAYER
  5
2
100
AcDbSymbolTable
 70
36
  0
LAYER
  5
10
100
AcDbSymbolTableRecord
100
AcDbLayerTableRecord
  2
0
 70
0
 62
7
  6
CONTINUOUS
370
-3
390
F
  0
LAYER
  5
1FA
100
AcDbSymbolTableRecord
100
AcDbLayerTableRecord
  2
DEFAULT_1
 70
0
 62
7
  6
CENTER
370
-3
390
F
  0
LAYER
  5
1FB
100
AcDbSymbolTableRecord
100
AcDbLayerTableRecord
  2
DEFAULT_2
 70
0
 62
7
  6
HIDDEN
370
-3
390
F
  0
LAYER
  5
1FC
100
AcDbSymbolTableRecord
100
AcDbLayerTableRecord
  2
DEFAULT_3
 70
0
 62
7
  6
PHANTOM
370
-3
390
F
  0
LAYER
  5
1FD
100
AcDbSymbolTableRecord
100
AcDbLayerTableRecord
  2
ASSI
 70
0
 62
7
  6
CONTINUOUS
370
-3
390
F
  0
LAYER
  5
1FE
100
AcDbSymbolTableRecord
100
AcDbLayerTableRecord
  2
COORDINATE
 70
0
 62
7
  6
CONTINUOUS
370
-3
390
F
  0
LAYER
  5
1FF
100
AcDbSymbolTableRecord
100
AcDbLayerTableRecord
  2
COORD_ORIGINE
 70
0
 62
7
  6
CONTINUOUS
370
-3
390
F
  0
LAYER
  5
200
100
AcDbSymbolTableRecord
100
AcDbLayerTableRecord
  2
COPY_PUBLISH
 70
0
 62
7
  6
CONTINUOUS
370
-3
390
F
  0
LAYER
  5
201
100
AcDbSymbolTableRecord
100
AcDbLayerTableRecord
  2
COSMETICHE
 70
0
 62
7
  6
CONTINUOUS
370
-3
390
F
  0
LAYER
  5
202
100
AcDbSymbolTableRecord
100
AcDbLayerTableRecord
  2
COSMETICI
 70
0
 62
7
  6
CONTINUOUS
370
-3
390
F
  0
LAYER
  5
203
100
AcDbSymbolTableRecord
100
AcDbLayerTableRecord
  2
CURVE
 70
0
 62
7
  6
CONTINUOUS
370
-3
390
F
  0
LAYER
  5
204
100
AcDbSymbolTableRecord
100
AcDbLayerTableRecord
  2
DRAFT
 70
0
 62
7
  6
CONTINUOUS
370
-3
390
F
  0
LAYER
  5
205
100
AcDbSymbolTableRecord
100
AcDbLayerTableRecord
  2
IMPORT_IGES
 70
0
 62
7
  6
CONTINUOUS
370
-3
390
F
  0
LAYER
  5
206
100
AcDbSymbolTableRecord
100
AcDbLayerTableRecord
  2
NOTE
 70
0
 62
7
  6
CONTINUOUS
370
-3
390
F
  0
LAYER
  5
207
100
AcDbSymbolTableRecord
100
AcDbLayerTableRecord
  2
PIANI
 70
0
 62
7
  6
CONTINUOUS
370
-3
390
F
  0
LAYER
  5
208
100
AcDbSymbolTableRecord
100
AcDbLayerTableRecord
  2
PIANI_ORIGINE
 70
0
 62
7
  6
CONTINUOUS
370
-3
390
F
  0
LAYER
  5
209
100
AcDbSymbolTableRecord
100
AcDbLayerTableRecord
  2
PUNTI
 70
0
 62
7
  6
CONTINUOUS
370
-3
390
F
  0
LAYER
  5
20A
100
AcDbSymbolTableRecord
100
AcDbLayerTableRecord
  2
RACCORDO
 70
0
 62
7
  6
CONTINUOUS
370
-3
390
F
  0
LAYER
  5
20B
100
AcDbSymbolTableRecord
100
AcDbLayerTableRecord
  2
SIMBOLI
 70
0
 62
7
  6
CONTINUOUS
370
-3
390
F
  0
LAYER
  5
20C
100
AcDbSymbolTableRecord
100
AcDbLayerTableRecord
  2
SMUSSO
 70
0
 62
7
  6
CONTINUOUS
370
-3
390
F
  0
LAYER
  5
20D
100
AcDbSymbolTableRecord
100
AcDbLayerTableRecord
  2
SNAPLINE
 70
0
 62
7
  6
CONTINUOUS
370
-3
390
F
  0
LAYER
  5
20E
100
AcDbSymbolTableRecord
100
AcDbLayerTableRecord
  2
SUPERFICI
 70
0
 62
7
  6
CONTINUOUS
370
-3
390
F
  0
LAYER
  5
20F
100
AcDbSymbolTableRecord
100
AcDbLayerTableRecord
  2
TRASH
 70
0
 62
7
  6
CONTINUOUS
370
-3
390
F
  0
ENDTAB
  0
TABLE
  2
STYLE
  5
3
100
AcDbSymbolTable
 70
1
  0
STYLE
  5
11
100
AcDbSymbolTableRecord
100
AcDbTextStyleTableRecord
  2
STANDARD
 70
0
 40
0.0
 41
0.8
 50
0.0
 71
0
 42
0.2
  3
txt
  4

  0
STYLE
  5
210
100
AcDbSymbolTableRecord
100
AcDbTextStyleTableRecord
  2
TEXTSTYLE_1
 70
0
 40
0.0
 41
0.8
 50
0.0
 71
0
 42
0.2
  3
gdt
  4

  0
ENDTAB
  0
TABLE
  2
VIEW
  5
6
100
AcDbSymbolTable
 70
0
  0
ENDTAB
  0
TABLE
  2
UCS
  5
7
100
AcDbSymbolTable
 70
0
  0
ENDTAB
  0
TABLE
  2
APPID
  5
9
100
AcDbSymbolTable
 70
1
  0
APPID
  5
211
100
AcDbSymbolTableRecord
100
AcDbRegAppTableRecord
  2
ACAD
 70
0
  0
ENDTAB
  0
TABLE
  2
BLOCK_RECORD
  5
1
100
AcDbSymbolTable
 70
0
  0
BLOCK_RECORD
  5
212
100
AcDbSymbolTableRecord
100
AcDbBlockTableRecord
  2
*Model_Space
  0
BLOCK_RECORD
  5
213
100
AcDbSymbolTableRecord
100
AcDbBlockTableRecord
  2
*Paper_Space
  0
BLOCK_RECORD
  5
214
100
AcDbSymbolTableRecord
100
AcDbBlockTableRecord
  2
_FILLED
  0
ENDTAB
  0
TABLE
  2
DIMSTYLE
  5
A
100
AcDbSymbolTable
 70
1
100
AcDbDimStyleTable
 71
0
  0
DIMSTYLE
105
215
100
AcDbSymbolTableRecord
100
AcDbDimStyleTableRecord
  2
STANDARD
 70
0
  3

  4

 40
1.0
 41
3.0
 42
0.5
 43
0.38
 44
1.5
 45
0.0
 46
0.0
 47
0.01
 48
0.01
140
3.0
141
0.09
142
0.0
143
25.4
144
1.0
145
0.0
146
1.0
147
0.625
 71
1
 72
0
 73
0
 74
0
 75
0
 76
0
 77
1
 78
8
 79
2
170
0
171
1
172
0
173
0
174
0
175
0
176
0
177
0
178
0
270
2
179
2
271
2
272
2
273
2
274
2
275
0
280
0
281
0
282
0
283
1
284
8
285
0
286
0
287
3
288
0
340
11
278
44
341
214
342
214
343
214
344
214
  0
ENDTAB
  0
ENDSEC
  0
SECTION
  2
BLOCKS
  0
BLOCK
  5
20
100
AcDbEntity
  8
0
100
AcDbBlockBegin
  2
*Model_Space
 70
0
 10
0.0
 20
0.0
 30
0.0
  3
*Model_Space
  1

  0
ENDBLK
  5
21
100
AcDbEntity
  8
0
100
AcDbBlockEnd
  0
BLOCK
  5
1C
100
AcDbEntity
  8
0
100
AcDbBlockBegin
  2
*Paper_Space
 70
0
 10
0.0
 20
0.0
 30
0.0
  3
*Paper_Space
  1

  0
ENDBLK
  5
1D
100
AcDbEntity
  8
0
100
AcDbBlockEnd
  0
BLOCK
  5
216
100
AcDbEntity
  8
0
100
AcDbBlockBegin
  2
_FILLED
 70
64
 10
0.0
 20
0.0
  3
_FILLED
  1

  0
SOLID
  5
217
100
AcDbEntity
  8
0
  6
BYBLOCK
 62
0
100
AcDbTrace
 10
0.0
 20
0.0
 11
-1.0
 21
0.3166666667
 12
-1.0
 22
-0.3166666667
 13
-1.0
 23
-0.3166666667
  0
ENDBLK
  5
218
100
AcDbEntity
  8
0
  6
BYBLOCK
 62
0
100
AcDbBlockEnd
  0
ENDSEC
  0
SECTION
  2
ENTITIES
  0
LWPOLYLINE
  5
219
100
AcDbEntity
  8
RACCORDO
100
AcDbPolyline
 62
7
  6
CONTINUOUS
 90
22
 70
0
 10
-71.05917265
 20
109.6059437264
 10
-71.1690438959
 20
109.5376572388
 10
-71.2748682425
 20
109.462026546
 10
-71.3760577472
 20
109.3794519296
 10
-71.4725929813
 20
109.2899042814
 10
-71.5644933735
 20
109.1934127096
 10
-71.6513742276
 20
109.0903811289
 10
-71.7332145026
 20
108.9807821244
 10
-71.8100352395
 20
108.864643111
 10
-71.881514866
 20
108.7424502479
 10
-71.9476309928
 20
108.6141781582
 10
-72.0084060092
 20
108.4798522187
 10
-72.0635855103
 20
108.3400347194
 10
-72.1131460403
 20
108.1947026404
 10
-72.1571110551
 20
108.0438790014
 10
-72.1952965164
 20
107.8881951521
 10
-72.2276781973
 20
107.7276307189
 10
-72.2542803248
 20
107.5622060753
 10
-72.2749915422
 20
107.3926136907
 10
-72.2897747304
 20
107.2190843881
 10
-72.2986670085
 20
107.0413873444
 10
-72.3016683763
 20
106.8595225596
  0
LINE
  5
21A
100
AcDbEntity
  8
RACCORDO
100
AcDbLine
 62
7
  6
CONTINUOUS
 10
-71.05917265
 20
109.6059437265
 11
-69.9985124783
 21
110.2183556164
  0
LINE
  5
21B
100
AcDbEntity
  8
RACCORDO
100
AcDbLine
 62
250
  6
CONTINUOUS
 10
-68.0590276892
 20
109.3086966604
 11
-66.9983675174
 21
109.9211085504
  0
LWPOLYLINE
  5
21C
100
AcDbEntity
  8
RACCORDO
100
AcDbPolyline
 62
7
  6
CONTINUOUS
 90
22
 70
0
 10
-69.9985124782
 20
110.2183556164
 10
-69.884141879
 20
110.2795185354
 10
-69.7657243804
 20
110.3333372493
 10
-69.6436107188
 20
110.3796701628
 10
-69.5177854002
 20
110.4184858965
 10
-69.3882639186
 20
110.4498158299
 10
-69.2555884521
 20
110.4735288155
 10
-69.1197457798
 20
110.4895929242
 10
-68.9807491228
 20
110.498040085
 10
-68.8391803225
 20
110.4988349382
 10
-68.6950285969
 20
110.4919454063
 10
-68.5483047281
 20
110.4774035666
 10
-68.3996229038
 20
110.4552702916
 10
-68.2489749165
 20
110.4255137589
 10
-68.0963689737
 20
110.3881657909
 10
-67.9424438856
 20
110.3433827264
 10
-67.7871941224
 20
110.2911333987
 10
-67.6306252139
 20
110.2314489745
 10
-67.4733925593
 20
110.1645792937
 10
-67.3157146248
 20
110.090607636
 10
-67.1573729442
 20
110.0094507215
 10
-66.9983675174
 20
109.9211085504
  0
LWPOLYLINE
  5
21D
100
AcDbEntity
  8
SMUSSO
100
AcDbPolyline
 62
7
  6
CONTINUOUS
 90
51
 70
0
 10
-62.1784270191
 20
65.4021656438
 10
-62.1854585139
 20
65.3877160652
 10
-62.2118127922
 20
65.3427674879
 10
-62.2410199881
 20
65.3012488798
 10
-62.273054399
 20
65.2631293304
 10
-62.3076256392
 20
65.2287543839
 10
-62.3447567757
 20
65.1981580839
 10
-62.3844247414
 20
65.1713063867
 10
-62.4262699494
 20
65.1484427048
 10
-62.4703121992
 20
65.1296032986
 10
-62.5165316914
 20
65.1147519077
 10
-62.5645094408
 20
65.1040231627
 10
-62.6142614344
 20
65.0974545507
 10
-62.6657716852
 20
65.0950085846
 10
-62.7185732473
 20
65.0967074341
 10
-62.7726778552
 20
65.1025887839
 10
-62.8280737744
 20
65.1126149492
 10
-62.8842588551
 20
65.126695045
 10
-62.941240278
 20
65.1448659314
 10
-62.9990108623
 20
65.1670907484
 10
-63.0570469163
 20
65.1931680303
 10
-63.1153508557
 20
65.223132808
 10
-63.1739202646
 20
65.2569500507
 10
-63.2322242039
 20
65.2943132007
 10
-63.290260258
 20
65.3352544993
 10
-63.3480308425
 20
65.3797417052
 10
-63.4050122655
 20
65.4273715377
 10
-63.4611973461
 20
65.4781725648
 10
-63.5165932653
 20
65.5321162184
 10
-63.5706978732
 20
65.5887135137
 10
-63.6234994352
 20
65.6479885846
 10
-63.6750096859
 20
65.7099172971
 10
-63.7247616794
 20
65.7739382641
 10
-63.7727394288
 20
65.8400705114
 10
-63.8189589208
 20
65.9082950133
 10
-63.8630011706
 20
65.9779933055
 10
-63.9048463787
 20
66.049178785
 10
-63.9445143446
 20
66.1218380549
 10
-63.9816454811
 20
66.1953124608
 10
-64.0162167214
 20
66.2696094092
 10
-64.0482511324
 20
66.3447214936
 10
-64.0774583283
 20
66.4199678396
 10
-64.1038126065
 20
66.4953496766
 10
-64.1273396696
 20
66.5708657753
 10
-64.14782624
 20
66.6458315728
 10
-64.1652446704
 20
66.7202420661
 10
-64.179622608
 20
66.7941022583
 10
-64.1908297166
 20
66.866742596
 10
-64.1988225507
 20
66.9379398947
 10
-64.2036445557
 20
67.007917339
 10
-64.2052957317
 20
67.0766749287
  0
LWPOLYLINE
  5
21E
100
AcDbEntity
  8
RACCORDO
100
AcDbPolyline
 62
7
  6
CONTINUOUS
 90
43
 70
0
 10
-72.3016683763
 20
-24.5921920041
 10
-72.2986670085
 20
-24.7775226932
 10
-72.2897747304
 20
-24.9654883167
 10
-72.2749915422
 20
-25.1560888745
 10
-72.2542803248
 20
-25.3495980538
 10
-72.2276781973
 20
-25.5457421675
 10
-72.1952965164
 20
-25.743700154
 10
-72.1571110551
 20
-25.943479617
 10
-72.1131460403
 20
-26.1450729529
 10
-72.0635855103
 20
-26.3476362898
 10
-72.0084060092
 20
-26.5511736938
 10
-71.9476309928
 20
-26.7556810988
 10
-71.881514866
 20
-26.9603024346
 10
-71.8100352395
 20
-27.1650381787
 10
-71.7332145026
 20
-27.3698878535
 10
-71.6513742276
 20
-27.5739939561
 10
-71.5644933735
 20
-27.7773533694
 10
-71.4725929813
 20
-27.9799692106
 10
-71.3760577472
 20
-28.1809933273
 10
-71.2748682425
 20
-28.3804190473
 10
-71.1690438959
 20
-28.578253043
 10
-71.0590276892
 20
-28.773667179
 10
-70.9448020507
 20
-28.9666513116
 10
-70.8263845522
 20
-29.1572155845
 10
-70.7042708906
 20
-29.3445622936
 10
-70.578445572
 20
-29.5286779513
 10
-70.4489240903
 20
-29.7095760452
 10
-70.3162486239
 20
-29.8864993338
 10
-70.1804059516
 20
-30.0594311554
 10
-70.0414092945
 20
-30.2283881718
 10
-69.8998404943
 20
-30.3926631269
 10
-69.7556887687
 20
-30.5522363944
 10
-69.6089648999
 20
-30.7071276007
 10
-69.4602830756
 20
-30.8566883695
 10
-69.3096350883
 20
-31.0008963565
 10
-69.1570291455
 20
-31.1397739059
 10
-69.0031040573
 20
-31.272739675
 10
-68.8478542942
 20
-31.3997688823
 10
-68.6912853857
 20
-31.5208863091
 10
-68.534052731
 20
-31.6355849567
 10
-68.3763747966
 20
-31.7436958254
 10
-68.218033116
 20
-31.8453879147
 10
-68.0590276892
 20
-31.9406612248
  0
LINE
  5
21F
100
AcDbEntity
  8
RACCORDO
100
AcDbLine
 62
7
  6
CONTINUOUS
 10
-72.3016683763
 20
106.8595225596
 11
-72.3016683763
 21
-24.5921920041
  0
LWPOLYLINE
  5
220
100
AcDbEntity
  8
SMUSSO
100
AcDbPolyline
 62
7
  6
CONTINUOUS
 90
36
 70
0
 10
-66.3266160753
 20
67.0766749287
 10
-66.3243804908
 20
67.1872416772
 10
-66.3177953169
 20
67.2946083042
 10
-66.3068605535
 20
67.3987748095
 10
-66.2915356725
 20
67.499943825
 10
-66.2718612019
 20
67.5979127189
 10
-66.2479587262
 20
67.6920735961
 10
-66.2198018776
 20
67.7824027813
 10
-66.1874170238
 20
67.8689239499
 10
-66.1510048522
 20
67.951100232
 10
-66.11054032
 20
68.0289044831
 10
-66.0660484701
 20
68.1023638478
 10
-66.0178051186
 20
68.1710228899
 10
-65.9657870135
 20
68.2348516992
 10
-65.9100174069
 20
68.293880186
 10
-65.8508418716
 20
68.3477426446
 10
-65.7882392965
 20
68.3964070024
 10
-65.7222307928
 20
68.439905332
 10
-65.6532252663
 20
68.4779681469
 10
-65.5812040926
 20
68.5105617341
 10
-65.5061858963
 20
68.5377198065
 10
-65.4286354572
 20
68.5592740157
 10
-65.3485370089
 20
68.5751895711
 10
-65.2659063179
 20
68.5855012633
 10
-65.1812554627
 20
68.590145116
 10
-65.0945718984
 20
68.589085918
 10
-65.0058681701
 20
68.5823588804
 10
-64.9156939918
 20
68.5700056605
 10
-64.8240402388
 20
68.5519913138
 10
-64.730916036
 20
68.5283507849
 10
-64.6368984715
 20
68.4992305636
 10
-64.5419820042
 20
68.4645966223
 10
-64.4461721753
 20
68.4244829887
 10
-64.3500626972
 20
68.3791382359
 10
-64.2536517095
 20
68.3285298803
 10
-64.2055007406
 20
68.3013603836
  0
LWPOLYLINE
  5
221
100
AcDbEntity
  8
SMUSSO
100
AcDbPolyline
 62
7
  6
CONTINUOUS
 90
36
 70
0
 10
-66.3266160753
 20
8.2908149996
 10
-66.3243804908
 20
8.4013817481
 10
-66.3177953169
 20
8.5087483751
 10
-66.3068605535
 20
8.6129148804
 10
-66.2915356725
 20
8.7140838959
 10
-66.2718612019
 20
8.8120527898
 10
-66.2479587262
 20
8.906213667
 10
-66.2198018776
 20
8.9965428523
 10
-66.1874170238
 20
9.0830640208
 10
-66.1510048522
 20
9.1652403029
 10
-66.11054032
 20
9.243044554
 10
-66.0660484701
 20
9.3165039187
 10
-66.0178051186
 20
9.3851629608
 10
-65.9657870135
 20
9.4489917701
 10
-65.9100174069
 20
9.5080202569
 10
-65.8508418716
 20
9.5618827156
 10
-65.7882392965
 20
9.6105470733
 10
-65.7222307928
 20
9.654045403
 10
-65.6532252663
 20
9.6921082178
 10
-65.5812040926
 20
9.724701805
 10
-65.5061858963
 20
9.7518598774
 10
-65.4286354572
 20
9.7734140866
 10
-65.3485370089
 20
9.789329642
 10
-65.2659063179
 20
9.7996413342
 10
-65.1812554627
 20
9.8042851869
 10
-65.0945718984
 20
9.8032259889
 10
-65.0058681701
 20
9.7964989513
 10
-64.9156939918
 20
9.7841457314
 10
-64.8240402388
 20
9.7661313848
 10
-64.730916036
 20
9.7424908558
 10
-64.6368984715
 20
9.7133706345
 10
-64.5419820042
 20
9.6787366932
 10
-64.4461721753
 20
9.6386230596
 10
-64.3500626972
 20
9.5932783069
 10
-64.2536517095
 20
9.5426699513
 10
-64.2055007406
 20
9.5155004546
  0
LWPOLYLINE
  5
222
100
AcDbEntity
  8
SMUSSO
100
AcDbPolyline
 62
7
  6
CONTINUOUS
 90
70
 70
0
 10
-62.0839753882
 20
64.6270273687
 10
-62.0862109726
 20
64.5164606202
 10
-62.0927961466
 20
64.4090939933
 10
-62.10373091
 20
64.3049274879
 10
-62.119055791
 20
64.2037584724
 10
-62.1387302615
 20
64.1057895785
 10
-62.1626327372
 20
64.0116287013
 10
-62.1907895859
 20
63.9212995161
 10
-62.2231744397
 20
63.8347783475
 10
-62.2595866112
 20
63.7526020655
 10
-62.3000511435
 20
63.6747978143
 10
-62.3445429934
 20
63.6013384496
 10
-62.3927863449
 20
63.5326794075
 10
-62.44480445
 20
63.4688505982
 10
-62.5005740566
 20
63.4098221115
 10
-62.5597495918
 20
63.3559596528
 10
-62.6223521669
 20
63.307295295
 10
-62.6883606707
 20
63.2637969654
 10
-62.7573661972
 20
63.2257341505
 10
-62.8293873708
 20
63.1931405633
 10
-62.9044055672
 20
63.1659824909
 10
-62.9819560063
 20
63.1444282817
 10
-63.0620544545
 20
63.1285127263
 10
-63.1446851456
 20
63.1182010341
 10
-63.2293360007
 20
63.1135571814
 10
-63.316019565
 20
63.1146163794
 10
-63.4047232934
 20
63.121343417
 10
-63.4948974717
 20
63.133696637
 10
-63.5865512246
 20
63.1517109836
 10
-63.6796754275
 20
63.1753515126
 10
-63.773692992
 20
63.2044717338
 10
-63.8686094593
 20
63.2391056751
 10
-63.9644192882
 20
63.2792193087
 10
-64.0605287663
 20
63.3245640615
 10
-64.1569397539
 20
63.3751724171
 10
-64.2536503908
 20
63.4310118919
 10
-64.3500613831
 20
63.491736462
 10
-64.4461708714
 20
63.5573764633
 10
-64.5419807152
 20
63.6279015599
 10
-64.6368972
 20
63.70287472
 10
-64.7309147851
 20
63.7823235735
 10
-64.8240390112
 20
63.8662204905
 10
-64.9156927859
 20
63.9540455498
 10
-65.0058669871
 20
64.0458231632
 10
-65.094570737
 20
64.1415289189
 10
-65.1812543105
 20
64.2405696608
 10
-65.2659051502
 20
64.3429660972
 10
-65.3485358134
 20
64.4486975198
 10
-65.4286342468
 20
64.5571086471
 10
-65.5061846891
 20
64.6682160644
 10
-65.5812029017
 20
64.7820031864
 10
-65.6532241143
 20
64.8977649759
 10
-65.7222297091
 20
65.0155136474
 10
-65.7882383041
 20
65.1352369864
 10
-65.8508409822
 20
65.2561933121
 10
-65.9100166421
 20
65.3783903507
 10
-65.9657863852
 20
65.5018203761
 10
-66.017804599
 20
65.6257185288
 10
-66.0660480155
 20
65.7500878501
 10
-66.1105399027
 20
65.8749252987
 10
-66.1510044519
 20
65.9994568913
 10
-66.1874166016
 20
66.1236807406
 10
-66.2198014135
 20
66.2475987339
 10
-66.247958263
 20
66.3704425498
 10
-66.2718608247
 20
66.4922055682
 10
-66.2915354242
 20
66.6128944092
 10
-66.3068604137
 20
66.7317606119
 10
-66.3177952442
 20
66.8485546892
 10
-66.3243804647
 20
66.9635261281
 10
-66.3266160753
 20
67.0766749287
  0
LWPOLYLINE
  5
223
100
AcDbEntity
  8
SMUSSO
100
AcDbPolyline
 62
7
  6
CONTINUOUS
 90
70
 70
0
 10
-62.0839753882
 20
5.8411674396
 10
-62.0862109726
 20
5.7306006911
 10
-62.0927961466
 20
5.6232340642
 10
-62.10373091
 20
5.5190675588
 10
-62.119055791
 20
5.4178985433
 10
-62.1387302615
 20
5.3199296494
 10
-62.1626327372
 20
5.2257687723
 10
-62.1907895859
 20
5.135439587
 10
-62.2231744397
 20
5.0489184185
 10
-62.2595866112
 20
4.9667421364
 10
-62.3000511435
 20
4.8889378852
 10
-62.3445429934
 20
4.8154785206
 10
-62.3927863449
 20
4.7468194785
 10
-62.44480445
 20
4.6829906691
 10
-62.5005740566
 20
4.6239621824
 10
-62.5597495918
 20
4.5700997237
 10
-62.6223521669
 20
4.521435366
 10
-62.6883606707
 20
4.4779370363
 10
-62.7573661972
 20
4.4398742215
 10
-62.8293873708
 20
4.4072806342
 10
-62.9044055672
 20
4.3801225619
 10
-62.9819560063
 20
4.3585683526
 10
-63.0620544545
 20
4.3426527972
 10
-63.1446851456
 20
4.332341105
 10
-63.2293360007
 20
4.3276972523
 10
-63.316019565
 20
4.3287564504
 10
-63.4047232934
 20
4.3354834879
 10
-63.4948974717
 20
4.3478367079
 10
-63.5865512246
 20
4.3658510545
 10
-63.6796754275
 20
4.3894915835
 10
-63.773692992
 20
4.4186118048
 10
-63.8686094593
 20
4.453245746
 10
-63.9644192882
 20
4.4933593796
 10
-64.0605287663
 20
4.5387041324
 10
-64.1569397539
 20
4.589312488
 10
-64.2536503908
 20
4.6451519628
 10
-64.3500613831
 20
4.7058765329
 10
-64.4461708714
 20
4.7715165342
 10
-64.5419807152
 20
4.8420416308
 10
-64.6368972
 20
4.9170147909
 10
-64.7309147851
 20
4.9964636444
 10
-64.8240390112
 20
5.0803605614
 10
-64.9156927859
 20
5.1681856207
 10
-65.0058669871
 20
5.2599632341
 10
-65.094570737
 20
5.3556689898
 10
-65.1812543105
 20
5.4547097317
 10
-65.2659051502
 20
5.5571061681
 10
-65.3485358134
 20
5.6628375907
 10
-65.4286342468
 20
5.771248718
 10
-65.5061846891
 20
5.8823561353
 10
-65.5812029017
 20
5.9961432573
 10
-65.6532241143
 20
6.1119050468
 10
-65.7222297091
 20
6.2296537183
 10
-65.7882383041
 20
6.3493770573
 10
-65.8508409822
 20
6.470333383
 10
-65.9100166421
 20
6.5925304217
 10
-65.9657863852
 20
6.715960447
 10
-66.017804599
 20
6.8398585997
 10
-66.0660480155
 20
6.964227921
 10
-66.1105399027
 20
7.0890653696
 10
-66.1510044519
 20
7.2135969623
 10
-66.1874166016
 20
7.3378208115
 10
-66.2198014135
 20
7.4617388048
 10
-66.247958263
 20
7.5845826207
 10
-66.2718608247
 20
7.7063456391
 10
-66.2915354242
 20
7.8270344801
 10
-66.3068604137
 20
7.9459006828
 10
-66.3177952442
 20
8.0626947601
 10
-66.3243804647
 20
8.177666199
 10
-66.3266160753
 20
8.2908149996
  0
LWPOLYLINE
  5
224
100
AcDbEntity
  8
SMUSSO
100
AcDbPolyline
 62
7
  6
CONTINUOUS
 90
22
 70
0
 10
-64.2052957317
 20
67.0766749287
 10
-64.2036445556
 20
67.1435257825
 10
-64.1988225505
 20
67.2079348966
 10
-64.1908297164
 20
67.269902271
 10
-64.1796226078
 20
67.3296009204
 10
-64.1652446703
 20
67.3868578302
 10
-64.1478262399
 20
67.4411539564
 10
-64.1273396694
 20
67.4924623761
 10
-64.1038126061
 20
67.5408100122
 10
-64.0774583277
 20
67.5857585895
 10
-64.0482511318
 20
67.6272771976
 10
-64.0162167209
 20
67.665396747
 10
-63.9816454807
 20
67.6997716935
 10
-63.9445143443
 20
67.7303679935
 10
-63.9048463785
 20
67.7572196907
 10
-63.8630011705
 20
67.7800833726
 10
-63.8189589207
 20
67.7989227788
 10
-63.7727394286
 20
67.8137741697
 10
-63.7247616792
 20
67.8245029147
 10
-63.6750096856
 20
67.8310715267
 10
-63.6234994347
 20
67.8335174928
 10
-63.5809879114
 20
67.8321497174
  0
LWPOLYLINE
  5
225
100
AcDbEntity
  8
SMUSSO
100
AcDbPolyline
 62
7
  6
CONTINUOUS
 90
22
 70
0
 10
-64.2052957317
 20
8.2908149996
 10
-64.2036445556
 20
8.3576658534
 10
-64.1988225505
 20
8.4220749675
 10
-64.1908297164
 20
8.4840423419
 10
-64.1796226078
 20
8.5437409914
 10
-64.1652446703
 20
8.6009979011
 10
-64.1478262399
 20
8.6552940273
 10
-64.1273396694
 20
8.706602447
 10
-64.1038126061
 20
8.7549500831
 10
-64.0774583277
 20
8.7998986604
 10
-64.0482511318
 20
8.8414172686
 10
-64.0162167209
 20
8.8795368179
 10
-63.9816454807
 20
8.9139117644
 10
-63.9445143443
 20
8.9445080644
 10
-63.9048463785
 20
8.9713597616
 10
-63.8630011705
 20
8.9942234436
 10
-63.8189589207
 20
9.0130628497
 10
-63.7727394286
 20
9.0279142406
 10
-63.7247616792
 20
9.0386429856
 10
-63.6750096856
 20
9.0452115976
 10
-63.6234994347
 20
9.0476575637
 10
-63.5809879114
 20
9.0462897883
  0
LWPOLYLINE
  5
226
100
AcDbEntity
  8
RACCORDO
100
AcDbPolyline
 62
7
  6
CONTINUOUS
 90
22
 70
0
 10
66.9983675174
 20
-109.9211085504
 10
67.1573729442
 20
-110.0094507215
 10
67.3157146248
 20
-110.090607636
 10
67.4733925593
 20
-110.1645792937
 10
67.6306252139
 20
-110.2314489745
 10
67.7871941224
 20
-110.2911333987
 10
67.9424438856
 20
-110.3433827264
 10
68.0963689737
 20
-110.3881657909
 10
68.2489749165
 20
-110.4255137589
 10
68.3996229038
 20
-110.4552702916
 10
68.5483047281
 20
-110.4774035666
 10
68.6950285969
 20
-110.4919454063
 10
68.8391803225
 20
-110.4988349382
 10
68.9807491228
 20
-110.498040085
 10
69.1197457798
 20
-110.4895929242
 10
69.2555884521
 20
-110.4735288155
 10
69.3882639186
 20
-110.4498158299
 10
69.5177854002
 20
-110.4184858965
 10
69.6436107188
 20
-110.3796701628
 10
69.7657243804
 20
-110.3333372493
 10
69.884141879
 20
-110.2795185354
 10
69.9985124782
 20
-110.2183556164
  0
LINE
  5
227
100
AcDbEntity
  8
RACCORDO
100
AcDbLine
 62
7
  6
CONTINUOUS
 10
-68.0590276892
 20
-31.9406612248
 11
66.9983675174
 21
-109.9211085504
  0
LWPOLYLINE
  5
228
100
AcDbEntity
  8
SMUSSO
100
AcDbPolyline
 62
7
  6
CONTINUOUS
 90
51
 70
0
 10
-62.1784270191
 20
6.6163057147
 10
-62.1854585139
 20
6.6018561361
 10
-62.2118127922
 20
6.5569075588
 10
-62.2410199881
 20
6.5153889507
 10
-62.273054399
 20
6.4772694014
 10
-62.3076256392
 20
6.4428944548
 10
-62.3447567757
 20
6.4122981549
 10
-62.3844247414
 20
6.3854464577
 10
-62.4262699494
 20
6.3625827757
 10
-62.4703121992
 20
6.3437433695
 10
-62.5165316914
 20
6.3288919786
 10
-62.5645094408
 20
6.3181632336
 10
-62.6142614344
 20
6.3115946216
 10
-62.6657716852
 20
6.3091486555
 10
-62.7185732473
 20
6.310847505
 10
-62.7726778552
 20
6.3167288548
 10
-62.8280737744
 20
6.3267550201
 10
-62.8842588551
 20
6.3408351159
 10
-62.941240278
 20
6.3590060024
 10
-62.9990108623
 20
6.3812308193
 10
-63.0570469163
 20
6.4073081012
 10
-63.1153508557
 20
6.4372728789
 10
-63.1739202646
 20
6.4710901216
 10
-63.2322242039
 20
6.5084532716
 10
-63.290260258
 20
6.5493945702
 10
-63.3480308425
 20
6.5938817762
 10
-63.4050122655
 20
6.6415116087
 10
-63.4611973461
 20
6.6923126357
 10
-63.5165932653
 20
6.7462562894
 10
-63.5706978732
 20
6.8028535846
 10
-63.6234994352
 20
6.8621286555
 10
-63.6750096859
 20
6.924057368
 10
-63.7247616794
 20
6.988078335
 10
-63.7727394288
 20
7.0542105823
 10
-63.8189589208
 20
7.1224350842
 10
-63.8630011706
 20
7.1921333764
 10
-63.9048463787
 20
7.2633188559
 10
-63.9445143446
 20
7.3359781259
 10
-63.9816454811
 20
7.4094525317
 10
-64.0162167214
 20
7.4837494802
 10
-64.0482511324
 20
7.5588615645
 10
-64.0774583283
 20
7.6341079105
 10
-64.1038126065
 20
7.7094897475
 10
-64.1273396696
 20
7.7850058462
 10
-64.14782624
 20
7.8599716437
 10
-64.1652446704
 20
7.934382137
 10
-64.179622608
 20
8.0082423292
 10
-64.1908297166
 20
8.0808826669
 10
-64.1988225507
 20
8.1520799656
 10
-64.2036445557
 20
8.2220574099
 10
-64.2052957317
 20
8.2908149996
  0
LWPOLYLINE
  5
229
100
AcDbEntity
  8
RACCORDO
100
AcDbPolyline
 62
7
  6
CONTINUOUS
 90
25
 70
0
 10
9.7227182413
 20
-47.6619357307
 10
10.0280541708
 20
-47.8327687734
 10
10.3325242232
 20
-47.9923123472
 10
10.6361283986
 20
-48.1405664522
 10
10.9391528602
 20
-48.2776502234
 10
11.2413114447
 20
-48.4034445257
 10
11.5417456625
 20
-48.5175919537
 10
11.8404506097
 20
-48.6200593852
 10
12.1374311902
 20
-48.7108799423
 10
12.4318436259
 20
-48.7897955868
 10
12.7236806134
 20
-48.8567724625
 10
13.0129494561
 20
-48.9118444255
 10
13.2988282866
 20
-48.954855006
 10
13.5813074641
 20
-48.9857699028
 10
13.8603966294
 20
-49.0046234171
 10
14.1353028374
 20
-49.0113619824
 10
14.4060141922
 20
-49.0059511454
 10
14.6725425896
 20
-48.9884253594
 10
14.9341307722
 20
-48.9588344186
 10
15.1907646904
 20
-48.917144011
 10
15.4424583938
 20
-48.8633884486
 10
15.6884967728
 20
-48.7977204611
 10
15.9288637444
 20
-48.7201061709
 10
16.1635753917
 20
-48.6305794556
 10
16.1725543973
 20
-48.6266014319
  0
LINE
  5
22A
100
AcDbEntity
  8
RACCORDO
100
AcDbLine
 62
7
  6
CONTINUOUS
 10
-9.7227182413
 20
-37.6592081942
 11
8.6620580695
 21
-48.2743476207
  0
LINE
  5
22B
100
AcDbEntity
  8
RACCORDO
100
AcDbLine
 62
7
  6
CONTINUOUS
 10
-8.6620580695
 20
-37.0467963042
 11
9.7227182413
 21
-47.6619357307
  0
LWPOLYLINE
  5
22C
100
AcDbEntity
  8
RACCORDO
100
AcDbPolyline
 62
7
  6
CONTINUOUS
 90
52
 70
0
 10
-9.7227182413
 20
-37.6592081942
 10
-10.0280541708
 20
-37.477446959
 10
-10.3325242232
 20
-37.2853961481
 10
-10.6361283986
 20
-37.0830557614
 10
-10.9391528602
 20
-36.8702144799
 10
-11.2413114447
 20
-36.6470836227
 10
-11.5417456625
 20
-36.4142971467
 10
-11.8404506097
 20
-36.1718275925
 10
-12.1374311902
 20
-35.9197024194
 10
-12.4318436259
 20
-35.6586379628
 10
-12.7236806134
 20
-35.3886088005
 10
-13.0129494561
 20
-35.1096403547
 10
-13.2988282866
 20
-34.8225252275
 10
-13.5813074641
 20
-34.5272402507
 10
-13.8603966294
 20
-34.2238085925
 10
-14.1353028374
 20
-33.9130923597
 10
-14.4060141922
 20
-33.5950708358
 10
-14.6725425896
 20
-33.2697647372
 10
-14.9341307722
 20
-32.9380983201
 10
-15.1907646904
 20
-32.6000534965
 10
-15.4424583938
 20
-32.2556483544
 10
-15.6884967728
 20
-31.905861414
 10
-15.9288637444
 20
-31.55067737
 10
-16.1635753917
 20
-31.1901115276
 10
-16.3919648544
 20
-30.8251883227
 10
-16.6140141531
 20
-30.4558953633
 10
-16.8297412673
 20
-30.0822450414
 10
-17.0385332755
 20
-29.705298968
 10
-17.2403704549
 20
-29.3250477706
 10
-17.4352725284
 20
-28.9415008218
 10
-17.6226857421
 20
-28.5557478511
 10
-17.8025887987
 20
-28.1677825848
 10
-17.9750029956
 20
-27.7776112965
 10
-18.1394384715
 20
-27.3863425368
 10
-18.2958725358
 20
-26.9939731844
 10
-18.444327879
 20
-26.6005063605
 10
-18.5843827115
 20
-26.2070599788
 10
-18.7160131432
 20
-25.8136340973
 10
-18.8392430642
 20
-25.420228658
 10
-18.9537223548
 20
-25.0279614001
 10
-19.0594261295
 20
-24.6368355605
 10
-19.1563792739
 20
-24.2468479022
 10
-19.2443063258
 20
-23.8591064541
 10
-19.3231816161
 20
-23.4736176041
 10
-19.3930308139
 20
-23.0903749641
 10
-19.4536554645
 20
-22.7104673991
 10
-19.5050293342
 20
-22.3339043936
 10
-19.5471786567
 20
-21.960676463
 10
-19.5799836778
 20
-21.5918440185
 10
-19.6034044793
 20
-21.2277605304
 10
-19.6174809793
 20
-20.8680725284
 10
-19.6222131779
 20
-20.5127800125
  0
LWPOLYLINE
  5
22D
100
AcDbEntity
  8
0
100
AcDbPolyline
 62
7
  6
CONTINUOUS
 90
13
 70
0
 10
-29.0267333677
 20
-1.4476742988
 10
-29.0469334759
 20
-1.1981311477
 10
-29.1067643847
 20
-0.9347664391
 10
-29.2039471532
 20
-0.6676116529
 10
-29.3373935395
 20
-0.402305505
 10
-29.4973529364
 20
-0.1582332786
 10
-29.6797867965
 20
0.0600511186
 10
-29.8777462709
 20
0.2442333017
 10
-30.0873935395
 20
0.3894430064
 10
-30.2934101798
 20
0.4850701082
 10
-30.4915797103
 20
0.5304061546
 10
-30.6743539152
 20
0.5237243097
 10
-30.8374298423
 20
0.4637547368
  0
LWPOLYLINE
  5
22E
100
AcDbEntity
  8
0
100
AcDbPolyline
 62
7
  6
CONTINUOUS
 90
15
 70
0
 10
-32.208713883
 20
-4.3013320074
 10
-32.2084039209
 20
-4.3121158898
 10
-32.2075065919
 20
-4.3224220952
 10
-32.206021896
 20
-4.3322506239
 10
-32.2039386038
 20
-4.3416393691
 10
-32.2012679448
 20
-4.3505504376
 10
-32.1980436071
 20
-4.3588701486
 10
-32.194259928
 20
-4.3665896191
 10
-32.1899225702
 20
-4.3737177321
 10
-32.1850822106
 20
-4.3801674563
 10
-32.1797327222
 20
-4.3859322458
 10
-32.1738802319
 20
-4.3910186464
 10
-32.1675937982
 20
-4.3953592644
 10
-32.1608671957
 20
-4.3989457434
 10
-32.1539770338
 20
-4.4016955417
  0
LWPOLYLINE
  5
22F
100
AcDbEntity
  8
0
100
AcDbPolyline
 62
250
  6
CONTINUOUS
 90
34
 70
0
 10
-30.6530789644
 20
-3.2032550501
 10
-30.6545585688
 20
-3.1189049144
 10
-30.6590085065
 20
-3.0327881426
 10
-30.6664417027
 20
-2.9450392227
 10
-30.6768684736
 20
-2.8557782828
 10
-30.6902902044
 20
-2.7651667589
 10
-30.7066930878
 20
-2.6734094287
 10
-30.7260650668
 20
-2.5806523801
 10
-30.7483863081
 20
-2.4870573945
 10
-30.7736106224
 20
-2.3928607876
 10
-30.8017008775
 20
-2.2982259965
 10
-30.8326159235
 20
-2.2033139346
 10
-30.8662823058
 20
-2.1083610353
 10
-30.9026357357
 20
-2.0135478468
 10
-30.9416192067
 20
-1.9190223325
 10
-30.9831548699
 20
-1.8249717796
 10
-31.0271637961
 20
-1.731570017
 10
-31.0735733455
 20
-1.6389665948
 10
-31.1223076574
 20
-1.5473105054
 10
-31.1732817195
 20
-1.4567602642
 10
-31.2264070825
 20
-1.3674716834
 10
-31.2815986177
 20
-1.279587549
 10
-31.3387637304
 20
-1.1932562279
 10
-31.3978015463
 20
-1.1086309539
 10
-31.4586101832
 20
-1.0258583368
 10
-31.5210859706
 20
-0.945080162
 10
-31.5851199576
 20
-0.8664379488
 10
-31.6505977201
 20
-0.7900723853
 10
-31.717404334
 20
-0.7161171643
 10
-31.7854258417
 20
-0.6446981038
 10
-31.8545456206
 20
-0.5759375475
 10
-31.9246445278
 20
-0.5099540263
 10
-31.99560105
 20
-0.4468619269
 10
-32.0672925268
 20
-0.3867702951
  0
LWPOLYLINE
  5
230
100
AcDbEntity
  8
0
100
AcDbPolyline
 62
7
  6
CONTINUOUS
 90
39
 70
0
 10
-29.3802867583
 20
-2.4683607821
 10
-29.3813048593
 20
-2.3987033931
 10
-29.3843281395
 20
-2.3281236824
 10
-29.3893565989
 20
-2.2566216502
 10
-29.3964005429
 20
-2.1841136701
 10
-29.4054496662
 20
-2.1106833684
 10
-29.4164730517
 20
-2.0365816238
 10
-29.4294774524
 20
-1.9618061396
 10
-29.4444561154
 20
-1.8863592126
 10
-29.4613578653
 20
-1.8104986113
 10
-29.4801892799
 20
-1.7342229208
 10
-29.5009437813
 20
-1.657533556
 10
-29.5235504607
 20
-1.5806925304
 10
-29.5480156534
 20
-1.5036993253
 10
-29.574333024
 20
-1.4265544594
 10
-29.6024126578
 20
-1.3495215024
 10
-29.6322605826
 20
-1.2726008372
 10
-29.6638707705
 20
-1.1957920809
 10
-29.6971352237
 20
-1.119357655
 10
-29.7320596004
 20
-1.0432988397
 10
-29.7686382424
 20
-0.9676143548
 10
-29.8067461767
 20
-0.8925627806
 10
-29.8463886341
 20
-0.8181462817
 10
-29.8875603837
 20
-0.7443626934
 10
-29.93012076
 20
-0.6714641015
 10
-29.9740745128
 20
-0.599453533
 10
-30.0194168922
 20
-0.5283279608
 10
-30.0659929836
 20
-0.4583303895
 10
-30.1138070068
 20
-0.3894646772
 10
-30.1628547418
 20
-0.3217269657
 10
-30.2129686145
 20
-0.2553486847
 10
-30.2641522715
 20
-0.1903344841
 10
-30.316402066
 20
-0.1266797139
 10
-30.3695394839
 20
-0.0646018543
 10
-30.423567561
 20
-0.0041062989
 10
-30.4784832615
 20
0.0548123459
 10
-30.5340989627
 20
0.1119527813
 10
-30.5904170589
 20
0.1673089251
 10
-30.6474351559
 20
0.2208868595
  0
LINE
  5
231
100
AcDbEntity
  8
0
100
AcDbLine
 62
7
  6
CONTINUOUS
 10
-32.9158206642
 20
-3.8930574141
 11
-32.9158206642
 21
-0.2271149634
  0
LINE
  5
232
100
AcDbEntity
  8
0
100
AcDbLine
 62
7
  6
CONTINUOUS
 10
-32.208713883
 20
-4.3013320074
 11
-32.208713883
 21
-0.6353895567
  0
LINE
  5
233
100
AcDbEntity
  8
0
100
AcDbLine
 62
7
  6
CONTINUOUS
 10
-32.0672925268
 20
0.4297788915
 11
-32.0672925268
 21
-0.3867702951
  0
LWPOLYLINE
  5
234
100
AcDbEntity
  8
0
100
AcDbPolyline
 62
7
  6
CONTINUOUS
 90
25
 70
0
 10
-29.3802867583
 20
-2.4683607821
 10
-29.3813048593
 20
-2.5368424936
 10
-29.3843281395
 20
-2.603930996
 10
-29.3893565989
 20
-2.6696262895
 10
-29.3964005429
 20
-2.7340000995
 10
-29.4054496662
 20
-2.7969807005
 10
-29.4164730517
 20
-2.8583529159
 10
-29.4294774524
 20
-2.918111244
 10
-29.4444561154
 20
-2.9762611865
 10
-29.4613578653
 20
-3.0326040707
 10
-29.4801892799
 20
-3.0871337157
 10
-29.5009437813
 20
-3.1398563024
 10
-29.5235504607
 20
-3.1905917013
 10
-29.5480156534
 20
-3.2393331152
 10
-29.574333024
 20
-3.2860873411
 10
-29.6024126578
 20
-3.3306946408
 10
-29.6322605826
 20
-3.3731476707
 10
-29.6638707705
 20
-3.4134537743
 10
-29.6971352237
 20
-3.4514752435
 10
-29.7320596004
 20
-3.4872042638
 10
-29.7686382424
 20
-3.5206486498
 10
-29.8067461767
 20
-3.5516941369
 10
-29.8463886341
 20
-3.5803325196
 10
-29.8875603837
 20
-3.6065720034
 10
-29.8979950534
 20
-3.6126999174
  0
LWPOLYLINE
  5
235
100
AcDbEntity
  8
0
100
AcDbPolyline
 62
7
  6
CONTINUOUS
 90
25
 70
0
 10
-32.9158206642
 20
-0.2271149634
 10
-32.9155107021
 20
-0.2159731446
 10
-32.914613373
 20
-0.204630726
 10
-32.9131286772
 20
-0.1930877078
 10
-32.911045385
 20
-0.1812932289
 10
-32.908374726
 20
-0.1692981504
 10
-32.9051503883
 20
-0.1572550551
 10
-32.9013667091
 20
-0.1451662868
 10
-32.8970293514
 20
-0.1330295017
 10
-32.8921889918
 20
-0.1209902516
 10
-32.8868395033
 20
-0.1090480069
 10
-32.8809870131
 20
-0.0972032972
 10
-32.8747005794
 20
-0.0856032632
 10
-32.8679739769
 20
-0.0742490723
 10
-32.860813431
 20
-0.0631395571
 10
-32.8533066761
 20
-0.0524183559
 10
-32.84544824
 20
-0.0420891938
 10
-32.8372435949
 20
-0.0321483456
 10
-32.8287968913
 20
-0.0227282738
 10
-32.8200999733
 20
-0.013832887
 10
-32.8111609968
 20
-0.0054582767
 10
-32.8021085802
 20
0.0022748207
 10
-32.7929855963
 20
0.0093261595
 10
-32.7837491722
 20
0.0157359853
 10
-32.774399308
 20
0.0215042982
  0
LWPOLYLINE
  5
236
100
AcDbEntity
  8
ASSI
100
AcDbPolyline
 62
7
  6
CONTINUOUS
 90
15
 70
0
 10
-22.3685501629
 20
18.3315794892
 10
-22.3864759597
 20
18.3206245839
 10
-22.420627547
 20
18.2960554803
 10
-22.4524700757
 20
18.2679159602
 10
-22.4820266977
 20
18.2362418225
 10
-22.5089990661
 20
18.2013527889
 10
-22.533361007
 20
18.1632162983
 10
-22.5551386943
 20
18.1218649117
 10
-22.574112302
 20
18.0777160336
 10
-22.5902534299
 20
18.0307413305
 10
-22.6035904783
 20
17.9809691359
 10
-22.6139888219
 20
17.9289018547
 10
-22.6214035855
 20
17.874706955
 10
-22.6258796441
 20
17.8182169687
 10
-22.627416998
 20
17.7594318956
  0
LWPOLYLINE
  5
237
100
AcDbEntity
  8
0
100
AcDbPolyline
 62
250
  6
CONTINUOUS
 90
55
 70
0
 10
26.9054130241
 20
-38.4330880096
 10
26.9844043084
 20
-38.4559718238
 10
27.0620230413
 20
-38.4736513024
 10
27.1382692228
 20
-38.4861264454
 10
27.2133628645
 20
-38.4934114198
 10
27.2870839547
 20
-38.4954920585
 10
27.3587724588
 20
-38.4923258609
 10
27.42837045
 20
-38.4838651624
 10
27.495935855
 20
-38.4701576275
 10
27.5609824193
 20
-38.4513037479
 10
27.623500996
 20
-38.4272632924
 10
27.683500732
 20
-38.3980764923
 10
27.7405228126
 20
-38.3639645336
 10
27.7945408189
 20
-38.3248917883
 10
27.8455811697
 20
-38.2808938846
 10
27.8932643073
 20
-38.2322988928
 10
27.9375661691
 20
-38.1790715924
 10
27.9785108175
 20
-38.121247204
 10
28.015790883
 20
-38.0592594596
 10
28.0493785692
 20
-37.993077463
 10
28.0793016724
 20
-37.9227321104
 10
28.1053362117
 20
-37.8487498229
 10
28.1274530975
 20
-37.7711031941
 10
28.1456814193
 20
-37.6898196304
 10
28.1598844647
 20
-37.6055077715
 10
28.1700319977
 20
-37.5181446341
 10
28.1761542543
 20
-37.4277532015
 10
28.1782052303
 20
-37.3350110642
 10
28.1761542558
 20
-37.2399005145
 10
28.1700320006
 20
-37.1424392601
 10
28.1598844699
 20
-37.0433580144
 10
28.1456814279
 20
-36.9426448453
 10
28.1274531105
 20
-36.8403116849
 10
28.1053362296
 20
-36.7371250425
 10
28.0793016963
 20
-36.633078733
 10
28.0493785995
 20
-36.5281789414
 10
28.0157909183
 20
-36.4232107325
 10
27.9785108555
 20
-36.3181729014
 10
27.9375662082
 20
-36.2130666529
 10
27.8932643473
 20
-36.1086806667
 10
27.8455812103
 20
-36.0050223774
 10
27.7945408597
 20
-35.9020843503
 10
27.7405228537
 20
-35.8006329605
 10
27.6835007737
 20
-35.7006733285
 10
27.6235010383
 20
-35.6022003336
 10
27.5609824615
 20
-35.5059649887
 10
27.4959358963
 20
-35.4119969622
 10
27.4283704897
 20
-35.3202665856
 10
27.3587724972
 20
-35.2314358665
 10
27.2870839937
 20
-35.1454855785
 10
27.2133629042
 20
-35.0624349481
 10
27.1382692595
 20
-34.9830036622
 10
27.0620230696
 20
-34.9074316165
 10
26.9844043245
 20
-34.8354789155
 10
26.9054130241
 20
-34.7671455589
  0
LWPOLYLINE
  5
238
100
AcDbEntity
  8
0
100
AcDbPolyline
 62
250
  6
CONTINUOUS
 90
55
 70
0
 10
26.198306243
 20
-34.3588709656
 10
26.1193149587
 20
-34.3359871515
 10
26.0416962258
 20
-34.3183076729
 10
25.9654500443
 20
-34.3058325299
 10
25.8903564027
 20
-34.2985475555
 10
25.8166353124
 20
-34.2964669167
 10
25.7449468083
 20
-34.2996331144
 10
25.6753488171
 20
-34.3080938128
 10
25.6077834121
 20
-34.3218013478
 10
25.5427368479
 20
-34.3406552273
 10
25.4802182711
 20
-34.3646956829
 10
25.4202185351
 20
-34.393882483
 10
25.3631964545
 20
-34.4279944416
 10
25.3091784482
 20
-34.4670671869
 10
25.2581380974
 20
-34.5110650907
 10
25.2104549598
 20
-34.5596600825
 10
25.1661530981
 20
-34.6128873829
 10
25.1252084496
 20
-34.6707117713
 10
25.0879283841
 20
-34.7326995157
 10
25.0543406979
 20
-34.7988815123
 10
25.0244175947
 20
-34.8692268649
 10
24.9983830554
 20
-34.9432091524
 10
24.9762661696
 20
-35.0208557812
 10
24.9580378478
 20
-35.1021393449
 10
24.9438348024
 20
-35.1864512037
 10
24.9336872694
 20
-35.2738143412
 10
24.9275650128
 20
-35.3642057738
 10
24.9255140368
 20
-35.4569479111
 10
24.9275650113
 20
-35.5520584607
 10
24.9336872665
 20
-35.6495197152
 10
24.9438347972
 20
-35.7486009609
 10
24.9580378392
 20
-35.8493141299
 10
24.9762661566
 20
-35.9516472903
 10
24.9983830375
 20
-36.0548339327
 10
25.0244175708
 20
-36.1588802423
 10
25.0543406676
 20
-36.2637800339
 10
25.0879283488
 20
-36.3687482428
 10
25.1252084116
 20
-36.4737860739
 10
25.1661530589
 20
-36.5788923223
 10
25.2104549198
 20
-36.6832783086
 10
25.2581380568
 20
-36.7869365978
 10
25.3091784074
 20
-36.8898746249
 10
25.3631964134
 20
-36.9913260148
 10
25.4202184934
 20
-37.0912856468
 10
25.4802182288
 20
-37.1897586416
 10
25.5427368056
 20
-37.2859939865
 10
25.6077833708
 20
-37.3799620131
 10
25.6753487774
 20
-37.4716923897
 10
25.7449467699
 20
-37.5605231088
 10
25.8166352735
 20
-37.6464733967
 10
25.8903563629
 20
-37.7295240272
 10
25.9654500077
 20
-37.8089553131
 10
26.0416961975
 20
-37.8845273587
 10
26.1193149426
 20
-37.9564800598
 10
26.198306243
 20
-38.0248134163
  0
LWPOLYLINE
  5
239
100
AcDbEntity
  8
0
100
AcDbPolyline
 62
7
  6
CONTINUOUS
 90
17
 70
0
 10
-24.43053929
 20
10.4317117715
 10
-24.4103391818
 20
10.1821686204
 10
-24.350508273
 20
9.9188039119
 10
-24.2533255045
 20
9.6516491257
 10
-24.1198791182
 20
9.3863429778
 10
-23.9599197213
 20
9.1422707513
 10
-23.7774858612
 20
8.9239863541
 10
-23.5795263868
 20
8.739804171
 10
-23.3698791182
 20
8.5945944663
 10
-23.1638624779
 20
8.4989673646
 10
-22.9656929474
 20
8.4536313182
 10
-22.7829187425
 20
8.460313163
 10
-22.6198791182
 20
8.5202617772
 10
-22.4884869883
 20
8.6290968594
 10
-22.3906668107
 20
8.7832664049
 10
-22.3301445258
 20
8.9768981436
 10
-22.3092189464
 20
9.2068880986
  0
LWPOLYLINE
  5
23A
100
AcDbEntity
  8
0
100
AcDbPolyline
 62
7
  6
CONTINUOUS
 90
17
 70
0
 10
-22.3092189464
 20
9.2068879915
 10
-22.3294190546
 20
9.4564311426
 10
-22.3892499634
 20
9.7197958512
 10
-22.486432732
 20
9.9869506374
 10
-22.6198791182
 20
10.2522567853
 10
-22.7798385151
 20
10.4963290117
 10
-22.9622723753
 20
10.7146134089
 10
-23.1602318496
 20
10.898795592
 10
-23.3698791182
 20
11.0440052967
 10
-23.5758957585
 20
11.1396323985
 10
-23.7740652891
 20
11.1849684449
 10
-23.9568394939
 20
11.1782866
 10
-24.1198791182
 20
11.1183379858
 10
-24.2512712481
 20
11.0095029036
 10
-24.3490914257
 20
10.8553333581
 10
-24.4096137107
 20
10.6617016194
 10
-24.43053929
 20
10.4317116644
  0
LWPOLYLINE
  5
23B
100
AcDbEntity
  8
0
100
AcDbPolyline
 62
7
  6
CONTINUOUS
 90
17
 70
0
 10
-22.8041936933
 20
17.861500544
 10
-22.7839935851
 20
17.6119573929
 10
-22.7241626763
 20
17.3485926843
 10
-22.6269799077
 20
17.0814378981
 10
-22.4935335215
 20
16.8161317502
 10
-22.3335741246
 20
16.5720595238
 10
-22.1511402644
 20
16.3537751266
 10
-21.9531807901
 20
16.1695929435
 10
-21.7435335215
 20
16.0243832388
 10
-21.5375168812
 20
15.928756137
 10
-21.3393473506
 20
15.8834200906
 10
-21.1565731458
 20
15.8901019355
 10
-20.9935335215
 20
15.9500505497
 10
-20.8621413916
 20
16.0588856319
 10
-20.764321214
 20
16.2130551774
 10
-20.703798929
 20
16.4066869161
 10
-20.6828733497
 20
16.6366768711
  0
LWPOLYLINE
  5
23C
100
AcDbEntity
  8
0
100
AcDbPolyline
 62
7
  6
CONTINUOUS
 90
17
 70
0
 10
-20.6828733497
 20
16.636676764
 10
-20.7030734579
 20
16.8862199151
 10
-20.7629043667
 20
17.1495846236
 10
-20.8600871352
 20
17.4167394098
 10
-20.9935335215
 20
17.6820455577
 10
-21.1534929184
 20
17.9261177842
 10
-21.3359267785
 20
18.1444021814
 10
-21.5338862529
 20
18.3285843645
 10
-21.7435335215
 20
18.4737940692
 10
-21.9495501618
 20
18.5694211709
 10
-22.1477196923
 20
18.6147572173
 10
-22.3304938972
 20
18.6080753725
 10
-22.4935335215
 20
18.5481267583
 10
-22.6249256514
 20
18.4392916761
 10
-22.722745829
 20
18.2851221306
 10
-22.783268114
 20
18.0914903919
 10
-22.8041936933
 20
17.8615004369
  0
LWPOLYLINE
  5
23D
100
AcDbEntity
  8
ASSI
100
AcDbPolyline
 62
7
  6
CONTINUOUS
 90
42
 70
0
 10
-24.2537625947
 20
10.3296431232
 10
-24.2522252409
 20
10.2690827525
 10
-24.2477491822
 20
10.2074239258
 10
-24.2403344186
 20
10.144666643
 10
-24.2299360751
 20
10.0805916153
 10
-24.2165990267
 20
10.0154181315
 10
-24.2004578987
 20
9.9498040584
 10
-24.181484291
 20
9.8837449337
 10
-24.1597066038
 20
9.8172452198
 10
-24.1353446628
 20
9.7509761704
 10
-24.1083722945
 20
9.6849401219
 10
-24.0788156724
 20
9.619134738
 10
-24.0469731437
 20
9.5542242639
 10
-24.0128215565
 20
9.4902177634
 10
-23.9763840626
 20
9.4271061728
 10
-23.9380284653
 20
9.3655265458
 10
-23.8977353378
 20
9.3054943985
 10
-23.8555241069
 20
9.2469942149
 10
-23.8118208565
 20
9.1906165009
 10
-23.766610475
 20
9.1363827532
 10
-23.719908074
 20
9.0842714752
 10
-23.6721850715
 20
9.0348086824
 10
-23.6234311307
 20
8.9880211993
 10
-23.5736565884
 20
8.9438822016
 10
-23.5233638732
 20
8.9028372321
 10
-23.4725477368
 20
8.8649176275
 10
-23.4212134275
 20
8.8300920512
 10
-23.3698791182
 20
8.7987120355
 10
-23.3185448089
 20
8.7708124776
 10
-23.2672104996
 20
8.7463584803
 10
-23.2163943633
 20
8.7255968843
 10
-23.166101648
 20
8.7085650869
 10
-23.1163271057
 20
8.6952256908
 10
-23.0675731649
 20
8.6857133451
 10
-23.0198501624
 20
8.6800668108
 10
-22.9731477614
 20
8.6782473268
 10
-22.92793738
 20
8.6802732593
 10
-22.8842341295
 20
8.6861835551
 10
-22.8420228986
 20
8.6959392673
 10
-22.8017297711
 20
8.709441921
 10
-22.7633741739
 20
8.7267294656
 10
-22.7448624768
 20
8.7368090463
  0
LWPOLYLINE
  5
23E
100
AcDbEntity
  8
ASSI
100
AcDbPolyline
 62
7
  6
CONTINUOUS
 90
42
 70
0
 10
-22.4859956417
 20
9.3089566399
 10
-22.4875329956
 20
9.3695170105
 10
-22.4920090543
 20
9.4311758373
 10
-22.4994238178
 20
9.49393312
 10
-22.5098221614
 20
9.5580081478
 10
-22.5231592098
 20
9.6231816316
 10
-22.5393003377
 20
9.6887957046
 10
-22.5582739454
 20
9.7548548293
 10
-22.5800516327
 20
9.8213545432
 10
-22.6044135736
 20
9.8876235926
 10
-22.631385942
 20
9.9536596411
 10
-22.660942564
 20
10.0194650251
 10
-22.6927850927
 20
10.0843754992
 10
-22.72693668
 20
10.1483819996
 10
-22.7633741739
 20
10.2114935903
 10
-22.8017297711
 20
10.2730732172
 10
-22.8420228986
 20
10.3331053645
 10
-22.8842341295
 20
10.3916055481
 10
-22.92793738
 20
10.4479832621
 10
-22.9731477614
 20
10.5022170098
 10
-23.0198501624
 20
10.5543282879
 10
-23.0675731649
 20
10.6037910806
 10
-23.1163271057
 20
10.6505785637
 10
-23.166101648
 20
10.6947175614
 10
-23.2163943633
 20
10.735762531
 10
-23.2672104996
 20
10.7736821355
 10
-23.3185448089
 20
10.8085077118
 10
-23.3698791182
 20
10.8398877275
 10
-23.4212134275
 20
10.8677872854
 10
-23.4725477368
 20
10.8922412828
 10
-23.5233638732
 20
10.9130028788
 10
-23.5736565884
 20
10.9300346762
 10
-23.6234311307
 20
10.9433740722
 10
-23.6721850715
 20
10.9528864179
 10
-23.719908074
 20
10.9585329522
 10
-23.766610475
 20
10.9603524362
 10
-23.8118208565
 20
10.9583265038
 10
-23.8555241069
 20
10.9524162079
 10
-23.8977353378
 20
10.9426604957
 10
-23.9380284653
 20
10.9291578421
 10
-23.9763840626
 20
10.9118702974
 10
-23.9948957597
 20
10.9017907167
  0
LWPOLYLINE
  5
23F
100
AcDbEntity
  8
ASSI
100
AcDbPolyline
 62
7
  6
CONTINUOUS
 90
42
 70
0
 10
-22.627416998
 20
17.7594318956
 10
-22.6258796441
 20
17.698871525
 10
-22.6214035855
 20
17.6372126982
 10
-22.6139888219
 20
17.5744554155
 10
-22.6035904783
 20
17.5103803877
 10
-22.5902534299
 20
17.4452069039
 10
-22.574112302
 20
17.3795928309
 10
-22.5551386943
 20
17.3135337062
 10
-22.533361007
 20
17.2470339923
 10
-22.5089990661
 20
17.1807649429
 10
-22.4820266977
 20
17.1147288944
 10
-22.4524700757
 20
17.0489235104
 10
-22.420627547
 20
16.9840130363
 10
-22.3864759597
 20
16.9200065359
 10
-22.3500384658
 20
16.8568949452
 10
-22.3116828686
 20
16.7953153183
 10
-22.2713897411
 20
16.735283171
 10
-22.2291785102
 20
16.6767829874
 10
-22.1854752597
 20
16.6204052734
 10
-22.1402648783
 20
16.5661715257
 10
-22.0935624773
 20
16.5140602476
 10
-22.0458394748
 20
16.4645974549
 10
-21.997085534
 20
16.4178099718
 10
-21.9473109917
 20
16.3736709741
 10
-21.8970182764
 20
16.3326260045
 10
-21.8462021401
 20
16.2947064
 10
-21.7948678308
 20
16.2598808237
 10
-21.7435335215
 20
16.228500808
 10
-21.6921992122
 20
16.2006012501
 10
-21.6408649029
 20
16.1761472527
 10
-21.5900487665
 20
16.1553856567
 10
-21.5397560513
 20
16.1383538593
 10
-21.489981509
 20
16.1250144633
 10
-21.4412275682
 20
16.1155021176
 10
-21.3935045657
 20
16.1098555833
 10
-21.3468021647
 20
16.1080360993
 10
-21.3015917832
 20
16.1100620317
 10
-21.2578885328
 20
16.1159723276
 10
-21.2156773019
 20
16.1257280398
 10
-21.1753841744
 20
16.1392306934
 10
-21.1370285771
 20
16.1565182381
 10
-21.11851688
 20
16.1665978188
  0
LWPOLYLINE
  5
240
100
AcDbEntity
  8
ASSI
100
AcDbPolyline
 62
7
  6
CONTINUOUS
 90
42
 70
0
 10
-20.859650045
 20
16.7387454123
 10
-20.8611873988
 20
16.799305783
 10
-20.8656634575
 20
16.8609646097
 10
-20.8730782211
 20
16.9237218925
 10
-20.8834765646
 20
16.9877969203
 10
-20.896813613
 20
17.052970404
 10
-20.912954741
 20
17.1185844771
 10
-20.9319283487
 20
17.1846436018
 10
-20.9537060359
 20
17.2511433157
 10
-20.9780679769
 20
17.3174123651
 10
-21.0050403452
 20
17.3834484136
 10
-21.0345969673
 20
17.4492537975
 10
-21.066439496
 20
17.5141642716
 10
-21.1005910833
 20
17.5781707721
 10
-21.1370285771
 20
17.6412823627
 10
-21.1753841744
 20
17.7028619897
 10
-21.2156773019
 20
17.762894137
 10
-21.2578885328
 20
17.8213943206
 10
-21.3015917832
 20
17.8777720346
 10
-21.3468021647
 20
17.9320057823
 10
-21.3935045657
 20
17.9841170603
 10
-21.4412275682
 20
18.0335798531
 10
-21.489981509
 20
18.0803673362
 10
-21.5397560513
 20
18.1245063339
 10
-21.5900487665
 20
18.1655513035
 10
-21.6408649029
 20
18.203470908
 10
-21.6921992122
 20
18.2382964843
 10
-21.7435335215
 20
18.2696765
 10
-21.7948678308
 20
18.2975760579
 10
-21.8462021401
 20
18.3220300553
 10
-21.8970182764
 20
18.3427916513
 10
-21.9473109917
 20
18.3598234487
 10
-21.997085534
 20
18.3731628447
 10
-22.0458394748
 20
18.3826751904
 10
-22.0935624773
 20
18.3883217247
 10
-22.1402648783
 20
18.3901412087
 10
-22.1854752597
 20
18.3881152762
 10
-22.2291785102
 20
18.3822049804
 10
-22.2713897411
 20
18.3724492682
 10
-22.3116828686
 20
18.3589466146
 10
-22.3500384658
 20
18.3416590699
 10
-22.3685501629
 20
18.3315794892
  0
LWPOLYLINE
  5
241
100
AcDbEntity
  8
RACCORDO
100
AcDbPolyline
 62
7
  6
CONTINUOUS
 90
52
 70
0
 10
-18.5615530061
 20
-19.9003681225
 10
-18.5568208075
 20
-20.2556606384
 10
-18.5427443075
 20
-20.6153486404
 10
-18.519323506
 20
-20.9794321285
 10
-18.4865184849
 20
-21.348264573
 10
-18.4443691624
 20
-21.7214925036
 10
-18.3929952927
 20
-22.0980555091
 10
-18.3323706421
 20
-22.4779630741
 10
-18.2625214443
 20
-22.8612057141
 10
-18.183646154
 20
-23.2466945641
 10
-18.0957191021
 20
-23.6344360123
 10
-17.9987659577
 20
-24.0244236705
 10
-17.8930621831
 20
-24.4155495101
 10
-17.7785828924
 20
-24.807816768
 10
-17.6553529714
 20
-25.2012222073
 10
-17.5237225397
 20
-25.5946480888
 10
-17.3836677072
 20
-25.9880944705
 10
-17.235212364
 20
-26.3815612944
 10
-17.0787782997
 20
-26.7739306468
 10
-16.9143428238
 20
-27.1651994065
 10
-16.7419286269
 20
-27.5553706948
 10
-16.5620255703
 20
-27.9433359611
 10
-16.3746123566
 20
-28.3290889319
 10
-16.1797102832
 20
-28.7126358806
 10
-15.9778731037
 20
-29.092887078
 10
-15.7690810955
 20
-29.4698331514
 10
-15.5533539813
 20
-29.8434834733
 10
-15.3313046826
 20
-30.2127764327
 10
-15.1029152199
 20
-30.5776996376
 10
-14.8682035726
 20
-30.93826548
 10
-14.627836601
 20
-31.293449524
 10
-14.381798222
 20
-31.6432364644
 10
-14.1301045187
 20
-31.9876416065
 10
-13.8734706004
 20
-32.3256864301
 10
-13.6118824179
 20
-32.6573528472
 10
-13.3453540204
 20
-32.9826589458
 10
-13.0746426656
 20
-33.3006804697
 10
-12.7997364576
 20
-33.6113967025
 10
-12.5206472924
 20
-33.9148283607
 10
-12.2381681148
 20
-34.2101133375
 10
-11.9522892843
 20
-34.4972284647
 10
-11.6630204416
 20
-34.7761969105
 10
-11.3711834541
 20
-35.0462260729
 10
-11.0767710184
 20
-35.3072905294
 10
-10.7797904379
 20
-35.5594157025
 10
-10.4810854908
 20
-35.8018852567
 10
-10.180651273
 20
-36.0346717327
 10
-9.8784926884
 20
-36.2578025899
 10
-9.5754682269
 20
-36.4706438714
 10
-9.2718640515
 20
-36.6729842581
 10
-8.967393999
 20
-36.865035069
 10
-8.6620580695
 20
-37.0467963042
  0
LINE
  5
242
100
AcDbEntity
  8
RACCORDO
100
AcDbLine
 62
7
  6
CONTINUOUS
 10
-19.6222131779
 20
10.5130905057
 11
-19.6222131779
 21
-20.5127800125
  0
LINE
  5
243
100
AcDbEntity
  8
RACCORDO
100
AcDbLine
 62
7
  6
CONTINUOUS
 10
-18.5615530061
 20
11.1255023956
 11
-18.5615530061
 21
-19.9003681225
  0
LWPOLYLINE
  5
244
100
AcDbEntity
  8
RACCORDO
100
AcDbPolyline
 62
7
  6
CONTINUOUS
 90
27
 70
0
 10
-19.6222131779
 20
10.5130905057
 10
-19.6174809793
 20
10.8629183973
 10
-19.6034044793
 20
11.2063512098
 10
-19.5799836778
 20
11.5433889434
 10
-19.5471786567
 20
11.8743389719
 10
-19.5050293342
 20
12.1988939214
 10
-19.4536554645
 20
12.5161316698
 10
-19.3930308139
 20
12.826031408
 10
-19.3231816161
 20
13.1286139452
 10
-19.2443063258
 20
13.4230195871
 10
-19.1563792739
 20
13.7092250796
 10
-19.0594261295
 20
13.9872536769
 10
-18.9537223548
 20
14.2563154471
 10
-18.8392430642
 20
14.5163848896
 10
-18.7160131432
 20
14.7674875051
 10
-18.5843827115
 20
15.0089098635
 10
-18.444327879
 20
15.2406244352
 10
-18.2958725358
 20
15.4626587499
 10
-18.1394384715
 20
15.674381966
 10
-17.9750029956
 20
15.87576476
 10
-17.8025887987
 20
16.0668364554
 10
-17.6226857421
 20
16.2470541813
 10
-17.4352725284
 20
16.4163870705
 10
-17.2403704549
 20
16.5748659903
 10
-17.0385332755
 20
16.7220406721
 10
-16.8297412673
 20
16.8578789679
 10
-16.7230445323
 20
16.9213858633
  0
LWPOLYLINE
  5
245
100
AcDbEntity
  8
RACCORDO
100
AcDbPolyline
 62
7
  6
CONTINUOUS
 90
25
 70
0
 10
-16.1725543973
 20
17.1924957753
 10
-16.1797102832
 20
17.1872778803
 10
-16.3746123566
 20
17.0287989605
 10
-16.5620255703
 20
16.8594660713
 10
-16.7419286269
 20
16.6792483454
 10
-16.9143428238
 20
16.48817665
 10
-17.0787782997
 20
16.286793856
 10
-17.235212364
 20
16.0750706399
 10
-17.3836677072
 20
15.8530363252
 10
-17.5237225397
 20
15.6213217535
 10
-17.6553529714
 20
15.3798993951
 10
-17.7785828924
 20
15.1287967796
 10
-17.8930621831
 20
14.8687273371
 10
-17.9987659577
 20
14.5996655669
 10
-18.0957191021
 20
14.3216369696
 10
-18.183646154
 20
14.035431477
 10
-18.2625214443
 20
13.7410258351
 10
-18.3323706421
 20
13.438443298
 10
-18.3929952927
 20
13.1285435598
 10
-18.4443691624
 20
12.8113058114
 10
-18.4865184849
 20
12.4867508619
 10
-18.519323506
 20
12.1558008334
 10
-18.5427443075
 20
11.8187630998
 10
-18.5568208075
 20
11.4753302873
 10
-18.5615530061
 20
11.1255023956
  0
LWPOLYLINE
  5
246
100
AcDbEntity
  8
0
100
AcDbPolyline
 62
7
  6
CONTINUOUS
 90
25
 70
0
 10
-32.0672925268
 20
-0.3867702951
 10
-32.0766543269
 20
-0.3925453598
 10
-32.0859048304
 20
-0.3989666331
 10
-32.0950440374
 20
-0.4060341148
 10
-32.1041162234
 20
-0.4137891106
 10
-32.1130771129
 20
-0.4221903149
 10
-32.1217938792
 20
-0.4311138113
 10
-32.1302580405
 20
-0.44056446
 10
-32.1384780786
 20
-0.4505374008
 10
-32.1463466115
 20
-0.460894136
 10
-32.1538568358
 20
-0.4716375772
 10
-32.161015555
 20
-0.4827648128
 10
-32.1677357967
 20
-0.4941286115
 10
-32.1740104146
 20
-0.5057284444
 10
-32.1798465551
 20
-0.5175648404
 10
-32.1851786855
 20
-0.5294921548
 10
-32.1900007439
 20
-0.5415084383
 10
-32.1943187922
 20
-0.5536156403
 10
-32.1980854836
 20
-0.565673964
 10
-32.2012960939
 20
-0.5776860071
 10
-32.2039553473
 20
-0.5896491719
 10
-32.2060300703
 20
-0.6014158683
 10
-32.207509205
 20
-0.6129368995
 10
-32.2084038092
 20
-0.6242614623
 10
-32.208713883
 20
-0.6353895567
  0
LWPOLYLINE
  5
247
100
AcDbEntity
  8
ASSI
100
AcDbPolyline
 62
7
  6
CONTINUOUS
 90
15
 70
0
 10
-21.11851688
 20
16.1665978188
 10
-21.1005910833
 20
16.1775527241
 10
-21.066439496
 20
16.2021218276
 10
-21.0345969673
 20
16.2302613478
 10
-21.0050403452
 20
16.2619354854
 10
-20.9780679769
 20
16.2968245191
 10
-20.9537060359
 20
16.3349610097
 10
-20.9319283487
 20
16.3763123963
 10
-20.912954741
 20
16.4204612744
 10
-20.896813613
 20
16.4674359774
 10
-20.8834765646
 20
16.517208172
 10
-20.8730782211
 20
16.5692754533
 10
-20.8656634575
 20
16.623470353
 10
-20.8611873988
 20
16.6799603393
 10
-20.859650045
 20
16.7387454123
  0
LWPOLYLINE
  5
248
100
AcDbEntity
  8
ASSI
100
AcDbPolyline
 62
7
  6
CONTINUOUS
 90
15
 70
0
 10
-23.9948957597
 20
10.9017907167
 10
-24.0128215565
 20
10.8908358114
 10
-24.0469731437
 20
10.8662667079
 10
-24.0788156724
 20
10.8381271877
 10
-24.1083722945
 20
10.8064530501
 10
-24.1353446628
 20
10.7715640164
 10
-24.1597066038
 20
10.7334275258
 10
-24.181484291
 20
10.6920761392
 10
-24.2004578987
 20
10.6479272611
 10
-24.2165990267
 20
10.6009525581
 10
-24.2299360751
 20
10.5511803635
 10
-24.2403344186
 20
10.4991130822
 10
-24.2477491822
 20
10.4449181825
 10
-24.2522252409
 20
10.3884281962
 10
-24.2537625947
 20
10.3296431232
  0
LWPOLYLINE
  5
249
100
AcDbEntity
  8
ASSI
100
AcDbPolyline
 62
7
  6
CONTINUOUS
 90
15
 70
0
 10
-22.7448624768
 20
8.7368090463
 10
-22.72693668
 20
8.7477639516
 10
-22.6927850927
 20
8.7723330552
 10
-22.660942564
 20
8.8004725753
 10
-22.631385942
 20
8.832146713
 10
-22.6044135736
 20
8.8670357466
 10
-22.5800516327
 20
8.9051722372
 10
-22.5582739454
 20
8.9465236238
 10
-22.5393003377
 20
8.9906725019
 10
-22.5231592098
 20
9.037647205
 10
-22.5098221614
 20
9.0874193996
 10
-22.4994238178
 20
9.1394866808
 10
-22.4920090543
 20
9.1936815805
 10
-22.4875329956
 20
9.2501715668
 10
-22.4859956417
 20
9.3089566399
  0
LINE
  5
24A
100
AcDbEntity
  8
RACCORDO
100
AcDbLine
 62
250
  6
CONTINUOUS
 10
-19.6222131779
 20
10.5130905057
 11
-18.5615530061
 21
11.1255023956
  0
LINE
  5
24B
100
AcDbEntity
  8
0
100
AcDbLine
 62
7
  6
CONTINUOUS
 10
-33.6709063178
 20
-0.0175399306
 11
-32.3981141116
 21
0.7173543374
  0
LWPOLYLINE
  5
24C
100
AcDbEntity
  8
RACCORDO
100
AcDbPolyline
 62
7
  6
CONTINUOUS
 90
27
 70
0
 10
-16.7230445323
 20
16.9213858633
 10
-16.6140141531
 20
16.9824130258
 10
-16.3919648544
 20
17.0952890209
 10
-16.1635753917
 20
17.196473799
 10
-15.9288637444
 20
17.2860005144
 10
-15.6884967728
 20
17.3636148046
 10
-15.4424583938
 20
17.4292827921
 10
-15.1907646904
 20
17.4830383545
 10
-14.9341307722
 20
17.5247287621
 10
-14.6725425896
 20
17.5543197029
 10
-14.4060141922
 20
17.5718454889
 10
-14.1353028374
 20
17.5772563259
 10
-13.8603966294
 20
17.5705177605
 10
-13.5813074641
 20
17.5516642463
 10
-13.2988282866
 20
17.5207493495
 10
-13.0129494561
 20
17.477738769
 10
-12.7236806134
 20
17.422666806
 10
-12.4318436259
 20
17.3556899303
 10
-12.1374311902
 20
17.2767742858
 10
-11.8404506097
 20
17.1859537287
 10
-11.5417456625
 20
17.0834862972
 10
-11.2413114447
 20
16.9693388692
 10
-10.9391528602
 20
16.8435445668
 10
-10.6361283986
 20
16.7064607956
 10
-10.3325242232
 20
16.5582066907
 10
-10.0280541708
 20
16.3986631169
 10
-9.7227182413
 20
16.2278300742
  0
LWPOLYLINE
  5
24D
100
AcDbEntity
  8
0
100
AcDbPolyline
 62
250
  6
CONTINUOUS
 90
15
 70
0
 10
26.3397275992
 20
-34.110251704
 10
26.268034391
 20
-34.0875553112
 10
26.1970761734
 20
-34.0687082801
 10
26.1269756158
 20
-34.0537432128
 10
26.0578542318
 20
-34.0426860438
 10
25.9898311819
 20
-34.0355558288
 10
25.9230231219
 20
-34.0323648979
 10
25.8575440232
 20
-34.0331190242
 10
25.7935088089
 20
-34.03781722
 10
25.7310319128
 20
-34.0464509254
 10
25.6702223185
 20
-34.0590044206
 10
25.6111836715
 20
-34.0754556319
 10
25.5540177833
 20
-34.0957756216
 10
25.4988255308
 20
-34.1199276537
 10
25.4432205894
 20
-34.1492959328
  0
LWPOLYLINE
  5
24E
100
AcDbEntity
  8
0
100
AcDbPolyline
 62
7
  6
CONTINUOUS
 90
10
 70
0
 10
27.0468343804
 20
-33.7019771107
 10
27.1249239651
 20
-33.7307789868
 10
27.2032524675
 20
-33.7637903288
 10
27.2818198877
 20
-33.8010111368
 10
27.360785504
 20
-33.8425333761
 10
27.439990038
 20
-33.8882650814
 10
27.5189556543
 20
-33.9379303565
 10
27.5975230744
 20
-33.9914372359
 10
27.6758515769
 20
-34.0488776851
 10
27.7539411616
 20
-34.110251704
  0
LWPOLYLINE
  5
24F
100
AcDbEntity
  8
SMUSSO
100
AcDbPolyline
 62
7
  6
CONTINUOUS
 90
36
 70
0
 10
-64.2055007406
 20
9.5155004546
 10
-64.1569410727
 20
9.4868304764
 10
-64.0605300803
 20
9.4261059064
 10
-63.9644205921
 20
9.360465905
 10
-63.8686107483
 20
9.2899408085
 10
-63.7736942634
 20
9.2149676483
 10
-63.6796766784
 20
9.1355187949
 10
-63.5865524523
 20
9.0516218779
 10
-63.4948986775
 20
8.9637968185
 10
-63.4047244763
 20
8.8720192051
 10
-63.3160207264
 20
8.7763134494
 10
-63.229337153
 20
8.6772727076
 10
-63.1446863133
 20
8.5748762711
 10
-63.0620556501
 20
8.4691448485
 10
-62.9819572167
 20
8.3607337212
 10
-62.9044067743
 20
8.249626304
 10
-62.8293885618
 20
8.135839182
 10
-62.7573673492
 20
8.0200773925
 10
-62.6883617543
 20
7.902328721
 10
-62.6223531594
 20
7.782605382
 10
-62.5597504813
 20
7.6616490562
 10
-62.5005748214
 20
7.5394520176
 10
-62.4448050782
 20
7.4160219922
 10
-62.3927868644
 20
7.2921238395
 10
-62.344543448
 20
7.1677545182
 10
-62.3000515608
 20
7.0429170696
 10
-62.2595870116
 20
6.918385477
 10
-62.2231748618
 20
6.7941616277
 10
-62.19079005
 20
6.6702436345
 10
-62.1626332005
 20
6.5473998186
 10
-62.1387306387
 20
6.4256368002
 10
-62.1190560393
 20
6.3049479591
 10
-62.1037310497
 20
6.1860817565
 10
-62.0927962193
 20
6.0692876792
 10
-62.0862109988
 20
5.9543162402
 10
-62.0839753882
 20
5.8411674396
  0
LWPOLYLINE
  5
250
100
AcDbEntity
  8
SMUSSO
100
AcDbPolyline
 62
7
  6
CONTINUOUS
 90
36
 70
0
 10
63.1444305511
 20
-64.0147538038
 10
63.192990219
 20
-64.0434237819
 10
63.2894012114
 20
-64.104148352
 10
63.3855106996
 20
-64.1697883533
 10
63.4813205434
 20
-64.2403134499
 10
63.5762370282
 20
-64.31528661
 10
63.6702546133
 20
-64.3947354635
 10
63.7633788394
 20
-64.4786323805
 10
63.8550326142
 20
-64.5664574398
 10
63.9452068153
 20
-64.6582350532
 10
64.0339105653
 20
-64.7539408089
 10
64.1205941387
 20
-64.8529815508
 10
64.2052449784
 20
-64.9553779872
 10
64.2878756416
 20
-65.0611094098
 10
64.367974075
 20
-65.1695205371
 10
64.4455245174
 20
-65.2806279544
 10
64.5205427299
 20
-65.3944150764
 10
64.5925639425
 20
-65.5101768659
 10
64.6615695373
 20
-65.6279255374
 10
64.7275781323
 20
-65.7476488764
 10
64.7901808104
 20
-65.8686052021
 10
64.8493564703
 20
-65.9908022407
 10
64.9051262135
 20
-66.1142322661
 10
64.9571444273
 20
-66.2381304188
 10
65.0053878437
 20
-66.3624997401
 10
65.0498797309
 20
-66.4873371887
 10
65.0903442801
 20
-66.6118687813
 10
65.1267564299
 20
-66.7360926306
 10
65.1591412417
 20
-66.8600106239
 10
65.1872980912
 20
-66.9828544398
 10
65.211200653
 20
-67.1046174582
 10
65.2308752524
 20
-67.2253062992
 10
65.246200242
 20
-67.3441725019
 10
65.2571350724
 20
-67.4609665792
 10
65.2637202929
 20
-67.5759380181
 10
65.2659559035
 20
-67.6890868187
  0
LWPOLYLINE
  5
251
100
AcDbEntity
  8
0
100
AcDbPolyline
 62
7
  6
CONTINUOUS
 90
44
 70
0
 10
-32.8824571531
 20
-3.9815766651
 10
-32.9542292819
 20
-3.9208616452
 10
-33.040374976
 20
-3.8429963309
 10
-33.1247788824
 20
-3.7611832707
 10
-33.2073489162
 20
-3.675557844
 10
-33.2879375644
 20
-3.5863035561
 10
-33.366331155
 20
-3.4936846526
 10
-33.4423328454
 20
-3.3979649002
 10
-33.5157522682
 20
-3.2994182254
 10
-33.586450501
 20
-3.1982629115
 10
-33.6543091656
 20
-3.0946891357
 10
-33.7191823318
 20
-2.9889301513
 10
-33.7809072227
 20
-2.8812587408
 10
-33.8393424462
 20
-2.7719268168
 10
-33.8943394056
 20
-2.6612154189
 10
-33.9457766065
 20
-2.5493681174
 10
-33.9935568983
 20
-2.4365799448
 10
-34.0375709368
 20
-2.3230721689
 10
-34.0776812919
 20
-2.2091534001
 10
-34.1137601447
 20
-2.095144587
 10
-34.1456937073
 20
-1.981370072
 10
-34.1734108598
 20
-1.8680344415
 10
-34.1968526004
 20
-1.7552693731
 10
-34.2159465432
 20
-1.6432093375
 10
-34.2305776288
 20
-1.5322466909
 10
-34.2406498007
 20
-1.4228758305
 10
-34.2461184125
 20
-1.3153889846
 10
-34.2469518907
 20
-1.2099748142
 10
-34.2431225493
 20
-1.1069312763
 10
-34.234591323
 20
-1.006285355
 10
-34.2213479352
 20
-0.9084606784
 10
-34.2035126753
 20
-0.8142645825
 10
-34.181241757
 20
-0.7241020618
 10
-34.1545782631
 20
-0.63783369
 10
-34.1235347379
 20
-0.5553984183
 10
-34.0880888808
 20
-0.4767724004
 10
-34.048385453
 20
-0.4023167699
 10
-34.0047338343
 20
-0.3325226766
 10
-33.957377056
 20
-0.267595812
 10
-33.9064242686
 20
-0.2075192566
 10
-33.8520790482
 20
-0.1523975534
 10
-33.7945605635
 20
-0.1023200146
 10
-33.7340906082
 20
-0.0573504329
 10
-33.6709063178
 20
-0.0175399306
  0
LWPOLYLINE
  5
252
100
AcDbEntity
  8
0
100
AcDbPolyline
 62
7
  6
CONTINUOUS
 90
32
 70
0
 10
-30.7049584481
 20
0.2725035325
 10
-30.7629886635
 20
0.3221522358
 10
-30.8215240741
 20
0.3698396777
 10
-30.8803646904
 20
0.4154029314
 10
-30.9395115565
 20
0.4588347313
 10
-30.9989636282
 20
0.500142343
 10
-31.0585177844
 20
0.5391846368
 10
-31.1181743742
 20
0.5759538643
 10
-31.1779330484
 20
0.6104577738
 10
-31.2375896381
 20
0.6425784809
 10
-31.2971437943
 20
0.6723078339
 10
-31.3565958661
 20
0.6996539844
 10
-31.4157427321
 20
0.7245235028
 10
-31.4745833485
 20
0.746907918
 10
-31.5331187591
 20
0.766815701
 10
-31.5911489745
 20
0.7841788359
 10
-31.6486722667
 20
0.7989886188
 10
-31.7056903636
 20
0.8112537536
 10
-31.7620084598
 20
0.8209323356
 10
-31.817624161
 20
0.8280155179
 10
-31.8725398615
 20
0.8325121475
 10
-31.9265679387
 20
0.8344068614
 10
-31.9797053565
 20
0.8336907599
 10
-32.0319551511
 20
0.8303727428
 10
-32.083138808
 20
0.8244641463
 10
-32.1332526807
 20
0.8159561093
 10
-32.1823004158
 20
0.8048574929
 10
-32.2301144389
 20
0.791206216
 10
-32.2766905303
 20
0.7749935475
 10
-32.3220329097
 20
0.7562282186
 10
-32.3659866625
 20
0.734974342
 10
-32.3981123692
 20
0.7173513199
  0
LWPOLYLINE
  5
253
100
AcDbEntity
  8
0
100
AcDbPolyline
 62
7
  6
CONTINUOUS
 90
12
 70
0
 10
-32.8824545658
 20
-3.9815727049
 10
-32.8869533363
 20
-3.9775468638
 10
-32.8922854667
 20
-3.9717769599
 10
-32.8971075251
 20
-3.9653290685
 10
-32.9014255734
 20
-3.9582082404
 10
-32.9051922648
 20
-3.9504995976
 10
-32.9084028751
 20
-3.9421950867
 10
-32.9110621285
 20
-3.9333027612
 10
-32.9131368515
 20
-3.9239319029
 10
-32.9146159862
 20
-3.9141189393
 10
-32.9155105904
 20
-3.903827443
 10
-32.9158206642
 20
-3.8930574141
  0
LINE
  5
254
100
AcDbEntity
  8
0
100
AcDbLine
 62
7
  6
CONTINUOUS
 10
-30.6474351559
 20
0.2208868595
 11
-30.7049584481
 21
0.2725035325
  0
LWPOLYLINE
  5
255
100
AcDbEntity
  8
ASSI
100
AcDbPolyline
 62
7
  6
CONTINUOUS
 90
22
 70
0
 10
-23.1700811219
 20
10.6979652959
 10
-23.1692759033
 20
10.6930035052
 10
-23.1559388549
 20
10.6278300215
 10
-23.1397977269
 20
10.5622159484
 10
-23.1208241192
 20
10.4961568237
 10
-23.099046432
 20
10.4296571098
 10
-23.0746844911
 20
10.3633880604
 10
-23.0477121227
 20
10.2973520119
 10
-23.0181555006
 20
10.231546628
 10
-22.986312972
 20
10.1666361539
 10
-22.9521613847
 20
10.1026296534
 10
-22.9157238908
 20
10.0395180628
 10
-22.8773682935
 20
9.9779384358
 10
-22.837075166
 20
9.9179062885
 10
-22.7948639351
 20
9.8594061049
 10
-22.7511606847
 20
9.8030283909
 10
-22.7059503032
 20
9.7487946432
 10
-22.6592479022
 20
9.6966833652
 10
-22.6115248997
 20
9.6472205724
 10
-22.5627709589
 20
9.6004330893
 10
-22.5129964166
 20
9.5562940916
 10
-22.5090169428
 20
9.5530463571
  0
LWPOLYLINE
  5
256
100
AcDbEntity
  8
ASSI
100
AcDbPolyline
 62
7
  6
CONTINUOUS
 90
22
 70
0
 10
-21.5437355252
 20
18.1277540684
 10
-21.5429303066
 20
18.1227922777
 10
-21.5295932582
 20
18.0576187939
 10
-21.5134521302
 20
17.9920047209
 10
-21.4944785225
 20
17.9259455962
 10
-21.4727008353
 20
17.8594458823
 10
-21.4483388943
 20
17.7931768329
 10
-21.421366526
 20
17.7271407844
 10
-21.3918099039
 20
17.6613354004
 10
-21.3599673752
 20
17.5964249263
 10
-21.3258157879
 20
17.5324184259
 10
-21.2893782941
 20
17.4693068352
 10
-21.2510226968
 20
17.4077272083
 10
-21.2107295693
 20
17.347695061
 10
-21.1685183384
 20
17.2891948774
 10
-21.1248150879
 20
17.2328171634
 10
-21.0796047065
 20
17.1785834157
 10
-21.0329023055
 20
17.1264721376
 10
-20.985179303
 20
17.0770093449
 10
-20.9364253622
 20
17.0302218618
 10
-20.8866508199
 20
16.9860828641
 10
-20.882671346
 20
16.9828351296
  0
LWPOLYLINE
  5
257
100
AcDbEntity
  8
0
100
AcDbPolyline
 62
7
  6
CONTINUOUS
 90
7
 70
0
 10
-29.3373572993
 20
-2.1342795905
 10
-29.2470121997
 20
-2.06768926
 10
-29.1706658996
 20
-1.9805695633
 10
-29.108161537
 20
-1.8712526213
 10
-29.063825542
 20
-1.7473051395
 10
-29.036043917
 20
-1.6042149618
 10
-29.0267333677
 20
-1.447674294
  0
LWPOLYLINE
  5
258
100
AcDbEntity
  8
0
100
AcDbPolyline
 62
250
  6
CONTINUOUS
 90
20
 70
0
 10
-31.1707855171
 20
-4.3475972029
 10
-31.1222898046
 20
-4.3173340535
 10
-31.0735549087
 20
-4.2819527187
 10
-31.0271448645
 20
-4.2429392125
 10
-30.9831356755
 20
-4.2003550433
 10
-30.9415999316
 20
-4.1542658442
 10
-30.9026166105
 20
-4.1047543676
 10
-30.8662637787
 20
-4.0519183725
 10
-30.8325984005
 20
-3.9958401029
 10
-30.8016846847
 20
-3.9366259222
 10
-30.7735961516
 20
-3.8744278291
 10
-30.7483738924
 20
-3.8093594691
 10
-30.726054865
 20
-3.7415413749
 10
-30.7066851186
 20
-3.6711565193
 10
-30.6902844054
 20
-3.5983439645
 10
-30.6768646464
 20
-3.5232358337
 10
-30.6664394913
 20
-3.4460205489
 10
-30.6590074922
 20
-3.3668609924
 10
-30.6545583075
 20
-3.2858893563
 10
-30.6530789644
 20
-3.2032550501
  0
LINE
  5
259
100
AcDbEntity
  8
0
100
AcDbLine
 62
7
  6
CONTINUOUS
 10
-32.774399308
 20
0.0215042982
 11
-32.0672925268
 21
0.4297788915
  0
LINE
  5
25A
100
AcDbEntity
  8
0
100
AcDbLine
 62
7
  6
CONTINUOUS
 10
-30.8983275703
 20
0.4285931519
 11
-30.8374297797
 21
0.4637547729
  0
LINE
  5
25B
100
AcDbEntity
  8
0
100
AcDbLine
 62
7
  6
CONTINUOUS
 10
-31.3601857456
 20
0.0215042982
 11
-32.0672925268
 21
-0.3867702951
  0
LINE
  5
25C
100
AcDbEntity
  8
0
100
AcDbLine
 62
7
  6
CONTINUOUS
 10
-30.646377751
 20
0.2198932527
 11
-30.4987441582
 21
0.3051350389
  0
LINE
  5
25D
100
AcDbEntity
  8
0
100
AcDbLine
 62
7
  6
CONTINUOUS
 10
-29.4532238153
 20
-1.8470068976
 11
-29.3054018905
 21
-1.7616563708
  0
LINE
  5
25E
100
AcDbEntity
  8
0
100
AcDbLine
 62
7
  6
CONTINUOUS
 10
-32.208713883
 20
-3.6517471637
 11
-32.774399308
 21
-3.9783668384
  0
LINE
  5
25F
100
AcDbEntity
  8
0
100
AcDbLine
 62
7
  6
CONTINUOUS
 10
-29.3982117735
 20
-2.1694162012
 11
-29.3373572993
 21
-2.1342795905
  0
LINE
  5
260
100
AcDbEntity
  8
0
100
AcDbLine
 62
7
  6
CONTINUOUS
 10
-31.1707855171
 20
-4.3475972029
 11
-29.8979933109
 21
-3.612702935
  0
LWPOLYLINE
  5
261
100
AcDbEntity
  8
0
100
AcDbPolyline
 62
7
  6
CONTINUOUS
 90
15
 70
0
 10
-32.774399308
 20
-3.9783668384
 10
-32.783761108
 20
-3.9834025457
 10
-32.7930116116
 20
-3.9876635221
 10
-32.8021508185
 20
-3.9911497675
 10
-32.8112230046
 20
-3.9938711047
 10
-32.8201838941
 20
-3.995817711
 10
-32.8289006603
 20
-3.9969601178
 10
-32.8373648217
 20
-3.9972836705
 10
-32.8455848598
 20
-3.9968030237
 10
-32.8534533927
 20
-3.9955326729
 10
-32.860963617
 20
-3.9934618506
 10
-32.8681223361
 20
-3.9906013244
 10
-32.8748425779
 20
-3.9869978924
 10
-32.8811171958
 20
-3.9826438309
 10
-32.8824545658
 20
-3.9815727049
  0
LWPOLYLINE
  5
262
100
AcDbEntity
  8
0
100
AcDbPolyline
 62
7
  6
CONTINUOUS
 90
14
 70
0
 10
-31.1707855171
 20
-4.3475972029
 10
-31.2368853835
 20
-4.3824305144
 10
-31.3062337622
 20
-4.4123809897
 10
-31.3786814748
 20
-4.4372380748
 10
-31.4540932969
 20
-4.4568141032
 10
-31.5322725312
 20
-4.4709243158
 10
-31.6129718858
 20
-4.4794078001
 10
-31.6961557517
 20
-4.4821416487
 10
-31.781520926
 20
-4.4789986868
 10
-31.8684114177
 20
-4.4699495409
 10
-31.9564254397
 20
-4.4550500836
 10
-32.0456010911
 20
-4.4343038264
 10
-32.1359384417
 20
-4.4076794229
 10
-32.1539791987
 20
-4.4016999433
  0
LWPOLYLINE
  5
263
100
AcDbEntity
  8
0
100
AcDbPolyline
 62
250
  6
CONTINUOUS
 90
55
 70
0
 10
-32.208713883
 20
-4.3013320074
 10
-32.1297225988
 20
-4.3242158216
 10
-32.0521038659
 20
-4.3418953002
 10
-31.9758576844
 20
-4.3543704432
 10
-31.9007640427
 20
-4.3616554176
 10
-31.8270429525
 20
-4.3637360563
 10
-31.7553544484
 20
-4.3605698587
 10
-31.6857564572
 20
-4.3521091602
 10
-31.6181910522
 20
-4.3384016253
 10
-31.5531444879
 20
-4.3195477457
 10
-31.4906259112
 20
-4.2955072902
 10
-31.4306261752
 20
-4.2663204901
 10
-31.3736040946
 20
-4.2322085314
 10
-31.3195860883
 20
-4.1931357861
 10
-31.2685457375
 20
-4.1491378824
 10
-31.2208625999
 20
-4.1005428906
 10
-31.1765607381
 20
-4.0473155902
 10
-31.1356160897
 20
-3.9894912018
 10
-31.0983360242
 20
-3.9275034574
 10
-31.064748338
 20
-3.8613214608
 10
-31.0348252347
 20
-3.7909761082
 10
-31.0087906955
 20
-3.7169938207
 10
-30.9866738097
 20
-3.6393471919
 10
-30.9684454879
 20
-3.5580636282
 10
-30.9542424425
 20
-3.4737517693
 10
-30.9440949095
 20
-3.3863886319
 10
-30.9379726529
 20
-3.2959971993
 10
-30.9359216769
 20
-3.203255062
 10
-30.9379726514
 20
-3.1081445123
 10
-30.9440949066
 20
-3.0106832579
 10
-30.9542424373
 20
-2.9116020122
 10
-30.9684454792
 20
-2.8108888431
 10
-30.9866737967
 20
-2.7085556827
 10
-31.0087906776
 20
-2.6053690403
 10
-31.0348252109
 20
-2.5013227308
 10
-31.0647483077
 20
-2.3964229392
 10
-31.0983359889
 20
-2.2914547303
 10
-31.1356160517
 20
-2.1864168992
 10
-31.176560699
 20
-2.0813106507
 10
-31.2208625599
 20
-1.9769246645
 10
-31.2685456969
 20
-1.8732663752
 10
-31.3195860475
 20
-1.7703283482
 10
-31.3736040535
 20
-1.6688769583
 10
-31.4306261335
 20
-1.5689173263
 10
-31.4906258689
 20
-1.4704443314
 10
-31.5531444457
 20
-1.3742089865
 10
-31.6181910109
 20
-1.28024096
 10
-31.6857564175
 20
-1.1885105834
 10
-31.75535441
 20
-1.0996798643
 10
-31.8270429135
 20
-1.0137295763
 10
-31.900764003
 20
-0.9306789459
 10
-31.9758576477
 20
-0.85124766
 10
-32.0521038376
 20
-0.7756756143
 10
-32.1297225827
 20
-0.7037229133
 10
-32.208713883
 20
-0.6353895567
  0
LWPOLYLINE
  5
264
100
AcDbEntity
  8
0
100
AcDbPolyline
 62
250
  6
CONTINUOUS
 90
55
 70
0
 10
-32.9158206642
 20
-0.2271149634
 10
-32.9948119485
 20
-0.2042311493
 10
-33.0724306814
 20
-0.1865516707
 10
-33.1486768629
 20
-0.1740765277
 10
-33.2237705045
 20
-0.1667915533
 10
-33.2974915948
 20
-0.1647109145
 10
-33.3691800989
 20
-0.1678771122
 10
-33.4387780901
 20
-0.1763378106
 10
-33.5063434951
 20
-0.1900453456
 10
-33.5713900593
 20
-0.2088992251
 10
-33.6339086361
 20
-0.2329396807
 10
-33.6939083721
 20
-0.2621264808
 10
-33.7509304527
 20
-0.2962384394
 10
-33.804948459
 20
-0.3353111847
 10
-33.8559888098
 20
-0.3793090885
 10
-33.9036719474
 20
-0.4279040803
 10
-33.9479738091
 20
-0.4811313807
 10
-33.9889184576
 20
-0.5389557691
 10
-34.0261985231
 20
-0.6009435135
 10
-34.0597862093
 20
-0.6671255101
 10
-34.0897093125
 20
-0.7374708627
 10
-34.1157438518
 20
-0.8114531502
 10
-34.1378607376
 20
-0.889099779
 10
-34.1560890594
 20
-0.9703833427
 10
-34.1702921048
 20
-1.0546952015
 10
-34.1804396378
 20
-1.142058339
 10
-34.1865618944
 20
-1.2324497716
 10
-34.1886128704
 20
-1.3251919089
 10
-34.1865618959
 20
-1.4203024585
 10
-34.1804396407
 20
-1.517763713
 10
-34.17029211
 20
-1.6168449587
 10
-34.156089068
 20
-1.7175581277
 10
-34.1378607506
 20
-1.8198912881
 10
-34.1157438697
 20
-1.9230779305
 10
-34.0897093364
 20
-2.0271242401
 10
-34.0597862396
 20
-2.1320240317
 10
-34.0261985584
 20
-2.2369922406
 10
-33.9889184956
 20
-2.3420300717
 10
-33.9479738483
 20
-2.4471363201
 10
-33.9036719874
 20
-2.5515223064
 10
-33.8559888504
 20
-2.6551805956
 10
-33.8049484998
 20
-2.7581186227
 10
-33.7509304938
 20
-2.8595700126
 10
-33.6939084138
 20
-2.9595296446
 10
-33.6339086784
 20
-3.0580026394
 10
-33.5713901016
 20
-3.1542379843
 10
-33.5063435364
 20
-3.2482060109
 10
-33.4387781298
 20
-3.3399363875
 10
-33.3691801373
 20
-3.4287671066
 10
-33.2974916337
 20
-3.5147173945
 10
-33.2237705443
 20
-3.597768025
 10
-33.1486768995
 20
-3.6771993109
 10
-33.0724307097
 20
-3.7527713565
 10
-32.9948119646
 20
-3.8247240576
 10
-32.9158206642
 20
-3.8930574141
  0
LWPOLYLINE
  5
265
100
AcDbEntity
  8
0
100
AcDbPolyline
 62
250
  6
CONTINUOUS
 90
15
 70
0
 10
-32.774399308
 20
0.0215042982
 10
-32.8460925162
 20
0.044200691
 10
-32.9170507338
 20
0.0630477221
 10
-32.9871512914
 20
0.0780127894
 10
-33.0562726754
 20
0.0890699584
 10
-33.1242957253
 20
0.0962001734
 10
-33.1911037853
 20
0.0993911043
 10
-33.256582884
 20
0.098636978
 10
-33.3206180983
 20
0.0939387822
 10
-33.3830949944
 20
0.0853050768
 10
-33.4439045887
 20
0.0727515816
 10
-33.5029432357
 20
0.0563003703
 10
-33.5601091239
 20
0.0359803806
 10
-33.6153013764
 20
0.0118283485
 10
-33.6709063178
 20
-0.0175399306
  0
LWPOLYLINE
  5
266
100
AcDbEntity
  8
0
100
AcDbPolyline
 62
7
  6
CONTINUOUS
 90
10
 70
0
 10
-32.0672925268
 20
0.4297788915
 10
-31.9892029421
 20
0.4009770154
 10
-31.9108744397
 20
0.3679656734
 10
-31.8323070195
 20
0.3307448654
 10
-31.7533414032
 20
0.2892226261
 10
-31.6741368692
 20
0.2434909208
 10
-31.5951712529
 20
0.1938256457
 10
-31.5166038328
 20
0.1403187663
 10
-31.4382753303
 20
0.0828783171
 10
-31.3601857456
 20
0.0215042982
  0
LWPOLYLINE
  5
267
100
AcDbEntity
  8
0
100
AcDbPolyline
 62
7
  6
CONTINUOUS
 90
44
 70
0
 10
26.2316697541
 20
-38.1133326673
 10
26.1598976253
 20
-38.0526176474
 10
26.0737519312
 20
-37.9747523331
 10
25.9893480248
 20
-37.8929392729
 10
25.906777991
 20
-37.8073138462
 10
25.8261893428
 20
-37.7180595583
 10
25.7477957522
 20
-37.6254406548
 10
25.6717940618
 20
-37.5297209024
 10
25.598374639
 20
-37.4311742276
 10
25.5276764061
 20
-37.3300189137
 10
25.4598177415
 20
-37.2264451379
 10
25.3949445754
 20
-37.1206861535
 10
25.3332196845
 20
-37.013014743
 10
25.274784461
 20
-36.903682819
 10
25.2197875016
 20
-36.7929714211
 10
25.1683503007
 20
-36.6811241196
 10
25.1205700089
 20
-36.568335947
 10
25.0765559704
 20
-36.4548281711
 10
25.0364456153
 20
-36.3409094023
 10
25.0003667625
 20
-36.2269005892
 10
24.9684331999
 20
-36.1131260742
 10
24.9407160474
 20
-35.9997904437
 10
24.9172743068
 20
-35.8870253753
 10
24.898180364
 20
-35.7749653397
 10
24.8835492784
 20
-35.6640026931
 10
24.8734771065
 20
-35.5546318327
 10
24.8680084947
 20
-35.4471449868
 10
24.8671750165
 20
-35.3417308164
 10
24.8710043579
 20
-35.2386872785
 10
24.8795355842
 20
-35.1380413572
 10
24.892778972
 20
-35.0402166806
 10
24.9106142319
 20
-34.9460205847
 10
24.9328851502
 20
-34.855858064
 10
24.9595486441
 20
-34.7695896922
 10
24.9905921693
 20
-34.6871544205
 10
25.0260380264
 20
-34.6085284026
 10
25.0657414542
 20
-34.5340727721
 10
25.1093930729
 20
-34.4642786788
 10
25.1567498511
 20
-34.3993518142
 10
25.2077026386
 20
-34.3392752588
 10
25.262047859
 20
-34.2841535556
 10
25.3195663437
 20
-34.2340760168
 10
25.380036299
 20
-34.1891064351
 10
25.4432205894
 20
-34.1492959328
  0
LWPOLYLINE
  5
268
100
AcDbEntity
  8
0
100
AcDbPolyline
 62
7
  6
CONTINUOUS
 90
12
 70
0
 10
26.2316723414
 20
-38.1133287071
 10
26.2271735709
 20
-38.109302866
 10
26.2218414405
 20
-38.1035329621
 10
26.2170193821
 20
-38.0970850707
 10
26.2127013338
 20
-38.0899642426
 10
26.2089346424
 20
-38.0822555998
 10
26.2057240321
 20
-38.0739510889
 10
26.2030647787
 20
-38.0650587633
 10
26.2009900557
 20
-38.0556879051
 10
26.199510921
 20
-38.0458749415
 10
26.1986163168
 20
-38.0355834452
 10
26.198306243
 20
-38.0248134163
  0
LWPOLYLINE
  5
269
100
AcDbEntity
  8
0
100
AcDbPolyline
 62
7
  6
CONTINUOUS
 90
32
 70
0
 10
28.4091684591
 20
-33.8592524697
 10
28.3511382437
 20
-33.8096037664
 10
28.2926028331
 20
-33.7619163245
 10
28.2337622168
 20
-33.7163530708
 10
28.1746153507
 20
-33.6729212709
 10
28.115163279
 20
-33.6316136592
 10
28.0556091228
 20
-33.5925713654
 10
27.995952533
 20
-33.5558021379
 10
27.9361938588
 20
-33.5212982284
 10
27.8765372691
 20
-33.4891775213
 10
27.8169831129
 20
-33.4594481683
 10
27.7575310411
 20
-33.4321020178
 10
27.6983841751
 20
-33.4072324994
 10
27.6395435587
 20
-33.3848480842
 10
27.5810081481
 20
-33.3649403012
 10
27.5229779327
 20
-33.3475771663
 10
27.4654546405
 20
-33.3327673834
 10
27.4084365436
 20
-33.3205022486
 10
27.3521184474
 20
-33.3108236666
 10
27.2965027462
 20
-33.3037404843
 10
27.2415870457
 20
-33.2992438547
 10
27.1875589685
 20
-33.2973491408
 10
27.1344215507
 20
-33.2980652423
 10
27.0821717561
 20
-33.3013832594
 10
27.0309880992
 20
-33.3072918559
 10
26.9808742265
 20
-33.3157998929
 10
26.9318264914
 20
-33.3268985093
 10
26.8840124683
 20
-33.3405497862
 10
26.8374363769
 20
-33.3567624547
 10
26.7920939975
 20
-33.3755277836
 10
26.7481402447
 20
-33.3967816602
 10
26.716014538
 20
-33.4144046823
  0
LINE
  5
26A
100
AcDbEntity
  8
0
100
AcDbLine
 62
7
  6
CONTINUOUS
 10
28.4666917513
 20
-33.9108691427
 11
28.4091684591
 21
-33.8592524697
  0
LINE
  5
26B
100
AcDbEntity
  8
RACCORDO
100
AcDbLine
 62
250
  6
CONTINUOUS
 10
66.9983675174
 20
31.3282493348
 11
68.0590276892
 21
31.9406612248
  0
LINE
  5
26C
100
AcDbEntity
  8
RACCORDO
100
AcDbLine
 62
250
  6
CONTINUOUS
 10
-19.6222131779
 20
-20.5127800125
 11
-18.5615530061
 21
-19.9003681225
  0
LINE
  5
26D
100
AcDbEntity
  8
RACCORDO
100
AcDbLine
 62
7
  6
CONTINUOUS
 10
8.6620580695
 20
5.6126906476
 11
-9.7227182413
 21
16.2278300742
  0
LWPOLYLINE
  5
26E
100
AcDbEntity
  8
RACCORDO
100
AcDbPolyline
 62
7
  6
CONTINUOUS
 90
52
 70
0
 10
8.6620580695
 20
5.6126906476
 10
8.967393999
 20
5.4309294125
 10
9.2718640515
 20
5.2388786016
 10
9.5754682269
 20
5.0365382149
 10
9.8784926884
 20
4.8236969334
 10
10.180651273
 20
4.6005660762
 10
10.4810854908
 20
4.3677796002
 10
10.7797904379
 20
4.1253100459
 10
11.0767710184
 20
3.8731848729
 10
11.3711834541
 20
3.6121204163
 10
11.6630204416
 20
3.342091254
 10
11.9522892843
 20
3.0631228082
 10
12.2381681148
 20
2.776007681
 10
12.5206472924
 20
2.4807227042
 10
12.7997364576
 20
2.177291046
 10
13.0746426656
 20
1.8665748132
 10
13.3453540204
 20
1.5485532893
 10
13.6118824179
 20
1.2232471907
 10
13.8734706004
 20
0.8915807736
 10
14.1301045187
 20
0.55353595
 10
14.381798222
 20
0.2091308079
 10
14.627836601
 20
-0.1406561326
 10
14.8682035726
 20
-0.4958401765
 10
15.1029152199
 20
-0.8564060189
 10
15.3313046826
 20
-1.2213292238
 10
15.5533539813
 20
-1.5906221832
 10
15.7690810955
 20
-1.9642725052
 10
15.9778731037
 20
-2.3412185785
 10
16.1797102832
 20
-2.7214697759
 10
16.3746123566
 20
-3.1050167247
 10
16.5620255703
 20
-3.4907696954
 10
16.7419286269
 20
-3.8787349617
 10
16.9143428238
 20
-4.26890625
 10
17.0787782997
 20
-4.6601750098
 10
17.235212364
 20
-5.0525443621
 10
17.3836677072
 20
-5.446011186
 10
17.5237225397
 20
-5.8394575678
 10
17.6553529714
 20
-6.2328834492
 10
17.7785828924
 20
-6.6262888885
 10
17.8930621831
 20
-7.0185561464
 10
17.9987659577
 20
-7.409681986
 10
18.0957191021
 20
-7.7996696443
 10
18.183646154
 20
-8.1874110924
 10
18.2625214443
 20
-8.5728999424
 10
18.3323706421
 20
-8.9561425824
 10
18.3929952927
 20
-9.3360501474
 10
18.4443691624
 20
-9.7126131529
 10
18.4865184849
 20
-10.0858410835
 10
18.519323506
 20
-10.454673528
 10
18.5427443075
 20
-10.8187570161
 10
18.5568208075
 20
-11.1784450181
 10
18.5615530061
 20
-11.533737534
  0
LWPOLYLINE
  5
26F
100
AcDbEntity
  8
ASSI
100
AcDbPolyline
 62
7
  6
CONTINUOUS
 90
22
 70
0
 10
21.5437355252
 20
-7.5136404701
 10
21.5397560513
 20
-7.5103927356
 10
21.489981509
 20
-7.4662537379
 10
21.4412275682
 20
-7.4194662548
 10
21.3935045657
 20
-7.370003462
 10
21.3468021647
 20
-7.317892184
 10
21.3015917832
 20
-7.2636584363
 10
21.2578885328
 20
-7.2072807223
 10
21.2156773019
 20
-7.1487805387
 10
21.1753841744
 20
-7.0887483914
 10
21.1370285771
 20
-7.0271687644
 10
21.1005910833
 20
-6.9640571738
 10
21.066439496
 20
-6.9000506733
 10
21.0345969673
 20
-6.8351401992
 10
21.0050403452
 20
-6.7693348153
 10
20.9780679769
 20
-6.7032987668
 10
20.9537060359
 20
-6.6370297174
 10
20.9319283487
 20
-6.5705300035
 10
20.912954741
 20
-6.5044708788
 10
20.896813613
 20
-6.4388568057
 10
20.8834765646
 20
-6.3736833219
 10
20.882671346
 20
-6.3687215313
  0
LINE
  5
270
100
AcDbEntity
  8
RACCORDO
100
AcDbLine
 62
7
  6
CONTINUOUS
 10
18.5615530061
 20
-42.5596080522
 11
18.5615530061
 21
-11.533737534
  0
LINE
  5
271
100
AcDbEntity
  8
RACCORDO
100
AcDbLine
 62
250
  6
CONTINUOUS
 10
71.2410082045
 20
23.9797801141
 11
72.3016683763
 21
24.5921920041
  0
LWPOLYLINE
  5
272
100
AcDbEntity
  8
ASSI
100
AcDbPolyline
 62
7
  6
CONTINUOUS
 90
42
 70
0
 10
20.0578567083
 20
-6.1648961105
 10
20.0763684054
 20
-6.1548165298
 10
20.1147240026
 20
-6.1375289851
 10
20.1550171301
 20
-6.1240263315
 10
20.197228361
 20
-6.1142706193
 10
20.2409316115
 20
-6.1083603234
 10
20.2861419929
 20
-6.106334391
 10
20.3328443939
 20
-6.1081538749
 10
20.3805673964
 20
-6.1138004093
 10
20.4293213372
 20
-6.123312755
 10
20.4790958795
 20
-6.136652151
 10
20.5293885947
 20
-6.1536839484
 10
20.5802047311
 20
-6.1744455444
 10
20.6315390404
 20
-6.1988995418
 10
20.6828733497
 20
-6.2267990997
 10
20.734207659
 20
-6.2581791154
 10
20.7855419683
 20
-6.2930046917
 10
20.8363581047
 20
-6.3309242962
 10
20.8866508199
 20
-6.3719692658
 10
20.9364253622
 20
-6.4161082635
 10
20.985179303
 20
-6.4628957466
 10
21.0329023055
 20
-6.5123585393
 10
21.0796047065
 20
-6.5644698174
 10
21.1248150879
 20
-6.6187035651
 10
21.1685183384
 20
-6.6750812791
 10
21.2107295693
 20
-6.7335814627
 10
21.2510226968
 20
-6.79361361
 10
21.2893782941
 20
-6.8551932369
 10
21.3258157879
 20
-6.9183048276
 10
21.3599673752
 20
-6.982311328
 10
21.3918099039
 20
-7.0472218021
 10
21.421366526
 20
-7.1130271861
 10
21.4483388943
 20
-7.1790632346
 10
21.4727008353
 20
-7.2453322839
 10
21.4944785225
 20
-7.3118319979
 10
21.5134521302
 20
-7.3778911226
 10
21.5295932582
 20
-7.4435051956
 10
21.5429303066
 20
-7.5086786794
 10
21.5533286501
 20
-7.5727537072
 10
21.5607434137
 20
-7.6355109899
 10
21.5652194724
 20
-7.6971698167
 10
21.5667568262
 20
-7.7577301873
  0
LWPOLYLINE
  5
273
100
AcDbEntity
  8
ASSI
100
AcDbPolyline
 62
7
  6
CONTINUOUS
 90
42
 70
0
 10
21.3078899912
 20
-8.3298777809
 10
21.2893782941
 20
-8.3399573616
 10
21.2510226968
 20
-8.3572449062
 10
21.2107295693
 20
-8.3707475599
 10
21.1685183384
 20
-8.3805032721
 10
21.1248150879
 20
-8.3864135679
 10
21.0796047065
 20
-8.3884395004
 10
21.0329023055
 20
-8.3866200164
 10
20.985179303
 20
-8.3809734821
 10
20.9364253622
 20
-8.3714611364
 10
20.8866508199
 20
-8.3581217403
 10
20.8363581047
 20
-8.3410899429
 10
20.7855419683
 20
-8.3203283469
 10
20.734207659
 20
-8.2958743496
 10
20.6828733497
 20
-8.2679747917
 10
20.6315390404
 20
-8.2365947759
 10
20.5802047311
 20
-8.2017691996
 10
20.5293885947
 20
-8.1638495951
 10
20.4790958795
 20
-8.1228046256
 10
20.4293213372
 20
-8.0786656279
 10
20.3805673964
 20
-8.0318781448
 10
20.3328443939
 20
-7.982415352
 10
20.2861419929
 20
-7.9303040739
 10
20.2409316115
 20
-7.8760703263
 10
20.197228361
 20
-7.8196926123
 10
20.1550171301
 20
-7.7611924287
 10
20.1147240026
 20
-7.7011602814
 10
20.0763684054
 20
-7.6395806544
 10
20.0399309115
 20
-7.5764690638
 10
20.0057793242
 20
-7.5124625633
 10
19.9739367955
 20
-7.4475520892
 10
19.9443801735
 20
-7.3817467053
 10
19.9174078051
 20
-7.3157106567
 10
19.8930458642
 20
-7.2494416074
 10
19.8712681769
 20
-7.1829418935
 10
19.8522945692
 20
-7.1168827688
 10
19.8361534413
 20
-7.0512686957
 10
19.8228163928
 20
-6.9860952119
 10
19.8124180493
 20
-6.9220201842
 10
19.8050032857
 20
-6.8592629014
 10
19.800527227
 20
-6.7976040747
 10
19.7989898732
 20
-6.737043704
  0
LWPOLYLINE
  5
274
100
AcDbEntity
  8
0
100
AcDbPolyline
 62
7
  6
CONTINUOUS
 90
13
 70
0
 10
30.0873935395
 20
-35.579430301
 10
30.0657298202
 20
-35.3206607221
 10
30.0016236145
 20
-35.0474450313
 10
29.8976936289
 20
-34.7709439532
 10
29.7581853514
 20
-34.5024524189
 10
29.5887976255
 20
-34.2529381734
 10
29.3964498553
 20
-34.0325937492
 10
29.1889993511
 20
-33.8504201059
 10
28.9712227034
 20
-33.7119402501
 10
28.7593734389
 20
-33.6274894775
 10
28.558445694
 20
-33.5977577931
 10
28.3766472669
 20
-33.6239597214
 10
28.2199532439
 20
-33.7061462715
  0
LWPOLYLINE
  5
275
100
AcDbEntity
  8
0
100
AcDbPolyline
 62
7
  6
CONTINUOUS
 90
17
 70
0
 10
21.2485587747
 20
-15.9428269575
 10
21.2687588829
 20
-16.1923701085
 10
21.3285897916
 20
-16.4557348171
 10
21.4257725602
 20
-16.7228896033
 10
21.5592189464
 20
-16.9881957512
 10
21.7191783433
 20
-17.2322679776
 10
21.9016122035
 20
-17.4505523748
 10
22.0995716778
 20
-17.634734558
 10
22.3092189464
 20
-17.7799442626
 10
22.5152355868
 20
-17.8755713644
 10
22.7134051173
 20
-17.9209074108
 10
22.8961793221
 20
-17.914225566
 10
23.0592189464
 20
-17.8542769518
 10
23.1906110764
 20
-17.7454418696
 10
23.2884312539
 20
-17.5912723241
 10
23.3489535389
 20
-17.3976405853
 10
23.3698791182
 20
-17.1676506304
  0
LWPOLYLINE
  5
276
100
AcDbEntity
  8
0
100
AcDbPolyline
 62
7
  6
CONTINUOUS
 90
17
 70
0
 10
23.3698791182
 20
-17.1676507374
 10
23.34967901
 20
-16.9181075864
 10
23.2898481013
 20
-16.6547428778
 10
23.1926653327
 20
-16.3875880916
 10
23.0592189464
 20
-16.1222819437
 10
22.8992595495
 20
-15.8782097173
 10
22.7168256894
 20
-15.6599253201
 10
22.518866215
 20
-15.4757431369
 10
22.3092189464
 20
-15.3305334323
 10
22.1032023061
 20
-15.2349063305
 10
21.9050327756
 20
-15.1895702841
 10
21.7222585708
 20
-15.196252129
 10
21.5592189464
 20
-15.2562007431
 10
21.4278268165
 20
-15.3650358253
 10
21.330006639
 20
-15.5192053708
 10
21.269484354
 20
-15.7128371096
 10
21.2485587747
 20
-15.9428270645
  0
LWPOLYLINE
  5
277
100
AcDbEntity
  8
0
100
AcDbPolyline
 62
7
  6
CONTINUOUS
 90
15
 70
0
 10
26.9054130241
 20
-38.4330880096
 10
26.9057229863
 20
-38.443871892
 10
26.9066203153
 20
-38.4541780974
 10
26.9081050112
 20
-38.464006626
 10
26.9101883034
 20
-38.4733953713
 10
26.9128589624
 20
-38.4823064398
 10
26.9160833001
 20
-38.4906261508
 10
26.9198669792
 20
-38.4983456213
 10
26.924204337
 20
-38.5054737343
 10
26.9290446966
 20
-38.5119234585
 10
26.934394185
 20
-38.517688248
 10
26.9402466753
 20
-38.5227746486
 10
26.946533109
 20
-38.5271152666
 10
26.9532597115
 20
-38.5307017455
 10
26.9601498734
 20
-38.5334515439
  0
LWPOLYLINE
  5
278
100
AcDbEntity
  8
ASSI
100
AcDbPolyline
 62
7
  6
CONTINUOUS
 90
42
 70
0
 10
21.42533547
 20
-16.0448956058
 10
21.4268728238
 20
-16.1054559765
 10
21.4313488825
 20
-16.1671148032
 10
21.438763646
 20
-16.229872086
 10
21.4491619896
 20
-16.2939471137
 10
21.462499038
 20
-16.3591205975
 10
21.4786401659
 20
-16.4247346706
 10
21.4976137736
 20
-16.4907937952
 10
21.5193914609
 20
-16.5572935092
 10
21.5437534018
 20
-16.6235625585
 10
21.5707257702
 20
-16.6895986071
 10
21.6002823923
 20
-16.755403991
 10
21.6321249209
 20
-16.8203144651
 10
21.6662765082
 20
-16.8843209656
 10
21.7027140021
 20
-16.9474325562
 10
21.7410695993
 20
-17.0090121832
 10
21.7813627269
 20
-17.0690443304
 10
21.8235739577
 20
-17.127544514
 10
21.8672772082
 20
-17.183922228
 10
21.9124875896
 20
-17.2381559757
 10
21.9591899906
 20
-17.2902672538
 10
22.0069129931
 20
-17.3397300465
 10
22.0556669339
 20
-17.3865175296
 10
22.1054414762
 20
-17.4306565274
 10
22.1557341915
 20
-17.4717014969
 10
22.2065503278
 20
-17.5096211014
 10
22.2578846371
 20
-17.5444466777
 10
22.3092189464
 20
-17.5758266934
 10
22.3605532557
 20
-17.6037262514
 10
22.411887565
 20
-17.6281802487
 10
22.4627037014
 20
-17.6489418447
 10
22.5129964166
 20
-17.6659736421
 10
22.5627709589
 20
-17.6793130382
 10
22.6115248997
 20
-17.6888253839
 10
22.6592479022
 20
-17.6944719182
 10
22.7059503032
 20
-17.6962914021
 10
22.7511606847
 20
-17.6942654697
 10
22.7948639351
 20
-17.6883551739
 10
22.837075166
 20
-17.6785994616
 10
22.8773682935
 20
-17.665096808
 10
22.9157238908
 20
-17.6478092634
 10
22.9342355879
 20
-17.6377296826
  0
LWPOLYLINE
  5
279
100
AcDbEntity
  8
ASSI
100
AcDbPolyline
 62
7
  6
CONTINUOUS
 90
42
 70
0
 10
23.1931024229
 20
-17.0655820891
 10
23.1915650691
 20
-17.0050217184
 10
23.1870890104
 20
-16.9433628917
 10
23.1796742468
 20
-16.8806056089
 10
23.1692759033
 20
-16.8165305812
 10
23.1559388549
 20
-16.7513570974
 10
23.1397977269
 20
-16.6857430243
 10
23.1208241192
 20
-16.6196838997
 10
23.099046432
 20
-16.5531841857
 10
23.0746844911
 20
-16.4869151364
 10
23.0477121227
 20
-16.4208790879
 10
23.0181555006
 20
-16.3550737039
 10
22.986312972
 20
-16.2901632298
 10
22.9521613847
 20
-16.2261567293
 10
22.9157238908
 20
-16.1630451387
 10
22.8773682935
 20
-16.1014655117
 10
22.837075166
 20
-16.0414333645
 10
22.7948639351
 20
-15.9829331809
 10
22.7511606847
 20
-15.9265554669
 10
22.7059503032
 20
-15.8723217192
 10
22.6592479022
 20
-15.8202104411
 10
22.6115248997
 20
-15.7707476484
 10
22.5627709589
 20
-15.7239601653
 10
22.5129964166
 20
-15.6798211675
 10
22.4627037014
 20
-15.638776198
 10
22.411887565
 20
-15.6008565935
 10
22.3605532557
 20
-15.5660310172
 10
22.3092189464
 20
-15.5346510015
 10
22.2578846371
 20
-15.5067514435
 10
22.2065503278
 20
-15.4822974462
 10
22.1557341915
 20
-15.4615358502
 10
22.1054414762
 20
-15.4445040528
 10
22.0556669339
 20
-15.4311646567
 10
22.0069129931
 20
-15.4216523111
 10
21.9591899906
 20
-15.4160057767
 10
21.9124875896
 20
-15.4141862928
 10
21.8672772082
 20
-15.4162122252
 10
21.8235739577
 20
-15.422122521
 10
21.7813627269
 20
-15.4318782333
 10
21.7410695993
 20
-15.4453808869
 10
21.7027140021
 20
-15.4626684315
 10
21.684202305
 20
-15.4727480123
  0
LINE
  5
27A
100
AcDbEntity
  8
0
100
AcDbLine
 62
7
  6
CONTINUOUS
 10
26.198306243
 20
-38.0248134163
 11
26.198306243
 21
-34.3588709656
  0
LINE
  5
27B
100
AcDbEntity
  8
0
100
AcDbLine
 62
7
  6
CONTINUOUS
 10
26.9054130241
 20
-38.4330880096
 11
26.9054130241
 21
-34.7671455589
  0
LINE
  5
27C
100
AcDbEntity
  8
0
100
AcDbLine
 62
7
  6
CONTINUOUS
 10
27.0468343804
 20
-33.7019771107
 11
27.0468343804
 21
-34.5185262973
  0
LWPOLYLINE
  5
27D
100
AcDbEntity
  8
RACCORDO
100
AcDbPolyline
 62
7
  6
CONTINUOUS
 90
27
 70
0
 10
18.5615530061
 20
-42.5596080522
 10
18.5568208075
 20
-42.9094359438
 10
18.5427443075
 20
-43.2528687564
 10
18.519323506
 20
-43.5899064899
 10
18.4865184849
 20
-43.9208565184
 10
18.4443691624
 20
-44.2454114679
 10
18.3929952927
 20
-44.5626492164
 10
18.3323706421
 20
-44.8725489545
 10
18.2625214443
 20
-45.1751314917
 10
18.183646154
 20
-45.4695371336
 10
18.0957191021
 20
-45.7557426261
 10
17.9987659577
 20
-46.0337712234
 10
17.8930621831
 20
-46.3028329936
 10
17.7785828924
 20
-46.5629024361
 10
17.6553529714
 20
-46.8140050516
 10
17.5237225397
 20
-47.05542741
 10
17.3836677072
 20
-47.2871419818
 10
17.235212364
 20
-47.5091762964
 10
17.0787782997
 20
-47.7208995125
 10
16.9143428238
 20
-47.9222823065
 10
16.7419286269
 20
-48.1133540019
 10
16.5620255703
 20
-48.2935717279
 10
16.3746123566
 20
-48.462904617
 10
16.1797102832
 20
-48.6213835368
 10
15.9778731037
 20
-48.7685582186
 10
15.7690810955
 20
-48.9043965145
 10
15.6623843605
 20
-48.9679034098
  0
LWPOLYLINE
  5
27E
100
AcDbEntity
  8
ASSI
100
AcDbPolyline
 62
7
  6
CONTINUOUS
 90
15
 70
0
 10
19.7989898732
 20
-6.737043704
 10
19.800527227
 20
-6.678258631
 10
19.8050032857
 20
-6.6217686447
 10
19.8124180493
 20
-6.567573745
 10
19.8228163928
 20
-6.5155064637
 10
19.8361534413
 20
-6.4657342691
 10
19.8522945692
 20
-6.4187595661
 10
19.8712681769
 20
-6.374610688
 10
19.8930458642
 20
-6.3332593014
 10
19.9174078051
 20
-6.2951228108
 10
19.9443801735
 20
-6.2602337771
 10
19.9739367955
 20
-6.2285596395
 10
20.0057793242
 20
-6.2004201193
 10
20.0399309115
 20
-6.1758510158
 10
20.0578567083
 20
-6.1648961105
  0
LWPOLYLINE
  5
27F
100
AcDbEntity
  8
ASSI
100
AcDbPolyline
 62
7
  6
CONTINUOUS
 90
15
 70
0
 10
21.5667568262
 20
-7.7577301873
 10
21.5652194724
 20
-7.8165152604
 10
21.5607434137
 20
-7.8730052467
 10
21.5533286501
 20
-7.9272001464
 10
21.5429303066
 20
-7.9792674276
 10
21.5295932582
 20
-8.0290396222
 10
21.5134521302
 20
-8.0760143253
 10
21.4944785225
 20
-8.1201632034
 10
21.4727008353
 20
-8.16151459
 10
21.4483388943
 20
-8.1996510806
 10
21.421366526
 20
-8.2345401142
 10
21.3918099039
 20
-8.2662142519
 10
21.3599673752
 20
-8.294353772
 10
21.3258157879
 20
-8.3189228755
 10
21.3078899912
 20
-8.3298777809
  0
LWPOLYLINE
  5
280
100
AcDbEntity
  8
0
100
AcDbPolyline
 62
7
  6
CONTINUOUS
 90
25
 70
0
 10
26.198306243
 20
-34.3588709656
 10
26.1986162051
 20
-34.3477291468
 10
26.1995135342
 20
-34.3363867282
 10
26.20099823
 20
-34.32484371
 10
26.2030815222
 20
-34.3130492311
 10
26.2057521812
 20
-34.3010541526
 10
26.2089765189
 20
-34.2890110573
 10
26.212760198
 20
-34.276922289
 10
26.2170975558
 20
-34.2647855039
 10
26.2219379154
 20
-34.2527462538
 10
26.2272874039
 20
-34.2408040091
 10
26.2331398941
 20
-34.2289592994
 10
26.2394263278
 20
-34.2173592654
 10
26.2461529303
 20
-34.2060050745
 10
26.2533134762
 20
-34.1948955593
 10
26.2608202311
 20
-34.1841743581
 10
26.2686786672
 20
-34.173845196
 10
26.2768833123
 20
-34.1639043478
 10
26.2853300158
 20
-34.154484276
 10
26.2940269339
 20
-34.1455888892
 10
26.3029659104
 20
-34.1372142789
 10
26.312018327
 20
-34.1294811815
 10
26.3211413109
 20
-34.1224298427
 10
26.330377735
 20
-34.1160200169
 10
26.3397275992
 20
-34.110251704
  0
LWPOLYLINE
  5
281
100
AcDbEntity
  8
0
100
AcDbPolyline
 62
7
  6
CONTINUOUS
 90
17
 70
0
 10
19.6222131779
 20
-6.6349750557
 10
19.6424132861
 20
-6.4087584832
 10
19.7022441949
 20
-6.2144850084
 10
19.7994269635
 20
-6.0595544474
 10
19.9328733497
 20
-5.9483488413
 10
20.0928327466
 20
-5.8889937169
 10
20.2752666068
 20
-5.8813793686
 10
20.4732260811
 20
-5.9257958244
 10
20.6828733497
 20
-6.0226815305
 10
20.88888999
 20
-6.164957281
 10
21.0870595205
 20
-6.3484624411
 10
21.2698337254
 20
-6.5662073563
 10
21.4328733497
 20
-6.8144300419
 10
21.5642654796
 20
-7.0749934623
 10
21.6620856572
 20
-7.3421232969
 10
21.7226079422
 20
-7.6056446533
 10
21.7435335215
 20
-7.8597989427
  0
LWPOLYLINE
  5
282
100
AcDbEntity
  8
0
100
AcDbPolyline
 62
7
  6
CONTINUOUS
 90
17
 70
0
 10
21.7435335215
 20
-7.8597988357
 10
21.7233334133
 20
-8.0860154081
 10
21.6635025045
 20
-8.280288883
 10
21.566319736
 20
-8.435219444
 10
21.4328733497
 20
-8.54642505
 10
21.2729139528
 20
-8.6057801744
 10
21.0904800927
 20
-8.6133945228
 10
20.8925206183
 20
-8.568978067
 10
20.6828733497
 20
-8.4720923609
 10
20.4768567094
 20
-8.3298166104
 10
20.2786871789
 20
-8.1463114502
 10
20.095912974
 20
-7.928566535
 10
19.9328733497
 20
-7.6803438494
 10
19.8014812198
 20
-7.419780429
 10
19.7036610422
 20
-7.1526505944
 10
19.6431387572
 20
-6.889129238
 10
19.6222131779
 20
-6.6349749486
  0
LWPOLYLINE
  5
283
100
AcDbEntity
  8
ASSI
100
AcDbPolyline
 62
7
  6
CONTINUOUS
 90
15
 70
0
 10
21.684202305
 20
-15.4727480123
 10
21.6662765082
 20
-15.4837029176
 10
21.6321249209
 20
-15.5082720211
 10
21.6002823923
 20
-15.5364115413
 10
21.5707257702
 20
-15.5680856789
 10
21.5437534018
 20
-15.6029747125
 10
21.5193914609
 20
-15.6411112031
 10
21.4976137736
 20
-15.6824625897
 10
21.4786401659
 20
-15.7266114678
 10
21.462499038
 20
-15.7735861709
 10
21.4491619896
 20
-15.8233583655
 10
21.438763646
 20
-15.8754256468
 10
21.4313488825
 20
-15.9296205464
 10
21.4268728238
 20
-15.9861105328
 10
21.42533547
 20
-16.0448956058
  0
LWPOLYLINE
  5
284
100
AcDbEntity
  8
ASSI
100
AcDbPolyline
 62
7
  6
CONTINUOUS
 90
15
 70
0
 10
22.9342355879
 20
-17.6377296826
 10
22.9521613847
 20
-17.6267747773
 10
22.986312972
 20
-17.6022056738
 10
23.0181555006
 20
-17.5740661536
 10
23.0477121227
 20
-17.542392016
 10
23.0746844911
 20
-17.5075029824
 10
23.099046432
 20
-17.4693664918
 10
23.1208241192
 20
-17.4280151052
 10
23.1397977269
 20
-17.3838662271
 10
23.1559388549
 20
-17.336891524
 10
23.1692759033
 20
-17.2871193294
 10
23.1796742468
 20
-17.2350520481
 10
23.1870890104
 20
-17.1808571485
 10
23.1915650691
 20
-17.1243671621
 10
23.1931024229
 20
-17.0655820891
  0
LWPOLYLINE
  5
285
100
AcDbEntity
  8
SMUSSO
100
AcDbPolyline
 62
7
  6
CONTINUOUS
 90
36
 70
0
 10
-64.2055007406
 20
68.3013603836
 10
-64.1569410727
 20
68.2726904055
 10
-64.0605300803
 20
68.2119658354
 10
-63.9644205921
 20
68.1463258341
 10
-63.8686107483
 20
68.0758007375
 10
-63.7736942634
 20
68.0008275774
 10
-63.6796766784
 20
67.9213787239
 10
-63.5865524523
 20
67.8374818069
 10
-63.4948986775
 20
67.7496567476
 10
-63.4047244763
 20
67.6578791342
 10
-63.3160207264
 20
67.5621733785
 10
-63.229337153
 20
67.4631326366
 10
-63.1446863133
 20
67.3607362002
 10
-63.0620556501
 20
67.2550047776
 10
-62.9819572167
 20
67.1465936503
 10
-62.9044067743
 20
67.035486233
 10
-62.8293885618
 20
66.921699111
 10
-62.7573673492
 20
66.8059373216
 10
-62.6883617543
 20
66.68818865
 10
-62.6223531594
 20
66.568465311
 10
-62.5597504813
 20
66.4475089853
 10
-62.5005748214
 20
66.3253119467
 10
-62.4448050782
 20
66.2018819213
 10
-62.3927868644
 20
66.0779837686
 10
-62.344543448
 20
65.9536144473
 10
-62.3000515608
 20
65.8287769987
 10
-62.2595870116
 20
65.7042454061
 10
-62.2231748618
 20
65.5800215568
 10
-62.19079005
 20
65.4561035635
 10
-62.1626332005
 20
65.3332597477
 10
-62.1387306387
 20
65.2114967293
 10
-62.1190560393
 20
65.0908078882
 10
-62.1037310497
 20
64.9719416856
 10
-62.0927962193
 20
64.8551476083
 10
-62.0862109988
 20
64.7401761693
 10
-62.0839753882
 20
64.6270273687
  0
LWPOLYLINE
  5
286
100
AcDbEntity
  8
ASSI
100
AcDbPolyline
 62
7
  6
CONTINUOUS
 90
22
 70
0
 10
22.5090169428
 20
-15.6765734331
 10
22.5098221614
 20
-15.6815352237
 10
22.5231592098
 20
-15.7467087075
 10
22.5393003377
 20
-15.8123227806
 10
22.5582739454
 20
-15.8783819052
 10
22.5800516327
 20
-15.9448816192
 10
22.6044135736
 20
-16.0111506685
 10
22.631385942
 20
-16.0771867171
 10
22.660942564
 20
-16.142992101
 10
22.6927850927
 20
-16.2079025751
 10
22.72693668
 20
-16.2719090756
 10
22.7633741739
 20
-16.3350206662
 10
22.8017297711
 20
-16.3966002932
 10
22.8420228986
 20
-16.4566324405
 10
22.8842341295
 20
-16.5151326241
 10
22.92793738
 20
-16.5715103381
 10
22.9731477614
 20
-16.6257440857
 10
23.0198501624
 20
-16.6778553638
 10
23.0675731649
 20
-16.7273181565
 10
23.1163271057
 20
-16.7741056396
 10
23.166101648
 20
-16.8182446374
 10
23.1700811219
 20
-16.8214923718
  0
LWPOLYLINE
  5
287
100
AcDbEntity
  8
0
100
AcDbPolyline
 62
250
  6
CONTINUOUS
 90
34
 70
0
 10
28.4610479428
 20
-37.3350110523
 10
28.4595683384
 20
-37.2506609166
 10
28.4551184007
 20
-37.1645441448
 10
28.4476852045
 20
-37.0767952249
 10
28.4372584336
 20
-36.987534285
 10
28.4238367028
 20
-36.8969227611
 10
28.4074338194
 20
-36.8051654309
 10
28.3880618404
 20
-36.7124083823
 10
28.3657405991
 20
-36.6188133967
 10
28.3405162848
 20
-36.5246167898
 10
28.3124260297
 20
-36.4299819987
 10
28.2815109837
 20
-36.3350699368
 10
28.2478446014
 20
-36.2401170375
 10
28.2114911715
 20
-36.145303849
 10
28.1725077005
 20
-36.0507783347
 10
28.1309720373
 20
-35.9567277818
 10
28.0869631111
 20
-35.8633260192
 10
28.0405535617
 20
-35.770722597
 10
27.9918192498
 20
-35.6790665076
 10
27.9408451877
 20
-35.5885162664
 10
27.8877198247
 20
-35.4992276856
 10
27.8325282895
 20
-35.4113435512
 10
27.7753631767
 20
-35.3250122301
 10
27.7163253609
 20
-35.2403869561
 10
27.655516724
 20
-35.157614339
 10
27.5930409366
 20
-35.0768361642
 10
27.5290069496
 20
-34.998193951
 10
27.4635291871
 20
-34.9218283875
 10
27.3967225732
 20
-34.8478731665
 10
27.3287010655
 20
-34.776454106
 10
27.2595812866
 20
-34.7076935497
 10
27.1894823794
 20
-34.6417100285
 10
27.1185258571
 20
-34.5786179291
 10
27.0468343804
 20
-34.5185262973
  0
LWPOLYLINE
  5
288
100
AcDbEntity
  8
0
100
AcDbPolyline
 62
7
  6
CONTINUOUS
 90
39
 70
0
 10
29.7338401489
 20
-36.6001167843
 10
29.7328220479
 20
-36.5304593953
 10
29.7297987677
 20
-36.4598796846
 10
29.7247703083
 20
-36.3883776524
 10
29.7177263643
 20
-36.3158696723
 10
29.708677241
 20
-36.2424393706
 10
29.6976538555
 20
-36.168337626
 10
29.6846494548
 20
-36.0935621418
 10
29.6696707918
 20
-36.0181152148
 10
29.6527690419
 20
-35.9422546135
 10
29.6339376273
 20
-35.865978923
 10
29.6131831259
 20
-35.7892895582
 10
29.5905764465
 20
-35.7124485326
 10
29.5661112538
 20
-35.6354553275
 10
29.5397938832
 20
-35.5583104616
 10
29.5117142494
 20
-35.4812775046
 10
29.4818663246
 20
-35.4043568394
 10
29.4502561367
 20
-35.3275480831
 10
29.4169916835
 20
-35.2511136572
 10
29.3820673067
 20
-35.1750548419
 10
29.3454886648
 20
-35.099370357
 10
29.3073807305
 20
-35.0243187828
 10
29.2677382731
 20
-34.9499022839
 10
29.2265665235
 20
-34.8761186956
 10
29.1840061472
 20
-34.8032201037
 10
29.1400523944
 20
-34.7312095352
 10
29.094710015
 20
-34.660083963
 10
29.0481339236
 20
-34.5900863917
 10
29.0003199004
 20
-34.5212206794
 10
28.9512721654
 20
-34.4534829679
 10
28.9011582927
 20
-34.3871046869
 10
28.8499746357
 20
-34.3220904863
 10
28.7977248412
 20
-34.2584357161
 10
28.7445874233
 20
-34.1963578565
 10
28.6905593461
 20
-34.1358623011
 10
28.6356436457
 20
-34.0769436563
 10
28.5800279445
 20
-34.0198032209
 10
28.5237098483
 20
-33.9644470771
 10
28.4666917513
 20
-33.9108691427
  0
LWPOLYLINE
  5
289
100
AcDbEntity
  8
0
100
AcDbPolyline
 62
7
  6
CONTINUOUS
 90
25
 70
0
 10
29.7338401489
 20
-36.6001167843
 10
29.7328220479
 20
-36.6685984957
 10
29.7297987677
 20
-36.7356869982
 10
29.7247703083
 20
-36.8013822917
 10
29.7177263643
 20
-36.8657561017
 10
29.708677241
 20
-36.9287367027
 10
29.6976538555
 20
-36.9901089181
 10
29.6846494548
 20
-37.0498672462
 10
29.6696707918
 20
-37.1080171887
 10
29.6527690419
 20
-37.1643600729
 10
29.6339376273
 20
-37.2188897179
 10
29.6131831259
 20
-37.2716123046
 10
29.5905764465
 20
-37.3223477035
 10
29.5661112538
 20
-37.3710891174
 10
29.5397938832
 20
-37.4178433433
 10
29.5117142494
 20
-37.462450643
 10
29.4818663246
 20
-37.5049036729
 10
29.4502561367
 20
-37.5452097765
 10
29.4169916835
 20
-37.5832312457
 10
29.3820673067
 20
-37.618960266
 10
29.3454886648
 20
-37.652404652
 10
29.3073807305
 20
-37.6834501391
 10
29.2677382731
 20
-37.7120885218
 10
29.2265665235
 20
-37.7383280056
 10
29.2161318538
 20
-37.7444559196
  0
LINE
  5
28A
100
AcDbEntity
  8
RACCORDO
100
AcDbLine
 62
250
  6
CONTINUOUS
 10
-9.7227182413
 20
-37.6592081942
 11
-8.6620580695
 21
-37.0467963042
  0
LWPOLYLINE
  5
28B
100
AcDbEntity
  8
SMUSSO
100
AcDbPolyline
 62
7
  6
CONTINUOUS
 90
36
 70
0
 10
63.1444305511
 20
-5.2288938747
 10
63.192990219
 20
-5.2575638528
 10
63.2894012114
 20
-5.3182884229
 10
63.3855106996
 20
-5.3839284242
 10
63.4813205434
 20
-5.4544535208
 10
63.5762370282
 20
-5.5294266809
 10
63.6702546133
 20
-5.6088755344
 10
63.7633788394
 20
-5.6927724514
 10
63.8550326142
 20
-5.7805975107
 10
63.9452068153
 20
-5.8723751241
 10
64.0339105653
 20
-5.9680808798
 10
64.1205941387
 20
-6.0671216217
 10
64.2052449784
 20
-6.1695180581
 10
64.2878756416
 20
-6.2752494807
 10
64.367974075
 20
-6.383660608
 10
64.4455245174
 20
-6.4947680253
 10
64.5205427299
 20
-6.6085551473
 10
64.5925639425
 20
-6.7243169368
 10
64.6615695373
 20
-6.8420656083
 10
64.7275781323
 20
-6.9617889473
 10
64.7901808104
 20
-7.082745273
 10
64.8493564703
 20
-7.2049423117
 10
64.9051262135
 20
-7.328372337
 10
64.9571444273
 20
-7.4522704897
 10
65.0053878437
 20
-7.576639811
 10
65.0498797309
 20
-7.7014772596
 10
65.0903442801
 20
-7.8260088523
 10
65.1267564299
 20
-7.9502327015
 10
65.1591412417
 20
-8.0741506948
 10
65.1872980912
 20
-8.1969945107
 10
65.211200653
 20
-8.3187575291
 10
65.2308752524
 20
-8.4394463701
 10
65.246200242
 20
-8.5583125728
 10
65.2571350724
 20
-8.6751066501
 10
65.2637202929
 20
-8.790078089
 10
65.2659559035
 20
-8.9032268896
  0
LWPOLYLINE
  5
28C
100
AcDbEntity
  8
0
100
AcDbPolyline
 62
7
  6
CONTINUOUS
 90
25
 70
0
 10
27.0468343804
 20
-34.5185262973
 10
27.0374725803
 20
-34.524301362
 10
27.0282220768
 20
-34.5307226353
 10
27.0190828698
 20
-34.537790117
 10
27.0100106838
 20
-34.5455451128
 10
27.0010497943
 20
-34.5539463171
 10
26.992333028
 20
-34.5628698135
 10
26.9838688667
 20
-34.5723204622
 10
26.9756488286
 20
-34.582293403
 10
26.9677802957
 20
-34.5926501382
 10
26.9602700714
 20
-34.6033935794
 10
26.9531113522
 20
-34.614520815
 10
26.9463911105
 20
-34.6258846137
 10
26.9401164926
 20
-34.6374844466
 10
26.9342803521
 20
-34.6493208426
 10
26.9289482217
 20
-34.661248157
 10
26.9241261633
 20
-34.6732644405
 10
26.919808115
 20
-34.6853716425
 10
26.9160414236
 20
-34.6974299662
 10
26.9128308133
 20
-34.7094420093
 10
26.9101715599
 20
-34.7214051741
 10
26.9080968369
 20
-34.7331718705
 10
26.9066177022
 20
-34.7446929017
 10
26.905723098
 20
-34.7560174645
 10
26.9054130241
 20
-34.7671455589
  0
LINE
  5
28D
100
AcDbEntity
  8
0
100
AcDbLine
 62
7
  6
CONTINUOUS
 10
25.4432205894
 20
-34.1492959328
 11
26.7160127956
 21
-33.4144016648
  0
LINE
  5
28E
100
AcDbEntity
  8
0
100
AcDbLine
 62
7
  6
CONTINUOUS
 10
26.3397275992
 20
-34.110251704
 11
27.0468343804
 21
-33.7019771107
  0
LINE
  5
28F
100
AcDbEntity
  8
0
100
AcDbLine
 62
7
  6
CONTINUOUS
 10
28.2157993369
 20
-33.7031628503
 11
28.2766971275
 21
-33.6680012293
  0
LINE
  5
290
100
AcDbEntity
  8
0
100
AcDbLine
 62
7
  6
CONTINUOUS
 10
27.7539411616
 20
-34.110251704
 11
27.0468343804
 21
-34.5185262973
  0
LINE
  5
291
100
AcDbEntity
  8
0
100
AcDbLine
 62
7
  6
CONTINUOUS
 10
28.4677491562
 20
-33.9118627495
 11
28.615382749
 21
-33.8266209633
  0
LWPOLYLINE
  5
292
100
AcDbEntity
  8
0
100
AcDbPolyline
 62
250
  6
CONTINUOUS
 90
20
 70
0
 10
27.9433413901
 20
-38.4793532051
 10
27.9918371026
 20
-38.4490900557
 10
28.0405719985
 20
-38.4137087209
 10
28.0869820427
 20
-38.3746952147
 10
28.1309912317
 20
-38.3321110455
 10
28.1725269756
 20
-38.2860218464
 10
28.2115102967
 20
-38.2365103698
 10
28.2478631285
 20
-38.1836743747
 10
28.2815285067
 20
-38.1275961051
 10
28.3124422225
 20
-38.0683819244
 10
28.3405307556
 20
-38.0061838313
 10
28.3657530148
 20
-37.9411154713
 10
28.3880720422
 20
-37.8732973771
 10
28.4074417885
 20
-37.8029125215
 10
28.4238425018
 20
-37.7300999667
 10
28.4372622608
 20
-37.6549918359
 10
28.4476874159
 20
-37.5777765511
 10
28.455119415
 20
-37.4986169946
 10
28.4595685997
 20
-37.4176453585
 10
28.4610479428
 20
-37.3350110523
  0
LINE
  5
293
100
AcDbEntity
  8
0
100
AcDbLine
 62
7
  6
CONTINUOUS
 10
29.6609030919
 20
-35.9787628997
 11
29.8087250167
 21
-35.893412373
  0
LINE
  5
294
100
AcDbEntity
  8
RACCORDO
100
AcDbLine
 62
250
  6
CONTINUOUS
 10
8.6620580695
 20
-48.2743476207
 11
9.7227182413
 21
-47.6619357307
  0
LINE
  5
295
100
AcDbEntity
  8
0
100
AcDbLine
 62
7
  6
CONTINUOUS
 10
26.9054130241
 20
-37.7835031659
 11
26.3397275992
 21
-38.1101228406
  0
LINE
  5
296
100
AcDbEntity
  8
0
100
AcDbLine
 62
7
  6
CONTINUOUS
 10
29.7159151337
 20
-36.3011722034
 11
29.7767696079
 21
-36.2660355927
  0
LINE
  5
297
100
AcDbEntity
  8
0
100
AcDbLine
 62
7
  6
CONTINUOUS
 10
27.9433413901
 20
-38.4793532051
 11
29.2161335963
 21
-37.7444589372
  0
LWPOLYLINE
  5
298
100
AcDbEntity
  8
0
100
AcDbPolyline
 62
7
  6
CONTINUOUS
 90
7
 70
0
 10
29.7153973524
 20
-36.2960948383
 10
29.8234133407
 20
-36.2355240112
 10
29.9151391848
 20
-36.1490153675
 10
29.9886993171
 20
-36.0383377959
 10
30.043648137
 20
-35.9022689764
 10
30.0762498251
 20
-35.7500598548
 10
30.0873935395
 20
-35.579430277
  0
LWPOLYLINE
  5
299
100
AcDbEntity
  8
RACCORDO
100
AcDbPolyline
 62
7
  6
CONTINUOUS
 90
27
 70
0
 10
15.6623843605
 20
-48.9679034098
 10
15.5533539813
 20
-49.0289305723
 10
15.3313046826
 20
-49.1418065674
 10
15.1029152199
 20
-49.2429913456
 10
14.8682035726
 20
-49.3325180609
 10
14.627836601
 20
-49.4101323511
 10
14.381798222
 20
-49.4758003386
 10
14.1301045187
 20
-49.529555901
 10
13.8734706004
 20
-49.5712463086
 10
13.6118824179
 20
-49.6008372494
 10
13.3453540204
 20
-49.6183630354
 10
13.0746426656
 20
-49.6237738724
 10
12.7997364576
 20
-49.6170353071
 10
12.5206472924
 20
-49.5981817928
 10
12.2381681148
 20
-49.567266896
 10
11.9522892843
 20
-49.5242563155
 10
11.6630204416
 20
-49.4691843525
 10
11.3711834541
 20
-49.4022074768
 10
11.0767710184
 20
-49.3232918323
 10
10.7797904379
 20
-49.2324712752
 10
10.4810854908
 20
-49.1300038437
 10
10.180651273
 20
-49.0158564157
 10
9.8784926884
 20
-48.8900621133
 10
9.5754682269
 20
-48.7529783421
 10
9.2718640515
 20
-48.6047242372
 10
8.967393999
 20
-48.4451806634
 10
8.6620580695
 20
-48.2743476207
  0
LWPOLYLINE
  5
29A
100
AcDbEntity
  8
0
100
AcDbPolyline
 62
7
  6
CONTINUOUS
 90
15
 70
0
 10
26.3397275992
 20
-38.1101228406
 10
26.3303657992
 20
-38.1151585479
 10
26.3211152956
 20
-38.1194195243
 10
26.3119760886
 20
-38.1229057697
 10
26.3029039026
 20
-38.1256271069
 10
26.2939430131
 20
-38.1275737132
 10
26.2852262468
 20
-38.12871612
 10
26.2767620855
 20
-38.1290396727
 10
26.2685420474
 20
-38.1285590259
 10
26.2606735145
 20
-38.1272886751
 10
26.2531632902
 20
-38.1252178528
 10
26.246004571
 20
-38.1223573266
 10
26.2392843293
 20
-38.1187538946
 10
26.2330097114
 20
-38.1143998331
 10
26.2316723414
 20
-38.1133287071
  0
LWPOLYLINE
  5
29B
100
AcDbEntity
  8
0
100
AcDbPolyline
 62
7
  6
CONTINUOUS
 90
14
 70
0
 10
27.9433413901
 20
-38.4793532051
 10
27.8772415237
 20
-38.5141865166
 10
27.807893145
 20
-38.5441369919
 10
27.7354454324
 20
-38.568994077
 10
27.6600336103
 20
-38.5885701054
 10
27.581854376
 20
-38.602680318
 10
27.5011550214
 20
-38.6111638023
 10
27.4179711555
 20
-38.6138976509
 10
27.3326059812
 20
-38.610754689
 10
27.2457154895
 20
-38.6017055431
 10
27.1577014675
 20
-38.5868060858
 10
27.0685258161
 20
-38.5660598286
 10
26.9781884655
 20
-38.5394354251
 10
26.9601477085
 20
-38.5334559455
  0
LWPOLYLINE
  5
29C
100
AcDbEntity
  8
SMUSSO
100
AcDbPolyline
 62
7
  6
CONTINUOUS
 90
36
 70
0
 10
61.0233152164
 20
-6.4535793296
 10
61.0255508009
 20
-6.3430125811
 10
61.0321359748
 20
-6.2356459542
 10
61.0430707382
 20
-6.1314794488
 10
61.0583956192
 20
-6.0303104333
 10
61.0780700898
 20
-5.9323415394
 10
61.1019725655
 20
-5.8381806623
 10
61.1301294141
 20
-5.747851477
 10
61.1625142679
 20
-5.6613303085
 10
61.1989264395
 20
-5.5791540264
 10
61.2393909717
 20
-5.5013497752
 10
61.2838828216
 20
-5.4278904106
 10
61.3321261731
 20
-5.3592313684
 10
61.3841442782
 20
-5.2954025591
 10
61.4399138848
 20
-5.2363740724
 10
61.4990894201
 20
-5.1825116137
 10
61.5616919952
 20
-5.133847256
 10
61.6277004989
 20
-5.0903489263
 10
61.6967060254
 20
-5.0522861114
 10
61.7687271991
 20
-5.0196925242
 10
61.8437453954
 20
-4.9925344518
 10
61.9212958345
 20
-4.9709802426
 10
62.0013942828
 20
-4.9550646872
 10
62.0840249738
 20
-4.944752995
 10
62.168675829
 20
-4.9401091423
 10
62.2553593933
 20
-4.9411683404
 10
62.3440631216
 20
-4.9478953779
 10
62.4342372999
 20
-4.9602485979
 10
62.5258910529
 20
-4.9782629445
 10
62.6190152557
 20
-5.0019034735
 10
62.7130328202
 20
-5.0310236948
 10
62.8079492875
 20
-5.065657636
 10
62.9037591164
 20
-5.1057712696
 10
62.9998685945
 20
-5.1511160224
 10
63.0962795822
 20
-5.201724378
 10
63.1444305511
 20
-5.2288938747
  0
LWPOLYLINE
  5
29D
100
AcDbEntity
  8
SMUSSO
100
AcDbPolyline
 62
7
  6
CONTINUOUS
 90
36
 70
0
 10
61.0233152164
 20
-65.2394392587
 10
61.0255508009
 20
-65.1288725102
 10
61.0321359748
 20
-65.0215058832
 10
61.0430707382
 20
-64.9173393779
 10
61.0583956192
 20
-64.8161703624
 10
61.0780700898
 20
-64.7182014685
 10
61.1019725655
 20
-64.6240405913
 10
61.1301294141
 20
-64.5337114061
 10
61.1625142679
 20
-64.4471902375
 10
61.1989264395
 20
-64.3650139554
 10
61.2393909717
 20
-64.2872097043
 10
61.2838828216
 20
-64.2137503396
 10
61.3321261731
 20
-64.1450912975
 10
61.3841442782
 20
-64.0812624882
 10
61.4399138848
 20
-64.0222340015
 10
61.4990894201
 20
-63.9683715428
 10
61.5616919952
 20
-63.919707185
 10
61.6277004989
 20
-63.8762088554
 10
61.6967060254
 20
-63.8381460405
 10
61.7687271991
 20
-63.8055524533
 10
61.8437453954
 20
-63.7783943809
 10
61.9212958345
 20
-63.7568401717
 10
62.0013942828
 20
-63.7409246163
 10
62.0840249738
 20
-63.7306129241
 10
62.168675829
 20
-63.7259690714
 10
62.2553593933
 20
-63.7270282694
 10
62.3440631216
 20
-63.733755307
 10
62.4342372999
 20
-63.746108527
 10
62.5258910529
 20
-63.7641228736
 10
62.6190152557
 20
-63.7877634025
 10
62.7130328202
 20
-63.8168836238
 10
62.8079492875
 20
-63.8515175651
 10
62.9037591164
 20
-63.8916311987
 10
62.9998685945
 20
-63.9369759515
 10
63.0962795822
 20
-63.9875843071
 10
63.1444305511
 20
-64.0147538038
  0
LWPOLYLINE
  5
29E
100
AcDbEntity
  8
SMUSSO
100
AcDbPolyline
 62
7
  6
CONTINUOUS
 90
51
 70
0
 10
65.1715042726
 20
-8.1280886146
 10
65.1644727778
 20
-8.1425381931
 10
65.1381184995
 20
-8.1874867704
 10
65.1089113036
 20
-8.2290053786
 10
65.0768768927
 20
-8.2671249279
 10
65.0423056525
 20
-8.3014998744
 10
65.005174516
 20
-8.3320961744
 10
64.9655065503
 20
-8.3589478716
 10
64.9236613423
 20
-8.3818115536
 10
64.8796190925
 20
-8.4006509597
 10
64.8333996003
 20
-8.4155023507
 10
64.7854218509
 20
-8.4262310957
 10
64.7356698573
 20
-8.4327997077
 10
64.6841596065
 20
-8.4352456737
 10
64.6313580444
 20
-8.4335468243
 10
64.5772534365
 20
-8.4276654745
 10
64.5218575173
 20
-8.4176393091
 10
64.4656724366
 20
-8.4035592133
 10
64.4086910137
 20
-8.3853883269
 10
64.3509204293
 20
-8.3631635099
 10
64.2928843754
 20
-8.337086228
 10
64.234580436
 20
-8.3071214503
 10
64.1760110271
 20
-8.2733042077
 10
64.1177070878
 20
-8.2359410576
 10
64.0596710337
 20
-8.194999759
 10
64.0019004492
 20
-8.1505125531
 10
63.9449190262
 20
-8.1028827206
 10
63.8887339456
 20
-8.0520816935
 10
63.8333380264
 20
-7.9981380399
 10
63.7792334185
 20
-7.9415407446
 10
63.7264318565
 20
-7.8822656737
 10
63.6749216058
 20
-7.8203369612
 10
63.6251696123
 20
-7.7563159942
 10
63.5771918629
 20
-7.6901837469
 10
63.5309723709
 20
-7.6219592451
 10
63.4869301211
 20
-7.5522609528
 10
63.445084913
 20
-7.4810754733
 10
63.4054169471
 20
-7.4084162034
 10
63.3682858106
 20
-7.3349417975
 10
63.3337145703
 20
-7.2606448491
 10
63.3016801593
 20
-7.1855327647
 10
63.2724729634
 20
-7.1102864187
 10
63.2461186852
 20
-7.0349045817
 10
63.2225916221
 20
-6.959388483
 10
63.2021050517
 20
-6.8844226855
 10
63.1846866213
 20
-6.8100121922
 10
63.1703086837
 20
-6.736152
 10
63.1591015751
 20
-6.6635116623
 10
63.151108741
 20
-6.5923143636
 10
63.146286736
 20
-6.5223369194
 10
63.14463556
 20
-6.4535793296
  0
LWPOLYLINE
  5
29F
100
AcDbEntity
  8
RACCORDO
100
AcDbPolyline
 62
7
  6
CONTINUOUS
 90
22
 70
0
 10
-68.0590276892
 20
109.3086966604
 10
-68.218033116
 20
109.3970388316
 10
-68.3763747966
 20
109.478195746
 10
-68.534052731
 20
109.5521674037
 10
-68.6912853857
 20
109.6190370846
 10
-68.8478542942
 20
109.6787215087
 10
-69.0031040573
 20
109.7309708364
 10
-69.1570291455
 20
109.7757539009
 10
-69.3096350883
 20
109.8131018689
 10
-69.4602830756
 20
109.8428584016
 10
-69.6089648999
 20
109.8649916766
 10
-69.7556887687
 20
109.8795335163
 10
-69.8998404943
 20
109.8864230482
 10
-70.0414092945
 20
109.8856281951
 10
-70.1804059516
 20
109.8771810342
 10
-70.3162486239
 20
109.8611169256
 10
-70.4489240903
 20
109.8374039399
 10
-70.578445572
 20
109.8060740065
 10
-70.7042708906
 20
109.7672582728
 10
-70.8263845522
 20
109.7209253593
 10
-70.9448020507
 20
109.6671066454
 10
-71.05917265
 20
109.6059437264
  0
LINE
  5
2A0
100
AcDbEntity
  8
RACCORDO
100
AcDbLine
 62
7
  6
CONTINUOUS
 10
66.9983675174
 20
31.3282493348
 11
-68.0590276892
 21
109.3086966604
  0
LINE
  5
2A1
100
AcDbEntity
  8
RACCORDO
100
AcDbLine
 62
7
  6
CONTINUOUS
 10
68.0590276892
 20
31.9406612248
 11
-66.9983675174
 21
109.9211085504
  0
LWPOLYLINE
  5
2A2
100
AcDbEntity
  8
RACCORDO
100
AcDbPolyline
 62
7
  6
CONTINUOUS
 90
43
 70
0
 10
68.0590276892
 20
31.9406612248
 10
68.218033116
 20
31.8453879147
 10
68.3763747966
 20
31.7436958254
 10
68.534052731
 20
31.6355849567
 10
68.6912853857
 20
31.5208863091
 10
68.8478542942
 20
31.3997688823
 10
69.0031040573
 20
31.272739675
 10
69.1570291455
 20
31.1397739059
 10
69.3096350883
 20
31.0008963565
 10
69.4602830756
 20
30.8566883695
 10
69.6089648999
 20
30.7071276007
 10
69.7556887687
 20
30.5522363944
 10
69.8998404943
 20
30.3926631269
 10
70.0414092945
 20
30.2283881718
 10
70.1804059516
 20
30.0594311554
 10
70.3162486239
 20
29.8864993338
 10
70.4489240903
 20
29.7095760452
 10
70.578445572
 20
29.5286779513
 10
70.7042708906
 20
29.3445622936
 10
70.8263845522
 20
29.1572155845
 10
70.9448020507
 20
28.9666513116
 10
71.0590276892
 20
28.773667179
 10
71.1690438959
 20
28.578253043
 10
71.2748682425
 20
28.3804190473
 10
71.3760577472
 20
28.1809933273
 10
71.4725929813
 20
27.9799692106
 10
71.5644933735
 20
27.7773533694
 10
71.6513742276
 20
27.5739939561
 10
71.7332145026
 20
27.3698878535
 10
71.8100352395
 20
27.1650381787
 10
71.881514866
 20
26.9603024346
 10
71.9476309928
 20
26.7556810988
 10
72.0084060092
 20
26.5511736938
 10
72.0635855103
 20
26.3476362898
 10
72.1131460403
 20
26.1450729529
 10
72.1571110551
 20
25.943479617
 10
72.1952965164
 20
25.743700154
 10
72.2276781973
 20
25.5457421675
 10
72.2542803248
 20
25.3495980538
 10
72.2749915422
 20
25.1560888745
 10
72.2897747304
 20
24.9654883167
 10
72.2986670085
 20
24.7775226932
 10
72.3016683763
 20
24.5921920041
  0
LINE
  5
2A3
100
AcDbEntity
  8
RACCORDO
100
AcDbLine
 62
7
  6
CONTINUOUS
 10
71.2410082045
 20
-107.4719344496
 11
71.2410082045
 21
23.9797801141
  0
LWPOLYLINE
  5
2A4
100
AcDbEntity
  8
SMUSSO
100
AcDbPolyline
 62
7
  6
CONTINUOUS
 90
70
 70
0
 10
65.2659559035
 20
-8.9032268896
 10
65.2637203191
 20
-9.0137936381
 10
65.2571351451
 20
-9.1211602651
 10
65.2462003817
 20
-9.2253267704
 10
65.2308755007
 20
-9.3264957859
 10
65.2112010302
 20
-9.4244646798
 10
65.1872985545
 20
-9.518625557
 10
65.1591417058
 20
-9.6089547422
 10
65.126756852
 20
-9.6954759108
 10
65.0903446804
 20
-9.7776521929
 10
65.0498801482
 20
-9.855456444
 10
65.0053882983
 20
-9.9289158087
 10
64.9571449468
 20
-9.9975748508
 10
64.9051268417
 20
-10.0614036601
 10
64.8493572351
 20
-10.1204321469
 10
64.7901816999
 20
-10.1742946056
 10
64.7275791248
 20
-10.2229589633
 10
64.661570621
 20
-10.2664572929
 10
64.5925650945
 20
-10.3045201078
 10
64.5205439209
 20
-10.337113695
 10
64.4455257245
 20
-10.3642717674
 10
64.3679752854
 20
-10.3858259766
 10
64.2878768372
 20
-10.401741532
 10
64.2052461461
 20
-10.4120532242
 10
64.120595291
 20
-10.4166970769
 10
64.0339117267
 20
-10.4156378789
 10
63.9452079983
 20
-10.4089108413
 10
63.85503382
 20
-10.3965576214
 10
63.7633800671
 20
-10.3785432747
 10
63.6702558642
 20
-10.3549027458
 10
63.5762382997
 20
-10.3257825245
 10
63.4813218324
 20
-10.2911485832
 10
63.3855120035
 20
-10.2510349496
 10
63.2894025254
 20
-10.2056901968
 10
63.1929915378
 20
-10.1550818412
 10
63.0962809009
 20
-10.0992423664
 10
62.9998699086
 20
-10.0385177964
 10
62.9037604203
 20
-9.972877795
 10
62.8079505765
 20
-9.9023526984
 10
62.7130340917
 20
-9.8273795383
 10
62.6190165066
 20
-9.7479306848
 10
62.5258922805
 20
-9.6640337678
 10
62.4342385057
 20
-9.5762087085
 10
62.3440643046
 20
-9.4844310951
 10
62.2553605547
 20
-9.3887253394
 10
62.1686769812
 20
-9.2896845975
 10
62.0840261415
 20
-9.1872881611
 10
62.0013954783
 20
-9.0815567385
 10
61.9212970449
 20
-8.9731456112
 10
61.8437466026
 20
-8.862038194
 10
61.76872839
 20
-8.748251072
 10
61.6967071774
 20
-8.6324892825
 10
61.6277015826
 20
-8.514740611
 10
61.5616929876
 20
-8.3950172719
 10
61.4990903095
 20
-8.2740609462
 10
61.4399146496
 20
-8.1518639076
 10
61.3841449065
 20
-8.0284338822
 10
61.3321266927
 20
-7.9045357295
 10
61.2838832762
 20
-7.7801664082
 10
61.239391389
 20
-7.6553289596
 10
61.1989268398
 20
-7.530797367
 10
61.1625146901
 20
-7.4065735177
 10
61.1301298782
 20
-7.2826555245
 10
61.1019730287
 20
-7.1598117086
 10
61.0780704669
 20
-7.0380486902
 10
61.0583958675
 20
-6.9173598491
 10
61.043070878
 20
-6.7984936465
 10
61.0321360475
 20
-6.6816995692
 10
61.025550827
 20
-6.5667281302
 10
61.0233152164
 20
-6.4535793296
  0
LWPOLYLINE
  5
2A5
100
AcDbEntity
  8
SMUSSO
100
AcDbPolyline
 62
7
  6
CONTINUOUS
 90
70
 70
0
 10
65.2659559035
 20
-67.6890868187
 10
65.2637203191
 20
-67.7996535672
 10
65.2571351451
 20
-67.9070201942
 10
65.2462003817
 20
-68.0111866995
 10
65.2308755007
 20
-68.112355715
 10
65.2112010302
 20
-68.2103246089
 10
65.1872985545
 20
-68.3044854861
 10
65.1591417058
 20
-68.3948146713
 10
65.126756852
 20
-68.4813358399
 10
65.0903446804
 20
-68.563512122
 10
65.0498801482
 20
-68.6413163731
 10
65.0053882983
 20
-68.7147757378
 10
64.9571449468
 20
-68.7834347799
 10
64.9051268417
 20
-68.8472635892
 10
64.8493572351
 20
-68.9062920759
 10
64.7901816999
 20
-68.9601545346
 10
64.7275791248
 20
-69.0088188924
 10
64.661570621
 20
-69.052317222
 10
64.5925650945
 20
-69.0903800369
 10
64.5205439209
 20
-69.1229736241
 10
64.4455257245
 20
-69.1501316965
 10
64.3679752854
 20
-69.1716859057
 10
64.2878768372
 20
-69.1876014611
 10
64.2052461461
 20
-69.1979131533
 10
64.120595291
 20
-69.202557006
 10
64.0339117267
 20
-69.201497808
 10
63.9452079983
 20
-69.1947707704
 10
63.85503382
 20
-69.1824175504
 10
63.7633800671
 20
-69.1644032038
 10
63.6702558642
 20
-69.1407626749
 10
63.5762382997
 20
-69.1116424536
 10
63.4813218324
 20
-69.0770085123
 10
63.3855120035
 20
-69.0368948787
 10
63.2894025254
 20
-68.9915501259
 10
63.1929915378
 20
-68.9409417703
 10
63.0962809009
 20
-68.8851022955
 10
62.9998699086
 20
-68.8243777254
 10
62.9037604203
 20
-68.7587377241
 10
62.8079505765
 20
-68.6882126275
 10
62.7130340917
 20
-68.6132394674
 10
62.6190165066
 20
-68.5337906139
 10
62.5258922805
 20
-68.4498936969
 10
62.4342385057
 20
-68.3620686376
 10
62.3440643046
 20
-68.2702910242
 10
62.2553605547
 20
-68.1745852685
 10
62.1686769812
 20
-68.0755445266
 10
62.0840261415
 20
-67.9731480902
 10
62.0013954783
 20
-67.8674166676
 10
61.9212970449
 20
-67.7590055403
 10
61.8437466026
 20
-67.647898123
 10
61.76872839
 20
-67.534111001
 10
61.6967071774
 20
-67.4183492115
 10
61.6277015826
 20
-67.30060054
 10
61.5616929876
 20
-67.180877201
 10
61.4990903095
 20
-67.0599208753
 10
61.4399146496
 20
-66.9377238367
 10
61.3841449065
 20
-66.8142938113
 10
61.3321266927
 20
-66.6903956586
 10
61.2838832762
 20
-66.5660263373
 10
61.239391389
 20
-66.4411888887
 10
61.1989268398
 20
-66.3166572961
 10
61.1625146901
 20
-66.1924334468
 10
61.1301298782
 20
-66.0685154535
 10
61.1019730287
 20
-65.9456716376
 10
61.0780704669
 20
-65.8239086192
 10
61.0583958675
 20
-65.7032197782
 10
61.043070878
 20
-65.5843535755
 10
61.0321360475
 20
-65.4675594982
 10
61.025550827
 20
-65.3525880593
 10
61.0233152164
 20
-65.2394392587
  0
LWPOLYLINE
  5
2A6
100
AcDbEntity
  8
SMUSSO
100
AcDbPolyline
 62
7
  6
CONTINUOUS
 90
22
 70
0
 10
63.14463556
 20
-6.4535793296
 10
63.1462867361
 20
-6.3867284759
 10
63.1511087412
 20
-6.3223193617
 10
63.1591015753
 20
-6.2603519873
 10
63.1703086839
 20
-6.2006533379
 10
63.1846866214
 20
-6.1433964281
 10
63.2021050518
 20
-6.089100302
 10
63.2225916223
 20
-6.0377918823
 10
63.2461186856
 20
-5.9894442461
 10
63.2724729639
 20
-5.9444956688
 10
63.3016801599
 20
-5.9029770607
 10
63.3337145708
 20
-5.8648575114
 10
63.368285811
 20
-5.8304825648
 10
63.4054169474
 20
-5.7998862649
 10
63.4450849132
 20
-5.7730345677
 10
63.4869301212
 20
-5.7501708857
 10
63.530972371
 20
-5.7313314795
 10
63.5771918631
 20
-5.7164800886
 10
63.6251696125
 20
-5.7057513436
 10
63.6749216061
 20
-5.6991827316
 10
63.726431857
 20
-5.6967367655
 10
63.7689433803
 20
-5.6981045409
  0
LWPOLYLINE
  5
2A7
100
AcDbEntity
  8
SMUSSO
100
AcDbPolyline
 62
7
  6
CONTINUOUS
 90
22
 70
0
 10
63.14463556
 20
-65.2394392587
 10
63.1462867361
 20
-65.1725884049
 10
63.1511087412
 20
-65.1081792908
 10
63.1591015753
 20
-65.0462119164
 10
63.1703086839
 20
-64.986513267
 10
63.1846866214
 20
-64.9292563572
 10
63.2021050518
 20
-64.8749602311
 10
63.2225916223
 20
-64.8236518114
 10
63.2461186856
 20
-64.7753041752
 10
63.2724729639
 20
-64.7303555979
 10
63.3016801599
 20
-64.6888369898
 10
63.3337145708
 20
-64.6507174405
 10
63.368285811
 20
-64.6163424939
 10
63.4054169474
 20
-64.5857461939
 10
63.4450849132
 20
-64.5588944967
 10
63.4869301212
 20
-64.5360308148
 10
63.530972371
 20
-64.5171914086
 10
63.5771918631
 20
-64.5023400177
 10
63.6251696125
 20
-64.4916112727
 10
63.6749216061
 20
-64.4850426607
 10
63.726431857
 20
-64.4825966946
 10
63.7689433803
 20
-64.48396447
  0
LWPOLYLINE
  5
2A8
100
AcDbEntity
  8
RACCORDO
100
AcDbPolyline
 62
7
  6
CONTINUOUS
 90
43
 70
0
 10
71.2410082045
 20
23.9797801141
 10
71.2380068367
 20
24.1651108032
 10
71.2291145586
 20
24.3530764267
 10
71.2143313704
 20
24.5436769845
 10
71.1936201531
 20
24.7371861638
 10
71.1670180256
 20
24.9333302775
 10
71.1346363447
 20
25.131288264
 10
71.0964508833
 20
25.331067727
 10
71.0524858686
 20
25.5326610629
 10
71.0029253385
 20
25.7352243998
 10
70.9477458374
 20
25.9387618039
 10
70.8869708211
 20
26.1432692089
 10
70.8208546942
 20
26.3478905446
 10
70.7493750677
 20
26.5526262887
 10
70.6725543308
 20
26.7574759635
 10
70.5907140558
 20
26.9615820661
 10
70.5038332017
 20
27.1649414794
 10
70.4119328095
 20
27.3675573206
 10
70.3153975754
 20
27.5685814373
 10
70.2142080707
 20
27.7680071574
 10
70.1083837241
 20
27.965841153
 10
69.9983675174
 20
28.161255289
 10
69.884141879
 20
28.3542394216
 10
69.7657243804
 20
28.5448036945
 10
69.6436107188
 20
28.7321504036
 10
69.5177854002
 20
28.9162660613
 10
69.3882639186
 20
29.0971641552
 10
69.2555884521
 20
29.2740874438
 10
69.1197457798
 20
29.4470192654
 10
68.9807491228
 20
29.6159762818
 10
68.8391803225
 20
29.7802512369
 10
68.6950285969
 20
29.9398245044
 10
68.5483047281
 20
30.0947157107
 10
68.3996229038
 20
30.2442764795
 10
68.2489749165
 20
30.3884844665
 10
68.0963689737
 20
30.5273620159
 10
67.9424438856
 20
30.660327785
 10
67.7871941224
 20
30.7873569923
 10
67.6306252139
 20
30.9084744191
 10
67.4733925593
 20
31.0231730667
 10
67.3157146248
 20
31.1312839354
 10
67.1573729442
 20
31.2329760247
 10
66.9983675174
 20
31.3282493348
  0
LINE
  5
2A9
100
AcDbEntity
  8
RACCORDO
100
AcDbLine
 62
7
  6
CONTINUOUS
 10
72.3016683763
 20
-106.8595225596
 11
72.3016683763
 21
24.5921920041
  0
LWPOLYLINE
  5
2AA
100
AcDbEntity
  8
RACCORDO
100
AcDbPolyline
 62
7
  6
CONTINUOUS
 90
22
 70
0
 10
72.3016683763
 20
-106.8595225596
 10
72.2986670085
 20
-107.0413873444
 10
72.2897747304
 20
-107.2190843881
 10
72.2749915422
 20
-107.3926136907
 10
72.2542803248
 20
-107.5622060753
 10
72.2276781973
 20
-107.7276307189
 10
72.1952965164
 20
-107.8881951521
 10
72.1571110551
 20
-108.0438790014
 10
72.1131460403
 20
-108.1947026404
 10
72.0635855103
 20
-108.3400347194
 10
72.0084060092
 20
-108.4798522187
 10
71.9476309928
 20
-108.6141781582
 10
71.881514866
 20
-108.7424502479
 10
71.8100352395
 20
-108.864643111
 10
71.7332145026
 20
-108.9807821244
 10
71.6513742276
 20
-109.0903811289
 10
71.5644933735
 20
-109.1934127096
 10
71.4725929813
 20
-109.2899042814
 10
71.3760577472
 20
-109.3794519296
 10
71.2748682425
 20
-109.462026546
 10
71.1690438959
 20
-109.5376572388
 10
71.05917265
 20
-109.6059437264
  0
LWPOLYLINE
  5
2AB
100
AcDbEntity
  8
SMUSSO
100
AcDbPolyline
 62
7
  6
CONTINUOUS
 90
51
 70
0
 10
65.1715042726
 20
-66.9139485436
 10
65.1644727778
 20
-66.9283981222
 10
65.1381184995
 20
-66.9733466995
 10
65.1089113036
 20
-67.0148653076
 10
65.0768768927
 20
-67.052984857
 10
65.0423056525
 20
-67.0873598035
 10
65.005174516
 20
-67.1179561035
 10
64.9655065503
 20
-67.1448078007
 10
64.9236613423
 20
-67.1676714826
 10
64.8796190925
 20
-67.1865108888
 10
64.8333996003
 20
-67.2013622797
 10
64.7854218509
 20
-67.2120910247
 10
64.7356698573
 20
-67.2186596367
 10
64.6841596065
 20
-67.2211056028
 10
64.6313580444
 20
-67.2194067534
 10
64.5772534365
 20
-67.2135254035
 10
64.5218575173
 20
-67.2034992382
 10
64.4656724366
 20
-67.1894191424
 10
64.4086910137
 20
-67.171248256
 10
64.3509204293
 20
-67.149023439
 10
64.2928843754
 20
-67.1229461571
 10
64.234580436
 20
-67.0929813794
 10
64.1760110271
 20
-67.0591641367
 10
64.1177070878
 20
-67.0218009867
 10
64.0596710337
 20
-66.9808596881
 10
64.0019004492
 20
-66.9363724822
 10
63.9449190262
 20
-66.8887426497
 10
63.8887339456
 20
-66.8379416226
 10
63.8333380264
 20
-66.783997969
 10
63.7792334185
 20
-66.7274006737
 10
63.7264318565
 20
-66.6681256028
 10
63.6749216058
 20
-66.6061968903
 10
63.6251696123
 20
-66.5421759233
 10
63.5771918629
 20
-66.476043676
 10
63.5309723709
 20
-66.4078191741
 10
63.4869301211
 20
-66.3381208819
 10
63.445084913
 20
-66.2669354024
 10
63.4054169471
 20
-66.1942761325
 10
63.3682858106
 20
-66.1208017266
 10
63.3337145703
 20
-66.0465047782
 10
63.3016801593
 20
-65.9713926938
 10
63.2724729634
 20
-65.8961463478
 10
63.2461186852
 20
-65.8207645108
 10
63.2225916221
 20
-65.7452484121
 10
63.2021050517
 20
-65.6702826146
 10
63.1846866213
 20
-65.5958721213
 10
63.1703086837
 20
-65.5220119291
 10
63.1591015751
 20
-65.4493715914
 10
63.151108741
 20
-65.3781742927
 10
63.146286736
 20
-65.3081968485
 10
63.14463556
 20
-65.2394392587
  0
LWPOLYLINE
  5
2AC
100
AcDbEntity
  8
RACCORDO
100
AcDbPolyline
 62
7
  6
CONTINUOUS
 90
22
 70
0
 10
69.9985124782
 20
-110.2183556164
 10
70.1083837241
 20
-110.1500691288
 10
70.2142080707
 20
-110.074438436
 10
70.3153975754
 20
-109.9918638196
 10
70.4119328095
 20
-109.9023161714
 10
70.5038332017
 20
-109.8058245996
 10
70.5907140558
 20
-109.7027930189
 10
70.6725543308
 20
-109.5931940144
 10
70.7493750677
 20
-109.477055001
 10
70.8208546942
 20
-109.3548621379
 10
70.8869708211
 20
-109.2265900482
 10
70.9477458374
 20
-109.0922641087
 10
71.0029253385
 20
-108.9524466094
 10
71.0524858686
 20
-108.8071145304
 10
71.0964508833
 20
-108.6562908914
 10
71.1346363447
 20
-108.5006070421
 10
71.1670180256
 20
-108.3400426089
 10
71.1936201531
 20
-108.1746179653
 10
71.2143313704
 20
-108.0050255807
 10
71.2291145586
 20
-107.831496278
 10
71.2380068367
 20
-107.6537992343
 10
71.2410082045
 20
-107.4719344496
  0
LINE
  5
2AD
100
AcDbEntity
  8
RACCORDO
100
AcDbLine
 62
250
  6
CONTINUOUS
 10
71.2410082045
 20
-107.4719344496
 11
72.3016683763
 21
-106.8595225596
  0
LINE
  5
2AE
100
AcDbEntity
  8
RACCORDO
100
AcDbLine
 62
7
  6
CONTINUOUS
 10
69.9985124783
 20
-110.2183556164
 11
71.05917265
 21
-109.6059437265
  0
ENDSEC
  0
SECTION
  2
OBJECTS
  0
DICTIONARY
  5
C
100
AcDbDictionary
280
0
281
1
  3
ACAD_GROUP
350
D
  3
ACAD_MLINESTYLE
350
17
  3
ACAD_LAYOUT
350
1A
  3
ACAD_PLOTSETTINGS
350
19
  3
ACAD_PLOTSTYLENAME
350
E
  0
DICTIONARY
  5
D
102
{ACAD_REACTORS
330
C
102
}
100
AcDbDictionary
280
0
281
1
  0
ACDBDICTIONARYWDFLT
  5
E
102
{ACAD_REACTORS
330
C
102
}
100
AcDbDictionary
281
1
  3
Normal
350
F
100
AcDbDictionaryWithDefault
340
F
  0
DICTIONARY
  5
17
102
{ACAD_REACTORS
330
C
102
}
100
AcDbDictionary
280
0
281
1
  3
Standard
350
18
  0
DICTIONARY
  5
19
102
{ACAD_REACTORS
330
C
102
}
100
AcDbDictionary
281
1
  0
DICTIONARY
  5
1A
102
{ACAD_REACTORS
330
C
102
}
100
AcDbDictionary
281
1
  3
Model
350
2AF
  3
Layout1
350
2B0
  0
ACDBPLACEHOLDER
  5
F
102
{ACAD_REACTORS
330
E
102
}
  0
MLINESTYLE
  5
18
102
{ACAD_REACTORS
330
17
102
}
100
AcDbMlineStyle
  2
STANDARD
 70
0
  3

 62
256
 51
90.0
 52
90.0
 71
2
 49
0.5
 62
256
  6
BYLAYER
 49
-0.5
 62
256
  6
BYLAYER
  0
LAYOUT
  5
2AF
102
{ACAD_REACTORS
330
1A
102
}
100
AcDbPlotSettings
  1

  2
none_device
  4
ISO_A4_(297.00_x_210.00_MM)
  6

 40
0.0
 41
0.0
 42
0.0
 43
0.0
 44
297.0
 45
210.0
 46
0.0
 47
0.0
 48
0.0
 49
0.0
140
0.0
141
0.0
142
1.0
143
1.0
 70
1024
 72
1
 73
0
 74
0
  7

 75
0
147
1.0
148
0.0
149
0.0
100
AcDbLayout
  1
Model
 70
0
 71
0
 10
0.0
 20
0.0
 11
297.0
 21
210.0
 12
0.0
 22
0.0
 32
0.0
 14
0.0
 24
0.0
 34
0.0
 15
0.0
 25
0.0
 35
0.0
146
0.0
 13
0.0
 23
0.0
 33
0.0
 16
1.0
 26
0.0
 36
0.0
 17
0.0
 27
1.0
 37
0.0
 76
0
330
212
345
0
346
0
  0
LAYOUT
  5
2B0
102
{ACAD_REACTORS
330
1A
102
}
100
AcDbPlotSettings
  1

  2
none_device
  4
ISO_A4_(297.00_x_210.00_MM)
  6

 40
0.0
 41
0.0
 42
0.0
 43
0.0
 44
297.0
 45
210.0
 46
0.0
 47
0.0
 48
0.0
 49
0.0
140
0.0
141
0.0
142
1.0
143
1.0
 70
0
 72
1
 73
0
 74
0
  7

 75
0
147
1.0
148
0.0
149
0.0
100
AcDbLayout
  1
Layout1
 70
0
 71
1
 10
0.0
 20
0.0
 11
297.0
 21
210.0
 12
0.0
 22
0.0
 32
0.0
 14
0.0
 24
0.0
 34
0.0
 15
0.0
 25
0.0
 35
0.0
146
0.0
 13
0.0
 23
0.0
 33
0.0
 16
1.0
 26
0.0
 36
0.0
 17
0.0
 27
1.0
 37
0.0
 76
0
330
213
345
0
346
0
  0
ENDSEC
  0
EOF
