  0
SECTION
  2
HEADER
  9
$ACADVER
  1
AC1024
  9
$DWGCODEPAGE
  3
ANSI_1252
  9
$EXTMAX
 10
558.8
 20
431.8
 30
0.0
  9
$EXTMIN
 10
0.0
 20
0.0
 30
0.0
  9
$LIMMIN
 10
0.0
 20
0.0
  9
$LIMMAX
 10
558.8
 20
431.8
  9
$VIEWCTR
 10
279.4
 20
215.9
  9
$VIEWSIZE
 40
431.8
  9
$CLAYER
  8
0
  9
$LTSCALE
 40
30.734
  9
$CELTYPE
  6
BYLAYER
  9
$DIMSCALE
 40
1.0
  9
$DIMASZ
 40
3.0
  9
$DIMEXO
 40
0.5
  9
$DIMDLI
 40
21.2344
  9
$DIMEXE
 40
1.5
  9
$DIMCEN
 40
5.0292
  9
$DIMLFAC
 40
1.0
  9
$DIMBLK
  1
_FILLED
  9
$DIMALT
 70
0
  9
$DIMALTF
 40
0.0393700787
  9
$DIMTXT
 40
3.0
  9
$DIMTOL
 70
1
  9
$DIMLIM
 70
0
  9
$DIMTFAC
 40
1.0
  9
$DIMTP
 40
0.01
  9
$DIMTM
 40
0.01
  9
$DIMGAP
 40
0.625
  9
$DIMDSEP
 70
44
  9
$AUNITS
 70
0
  9
$PDMODE
 70
3
  9
$PDSIZE
 40
3.0
  9
$HANDSEED
  5
48D
  9
$TILEMODE
 70
1
  9
$MEASUREMENT
 70
1
  9
$INSUNITS
 70
4
  0
ENDSEC
  0
SECTION
  2
CLASSES
  0
CLASS
  1
ACDBDICTIONARYWDFLT
  2
AcDbDictionaryWithDefault
  3
AutoCAD 2000
 90
0
 91
1
280
0
281
0
  0
CLASS
  1
ACDBPLACEHOLDER
  2
AcDbPlaceHolder
  3
AutoCAD 2000
 90
0
 91
1
280
0
281
0
  0
CLASS
  1
LAYOUT
  2
AcDbLayout
  3
AutoCAD 2000
 90
0
 91
0
280
0
281
0
  0
ENDSEC
  0
SECTION
  2
TABLES
  0
TABLE
  2
VPORT
  5
8
100
AcDbSymbolTable
 70
2
  0
VPORT
  5
1F4
100
AcDbSymbolTableRecord
100
AcDbViewportTableRecord
  2
*ACTIVE
 70
0
 10
0.0
 20
0.0
 11
1.0
 21
1.0
 12
279.4
 22
215.9
 13
0.0
 23
0.0
 14
1.0
 24
1.0
 15
0.0
 25
0.0
 16
0.0
 26
0.0
 36
1.0
 17
0.0
 27
0.0
 37
0.0
 40
431.8
 41
1.2941176471
 42
50.0
 43
0.0
 44
0.0
 50
0.0
 51
0.0
 71
0
 72
100
 73
1
 74
1
 75
0
 76
0
 77
0
 78
0
  0
ENDTAB
  0
TABLE
  2
LTYPE
  5
5
100
AcDbSymbolTable
 70
6
  0
LTYPE
  5
14
100
AcDbSymbolTableRecord
100
AcDbLinetypeTableRecord
  2
BYBLOCK
 70
0
  3

 72
65
 73
0
 40
0.0
  0
LTYPE
  5
15
100
AcDbSymbolTableRecord
100
AcDbLinetypeTableRecord
  2
BYLAYER
 70
0
  3

 72
65
 73
0
 40
0.0
  0
LTYPE
  5
16
100
AcDbSymbolTableRecord
100
AcDbLinetypeTableRecord
  2
CONTINUOUS
 70
64
  3
Solid line
 72
65
 73
0
 40
0.0
  0
LTYPE
  5
1F5
100
AcDbSymbolTableRecord
100
AcDbLinetypeTableRecord
  2
CENTER
 70
64
  3
____ _ ____ _ ____ _ ____ _ ____ _ ____ _ ____
 72
65
 73
4
 40
0.6
 49
0.375
 74
0
 49
-0.075
 74
0
 49
0.075
 74
0
 49
-0.075
 74
0
  0
LTYPE
  5
1F6
100
AcDbSymbolTableRecord
100
AcDbLinetypeTableRecord
  2
HIDDEN
 70
64
  3
- - - - - - - - - - - - - - - - - - - -
 72
65
 73
2
 40
0.2
 49
0.1
 74
0
 49
-0.1
 74
0
  0
LTYPE
  5
1F7
100
AcDbSymbolTableRecord
100
AcDbLinetypeTableRecord
  2
PHANTOM
 70
64
  3
_____ _ _ _____ _ _ _____ _ _ _____
 72
65
 73
6
 40
0.8
 49
0.45
 74
0
 49
-0.05
 74
0
 49
0.1
 74
0
 49
-0.05
 74
0
 49
0.1
 74
0
 49
-0.05
 74
0
  0
LTYPE
  5
1F8
100
AcDbSymbolTableRecord
100
AcDbLinetypeTableRecord
  2
DOT
 70
64
  3
. . . . . . . . . . . . . . . . . . . .
 72
65
 73
2
 40
0.2
 49
0.1
 74
0
 49
-0.1
 74
0
  0
LTYPE
  5
1F9
100
AcDbSymbolTableRecord
100
AcDbLinetypeTableRecord
  2
DASHED
 70
64
  3
- - - - - - - - - - - - - - - - - - - -
 72
65
 73
2
 40
0.2
 49
0.1
 74
0
 49
-0.1
 74
0
  0
ENDTAB
  0
TABLE
  2
LAYER
  5
2
100
AcDbSymbolTable
 70
36
  0
LAYER
  5
10
100
AcDbSymbolTableRecord
100
AcDbLayerTableRecord
  2
0
 70
0
 62
7
  6
CONTINUOUS
370
-3
390
F
  0
LAYER
  5
1FA
100
AcDbSymbolTableRecord
100
AcDbLayerTableRecord
  2
DEFAULT_1
 70
0
 62
7
  6
CENTER
370
-3
390
F
  0
LAYER
  5
1FB
100
AcDbSymbolTableRecord
100
AcDbLayerTableRecord
  2
DEFAULT_2
 70
0
 62
7
  6
HIDDEN
370
-3
390
F
  0
LAYER
  5
1FC
100
AcDbSymbolTableRecord
100
AcDbLayerTableRecord
  2
DEFAULT_3
 70
0
 62
7
  6
PHANTOM
370
-3
390
F
  0
LAYER
  5
1FD
100
AcDbSymbolTableRecord
100
AcDbLayerTableRecord
  2
ASSI
 70
0
 62
7
  6
CONTINUOUS
370
-3
390
F
  0
LAYER
  5
1FE
100
AcDbSymbolTableRecord
100
AcDbLayerTableRecord
  2
COLOR5
 70
0
 62
7
  6
CONTINUOUS
370
-3
390
F
  0
LAYER
  5
1FF
100
AcDbSymbolTableRecord
100
AcDbLayerTableRecord
  2
COORDINATE
 70
0
 62
7
  6
CONTINUOUS
370
-3
390
F
  0
LAYER
  5
200
100
AcDbSymbolTableRecord
100
AcDbLayerTableRecord
  2
COORD_ORIGINE
 70
0
 62
7
  6
CONTINUOUS
370
-3
390
F
  0
LAYER
  5
201
100
AcDbSymbolTableRecord
100
AcDbLayerTableRecord
  2
COPY_PUBLISH
 70
0
 62
7
  6
CONTINUOUS
370
-3
390
F
  0
LAYER
  5
202
100
AcDbSymbolTableRecord
100
AcDbLayerTableRecord
  2
COSMETICI
 70
0
 62
7
  6
CONTINUOUS
370
-3
390
F
  0
LAYER
  5
203
100
AcDbSymbolTableRecord
100
AcDbLayerTableRecord
  2
CURVE
 70
0
 62
7
  6
CONTINUOUS
370
-3
390
F
  0
LAYER
  5
204
100
AcDbSymbolTableRecord
100
AcDbLayerTableRecord
  2
DRAFT
 70
0
 62
7
  6
CONTINUOUS
370
-3
390
F
  0
LAYER
  5
205
100
AcDbSymbolTableRecord
100
AcDbLayerTableRecord
  2
IMPORT_IGES
 70
0
 62
7
  6
CONTINUOUS
370
-3
390
F
  0
LAYER
  5
206
100
AcDbSymbolTableRecord
100
AcDbLayerTableRecord
  2
NOTE
 70
0
 62
7
  6
CONTINUOUS
370
-3
390
F
  0
LAYER
  5
207
100
AcDbSymbolTableRecord
100
AcDbLayerTableRecord
  2
PIANI
 70
0
 62
7
  6
CONTINUOUS
370
-3
390
F
  0
LAYER
  5
208
100
AcDbSymbolTableRecord
100
AcDbLayerTableRecord
  2
PIANI_ORIGINE
 70
0
 62
7
  6
CONTINUOUS
370
-3
390
F
  0
LAYER
  5
209
100
AcDbSymbolTableRecord
100
AcDbLayerTableRecord
  2
PUNTI
 70
0
 62
7
  6
CONTINUOUS
370
-3
390
F
  0
LAYER
  5
20A
100
AcDbSymbolTableRecord
100
AcDbLayerTableRecord
  2
RACCORDO
 70
0
 62
7
  6
CONTINUOUS
370
-3
390
F
  0
LAYER
  5
20B
100
AcDbSymbolTableRecord
100
AcDbLayerTableRecord
  2
SIMBOLI
 70
0
 62
7
  6
CONTINUOUS
370
-3
390
F
  0
LAYER
  5
20C
100
AcDbSymbolTableRecord
100
AcDbLayerTableRecord
  2
SMUSSO
 70
0
 62
7
  6
CONTINUOUS
370
-3
390
F
  0
LAYER
  5
20D
100
AcDbSymbolTableRecord
100
AcDbLayerTableRecord
  2
SNAPLINE
 70
0
 62
7
  6
CONTINUOUS
370
-3
390
F
  0
LAYER
  5
20E
100
AcDbSymbolTableRecord
100
AcDbLayerTableRecord
  2
SUPERFICI
 70
0
 62
7
  6
CONTINUOUS
370
-3
390
F
  0
LAYER
  5
20F
100
AcDbSymbolTableRecord
100
AcDbLayerTableRecord
  2
TRASH
 70
0
 62
7
  6
CONTINUOUS
370
-3
390
F
  0
ENDTAB
  0
TABLE
  2
STYLE
  5
3
100
AcDbSymbolTable
 70
1
  0
STYLE
  5
11
100
AcDbSymbolTableRecord
100
AcDbTextStyleTableRecord
  2
STANDARD
 70
0
 40
0.0
 41
0.8
 50
0.0
 71
0
 42
0.2
  3
txt
  4

  0
STYLE
  5
210
100
AcDbSymbolTableRecord
100
AcDbTextStyleTableRecord
  2
TEXTSTYLE_1
 70
0
 40
0.0
 41
0.8
 50
0.0
 71
0
 42
0.2
  3
gdt
  4

  0
ENDTAB
  0
TABLE
  2
VIEW
  5
6
100
AcDbSymbolTable
 70
0
  0
ENDTAB
  0
TABLE
  2
UCS
  5
7
100
AcDbSymbolTable
 70
0
  0
ENDTAB
  0
TABLE
  2
APPID
  5
9
100
AcDbSymbolTable
 70
1
  0
APPID
  5
211
100
AcDbSymbolTableRecord
100
AcDbRegAppTableRecord
  2
ACAD
 70
0
  0
ENDTAB
  0
TABLE
  2
BLOCK_RECORD
  5
1
100
AcDbSymbolTable
 70
0
  0
BLOCK_RECORD
  5
212
100
AcDbSymbolTableRecord
100
AcDbBlockTableRecord
  2
*Model_Space
  0
BLOCK_RECORD
  5
213
100
AcDbSymbolTableRecord
100
AcDbBlockTableRecord
  2
*Paper_Space
  0
BLOCK_RECORD
  5
214
100
AcDbSymbolTableRecord
100
AcDbBlockTableRecord
  2
_FILLED
  0
ENDTAB
  0
TABLE
  2
DIMSTYLE
  5
A
100
AcDbSymbolTable
 70
1
100
AcDbDimStyleTable
 71
0
  0
DIMSTYLE
105
215
100
AcDbSymbolTableRecord
100
AcDbDimStyleTableRecord
  2
STANDARD
 70
0
  3

  4

 40
1.0
 41
3.0
 42
0.5
 43
0.38
 44
1.5
 45
0.0
 46
0.0
 47
0.01
 48
0.01
140
3.0
141
0.09
142
0.0
143
25.4
144
1.0
145
0.0
146
1.0
147
0.625
 71
1
 72
0
 73
0
 74
0
 75
0
 76
0
 77
1
 78
8
 79
2
170
0
171
1
172
0
173
0
174
0
175
0
176
0
177
0
178
0
270
2
179
2
271
2
272
2
273
2
274
2
275
0
280
0
281
0
282
0
283
1
284
8
285
0
286
0
287
3
288
0
340
11
278
44
341
214
342
214
343
214
344
214
  0
ENDTAB
  0
ENDSEC
  0
SECTION
  2
BLOCKS
  0
BLOCK
  5
20
100
AcDbEntity
  8
0
100
AcDbBlockBegin
  2
*Model_Space
 70
0
 10
0.0
 20
0.0
 30
0.0
  3
*Model_Space
  1

  0
ENDBLK
  5
21
100
AcDbEntity
  8
0
100
AcDbBlockEnd
  0
BLOCK
  5
1C
100
AcDbEntity
  8
0
100
AcDbBlockBegin
  2
*Paper_Space
 70
0
 10
0.0
 20
0.0
 30
0.0
  3
*Paper_Space
  1

  0
ENDBLK
  5
1D
100
AcDbEntity
  8
0
100
AcDbBlockEnd
  0
BLOCK
  5
216
100
AcDbEntity
  8
0
100
AcDbBlockBegin
  2
_FILLED
 70
64
 10
0.0
 20
0.0
  3
_FILLED
  1

  0
SOLID
  5
217
100
AcDbEntity
  8
0
  6
BYBLOCK
 62
0
100
AcDbTrace
 10
0.0
 20
0.0
 11
-1.0
 21
0.3166666667
 12
-1.0
 22
-0.3166666667
 13
-1.0
 23
-0.3166666667
  0
ENDBLK
  5
218
100
AcDbEntity
  8
0
  6
BYBLOCK
 62
0
100
AcDbBlockEnd
  0
ENDSEC
  0
SECTION
  2
ENTITIES
  0
LINE
  5
219
100
AcDbEntity
  8
SMUSSO
100
AcDbLine
 62
250
  6
CONTINUOUS
 10
-82.6129576963
 20
21.9195654189
 11
-82.6129576963
 21
21.7562493635
  0
LINE
  5
21A
100
AcDbEntity
  8
SMUSSO
100
AcDbLine
 62
7
  6
CONTINUOUS
 10
-83.0143307266
 20
-4.633530969
 11
-82.6129576963
 21
21.9195654189
  0
LINE
  5
21B
100
AcDbEntity
  8
SMUSSO
100
AcDbLine
 62
7
  6
CONTINUOUS
 10
-83.0143307266
 20
-4.7968470244
 11
-82.6129576963
 21
21.7562493635
  0
LWPOLYLINE
  5
21C
100
AcDbEntity
  8
SMUSSO
100
AcDbPolyline
 62
7
  6
CONTINUOUS
 90
3
 70
0
 10
-82.6129576963
 20
21.7562493635
 10
-82.6090160064
 20
21.8638959746
 10
-82.6002958574
 20
21.9739726533
  0
LWPOLYLINE
  5
21D
100
AcDbEntity
  8
SMUSSO
100
AcDbPolyline
 62
7
  6
CONTINUOUS
 90
31
 70
0
 10
-82.6129576963
 20
21.9195654189
 10
-82.6092190883
 20
22.0190331494
 10
-82.6011443849
 20
22.1201771532
 10
-82.5887335861
 20
22.2229974304
 10
-82.5719292687
 20
22.3277823839
 10
-82.550788856
 20
22.4342436108
 10
-82.5254846176
 20
22.5415159024
 10
-82.4959833891
 20
22.6496035407
 10
-82.4623183351
 20
22.7585022437
 10
-82.4247612184
 20
22.8673339566
 10
-82.3832799721
 20
22.9760998813
 10
-82.3379066631
 20
23.0847988159
 10
-82.2890092559
 20
23.1925490996
 10
-82.2365592737
 20
23.2993425116
 10
-82.1805851933
 20
23.4051872727
 10
-82.121540409
 20
23.509226385
 10
-82.0594005267
 20
23.611444561
 10
-81.9941899404
 20
23.7118570882
 10
-81.9264352271
 20
23.8096528304
 10
-81.8561134532
 20
23.9048131245
 10
-81.7832475523
 20
23.9973566336
 10
-81.708432901
 20
24.0865282112
 10
-81.6316533394
 20
24.1722993382
 10
-81.5529250274
 20
24.2546985337
 10
-81.4728918225
 20
24.3330562075
 10
-81.3915447035
 20
24.407337216
 10
-81.3088926915
 20
24.4775767029
 10
-81.2256067072
 20
24.5432105087
 10
-81.1419103907
 20
24.6040505803
 10
-81.0575801017
 20
24.6602849709
 10
-80.9726158405
 20
24.7119136803
  0
LWPOLYLINE
  5
21E
100
AcDbEntity
  8
SMUSSO
100
AcDbPolyline
 62
7
  6
CONTINUOUS
 90
27
 70
0
 10
-82.6002958574
 20
21.9739726533
 10
-82.5868188849
 20
22.0861797622
 10
-82.5686175096
 20
22.2002118484
 10
-82.5457411504
 20
22.315758637
 10
-82.5182565313
 20
22.4325057455
 10
-82.4862374591
 20
22.5501329688
 10
-82.4497685981
 20
22.6683226396
 10
-82.4089513244
 20
22.7867606209
 10
-82.3638937583
 20
22.9051267864
 10
-82.3147166989
 20
23.023097152
 10
-82.2615575301
 20
23.1403521798
 10
-82.2045592612
 20
23.2565725844
 10
-82.1438744909
 20
23.3714427915
 10
-82.0796708296
 20
23.4846531179
 10
-82.0121216584
 20
23.5958951766
 10
-81.9414081463
 20
23.7048672681
 10
-81.8677230801
 20
23.811277652
 10
-81.7912627988
 20
23.9148402215
 10
-81.7122352973
 20
24.0152699691
 10
-81.6308625842
 20
24.1122889558
 10
-81.5473650283
 20
24.2056342938
 10
-81.4619681512
 20
24.2950529202
 10
-81.3749112642
 20
24.3802982587
 10
-81.2864321262
 20
24.4611392542
 10
-81.1967685339
 20
24.5373596241
 10
-81.1061659886
 20
24.6087541534
 10
-81.0148707275
 20
24.6751312894
  0
LWPOLYLINE
  5
21F
100
AcDbEntity
  8
0
100
AcDbPolyline
 62
250
  6
CONTINUOUS
 90
46
 70
0
 10
-63.5404725039
 20
25.9718289436
 10
-63.5366351452
 20
25.887217582
 10
-63.5251079496
 20
25.8026973521
 10
-63.5059483854
 20
25.7187361407
 10
-63.479259754
 20
25.6356305505
 10
-63.44512774
 20
25.5535357157
 10
-63.4036079878
 20
25.472560902
 10
-63.3547793918
 20
25.3928847784
 10
-63.2987905764
 20
25.3147709801
 10
-63.2358065287
 20
25.2384541001
 10
-63.1660003561
 20
25.1641436125
 10
-63.0895623372
 20
25.0920418237
 10
-63.0067211486
 20
25.022361457
 10
-62.9177561655
 20
24.9553259117
 10
-62.8228723174
 20
24.8910788208
 10
-62.7221922502
 20
24.8297123353
 10
-62.61588347
 20
24.7713580996
 10
-62.5043000526
 20
24.7162385459
 10
-62.3878623973
 20
24.6645713708
 10
-62.2669324867
 20
24.6165147211
 10
-62.1418035033
 20
24.5721827213
 10
-62.0128287119
 20
24.5317003234
 10
-61.8803702116
 20
24.4951800304
 10
-61.7447858578
 20
24.4627193859
 10
-61.6064369199
 20
24.4344047714
 10
-61.4656951351
 20
24.4103131611
 10
-61.3229550473
 20
24.3905129705
 10
-61.1786217856
 20
24.3750602564
 10
-61.0331011404
 20
24.3639973087
 10
-60.8867844391
 20
24.3573527323
 10
-60.7400601895
 20
24.3551440558
 10
-60.5933215899
 20
24.3573781538
 10
-60.4469819005
 20
24.3640496892
 10
-60.3014594851
 20
24.3751393519
 10
-60.1571664332
 20
24.3906141757
 10
-60.0144862551
 20
24.4104314584
 10
-59.8737898203
 20
24.4345397055
 10
-59.7353973115
 20
24.4628884885
 10
-59.5997591109
 20
24.4953900527
 10
-59.4674210017
 20
24.531905204
 10
-59.3388411581
 20
24.572282992
 10
-59.2142440332
 20
24.6164277925
 10
-59.0938096031
 20
24.6642660295
 10
-58.9778194997
 20
24.7156887641
 10
-58.8666398256
 20
24.770536723
 10
-58.7605735166
 20
24.8286600837
  0
LINE
  5
220
100
AcDbEntity
  8
0
100
AcDbLine
 62
7
  6
CONTINUOUS
 10
-63.5404725039
 20
25.971828945
 11
-63.5404725039
 21
25.1269061484
  0
LINE
  5
221
100
AcDbEntity
  8
0
100
AcDbLine
 62
7
  6
CONTINUOUS
 10
-61.3650485495
 20
26.8337622295
 11
-61.3497503517
 21
27.2254294997
  0
LINE
  5
222
100
AcDbEntity
  8
0
100
AcDbLine
 62
7
  6
CONTINUOUS
 10
-61.3887826859
 20
26.8719379594
 11
-61.3738346811
 21
27.2246534985
  0
LINE
  5
223
100
AcDbEntity
  8
0
100
AcDbLine
 62
7
  6
CONTINUOUS
 10
-59.7320492228
 20
26.2769345963
 11
-59.7541292561
 21
26.0771614336
  0
LINE
  5
224
100
AcDbEntity
  8
0
100
AcDbLine
 62
7
  6
CONTINUOUS
 10
-59.736242958
 20
26.2938104968
 11
-59.7608261788
 21
26.0730692799
  0
LINE
  5
225
100
AcDbEntity
  8
0
100
AcDbLine
 62
7
  6
CONTINUOUS
 10
-60.0054725039
 20
26.0991642058
 11
-59.9276762228
 21
26.7055464618
  0
LINE
  5
226
100
AcDbEntity
  8
0
100
AcDbLine
 62
7
  6
CONTINUOUS
 10
-61.7447020201
 20
26.2938105698
 11
-61.7489614236
 21
26.2766692514
  0
LINE
  5
227
100
AcDbEntity
  8
0
100
AcDbLine
 62
7
  6
CONTINUOUS
 10
-60.0922773965
 20
26.8720222972
 11
-59.9616313515
 21
27.2444091087
  0
LINE
  5
228
100
AcDbEntity
  8
0
100
AcDbLine
 62
7
  6
CONTINUOUS
 10
-59.7319835865
 20
27.0080600143
 11
-59.7362429878
 21
26.9973893563
  0
LINE
  5
229
100
AcDbEntity
  8
0
100
AcDbLine
 62
7
  6
CONTINUOUS
 10
-61.7447020201
 20
26.2938105698
 11
-61.7092572563
 21
26.3787338335
  0
LINE
  5
22A
100
AcDbEntity
  8
0
100
AcDbLine
 62
7
  6
CONTINUOUS
 10
-61.7092572563
 20
26.3787338335
 11
-61.6970794109
 21
26.4071145688
  0
LWPOLYLINE
  5
22B
100
AcDbEntity
  8
0
100
AcDbPolyline
 62
7
  6
CONTINUOUS
 90
11
 70
0
 10
-61.6970794109
 20
26.4071145688
 10
-61.6720268813
 20
26.4636511422
 10
-61.6593445085
 20
26.4917088379
 10
-61.6463753115
 20
26.5195845441
 10
-61.6333929358
 20
26.547170474
 10
-61.6203110647
 20
26.5745244802
 10
-61.6069863176
 20
26.601602148
 10
-61.5936568688
 20
26.628208092
 10
-61.5803705333
 20
26.6543283306
 10
-61.5669370943
 20
26.6800890458
 10
-61.553268785
 20
26.7055464583
  0
LINE
  5
22C
100
AcDbEntity
  8
TRASH
100
AcDbLine
 62
7
  6
CONTINUOUS
 10
-60.1158964606
 20
26.8337622354
 11
-60.0921623242
 21
26.8719379652
  0
LINE
  5
22D
100
AcDbEntity
  8
0
100
AcDbLine
 62
7
  6
CONTINUOUS
 10
-59.887288139
 20
26.7692683874
 11
-59.9276762228
 21
26.7055464618
  0
LINE
  5
22E
100
AcDbEntity
  8
0
100
AcDbLine
 62
7
  6
CONTINUOUS
 10
-59.847552072
 20
26.8312243364
 11
-59.887288139
 21
26.7692683874
  0
LWPOLYLINE
  5
22F
100
AcDbEntity
  8
0
100
AcDbPolyline
 62
7
  6
CONTINUOUS
 90
3
 70
0
 10
-59.8089181266
 20
26.8903591334
 10
-59.8345696964
 20
26.8512713681
 10
-59.847552072
 20
26.8312243364
  0
LWPOLYLINE
  5
230
100
AcDbEntity
  8
0
100
AcDbPolyline
 62
7
  6
CONTINUOUS
 90
3
 70
0
 10
-59.7598584573
 20
26.9636469002
 10
-59.7963784332
 20
26.909323444
 10
-59.8089181266
 20
26.8903591334
  0
LWPOLYLINE
  5
231
100
AcDbEntity
  8
0
100
AcDbPolyline
 62
7
  6
CONTINUOUS
 90
3
 70
0
 10
-59.7362429878
 20
26.9973893563
 10
-59.7480911278
 20
26.9808029761
 10
-59.7598584573
 20
26.9636469002
  0
LINE
  5
232
100
AcDbEntity
  8
0
100
AcDbLine
 62
7
  6
CONTINUOUS
 10
-61.8418987842
 20
26.1587830289
 11
-61.811151238
 21
26.1984741576
  0
LINE
  5
233
100
AcDbEntity
  8
0
100
AcDbLine
 62
7
  6
CONTINUOUS
 10
-61.811151238
 20
26.1984741576
 11
-61.7801721466
 21
26.2377695736
  0
LINE
  5
234
100
AcDbEntity
  8
0
100
AcDbLine
 62
7
  6
CONTINUOUS
 10
-61.7801721466
 20
26.2377695736
 11
-61.7489614236
 21
26.2766692514
  0
LINE
  5
235
100
AcDbEntity
  8
SMUSSO
100
AcDbLine
 62
7
  6
CONTINUOUS
 10
-81.0148707275
 20
24.6751312894
 11
-80.9231290027
 21
24.7363134139
  0
LINE
  5
236
100
AcDbEntity
  8
SMUSSO
100
AcDbLine
 62
7
  6
CONTINUOUS
 10
-80.9231290027
 20
24.7363134139
 11
-80.8311890995
 21
24.7921370438
  0
LINE
  5
237
100
AcDbEntity
  8
SMUSSO
100
AcDbLine
 62
7
  6
CONTINUOUS
 10
-80.9726158405
 20
24.7119136803
 11
-67.2458602755
 21
32.6375703069
  0
LINE
  5
238
100
AcDbEntity
  8
SMUSSO
100
AcDbLine
 62
7
  6
CONTINUOUS
 10
-80.8311890995
 20
24.7921370438
 11
-66.9642302823
 21
32.798745271
  0
LINE
  5
239
100
AcDbEntity
  8
SMUSSO
100
AcDbLine
 62
7
  6
CONTINUOUS
 10
-17.2944522408
 20
61.4773742669
 11
-31.1769333055
 21
53.4618820253
  0
LINE
  5
23A
100
AcDbEntity
  8
SMUSSO
100
AcDbLine
 62
250
  6
CONTINUOUS
 10
-80.9726158405
 20
24.7119136803
 11
-80.8311890995
 21
24.7921370438
  0
LINE
  5
23B
100
AcDbEntity
  8
SMUSSO
100
AcDbLine
 62
7
  6
CONTINUOUS
 10
15.8391972833
 20
-61.7103191162
 11
15.5563438014
 21
-61.7103191162
  0
LWPOLYLINE
  5
23C
100
AcDbEntity
  8
0
100
AcDbPolyline
 62
7
  6
CONTINUOUS
 90
43
 70
0
 10
-57.9404725039
 20
25.9718289377
 10
-57.9445115797
 20
26.0646178281
 10
-57.9567289275
 20
26.1577400191
 10
-57.9772493474
 20
26.2508426135
 10
-58.0061806517
 20
26.3436223969
 10
-58.043570703
 20
26.4356817031
 10
-58.0893780702
 20
26.5265610834
 10
-58.1435953766
 20
26.6159848538
 10
-58.2061731591
 20
26.7036451784
 10
-58.276910874
 20
26.7891032528
 10
-58.3557813593
 20
26.8721956423
 10
-58.4425979438
 20
26.9525979349
 10
-58.5367460182
 20
27.0297031556
 10
-58.6379212407
 20
27.1032920699
 10
-58.7458994285
 20
27.1732197715
 10
-58.8599689041
 20
27.2390716551
 10
-58.9796410119
 20
27.3006536944
 10
-59.1046515245
 20
27.3579057659
 10
-59.2344969779
 20
27.4106614015
 10
-59.3687155888
 20
27.458800343
 10
-59.5069332059
 20
27.5022478417
 10
-59.6487265728
 20
27.5409198411
 10
-59.7936384401
 20
27.5747356833
 10
-59.9412447764
 20
27.6036354093
 10
-60.0911488527
 20
27.6275719149
 10
-60.2428975866
 20
27.6464968322
 10
-60.396036831
 20
27.6603740046
 10
-60.5501571541
 20
27.669181062
 10
-60.7048032058
 20
27.6729010902
 10
-60.8595109413
 20
27.6715291677
 10
-61.013855087
 20
27.6650709891
 10
-61.1673695806
 20
27.6535438399
 10
-61.3196061256
 20
27.636976292
 10
-61.4701715334
 20
27.6153996067
 10
-61.6186298546
 20
27.5888576551
 10
-61.7645224717
 20
27.557410251
 10
-61.9074368877
 20
27.5211194729
 10
-62.0469529625
 20
27.4800584882
 10
-62.1826344315
 20
27.4343170716
 10
-62.3140723239
 20
27.3839890296
 10
-62.44086989
 20
27.3291744457
 10
-62.5626279812
 20
27.2699858204
 10
-62.6789549671
 20
27.2065451785
  0
LWPOLYLINE
  5
23D
100
AcDbEntity
  8
0
100
AcDbPolyline
 62
7
  6
CONTINUOUS
 90
3
 70
0
 10
-60.10748207
 20
27.2246663036
 10
-60.1050762633
 20
27.1658497325
 10
-60.0921623242
 20
26.8719379652
  0
LINE
  5
23E
100
AcDbEntity
  8
0
100
AcDbLine
 62
7
  6
CONTINUOUS
 10
-60.1311945561
 20
27.2254295017
 11
-60.1158964606
 21
26.8337622354
  0
LINE
  5
23F
100
AcDbEntity
  8
0
100
AcDbLine
 62
7
  6
CONTINUOUS
 10
-60.7404725039
 20
26.523543994
 11
-60.7404725676
 21
27.1748448051
  0
LINE
  5
240
100
AcDbEntity
  8
0
100
AcDbLine
 62
7
  6
CONTINUOUS
 10
-57.9404725039
 20
25.971828945
 11
-57.9404725039
 21
25.1269061484
  0
LWPOLYLINE
  5
241
100
AcDbEntity
  8
0
100
AcDbPolyline
 62
7
  6
CONTINUOUS
 90
16
 70
0
 10
-57.9404725039
 20
25.1269061484
 10
-57.9442357126
 20
25.0373391376
 10
-57.9556079261
 20
24.9474978855
 10
-57.9746908625
 20
24.8576987687
 10
-58.0015430886
 20
24.7682949572
 10
-58.0362136223
 20
24.6795580458
 10
-58.0787859297
 20
24.5916623083
 10
-58.1293950069
 20
24.504731232
 10
-58.1879858113
 20
24.4192049967
 10
-58.2542856826
 20
24.3356736835
 10
-58.3282322663
 20
24.2543310067
 10
-58.4096972294
 20
24.1754305158
 10
-58.4980989847
 20
24.0995668493
 10
-58.5930369603
 20
24.0270301459
 10
-58.6944157117
 20
23.9578520283
 10
-58.8019900408
 20
23.8921899149
  0
LWPOLYLINE
  5
242
100
AcDbEntity
  8
TRASH
100
AcDbPolyline
 62
7
  6
CONTINUOUS
 90
9
 70
0
 10
-61.5803475508
 20
25.9991465374
 10
-61.567561198
 20
26.0094715886
 10
-61.5533518575
 20
26.0214177484
 10
-61.5395579587
 20
26.0335649117
 10
-61.5262515102
 20
26.0459975872
 10
-61.5132064617
 20
26.0587160787
 10
-61.5003504223
 20
26.0717570248
 10
-61.4877743049
 20
26.0852146965
 10
-61.4754725035
 20
26.0991642056
  0
LWPOLYLINE
  5
243
100
AcDbEntity
  8
TRASH
100
AcDbPolyline
 62
7
  6
CONTINUOUS
 90
7
 70
0
 10
-61.5717079788
 20
26.7346227169
 10
-61.5705275398
 20
26.7353713119
 10
-61.5327744784
 20
26.7571844834
 10
-61.4932693447
 20
26.7779757697
 10
-61.4520830286
 20
26.7977008535
 10
-61.4093112427
 20
26.8163098384
 10
-61.3650435158
 20
26.8337592095
  0
LINE
  5
244
100
AcDbEntity
  8
0
100
AcDbLine
 62
7
  6
CONTINUOUS
 10
-61.4951644515
 20
25.9873665267
 11
-61.5193136563
 21
25.9725235418
  0
LWPOLYLINE
  5
245
100
AcDbEntity
  8
0
100
AcDbPolyline
 62
7
  6
CONTINUOUS
 90
16
 70
0
 10
-62.6789549671
 20
27.2065451785
 10
-62.7865934729
 20
27.1408416505
 10
-62.8879989918
 20
27.0716392969
 10
-62.9829316273
 20
26.9990989607
 10
-63.0712944772
 20
26.9232620328
 10
-63.1527019864
 20
26.8444151786
 10
-63.2265977463
 20
26.7631338155
 10
-63.292855165
 20
26.6796709318
 10
-63.3514128096
 20
26.5942206006
 10
-63.4020108902
 20
26.5073509543
 10
-63.4445897867
 20
26.4195009533
 10
-63.4792803545
 20
26.3307922049
 10
-63.5061677332
 20
26.24137353
 10
-63.5252913995
 20
26.1515068751
 10
-63.5366960793
 20
26.0615529755
 10
-63.5404725039
 20
25.9718289382
  0
LWPOLYLINE
  5
246
100
AcDbEntity
  8
0
100
AcDbPolyline
 62
7
  6
CONTINUOUS
 90
16
 70
0
 10
-19.5454413147
 20
52.1112953715
 10
-19.6530798205
 20
52.0455918435
 10
-19.7544853394
 20
51.9763894899
 10
-19.8494179749
 20
51.9038491537
 10
-19.9377808248
 20
51.8280122258
 10
-20.019188334
 20
51.7491653715
 10
-20.0930840939
 20
51.6678840085
 10
-20.1593415126
 20
51.5844211247
 10
-20.2178991572
 20
51.4989707936
 10
-20.2684972378
 20
51.4121011473
 10
-20.3110761344
 20
51.3242511463
 10
-20.3457667021
 20
51.2355423979
 10
-20.3726540808
 20
51.146123723
 10
-20.3917777471
 20
51.0562570681
 10
-20.4031824269
 20
50.9663031684
 10
-20.4069588515
 20
50.8765791311
  0
LWPOLYLINE
  5
247
100
AcDbEntity
  8
0
100
AcDbPolyline
 62
250
  6
CONTINUOUS
 90
33
 70
0
 10
-62.6555533696
 20
27.2148365364
 10
-62.7529217084
 20
27.1556015967
 10
-62.8448050093
 20
27.0935097515
 10
-62.9309519185
 20
27.0287300219
 10
-63.0110953107
 20
26.9614665988
 10
-63.0850521466
 20
26.8918767779
 10
-63.1526985654
 20
26.8200613846
 10
-63.2138740137
 20
26.7461459383
 10
-63.2683254155
 20
26.6703860674
 10
-63.3158192617
 20
26.5930863077
 10
-63.3562086868
 20
26.5144968107
 10
-63.3894079483
 20
26.4347977733
 10
-63.4153293198
 20
26.3542003623
 10
-63.4339015488
 20
26.2729212211
 10
-63.4450709138
 20
26.1911883458
 10
-63.4488057571
 20
26.1092325619
 10
-63.445094047
 20
26.0272515266
 10
-63.4339442355
 20
25.945498327
 10
-63.4154119236
 20
25.8642858451
 10
-63.3895970312
 20
25.783900973
 10
-63.3565824375
 20
25.7044937664
 10
-63.3164219667
 20
25.626169913
 10
-63.2691919313
 20
25.5491022317
 10
-63.2150360891
 20
25.4735457274
 10
-63.1541140246
 20
25.3997273136
 10
-63.086593178
 20
25.3278496069
 10
-63.0126575985
 20
25.2581082903
 10
-62.9325284758
 20
25.1907091238
 10
-62.8464760386
 20
25.1258681933
 10
-62.7546985077
 20
25.0637244295
 10
-62.6573145152
 20
25.004366965
 10
-62.5544860838
 20
24.9479231341
 10
-62.4465556968
 20
24.8946080873
  0
LWPOLYLINE
  5
248
100
AcDbEntity
  8
0
100
AcDbPolyline
 62
250
  6
CONTINUOUS
 90
33
 70
0
 10
-19.5220397172
 20
52.1195867294
 10
-19.619408056
 20
52.0603517897
 10
-19.7112913569
 20
51.9982599445
 10
-19.7974382662
 20
51.9334802149
 10
-19.8775816584
 20
51.8662167917
 10
-19.9515384943
 20
51.7966269708
 10
-20.019184913
 20
51.7248115776
 10
-20.0803603613
 20
51.6508961313
 10
-20.1348117632
 20
51.5751362604
 10
-20.1823056093
 20
51.4978365007
 10
-20.2226950344
 20
51.4192470037
 10
-20.2558942959
 20
51.3395479663
 10
-20.2818156674
 20
51.2589505553
 10
-20.3003878964
 20
51.1776714141
 10
-20.3115572614
 20
51.0959385388
 10
-20.3152921047
 20
51.0139827549
 10
-20.3115803946
 20
50.9320017196
 10
-20.3004305831
 20
50.85024852
 10
-20.2818982712
 20
50.7690360381
 10
-20.2560833789
 20
50.688651166
 10
-20.2230687851
 20
50.6092439593
 10
-20.1829083144
 20
50.530920106
 10
-20.135678279
 20
50.4538524247
 10
-20.0815224367
 20
50.3782959204
 10
-20.0206003722
 20
50.3044775066
 10
-19.9530795256
 20
50.2325997999
 10
-19.8791439462
 20
50.1628584833
 10
-19.7990148235
 20
50.0954593168
 10
-19.7129623862
 20
50.0306183863
 10
-19.6211848554
 20
49.9684746224
 10
-19.5238008628
 20
49.909117158
 10
-19.4209724314
 20
49.8526733271
 10
-19.3130420444
 20
49.7993582803
  0
LWPOLYLINE
  5
249
100
AcDbEntity
  8
0
100
AcDbPolyline
 62
7
  6
CONTINUOUS
 90
10
 70
0
 10
-61.6943348862
 20
27.1592145101
 10
-61.7121710889
 20
27.1487198361
 10
-61.7296610004
 20
27.138032628
 10
-61.7467983876
 20
27.1271566946
 10
-61.7635771432
 20
27.1160959117
 10
-61.7799912875
 20
27.1048542212
 10
-61.7960349711
 20
27.0934356293
 10
-61.8117024762
 20
27.0818442054
 10
-61.8269882193
 20
27.0700840805
 10
-61.841886753
 20
27.0581594455
  0
LWPOLYLINE
  5
24A
100
AcDbEntity
  8
0
100
AcDbPolyline
 62
7
  6
CONTINUOUS
 90
10
 70
0
 10
-18.5608212339
 20
52.0639647031
 10
-18.5786574366
 20
52.0534700291
 10
-18.596147348
 20
52.042782821
 10
-18.6132847352
 20
52.0319068875
 10
-18.6300634908
 20
52.0208461047
 10
-18.6464776352
 20
52.0096044142
 10
-18.6625213187
 20
51.9981858223
 10
-18.6781888238
 20
51.9865943984
 10
-18.693474567
 20
51.9748342735
 10
-18.7083731006
 20
51.9629096384
  0
LWPOLYLINE
  5
24B
100
AcDbEntity
  8
0
100
AcDbPolyline
 62
7
  6
CONTINUOUS
 90
10
 70
0
 10
-18.385782989
 20
52.1491662486
 10
-18.4064378272
 20
52.1405634138
 10
-18.4268076976
 20
52.1317369663
 10
-18.4468853393
 20
52.122690052
 10
-18.4666635959
 20
52.1134258958
 10
-18.4861354176
 20
52.1039477997
 10
-18.5052938638
 20
52.0942591422
 10
-18.5241321057
 20
52.0843633766
 10
-18.5426434284
 20
52.0742640303
 10
-18.5608212339
 20
52.0639647031
  0
LWPOLYLINE
  5
24C
100
AcDbEntity
  8
TRASH
100
AcDbPolyline
 62
7
  6
CONTINUOUS
 90
16
 70
0
 10
-17.606952242
 20
51.4282922193
 10
-17.5729440413
 20
51.4410694841
 10
-17.5384309117
 20
51.4547941321
 10
-17.5032824287
 20
51.4694697065
 10
-17.4674054428
 20
51.4850068104
 10
-17.4306659215
 20
51.5014849393
 10
-17.3928516279
 20
51.519145819
 10
-17.3538267177
 20
51.5379341545
 10
-17.313489697
 20
51.5578522512
 10
-17.2716266177
 20
51.5792096913
 10
-17.2280571672
 20
51.6019906643
 10
-17.1827258513
 20
51.6261278864
 10
-17.1355754633
 20
51.6518521518
 10
-17.0865242577
 20
51.6792217887
 10
-17.035482147
 20
51.7081164673
 10
-16.9823878397
 20
51.7385094025
  0
LWPOLYLINE
  5
24D
100
AcDbEntity
  8
0
100
AcDbPolyline
 62
250
  6
CONTINUOUS
 90
45
 70
0
 10
-63.5366352322
 20
25.0422957388
 10
-63.5251338716
 20
24.9579168928
 10
-63.5059999429
 20
24.8740012208
 10
-63.4792858772
 20
24.7907787034
 10
-63.4450648971
 20
24.7084774758
 10
-63.4034308324
 20
24.6273231846
 10
-63.3544978506
 20
24.5475383222
 10
-63.2984000596
 20
24.4693415119
 10
-63.2352911425
 20
24.3929469795
 10
-63.1653440101
 20
24.3185640701
 10
-63.0887504093
 20
24.2463967205
 10
-63.0057203272
 20
24.176642792
 10
-62.9164813663
 20
24.1094934915
 10
-62.8212781056
 20
24.0451328537
 10
-62.7203714908
 20
23.9837372869
 10
-62.6140381007
 20
23.9254750723
 10
-62.5025693881
 20
23.8705059029
 10
-62.386270881
 20
23.8189804453
 10
-62.2654613159
 20
23.7710399164
 10
-62.140471852
 20
23.726815731
 10
-62.0116451733
 20
23.6864291333
 10
-61.8793344862
 20
23.6499908355
 10
-61.7439023632
 20
23.6176006742
 10
-61.6057198307
 20
23.5893473838
 10
-61.4651655302
 20
23.5653083966
 10
-61.3226248053
 20
23.5455496316
 10
-61.1784884631
 20
23.5301252649
 10
-61.0331516204
 20
23.5190775745
 10
-60.8870125889
 20
23.5124368332
 10
-60.7404718975
 20
23.5102212406
 10
-60.5939311973
 20
23.5124368702
 10
-60.4477921532
 20
23.5190776494
 10
-60.3024553141
 20
23.5301253775
 10
-60.1583190158
 20
23.5455497773
 10
-60.0157783498
 20
23.5653085711
 10
-59.8752240697
 20
23.5893475915
 10
-59.7370414565
 20
23.6176009375
 10
-59.6016092215
 20
23.6499911698
 10
-59.4692985302
 20
23.686429517
 10
-59.3404720209
 20
23.7268161094
 10
-59.2154828137
 20
23.7710402457
 10
-59.0946735002
 20
23.8189807082
 10
-58.9783752108
 20
23.870506094
 10
-58.8669067076
 20
23.925475176
 10
-58.7605735166
 20
23.9837372871
  0
LINE
  5
24E
100
AcDbEntity
  8
0
100
AcDbLine
 62
7
  6
CONTINUOUS
 10
-61.553268785
 20
26.7055464583
 11
-61.4754725039
 21
26.0991642058
  0
LINE
  5
24F
100
AcDbEntity
  8
0
100
AcDbLine
 62
7
  6
CONTINUOUS
 10
-61.7201298938
 20
26.0731688365
 11
-61.7447020201
 21
26.2938105698
  0
LINE
  5
250
100
AcDbEntity
  8
0
100
AcDbLine
 62
7
  6
CONTINUOUS
 10
-61.726932108
 20
26.0774047975
 11
-61.7489614236
 21
26.2766692514
  0
LWPOLYLINE
  5
251
100
AcDbEntity
  8
TRASH
100
AcDbPolyline
 62
7
  6
CONTINUOUS
 90
9
 70
0
 10
-18.4468338984
 20
50.9038967304
 10
-18.4340475456
 20
50.9142217816
 10
-18.4198382052
 20
50.9261679414
 10
-18.4060443063
 20
50.9383151047
 10
-18.3927378578
 20
50.9507477802
 10
-18.3796928093
 20
50.9634662717
 10
-18.3668367699
 20
50.9765072178
 10
-18.3542606525
 20
50.9899648894
 10
-18.3419588511
 20
51.0039143986
  0
LWPOLYLINE
  5
252
100
AcDbEntity
  8
TRASH
100
AcDbPolyline
 62
7
  6
CONTINUOUS
 90
7
 70
0
 10
-18.4381943264
 20
51.6393729098
 10
-18.4370138875
 20
51.6401215049
 10
-18.3992608261
 20
51.6619346764
 10
-18.3597556923
 20
51.6827259627
 10
-18.3185693763
 20
51.7024510465
 10
-18.2757975903
 20
51.7210600314
 10
-18.2315298634
 20
51.7385094025
  0
LINE
  5
253
100
AcDbEntity
  8
0
100
AcDbLine
 62
7
  6
CONTINUOUS
 10
-18.337437895
 20
50.9068652328
 11
-18.3858000039
 21
50.8772737348
  0
LWPOLYLINE
  5
254
100
AcDbEntity
  8
0
100
AcDbPolyline
 62
250
  6
CONTINUOUS
 90
15
 70
0
 10
-58.7605735166
 20
23.9837372871
 10
-58.6596670806
 20
24.0451327393
 10
-58.5644639713
 20
24.1094932564
 10
-58.4752251344
 20
24.1766424314
 10
-58.392195167
 20
24.2463962151
 10
-58.3156016508
 20
24.318563417
 10
-58.2456545276
 20
24.3929462289
 10
-58.182545525
 20
24.4693407638
 10
-58.1264476117
 20
24.5475376388
 10
-58.0775145338
 20
24.6273225477
 10
-58.0358804115
 20
24.7084768277
 10
-58.0016593815
 20
24.7907780221
 10
-57.9749452587
 20
24.8740005144
 10
-57.9558112653
 20
24.9579161834
 10
-57.9443098395
 20
25.0422950354
  0
LWPOLYLINE
  5
255
100
AcDbEntity
  8
0
100
AcDbPolyline
 62
250
  6
CONTINUOUS
 90
15
 70
0
 10
-15.6270598642
 20
48.8884874801
 10
-15.5261534283
 20
48.9498829323
 10
-15.4309503189
 20
49.0142434494
 10
-15.341711482
 20
49.0813926244
 10
-15.2586815146
 20
49.1511464081
 10
-15.1820879984
 20
49.22331361
 10
-15.1121408753
 20
49.2976964219
 10
-15.0490318727
 20
49.3740909568
 10
-14.9929339593
 20
49.4522878318
 10
-14.9440008814
 20
49.5320727407
 10
-14.9023667591
 20
49.6132270207
 10
-14.8681457291
 20
49.6955282151
 10
-14.8414316063
 20
49.7787507074
 10
-14.822297613
 20
49.8626663764
 10
-14.8107961871
 20
49.9470452284
  0
LWPOLYLINE
  5
256
100
AcDbEntity
  8
0
100
AcDbPolyline
 62
250
  6
CONTINUOUS
 90
39
 70
0
 10
-58.8253916382
 20
25.0033491558
 10
-58.7280232995
 20
25.062583734
 10
-58.6361399986
 20
25.1246753947
 10
-58.5499930893
 20
25.1894551169
 10
-58.4698496971
 20
25.2567188249
 10
-58.3958928612
 20
25.3263091077
 10
-58.3282464425
 20
25.3981247947
 10
-58.2670709941
 20
25.4720401736
 10
-58.2126195923
 20
25.5477998091
 10
-58.1651257461
 20
25.6250993993
 10
-58.124736321
 20
25.7036888994
 10
-58.0915370596
 20
25.7833880058
 10
-58.0656156881
 20
25.8639854654
 10
-58.047043459
 20
25.9452645978
 10
-58.0358740941
 20
26.0269974439
 10
-58.0321392507
 20
26.1089532032
 10
-58.0358509609
 20
26.1909342282
 10
-58.0470007724
 20
26.2726874221
 10
-58.0655330843
 20
26.3538998995
 10
-58.0913479766
 20
26.4342847676
 10
-58.1243625703
 20
26.5136919714
 10
-58.1645230411
 20
26.5920158212
 10
-58.2117530765
 20
26.6690834972
 10
-58.2659089187
 20
26.7446399954
 10
-58.3268309832
 20
26.8184584036
 10
-58.3943518299
 20
26.8903361052
 10
-58.4682874093
 20
26.960077417
 10
-58.548416532
 20
27.0274765799
 10
-58.6344689693
 20
27.0923175085
 10
-58.7262465001
 20
27.1544612716
 10
-58.8236304927
 20
27.2138187349
 10
-58.9264589241
 20
27.2702625635
 10
-59.0343893111
 20
27.3235776075
 10
-59.1470150181
 20
27.3735532974
 10
-59.2639859133
 20
27.4200366639
 10
-59.3850184122
 20
27.4629173184
 10
-59.5097708147
 20
27.5020743998
 10
-59.6378928762
 20
27.5373990879
 10
-59.7690384568
 20
27.5687970328
  0
LWPOLYLINE
  5
257
100
AcDbEntity
  8
0
100
AcDbPolyline
 62
250
  6
CONTINUOUS
 90
16
 70
0
 10
-58.7605735166
 20
24.8286600837
 10
-58.659909898
 20
24.889899829
 10
-58.5649168537
 20
24.9540931971
 10
-58.4758542258
 20
25.0210654577
 10
-58.3929980695
 20
25.090605552
 10
-58.3165376935
 20
25.1625508489
 10
-58.2466014418
 20
25.2367970152
 10
-58.1833554895
 20
25.3132142038
 10
-58.1270613247
 20
25.3915381774
 10
-58.0779601498
 20
25.4714541731
 10
-58.0362036948
 20
25.5527036241
 10
-58.0018806995
 20
25.6351002
 10
-57.9750819413
 20
25.71842555
 10
-57.9558811215
 20
25.8024556768
 10
-57.9443337446
 20
25.886954883
 10
-57.9404725039
 20
25.9718289431
  0
LWPOLYLINE
  5
258
100
AcDbEntity
  8
0
100
AcDbPolyline
 62
250
  6
CONTINUOUS
 90
39
 70
0
 10
-15.6918779858
 20
49.9080993488
 10
-15.5945096471
 20
49.967333927
 10
-15.5026263462
 20
50.0294255877
 10
-15.4164794369
 20
50.0942053099
 10
-15.3363360447
 20
50.1614690179
 10
-15.2623792088
 20
50.2310593006
 10
-15.1947327901
 20
50.3028749877
 10
-15.1335573418
 20
50.3767903666
 10
-15.0791059399
 20
50.4525500021
 10
-15.0316120938
 20
50.5298495923
 10
-14.9912226686
 20
50.6084390924
 10
-14.9580234072
 20
50.6881381988
 10
-14.9321020357
 20
50.7687356584
 10
-14.9135298067
 20
50.8500147908
 10
-14.9023604417
 20
50.9317476369
 10
-14.8986255983
 20
51.0137033962
 10
-14.9023373085
 20
51.0956844212
 10
-14.91348712
 20
51.1774376151
 10
-14.9320194319
 20
51.2586500925
 10
-14.9578343242
 20
51.3390349606
 10
-14.9908489179
 20
51.4184421644
 10
-15.0310093887
 20
51.4967660142
 10
-15.0782394241
 20
51.5738336901
 10
-15.1323952664
 20
51.6493901884
 10
-15.1933173308
 20
51.7232085966
 10
-15.2608381775
 20
51.7950862981
 10
-15.3347737569
 20
51.86482761
 10
-15.4149028796
 20
51.9322267728
 10
-15.5009553169
 20
51.9970677015
 10
-15.5927328477
 20
52.0592114646
 10
-15.6901168403
 20
52.1185689279
 10
-15.7929452717
 20
52.1750127565
 10
-15.9008756587
 20
52.2283278005
 10
-16.0135013657
 20
52.2783034904
 10
-16.130472261
 20
52.3247868569
 10
-16.2515047598
 20
52.3676675114
 10
-16.3762571623
 20
52.4068245928
 10
-16.5043792238
 20
52.4421492809
 10
-16.6355248044
 20
52.4735472258
  0
LWPOLYLINE
  5
259
100
AcDbEntity
  8
0
100
AcDbPolyline
 62
250
  6
CONTINUOUS
 90
16
 70
0
 10
-15.6270598642
 20
49.7334102767
 10
-15.5263962457
 20
49.794650022
 10
-15.4314032013
 20
49.8588433901
 10
-15.3423405734
 20
49.9258156507
 10
-15.2594844171
 20
49.995355745
 10
-15.1830240411
 20
50.0673010419
 10
-15.1130877894
 20
50.1415472082
 10
-15.0498418371
 20
50.2179643968
 10
-14.9935476724
 20
50.2962883704
 10
-14.9444464974
 20
50.3762043661
 10
-14.9026900424
 20
50.4574538171
 10
-14.8683670471
 20
50.539850393
 10
-14.8415682889
 20
50.6231757429
 10
-14.8223674691
 20
50.7072058698
 10
-14.8108200922
 20
50.791705076
 10
-14.8069588515
 20
50.8765791361
  0
LINE
  5
25A
100
AcDbEntity
  8
0
100
AcDbLine
 62
7
  6
CONTINUOUS
 10
-61.446674944
 20
26.0167690813
 11
-61.4951644515
 21
25.9873665267
  0
LINE
  5
25B
100
AcDbEntity
  8
0
100
AcDbLine
 62
7
  6
CONTINUOUS
 10
-18.2888209889
 20
50.9360788441
 11
-18.337437895
 21
50.9068652328
  0
LWPOLYLINE
  5
25C
100
AcDbEntity
  8
0
100
AcDbPolyline
 62
7
  6
CONTINUOUS
 90
10
 70
0
 10
-59.7866101216
 20
26.0577181404
 10
-59.7687739189
 20
26.0682128144
 10
-59.7512840074
 20
26.0789000225
 10
-59.7341466202
 20
26.0897759559
 10
-59.7173678647
 20
26.1008367388
 10
-59.7009537203
 20
26.1120784293
 10
-59.6849100368
 20
26.1234970212
 10
-59.6692425316
 20
26.135088445
 10
-59.6539567885
 20
26.14684857
 10
-59.6390582548
 20
26.158773205
  0
LWPOLYLINE
  5
25D
100
AcDbEntity
  8
0
100
AcDbPolyline
 62
7
  6
CONTINUOUS
 90
10
 70
0
 10
-16.6530964692
 20
50.9624683334
 10
-16.6352602665
 20
50.9729630074
 10
-16.6177703551
 20
50.9836502155
 10
-16.6006329679
 20
50.9945261489
 10
-16.5838542123
 20
51.0055869318
 10
-16.5674400679
 20
51.0168286223
 10
-16.5513963844
 20
51.0282472142
 10
-16.5357288793
 20
51.039838638
 10
-16.5204431361
 20
51.051598763
 10
-16.5055446024
 20
51.063523398
  0
LWPOLYLINE
  5
25E
100
AcDbEntity
  8
0
100
AcDbPolyline
 62
7
  6
CONTINUOUS
 90
3
 70
0
 10
-61.3734629379
 20
26.0601643756
 10
-61.3979306392
 20
26.0457937492
 10
-61.446674944
 20
26.0167690813
  0
LINE
  5
25F
100
AcDbEntity
  8
0
100
AcDbLine
 62
7
  6
CONTINUOUS
 10
-18.2399492855
 20
50.9649145686
 11
-18.2888209889
 21
50.9360788441
  0
LWPOLYLINE
  5
260
100
AcDbEntity
  8
0
100
AcDbPolyline
 62
7
  6
CONTINUOUS
 90
43
 70
0
 10
-15.6684763884
 20
48.7969401079
 10
-15.7852460113
 20
48.7332715728
 10
-15.9075491227
 20
48.6738581349
 10
-16.0349976031
 20
48.618829731
 10
-16.1672280524
 20
48.5682950152
 10
-16.3038129797
 20
48.5223768988
 10
-16.4442352146
 20
48.4812071123
 10
-16.5880233441
 20
48.4448791154
 10
-16.7347711446
 20
48.4134561681
 10
-16.8840200908
 20
48.387003396
 10
-17.0352816655
 20
48.3655761547
 10
-17.1881305442
 20
48.3492072637
 10
-17.3421883834
 20
48.3379192021
 10
-17.4970092925
 20
48.3317346613
 10
-17.6521145745
 20
48.3306657204
 10
-17.8070731875
 20
48.3347119884
 10
-17.9614195522
 20
48.3438622335
 10
-18.1146958725
 20
48.3580931061
 10
-18.266487237
 20
48.3773751689
 10
-18.4163411908
 20
48.4016655071
 10
-18.5638061166
 20
48.4309088988
 10
-18.7084816052
 20
48.4650499786
 10
-18.8499496968
 20
48.5040220947
 10
-18.9877581633
 20
48.5477375109
 10
-19.121481338
 20
48.5961020129
 10
-19.2507534339
 20
48.6490334974
 10
-19.3751246127
 20
48.7064054635
 10
-19.4940973956
 20
48.7680418952
 10
-19.6074143698
 20
48.833872797
 10
-19.7146094005
 20
48.9037021082
 10
-19.8149993866
 20
48.9771189873
 10
-19.9083650953
 20
49.0539684438
 10
-19.994426506
 20
49.1340359699
 10
-20.0726147505
 20
49.2167466743
 10
-20.1427415208
 20
49.3017698947
 10
-20.2047927791
 20
49.3889536374
 10
-20.2586090437
 20
49.4779274929
 10
-20.3041283319
 20
49.5683928754
 10
-20.3413286051
 20
49.6600802468
 10
-20.370171215
 20
49.7526020569
 10
-20.3906752477
 20
49.8455904369
 10
-20.4029073957
 20
49.9387254317
 10
-20.4069588515
 20
50.0316563414
  0
LWPOLYLINE
  5
261
100
AcDbEntity
  8
0
100
AcDbPolyline
 62
7
  6
CONTINUOUS
 90
43
 70
0
 10
-58.8019900408
 20
23.8921899149
 10
-58.9187596637
 20
23.8285213798
 10
-59.0410627751
 20
23.7691079419
 10
-59.1685112555
 20
23.714079538
 10
-59.3007417048
 20
23.6635448222
 10
-59.4373266321
 20
23.6176267058
 10
-59.5777488669
 20
23.5764569193
 10
-59.7215369965
 20
23.5401289225
 10
-59.868284797
 20
23.5087059751
 10
-60.0175337432
 20
23.482253203
 10
-60.1687953179
 20
23.4608259617
 10
-60.3216441966
 20
23.4444570707
 10
-60.4757020358
 20
23.4331690091
 10
-60.6305229449
 20
23.4269844683
 10
-60.7856282268
 20
23.4259155274
 10
-60.9405868399
 20
23.4299617955
 10
-61.0949332046
 20
23.4391120405
 10
-61.2482095249
 20
23.4533429131
 10
-61.4000008894
 20
23.4726249759
 10
-61.5498548431
 20
23.4969153141
 10
-61.697319769
 20
23.5261587058
 10
-61.8419952575
 20
23.5602997856
 10
-61.9834633492
 20
23.5992719017
 10
-62.1212718156
 20
23.6429873179
 10
-62.2549949904
 20
23.6913518199
 10
-62.3842670862
 20
23.7442833044
 10
-62.5086382651
 20
23.8016552706
 10
-62.627611048
 20
23.8632917022
 10
-62.7409280221
 20
23.929122604
 10
-62.8481230529
 20
23.9989519152
 10
-62.9485130389
 20
24.0723687944
 10
-63.0418787477
 20
24.1492182508
 10
-63.1279401584
 20
24.2292857769
 10
-63.2061284029
 20
24.3119964813
 10
-63.2762551732
 20
24.3970197017
 10
-63.3383064315
 20
24.4842034444
 10
-63.3921226961
 20
24.5731772999
 10
-63.4376419843
 20
24.6636426824
 10
-63.4748422575
 20
24.7553300538
 10
-63.5036848674
 20
24.8478518639
 10
-63.5241889001
 20
24.9408402439
 10
-63.5364210481
 20
25.0339752387
 10
-63.5404725039
 20
25.1269061484
  0
LWPOLYLINE
  5
262
100
AcDbEntity
  8
0
100
AcDbPolyline
 62
7
  6
CONTINUOUS
 90
7
 70
0
 10
-16.5055325682
 20
51.962899812
 10
-16.5208774044
 20
51.9549587904
 10
-16.5362801161
 20
51.9468548634
 10
-16.5517407142
 20
51.9385880363
 10
-16.5672592093
 20
51.9301583144
 10
-16.5828356123
 20
51.9215657029
 10
-16.5984699341
 20
51.9128102073
  0
LWPOLYLINE
  5
263
100
AcDbEntity
  8
0
100
AcDbPolyline
 62
7
  6
CONTINUOUS
 90
7
 70
0
 10
-59.6390462206
 20
27.058149619
 10
-59.6543910567
 20
27.0502085974
 10
-59.6697937685
 20
27.0421046704
 10
-59.6852543665
 20
27.0338378433
 10
-59.7007728617
 20
27.0254081214
 10
-59.7163492647
 20
27.0168155099
 10
-59.7319835865
 20
27.0080600143
  0
LWPOLYLINE
  5
264
100
AcDbEntity
  8
0
100
AcDbPolyline
 62
250
  6
CONTINUOUS
 90
4
 70
0
 10
-16.0142043219
 20
49.7490868666
 10
-15.9020115059
 20
49.7988261398
 10
-15.7944717166
 20
49.8518786089
 10
-15.6918779858
 20
49.9080993488
  0
LWPOLYLINE
  5
265
100
AcDbEntity
  8
0
100
AcDbPolyline
 62
7
  6
CONTINUOUS
 90
10
 70
0
 10
-16.8281347171
 20
50.8772667867
 10
-16.8074798785
 20
50.8858696215
 10
-16.7871100078
 20
50.8946960692
 10
-16.7670323657
 20
50.9037429836
 10
-16.7472541088
 20
50.9130071399
 10
-16.7277822867
 20
50.9224852361
 10
-16.7086238402
 20
50.9321738938
 10
-16.689785598
 20
50.9420696595
 10
-16.671274275
 20
50.952169006
 10
-16.6530964692
 20
50.9624683334
  0
LWPOLYLINE
  5
266
100
AcDbEntity
  8
0
100
AcDbPolyline
 62
7
  6
CONTINUOUS
 90
10
 70
0
 10
-61.5192966414
 20
27.2444160556
 10
-61.5399514796
 20
27.2358132208
 10
-61.5603213499
 20
27.2269867733
 10
-61.5803989917
 20
27.217939859
 10
-61.6001772483
 20
27.2086757028
 10
-61.61964907
 20
27.1991976067
 10
-61.6388075162
 20
27.1895089492
 10
-61.6576457581
 20
27.1796131836
 10
-61.6761570808
 20
27.1695138373
 10
-61.6943348862
 20
27.1592145101
  0
LWPOLYLINE
  5
267
100
AcDbEntity
  8
0
100
AcDbPolyline
 62
7
  6
CONTINUOUS
 90
3
 70
0
 10
-18.1386038778
 20
50.9953981965
 10
-18.177743091
 20
50.9830975678
 10
-18.2162367993
 20
50.9705205869
  0
LWPOLYLINE
  5
268
100
AcDbEntity
  8
0
100
AcDbPolyline
 62
7
  6
CONTINUOUS
 90
4
 70
0
 10
-17.9772243195
 20
51.04367156
 10
-18.0181065496
 20
51.031797287
 10
-18.0586981756
 20
51.0196586848
 10
-18.1386038778
 20
50.9953981965
  0
LINE
  5
269
100
AcDbEntity
  8
0
100
AcDbLine
 62
7
  6
CONTINUOUS
 10
-61.5192966414
 20
27.2444160556
 11
-61.388758737
 21
26.8719568205
  0
LINE
  5
26A
100
AcDbEntity
  8
0
100
AcDbLine
 62
7
  6
CONTINUOUS
 10
-59.736242958
 20
26.2938104968
 11
-59.7320492228
 21
26.2769345963
  0
LINE
  5
26B
100
AcDbEntity
  8
TRASH
100
AcDbLine
 62
7
  6
CONTINUOUS
 10
-16.9823828082
 20
51.7385124284
 11
-16.9586486718
 21
51.7766881582
  0
LINE
  5
26C
100
AcDbEntity
  8
0
100
AcDbLine
 62
7
  6
CONTINUOUS
 10
-16.7537744866
 20
51.6740185804
 11
-16.7941625704
 21
51.6102966548
  0
LINE
  5
26D
100
AcDbEntity
  8
0
100
AcDbLine
 62
7
  6
CONTINUOUS
 10
-16.7140384196
 20
51.7359745294
 11
-16.7537744866
 21
51.6740185804
  0
LWPOLYLINE
  5
26E
100
AcDbEntity
  8
0
100
AcDbPolyline
 62
7
  6
CONTINUOUS
 90
3
 70
0
 10
-16.6754044742
 20
51.7951093264
 10
-16.701056044
 20
51.7560215611
 10
-16.7140384196
 20
51.7359745294
  0
LWPOLYLINE
  5
26F
100
AcDbEntity
  8
0
100
AcDbPolyline
 62
7
  6
CONTINUOUS
 90
3
 70
0
 10
-16.626344805
 20
51.8683970932
 10
-16.6628647809
 20
51.814073637
 10
-16.6754044742
 20
51.7951093264
  0
LWPOLYLINE
  5
270
100
AcDbEntity
  8
0
100
AcDbPolyline
 62
7
  6
CONTINUOUS
 90
3
 70
0
 10
-16.6027293354
 20
51.9021395493
 10
-16.6145774754
 20
51.885553169
 10
-16.626344805
 20
51.8683970932
  0
LINE
  5
271
100
AcDbEntity
  8
0
100
AcDbLine
 62
7
  6
CONTINUOUS
 10
-18.7083851318
 20
51.0635332219
 11
-18.6776375857
 21
51.1032243506
  0
LINE
  5
272
100
AcDbEntity
  8
0
100
AcDbLine
 62
7
  6
CONTINUOUS
 10
-18.6776375857
 20
51.1032243506
 11
-18.6466584942
 21
51.1425197666
  0
LINE
  5
273
100
AcDbEntity
  8
0
100
AcDbLine
 62
7
  6
CONTINUOUS
 10
-18.6466584942
 20
51.1425197666
 11
-18.6154477712
 21
51.1814194443
  0
LWPOLYLINE
  5
274
100
AcDbEntity
  8
0
100
AcDbPolyline
 62
7
  6
CONTINUOUS
 90
14
 70
0
 10
-16.7400863418
 20
43.185123223
 10
-16.788628729
 20
43.1508933539
 10
-16.8393327246
 20
43.1186763007
 10
-16.8919560702
 20
43.0885283891
 10
-16.9462527147
 20
43.0604964551
 10
-17.0019739087
 20
43.0346177898
 10
-17.0588692965
 20
43.0109201247
 10
-17.1166880013
 20
42.9894216594
 10
-17.1751796974
 20
42.9701311286
 10
-17.234095668
 20
42.9530479096
 10
-17.2931898401
 20
42.9381621684
 10
-17.3522197967
 20
42.9254550438
 10
-17.410947758
 20
42.914898868
 10
-17.4691415311
 20
42.9064574225
  0
LWPOLYLINE
  5
275
100
AcDbEntity
  8
0
100
AcDbPolyline
 62
7
  6
CONTINUOUS
 90
31
 70
0
 10
-16.8291413922
 20
43.2183774063
 10
-16.8816784549
 20
43.1899662887
 10
-16.9373212796
 20
43.1635999558
 10
-16.9958315952
 20
43.1393913123
 10
-17.0569588515
 20
43.1174440233
 10
-17.1204412923
 20
43.0978520704
 10
-17.1860070759
 20
43.0806993495
 10
-17.2533754397
 20
43.0660593112
 10
-17.3222579019
 20
43.0539946462
 10
-17.3923594973
 20
43.0445570173
 10
-17.4633800401
 20
43.037786838
 10
-17.5350154094
 20
43.0337130992
 10
-17.6069588515
 20
43.0323532452
 10
-17.6789022937
 20
43.0337130992
 10
-17.750537663
 20
43.037786838
 10
-17.8215582058
 20
43.0445570173
 10
-17.8916598012
 20
43.0539946462
 10
-17.9605422634
 20
43.0660593112
 10
-18.0279106271
 20
43.0806993495
 10
-18.0934764108
 20
43.0978520704
 10
-18.1569588515
 20
43.1174440233
 10
-18.2180861079
 20
43.1393913123
 10
-18.2765964235
 20
43.1635999558
 10
-18.3322392482
 20
43.1899662887
 10
-18.3847763109
 20
43.2183774063
 10
-18.4339826398
 20
43.2487116479
 10
-18.4796475259
 20
43.2808391175
 10
-18.5215754251
 20
43.3146222404
 10
-18.5595867957
 20
43.3499163521
 10
-18.5935188672
 20
43.3865703178
 10
-18.6110974626
 20
43.4081652083
  0
LWPOLYLINE
  5
276
100
AcDbEntity
  8
0
100
AcDbPolyline
 62
7
  6
CONTINUOUS
 90
37
 70
0
 10
-16.7557144815
 20
43.6528124147
 10
-16.7944534406
 20
43.6319191044
 10
-16.8714664251
 20
43.5948493049
 10
-16.9513820636
 20
43.5606269957
 10
-17.0338849656
 20
43.5293517923
 10
-17.11864953
 20
43.5011116791
 10
-17.2053412299
 20
43.4759826625
 10
-17.2936179326
 20
43.4540284708
 10
-17.3831312504
 20
43.4353003027
 10
-17.4735279151
 20
43.4198366253
 10
-17.5644511723
 20
43.4076630223
 10
-17.6555421894
 20
43.3987920929
 10
-17.7464414715
 20
43.3932234022
 10
-17.8367902807
 20
43.3909434828
 10
-17.9262320513
 20
43.391925888
 10
-18.0144137973
 20
43.3961312963
 10
-18.1009875054
 20
43.4035076665
 10
-18.1856115085
 20
43.4139904428
 10
-18.267951834
 20
43.4275028102
 10
-18.347683522
 20
43.4439559969
 10
-18.4244919077
 20
43.4632496253
 10
-18.498073863
 20
43.4852721077
 10
-18.5681389933
 20
43.5099010869
 10
-18.6344107831
 20
43.5370039191
 10
-18.6966276876
 20
43.5664381971
 10
-18.7545441646
 20
43.5980523128
 10
-18.8079316439
 20
43.631686055
 10
-18.8565794291
 20
43.6671712422
 10
-18.9002955291
 20
43.7043323859
 10
-18.9389074161
 20
43.7429873834
 10
-18.9722627062
 20
43.7829482363
 10
-19.0002297608
 20
43.8240217928
 10
-19.0226982063
 20
43.8660105095
 10
-19.0395793697
 20
43.9087132314
 10
-19.0508066282
 20
43.9519259857
 10
-19.0563356728
 20
43.9954427864
 10
-19.0569588515
 20
44.0157948078
  0
LWPOLYLINE
  5
277
100
AcDbEntity
  8
0
100
AcDbPolyline
 62
7
  6
CONTINUOUS
 90
24
 70
0
 10
-16.8307103199
 20
43.6961140718
 10
-16.8714664251
 20
43.6764963325
 10
-16.9513820636
 20
43.6422740234
 10
-17.0338849656
 20
43.61099882
 10
-17.11864953
 20
43.5827587068
 10
-17.2053412299
 20
43.5576296901
 10
-17.2936179326
 20
43.5356754984
 10
-17.3831312504
 20
43.5169473304
 10
-17.4735279151
 20
43.501483653
 10
-17.5644511723
 20
43.48931005
 10
-17.6555421894
 20
43.4804391206
 10
-17.7464414715
 20
43.4748704299
 10
-17.8367902807
 20
43.4725905104
 10
-17.9262320513
 20
43.4735729157
 10
-18.0144137973
 20
43.477778324
 10
-18.1009875054
 20
43.4851546941
 10
-18.1856115085
 20
43.4956374705
 10
-18.267951834
 20
43.5091498379
 10
-18.347683522
 20
43.5256030246
 10
-18.4244919077
 20
43.544896653
 10
-18.498073863
 20
43.5669191354
 10
-18.5681389933
 20
43.5915481146
 10
-18.6344107831
 20
43.6186509467
 10
-18.6966276876
 20
43.6480852248
  0
LWPOLYLINE
  5
278
100
AcDbEntity
  8
0
100
AcDbPolyline
 62
250
  6
CONTINUOUS
 90
4
 70
0
 10
-59.1477179742
 20
24.8443366736
 10
-59.0355251583
 20
24.8940759468
 10
-58.927985369
 20
24.9471284159
 10
-58.8253916382
 20
25.0033491559
  0
LWPOLYLINE
  5
279
100
AcDbEntity
  8
0
100
AcDbPolyline
 62
7
  6
CONTINUOUS
 90
10
 70
0
 10
-59.9616483695
 20
25.9725165937
 10
-59.9409935309
 20
25.9811194285
 10
-59.9206236602
 20
25.9899458762
 10
-59.9005460181
 20
25.9989927906
 10
-59.8807677611
 20
26.0082569469
 10
-59.8612959391
 20
26.0177350431
 10
-59.8421374926
 20
26.0274237008
 10
-59.8232992504
 20
26.0373194665
 10
-59.8047879273
 20
26.047418813
 10
-59.7866101216
 20
26.0577181404
  0
LWPOLYLINE
  5
27A
100
AcDbEntity
  8
TRASH
100
AcDbPolyline
 62
7
  6
CONTINUOUS
 90
16
 70
0
 10
-60.7404658944
 20
26.5235420263
 10
-60.7064576936
 20
26.5363192911
 10
-60.6719445641
 20
26.5500439391
 10
-60.6367960811
 20
26.5647195136
 10
-60.6009190951
 20
26.5802566174
 10
-60.5641795739
 20
26.5967347463
 10
-60.5263652803
 20
26.614395626
 10
-60.48734037
 20
26.6331839615
 10
-60.4470033494
 20
26.6531020582
 10
-60.4051402701
 20
26.6744594983
 10
-60.3615708196
 20
26.6972404713
 10
-60.3162395037
 20
26.7213776934
 10
-60.2690891157
 20
26.7471019588
 10
-60.2200379101
 20
26.7744715957
 10
-60.1689957993
 20
26.8033662743
 10
-60.115901492
 20
26.8337592095
  0
LWPOLYLINE
  5
27B
100
AcDbEntity
  8
0
100
AcDbPolyline
 62
7
  6
CONTINUOUS
 90
31
 70
0
 10
-17.2450123959
 20
43.9353268981
 10
-17.2552018587
 20
43.9317066283
 10
-17.3252767348
 20
43.9100237179
 10
-17.3962493366
 20
43.8911433368
 10
-17.46759651
 20
43.8751072691
 10
-17.5391904511
 20
43.861849348
 10
-17.61087058
 20
43.8513268328
 10
-17.6823139249
 20
43.8435234578
 10
-17.7532373367
 20
43.8384072305
 10
-17.8235465946
 20
43.835934714
 10
-17.8929411566
 20
43.8360772926
 10
-17.9611350004
 20
43.8387951967
 10
-18.0280449658
 20
43.844058153
 10
-18.0935375099
 20
43.8518507946
 10
-18.1571415632
 20
43.8621123201
 10
-18.2182893398
 20
43.8747173803
 10
-18.2766120359
 20
43.8895283372
 10
-18.3320027695
 20
43.9064560842
 10
-18.3843227772
 20
43.9254122671
 10
-18.4333479227
 20
43.9462770238
 10
-18.4788703622
 20
43.9689232781
 10
-18.5207636466
 20
43.9932585514
 10
-18.5589104868
 20
44.0192082497
 10
-18.5930260089
 20
44.0465749841
 10
-18.622799838
 20
44.0750591071
 10
-18.6480837487
 20
44.104405867
 10
-18.6689009169
 20
44.134518218
 10
-18.6852515833
 20
44.1653188431
 10
-18.6970696692
 20
44.1966364578
 10
-18.7043104642
 20
44.2283028238
 10
-18.7069588515
 20
44.2624281024
  0
LWPOLYLINE
  5
27C
100
AcDbEntity
  8
0
100
AcDbPolyline
 62
7
  6
CONTINUOUS
 90
3
 70
0
 10
-61.2721175302
 20
26.0906480036
 10
-61.3112567434
 20
26.0783473749
 10
-61.3497504517
 20
26.0657703939
  0
LWPOLYLINE
  5
27D
100
AcDbEntity
  8
0
100
AcDbPolyline
 62
7
  6
CONTINUOUS
 90
4
 70
0
 10
-61.1107379719
 20
26.138921367
 10
-61.1516202019
 20
26.127047094
 10
-61.1922118279
 20
26.1149084919
 10
-61.2721175302
 20
26.0906480036
  0
LINE
  5
27E
100
AcDbEntity
  8
SMUSSO
100
AcDbLine
 62
7
  6
CONTINUOUS
 10
15.5563438014
 20
-61.7103191162
 11
-83.0143307266
 21
-4.7968470244
  0
LINE
  5
27F
100
AcDbEntity
  8
0
100
AcDbLine
 62
7
  6
CONTINUOUS
 10
-59.9162049416
 20
26.6841031454
 11
-59.9048537979
 21
26.6624632511
  0
LINE
  5
280
100
AcDbEntity
  8
0
100
AcDbLine
 62
7
  6
CONTINUOUS
 10
-59.9048537979
 20
26.6624632511
 11
-59.893593478
 21
26.6406149316
  0
LINE
  5
281
100
AcDbEntity
  8
0
100
AcDbLine
 62
7
  6
CONTINUOUS
 10
-59.893593478
 20
26.6406149316
 11
-59.8824677006
 21
26.6186410341
  0
LINE
  5
282
100
AcDbEntity
  8
0
100
AcDbLine
 62
7
  6
CONTINUOUS
 10
-59.8824677006
 20
26.6186410341
 11
-59.8714506953
 21
26.5964837021
  0
LINE
  5
283
100
AcDbEntity
  8
0
100
AcDbLine
 62
7
  6
CONTINUOUS
 10
-59.8714506953
 20
26.5964837021
 11
-59.8604449767
 21
26.5740037601
  0
LINE
  5
284
100
AcDbEntity
  8
0
100
AcDbLine
 62
7
  6
CONTINUOUS
 10
-59.8604449767
 20
26.5740037601
 11
-59.8492992458
 21
26.5508122818
  0
LINE
  5
285
100
AcDbEntity
  8
0
100
AcDbLine
 62
7
  6
CONTINUOUS
 10
-59.8492992458
 20
26.5508122818
 11
-59.8377889065
 21
26.5265051624
  0
LWPOLYLINE
  5
286
100
AcDbEntity
  8
0
100
AcDbPolyline
 62
7
  6
CONTINUOUS
 90
3
 70
0
 10
-59.8377889065
 20
26.5265051624
 10
-59.8258282651
 20
26.5007828648
 10
-59.8196110057
 20
26.4872432847
  0
LWPOLYLINE
  5
287
100
AcDbEntity
  8
0
100
AcDbPolyline
 62
7
  6
CONTINUOUS
 90
3
 70
0
 10
-59.8196110057
 20
26.4872432847
 10
-59.8066697713
 20
26.4586466112
 10
-59.7998836105
 20
26.4434613134
  0
LWPOLYLINE
  5
288
100
AcDbEntity
  8
0
100
AcDbPolyline
 62
7
  6
CONTINUOUS
 90
3
 70
0
 10
-59.7998836105
 20
26.4434613134
 10
-59.7856609341
 20
26.4111165332
 10
-59.7781489142
 20
26.3938108403
  0
LWPOLYLINE
  5
289
100
AcDbEntity
  8
0
100
AcDbPolyline
 62
7
  6
CONTINUOUS
 90
4
 70
0
 10
-59.7781489142
 20
26.3938108403
 10
-59.7538670892
 20
26.3367355412
 10
-59.745150028
 20
26.3157809336
 10
-59.736242958
 20
26.2938104968
  0
LINE
  5
28A
100
AcDbEntity
  8
0
100
AcDbLine
 62
7
  6
CONTINUOUS
 10
-61.748895785
 20
27.0078960829
 11
-61.7447020499
 21
26.9973893988
  0
LINE
  5
28B
100
AcDbEntity
  8
0
100
AcDbLine
 62
7
  6
CONTINUOUS
 10
-16.5984699341
 20
51.9128102073
 11
-16.6027293354
 21
51.9021395493
  0
LINE
  5
28C
100
AcDbEntity
  8
0
100
AcDbLine
 62
7
  6
CONTINUOUS
 10
-18.6111883677
 20
51.1985607628
 11
-18.5757436039
 21
51.2834840265
  0
LINE
  5
28D
100
AcDbEntity
  8
0
100
AcDbLine
 62
7
  6
CONTINUOUS
 10
-18.5757436039
 20
51.2834840265
 11
-18.5635657586
 21
51.3118647618
  0
LWPOLYLINE
  5
28E
100
AcDbEntity
  8
0
100
AcDbPolyline
 62
7
  6
CONTINUOUS
 90
11
 70
0
 10
-18.5635657586
 20
51.3118647618
 10
-18.5385132289
 20
51.3684013352
 10
-18.5258308561
 20
51.3964590309
 10
-18.5128616591
 20
51.4243347371
 10
-18.4998792835
 20
51.451920667
 10
-18.4867974123
 20
51.4792746732
 10
-18.4734726652
 20
51.506352341
 10
-18.4601432165
 20
51.5329582849
 10
-18.4468568809
 20
51.5590785236
 10
-18.4334234419
 20
51.5848392388
 10
-18.4197551327
 20
51.6102966513
  0
LWPOLYLINE
  5
28F
100
AcDbEntity
  8
0
100
AcDbPolyline
 62
7
  6
CONTINUOUS
 90
9
 70
0
 10
-16.472519049
 20
43.4892989212
 10
-16.479867916
 20
43.4744310935
 10
-16.507041087
 20
43.4284548778
 10
-16.5378751773
 20
43.3838448816
 10
-16.5721843485
 20
43.3407188182
 10
-16.609771633
 20
43.2991864572
 10
-16.6504299139
 20
43.2593492825
 10
-16.693942936
 20
43.2213001897
 10
-16.7400863418
 20
43.185123223
  0
LINE
  5
290
100
AcDbEntity
  8
0
100
AcDbLine
 62
7
  6
CONTINUOUS
 10
-17.6069588515
 20
42.1118946565
 11
-16.9285479205
 21
42.9876742573
  0
LINE
  5
291
100
AcDbEntity
  8
0
100
AcDbLine
 62
7
  6
CONTINUOUS
 10
-16.6370078861
 20
43.3640314227
 11
-16.6028202405
 21
43.4081652083
  0
LWPOLYLINE
  5
292
100
AcDbEntity
  8
0
100
AcDbPolyline
 62
7
  6
CONTINUOUS
 90
8
 70
0
 10
-16.6028202405
 20
43.4081652083
 10
-16.6147444006
 20
43.3932900215
 10
-16.6431451584
 20
43.3613752376
 10
-16.6746220509
 20
43.3304374244
 10
-16.7090746154
 20
43.3005753239
 10
-16.7463928921
 20
43.2718842448
 10
-16.7864577752
 20
43.2444557585
 10
-16.8291413922
 20
43.2183774063
  0
LWPOLYLINE
  5
293
100
AcDbEntity
  8
0
100
AcDbPolyline
 62
7
  6
CONTINUOUS
 90
17
 70
0
 10
-16.6370078861
 20
43.3640314227
 10
-16.6699338281
 20
43.3240353016
 10
-16.7083653309
 20
43.2826138998
 10
-16.7498752185
 20
43.2427893142
 10
-16.7942700118
 20
43.2046651888
 10
-16.8413439223
 20
43.1683388351
 10
-16.8908811321
 20
43.1338993428
 10
-16.9426582681
 20
43.1014263622
 10
-16.9964412449
 20
43.0709924881
 10
-17.0519898937
 20
43.0426604804
 10
-17.1090612484
 20
43.0164823712
 10
-17.1674038185
 20
42.9925026672
 10
-17.2267605545
 20
42.9707566979
 10
-17.2868742253
 20
42.9512688901
 10
-17.3474841442
 20
42.9340544207
 10
-17.4083272401
 20
42.9191188597
 10
-17.4691415311
 20
42.9064574225
  0
LINE
  5
294
100
AcDbEntity
  8
SMUSSO
100
AcDbLine
 62
7
  6
CONTINUOUS
 10
-22.627406228
 20
28.6000240373
 11
-15.8391865137
 21
32.519457024
  0
LINE
  5
295
100
AcDbEntity
  8
SMUSSO
100
AcDbLine
 62
250
  6
CONTINUOUS
 10
15.5563438014
 20
-34.925474971
 11
15.8391972833
 21
-34.925474971
  0
LWPOLYLINE
  5
296
100
AcDbEntity
  8
0
100
AcDbPolyline
 62
7
  6
CONTINUOUS
 90
3
 70
0
 10
-61.7186115092
 20
26.9596963534
 10
-61.7357949798
 20
26.9844422478
 10
-61.7447020499
 20
26.9973893988
  0
LINE
  5
297
100
AcDbEntity
  8
0
100
AcDbLine
 62
7
  6
CONTINUOUS
 10
-61.7105212553
 20
26.9478778961
 11
-61.7186115092
 21
26.9596963534
  0
LINE
  5
298
100
AcDbEntity
  8
0
100
AcDbLine
 62
7
  6
CONTINUOUS
 10
-61.6880202725
 20
26.9144733061
 11
-61.7105212553
 21
26.9478778961
  0
LINE
  5
299
100
AcDbEntity
  8
0
100
AcDbLine
 62
7
  6
CONTINUOUS
 10
-61.6490458173
 20
26.8553631982
 11
-61.6613340021
 21
26.8741159529
  0
LWPOLYLINE
  5
29A
100
AcDbEntity
  8
0
100
AcDbPolyline
 62
7
  6
CONTINUOUS
 90
3
 70
0
 10
-61.6613340021
 20
26.8741159529
 10
-61.6676838248
 20
26.8838107159
 10
-61.6880202725
 20
26.9144733061
  0
LINE
  5
29B
100
AcDbEntity
  8
0
100
AcDbLine
 62
7
  6
CONTINUOUS
 10
-61.5929251185
 20
26.7681249312
 11
-61.6490458173
 21
26.8553631982
  0
LINE
  5
29C
100
AcDbEntity
  8
0
100
AcDbLine
 62
7
  6
CONTINUOUS
 10
-61.5817412214
 20
26.750521558
 11
-61.5929251185
 21
26.7681249312
  0
LINE
  5
29D
100
AcDbEntity
  8
0
100
AcDbLine
 62
7
  6
CONTINUOUS
 10
-61.553268785
 20
26.7055464583
 11
-61.5817412214
 21
26.750521558
  0
LINE
  5
29E
100
AcDbEntity
  8
TRASH
100
AcDbLine
 62
7
  6
CONTINUOUS
 10
-61.3887826859
 20
26.8719379594
 11
-61.3650485495
 21
26.8337622295
  0
LWPOLYLINE
  5
29F
100
AcDbEntity
  8
0
100
AcDbPolyline
 62
7
  6
CONTINUOUS
 90
3
 70
0
 10
-59.9276762228
 20
26.7055464618
 10
-59.9219203816
 20
26.694846033
 10
-59.9162049416
 20
26.6841031454
  0
LINE
  5
2A0
100
AcDbEntity
  8
SMUSSO
100
AcDbLine
 62
7
  6
CONTINUOUS
 10
-31.1979030658
 20
51.9929666356
 11
-31.1757098168
 21
53.4611755983
  0
LINE
  5
2A1
100
AcDbEntity
  8
0
100
AcDbLine
 62
7
  6
CONTINUOUS
 10
-18.6111883677
 20
51.1985607628
 11
-18.6154477712
 21
51.1814194443
  0
LINE
  5
2A2
100
AcDbEntity
  8
0
100
AcDbLine
 62
7
  6
CONTINUOUS
 10
-16.9587637441
 20
51.7767724902
 11
-16.8281176992
 21
52.1491593017
  0
LWPOLYLINE
  5
2A3
100
AcDbEntity
  8
0
100
AcDbPolyline
 62
7
  6
CONTINUOUS
 90
37
 70
0
 10
-16.4433989911
 20
43.4724853647
 10
-16.4581697897
 20
43.4363611195
 10
-16.4809647204
 20
43.3907695461
 10
-16.5073387671
 20
43.3463436265
 10
-16.5371344936
 20
43.303196468
 10
-16.5701839134
 20
43.26143456
 10
-16.6063092888
 20
43.2211574526
 10
-16.6453239589
 20
43.1824574662
 10
-16.6870331921
 20
43.1454194327
 10
-16.7312350606
 20
43.1101204703
 10
-16.7777213322
 20
43.076629791
 10
-16.8262783764
 20
43.0450085418
 10
-16.8766880807
 20
43.0153096802
 10
-16.9287287733
 20
42.9875778832
 10
-16.9821761489
 20
42.9618494915
 10
-17.0368041927
 20
42.9381524865
 10
-17.0923861007
 20
42.9165065014
 10
-17.1486951909
 20
42.8969228662
 10
-17.205505803
 20
42.8794046846
 10
-17.2625941826
 20
42.8639469435
 10
-17.3197393463
 20
42.850536654
 10
-17.3767239253
 20
42.8391530221
 10
-17.4333349829
 20
42.8297676498
 10
-17.4893648042
 20
42.8223447637
 10
-17.5446116546
 20
42.816841471
 10
-17.598880504
 20
42.8132080412
 10
-17.6519837141
 20
42.8113882122
 10
-17.7037416875
 20
42.8113195191
 10
-17.7539834751
 20
42.812933644
 10
-17.8025473396
 20
42.8161567857
 10
-17.849281275
 20
42.8209100473
 10
-17.8940434783
 20
42.8271098393
 10
-17.9367027729
 20
42.8346682977
 10
-17.9771389835
 20
42.8434937133
 10
-18.015243259
 20
42.853490973
 10
-18.0509183454
 20
42.8645620079
 10
-18.0840788053
 20
42.8766062494
  0
LWPOLYLINE
  5
2A4
100
AcDbEntity
  8
0
100
AcDbPolyline
 62
7
  6
CONTINUOUS
 90
5
 70
0
 10
-16.5349992662
 20
43.5253742156
 10
-16.5488545881
 20
43.4938639656
 10
-16.56752376
 20
43.4596402682
 10
-16.589510422
 20
43.4260799161
 10
-16.6028202405
 20
43.4081652083
  0
LWPOLYLINE
  5
2A5
100
AcDbEntity
  8
TRASH
100
AcDbPolyline
 62
7
  6
CONTINUOUS
 90
9
 70
0
 10
-60.0054725044
 20
26.0991642056
 10
-59.9931686526
 20
26.0852130482
 10
-59.9805913465
 20
26.0717541022
 10
-59.9677348056
 20
26.0587123398
 10
-59.9546898431
 20
26.0459938053
 10
-59.9413837303
 20
26.0335617296
 10
-59.9275900899
 20
26.0214151425
 10
-59.9133808323
 20
26.0094692474
 10
-59.9004579247
 20
25.9990340536
  0
LWPOLYLINE
  5
2A6
100
AcDbEntity
  8
0
100
AcDbPolyline
 62
7
  6
CONTINUOUS
 90
3
 70
0
 10
-59.7320492228
 20
26.2769345963
 10
-59.7171847239
 20
26.2584740759
 10
-59.7020666266
 20
26.2395203375
  0
LINE
  5
2A7
100
AcDbEntity
  8
0
100
AcDbLine
 62
7
  6
CONTINUOUS
 10
-59.7020666266
 20
26.2395203375
 11
-59.6710696373
 21
26.2001332071
  0
LINE
  5
2A8
100
AcDbEntity
  8
0
100
AcDbLine
 62
7
  6
CONTINUOUS
 10
-59.6710696373
 20
26.2001332071
 11
-59.6390582548
 21
26.158773205
  0
LINE
  5
2A9
100
AcDbEntity
  8
0
100
AcDbLine
 62
7
  6
CONTINUOUS
 10
-20.4069588515
 20
50.876579138
 11
-20.4069588515
 21
50.0316563414
  0
LINE
  5
2AA
100
AcDbEntity
  8
DRAFT
100
AcDbLine
 62
7
  6
CONTINUOUS
 10
-24.1830519166
 20
29.3349120868
 11
-24.0424263615
 21
47.8600685302
  0
LINE
  5
2AB
100
AcDbEntity
  8
SMUSSO
100
AcDbLine
 62
7
  6
CONTINUOUS
 10
-22.7696503109
 20
47.1251835902
 11
-22.9102758659
 21
28.6000271468
  0
LINE
  5
2AC
100
AcDbEntity
  8
SMUSSO
100
AcDbLine
 62
7
  6
CONTINUOUS
 10
-22.4880150517
 20
46.9625709213
 11
-22.627406228
 21
28.6000240373
  0
LWPOLYLINE
  5
2AD
100
AcDbEntity
  8
0
100
AcDbPolyline
 62
7
  6
CONTINUOUS
 90
12
 70
0
 10
-19.0569588515
 20
44.0974418355
 10
-19.0561446824
 20
44.1207034756
 10
-19.0502344103
 20
44.1642064299
 10
-19.0386281816
 20
44.2073915458
 10
-19.0213718003
 20
44.2500529465
 10
-18.9985333693
 20
44.2919868221
 10
-18.9702030212
 20
44.3329922338
 10
-18.9364925627
 20
44.372871907
 10
-18.8975350336
 20
44.41143301
 10
-18.8534841813
 20
44.4484879148
 10
-18.8045138543
 20
44.4838549376
 10
-18.7695877894
 20
44.5056471621
  0
LINE
  5
2AE
100
AcDbEntity
  8
0
100
AcDbLine
 62
7
  6
CONTINUOUS
 10
-18.2315348971
 20
51.7385124225
 11
-18.2162366993
 21
52.1301796927
  0
LINE
  5
2AF
100
AcDbEntity
  8
0
100
AcDbLine
 62
7
  6
CONTINUOUS
 10
-18.2552690335
 20
51.7766881524
 11
-18.2403210287
 21
52.1294036915
  0
LINE
  5
2B0
100
AcDbEntity
  8
0
100
AcDbLine
 62
7
  6
CONTINUOUS
 10
-16.5985355704
 20
51.1816847893
 11
-16.6206156038
 21
50.9819116266
  0
LINE
  5
2B1
100
AcDbEntity
  8
0
100
AcDbLine
 62
7
  6
CONTINUOUS
 10
-16.6027293056
 20
51.1985606898
 11
-16.6273125264
 21
50.9778194729
  0
LINE
  5
2B2
100
AcDbEntity
  8
0
100
AcDbLine
 62
7
  6
CONTINUOUS
 10
-16.8719588515
 20
51.0039143988
 11
-16.7941625704
 21
51.6102966548
  0
LINE
  5
2B3
100
AcDbEntity
  8
RACCORDO
100
AcDbLine
 62
7
  6
CONTINUOUS
 10
1.166726189
 20
23.7211364286
 11
0.4242640687
 21
23.2924481056
  0
LWPOLYLINE
  5
2B4
100
AcDbEntity
  8
0
100
AcDbPolyline
 62
7
  6
CONTINUOUS
 90
3
 70
0
 10
17.3604994175
 20
-19.0633177876
 10
17.3191493944
 20
-19.0746152269
 10
17.2366933836
 20
-19.0979035737
  0
LWPOLYLINE
  5
2B5
100
AcDbEntity
  8
0
100
AcDbPolyline
 62
7
  6
CONTINUOUS
 90
3
 70
0
 10
17.4846174958
 20
-19.0307526242
 10
17.443425865
 20
-19.041347518
 10
17.3604994175
 20
-19.0633177876
  0
LWPOLYLINE
  5
2B6
100
AcDbEntity
  8
0
100
AcDbPolyline
 62
7
  6
CONTINUOUS
 90
3
 70
0
 10
17.6069589152
 20
-19.0005768009
 10
17.5662634121
 20
-19.0104714656
 10
17.4846174958
 20
-19.0307526242
  0
LWPOLYLINE
  5
2B7
100
AcDbEntity
  8
0
100
AcDbPolyline
 62
250
  6
CONTINUOUS
 90
9
 70
0
 10
16.634787937
 20
-17.6681914698
 10
16.5035903369
 20
-17.6996289841
 10
16.3755847544
 20
-17.7349486924
 10
16.251214286
 20
-17.774004601
 10
16.1306960738
 20
-17.8167042142
 10
16.0142043219
 20
-17.8629763439
 10
15.9020115059
 20
-17.912715602
 10
15.7944717166
 20
-17.9657679305
 10
15.6918779858
 20
-18.0219884043
  0
LINE
  5
2B8
100
AcDbEntity
  8
0
100
AcDbLine
 62
7
  6
CONTINUOUS
 10
16.9976809038
 20
-19.1710545468
 11
16.9739684176
 21
-19.1766605651
  0
LWPOLYLINE
  5
2B9
100
AcDbEntity
  8
0
100
AcDbPolyline
 62
250
  6
CONTINUOUS
 90
3
 70
0
 10
16.9047400043
 20
-17.6174517881
 10
16.7686497015
 20
-17.6407707773
 10
16.634787937
 20
-17.6681914698
  0
LWPOLYLINE
  5
2BA
100
AcDbEntity
  8
0
100
AcDbPolyline
 62
7
  6
CONTINUOUS
 90
16
 70
0
 10
17.6069587879
 20
-18.0619801356
 10
17.647654291
 20
-18.056072897
 10
17.6884097804
 20
-18.0505735017
 10
17.7293002073
 20
-18.0454457552
 10
17.7704918381
 20
-18.0406138651
 10
17.8119589098
 20
-18.0361060912
 10
17.8534182856
 20
-18.0320211886
 10
17.8947683087
 20
-18.0282894149
 10
17.9360800972
 20
-18.0248778914
 10
17.9772243195
 20
-18.0219003833
 10
18.0181065496
 20
-18.0192810539
 10
18.0586981756
 20
-18.0169646692
 10
18.098898217
 20
-18.0150763183
 10
18.1386038778
 20
-18.0136037554
 10
18.177743091
 20
-18.0124035135
 10
18.2162367993
 20
-18.011395439
  0
LINE
  5
2BB
100
AcDbEntity
  8
0
100
AcDbLine
 62
250
  6
CONTINUOUS
 10
17.0427491148
 20
-17.5982832842
 11
17.0278252299
 21
-17.5998486487
  0
LWPOLYLINE
  5
2BC
100
AcDbEntity
  8
0
100
AcDbPolyline
 62
7
  6
CONTINUOUS
 90
7
 70
0
 10
18.3858000039
 20
-17.992415832
 10
18.3615056144
 20
-17.9953125959
 10
18.3372055994
 20
-17.9983668412
 10
18.3128999591
 20
-18.001578568
 10
18.2885886933
 20
-18.0049477762
 10
18.2642718021
 20
-18.0084744659
 10
18.2399492855
 20
-18.0121586371
  0
LINE
  5
2BD
100
AcDbEntity
  8
SMUSSO
100
AcDbLine
 62
250
  6
CONTINUOUS
 10
-82.6129576963
 20
21.7562493635
 11
15.5563438014
 21
-34.925474971
  0
LWPOLYLINE
  5
2BE
100
AcDbEntity
  8
0
100
AcDbPolyline
 62
250
  6
CONTINUOUS
 90
46
 70
0
 10
-20.4069588515
 20
50.8765791366
 10
-20.4031214929
 20
50.791967775
 10
-20.3915942973
 20
50.7074475451
 10
-20.3724347331
 20
50.6234863337
 10
-20.3457461016
 20
50.5403807435
 10
-20.3116140876
 20
50.4582859087
 10
-20.2700943354
 20
50.377311095
 10
-20.2212657394
 20
50.2976349714
 10
-20.165276924
 20
50.2195211731
 10
-20.1022928764
 20
50.143204293
 10
-20.0324867037
 20
50.0688938055
 10
-19.9560486849
 20
49.9967920167
 10
-19.8732074962
 20
49.92711165
 10
-19.7842425131
 20
49.8600761047
 10
-19.689358665
 20
49.7958290138
 10
-19.5886785978
 20
49.7344625283
 10
-19.4823698176
 20
49.6761082926
 10
-19.3707864003
 20
49.6209887389
 10
-19.254348745
 20
49.5693215638
 10
-19.1334188343
 20
49.5212649141
 10
-19.0082898509
 20
49.4769329143
 10
-18.8793150595
 20
49.4364505164
 10
-18.7468565592
 20
49.3999302234
 10
-18.6112722054
 20
49.3674695789
 10
-18.4729232675
 20
49.3391549644
 10
-18.3321814827
 20
49.3150633541
 10
-18.1894413949
 20
49.2952631635
 10
-18.0451081333
 20
49.2798104494
 10
-17.899587488
 20
49.2687475017
 10
-17.7532707867
 20
49.2621029253
 10
-17.6065465371
 20
49.2598942488
 10
-17.4598079375
 20
49.2621283468
 10
-17.3134682481
 20
49.2687998822
 10
-17.1679458327
 20
49.2798895449
 10
-17.0236527808
 20
49.2953643687
 10
-16.8809726028
 20
49.3151816514
 10
-16.740276168
 20
49.3392898985
 10
-16.6018836591
 20
49.3676386815
 10
-16.4662454585
 20
49.4001402457
 10
-16.3339073494
 20
49.436655397
 10
-16.2053275057
 20
49.477033185
 10
-16.0807303809
 20
49.5211779855
 10
-15.9602959508
 20
49.5690162224
 10
-15.8443058474
 20
49.6204389571
 10
-15.7331261732
 20
49.6752869159
 10
-15.6270598642
 20
49.7334102767
  0
LWPOLYLINE
  5
2BF
100
AcDbEntity
  8
0
100
AcDbPolyline
 62
7
  6
CONTINUOUS
 90
3
 70
0
 10
-16.9739684176
 20
52.1294164966
 10
-16.9715626109
 20
52.0705999255
 10
-16.9586486718
 20
51.7766881582
  0
LINE
  5
2C0
100
AcDbEntity
  8
0
100
AcDbLine
 62
7
  6
CONTINUOUS
 10
-16.9976809038
 20
52.1301796947
 11
-16.9823828082
 21
51.7385124284
  0
LINE
  5
2C1
100
AcDbEntity
  8
0
100
AcDbLine
 62
7
  6
CONTINUOUS
 10
-19.0569588515
 20
44.9815220725
 11
-19.0569588515
 21
44.9139122023
  0
LINE
  5
2C2
100
AcDbEntity
  8
0
100
AcDbLine
 62
7
  6
CONTINUOUS
 10
-19.0569588515
 20
44.0974418355
 11
-19.0569588515
 21
44.0157948078
  0
LINE
  5
2C3
100
AcDbEntity
  8
0
100
AcDbLine
 62
7
  6
CONTINUOUS
 10
-18.7069588515
 20
44.4701950057
 11
-18.7069588515
 21
44.2624281024
  0
LINE
  5
2C4
100
AcDbEntity
  8
0
100
AcDbLine
 62
7
  6
CONTINUOUS
 10
-17.6069588515
 20
51.428294187
 11
-17.6069589152
 21
52.0795949981
  0
LINE
  5
2C5
100
AcDbEntity
  8
RACCORDO
100
AcDbLine
 62
250
  6
CONTINUOUS
 10
-15.8391865137
 20
32.519457024
 11
-15.8391865137
 21
43.1236206528
  0
LINE
  5
2C6
100
AcDbEntity
  8
RACCORDO
100
AcDbLine
 62
250
  6
CONTINUOUS
 10
-15.556354571
 20
32.519457024
 11
-15.556354571
 21
42.9603170338
  0
LINE
  5
2C7
100
AcDbEntity
  8
0
100
AcDbLine
 62
7
  6
CONTINUOUS
 10
-14.8069588515
 20
50.876579138
 11
-14.8069588515
 21
50.0316563414
  0
LWPOLYLINE
  5
2C8
100
AcDbEntity
  8
0
100
AcDbPolyline
 62
7
  6
CONTINUOUS
 90
16
 70
0
 10
-14.8069588515
 20
50.0316563414
 10
-14.8107220603
 20
49.9420893306
 10
-14.8220942737
 20
49.8522480785
 10
-14.8411772101
 20
49.7624489617
 10
-14.8680294362
 20
49.6730451502
 10
-14.9026999699
 20
49.5843082387
 10
-14.9452722774
 20
49.4964125013
 10
-14.9958813545
 20
49.409481425
 10
-15.0544721589
 20
49.3239551897
 10
-15.1207720302
 20
49.2404238765
 10
-15.1947186139
 20
49.1590811997
 10
-15.276183577
 20
49.0801807088
 10
-15.3645853323
 20
49.0043170423
 10
-15.459523308
 20
48.9317803389
 10
-15.5609020593
 20
48.8626022213
 10
-15.6684763884
 20
48.7969401079
  0
LWPOLYLINE
  5
2C9
100
AcDbEntity
  8
0
100
AcDbPolyline
 62
7
  6
CONTINUOUS
 90
13
 70
0
 10
60.8782898243
 20
-2.3303675182
 10
60.817850249
 20
-2.3436705401
 10
60.7581935765
 20
-2.3547937923
 10
60.6995877153
 20
-2.3637737429
 10
60.6422686529
 20
-2.3706611364
 10
60.5865258492
 20
-2.3755101174
 10
60.53269074
 20
-2.3783882364
 10
60.4809537614
 20
-2.3793851617
 10
60.4315847253
 20
-2.3785971375
 10
60.3849757471
 20
-2.3761460468
 10
60.3413429106
 20
-2.3721734643
 10
60.300761537
 20
-2.3668165873
 10
60.2633525502
 20
-2.3602186913
  0
LINE
  5
2CA
100
AcDbEntity
  8
0
100
AcDbLine
 62
250
  6
CONTINUOUS
 10
17.1823182906
 20
-17.583315076
 11
17.1800617749
 21
-17.5832811008
  0
LINE
  5
2CB
100
AcDbEntity
  8
0
100
AcDbLine
 62
250
  6
CONTINUOUS
 10
17.3335762685
 20
-17.5717539516
 11
17.3230765762
 21
-17.5725884681
  0
LINE
  5
2CC
100
AcDbEntity
  8
0
100
AcDbLine
 62
7
  6
CONTINUOUS
 10
16.9735966743
 20
-18.0121714422
 11
16.9976810038
 21
-18.011395441
  0
LWPOLYLINE
  5
2CD
100
AcDbEntity
  8
0
100
AcDbPolyline
 62
7
  6
CONTINUOUS
 90
7
 70
0
 10
16.9976810038
 20
-18.011395441
 10
17.043045904
 20
-18.0124927625
 10
17.0657713791
 20
-18.0131857068
 10
17.0885156965
 20
-18.0139935475
 10
17.1112656282
 20
-18.0149165745
 10
17.1340034147
 20
-18.0159388508
 10
17.1566885038
 20
-18.0170663051
  0
LINE
  5
2CE
100
AcDbEntity
  8
0
100
AcDbLine
 62
7
  6
CONTINUOUS
 10
18.2399492855
 20
-18.0121586371
 11
18.2162367993
 21
-18.011395439
  0
LWPOLYLINE
  5
2CF
100
AcDbEntity
  8
0
100
AcDbPolyline
 62
7
  6
CONTINUOUS
 90
3
 70
0
 10
17.1566885038
 20
-18.0170663051
 10
17.2020602595
 20
-18.0196448035
 10
17.2247417576
 20
-18.02109634
  0
LWPOLYLINE
  5
2D0
100
AcDbEntity
  8
0
100
AcDbPolyline
 62
7
  6
CONTINUOUS
 90
3
 70
0
 10
17.2247417576
 20
-18.02109634
 10
17.2705194498
 20
-18.0243453572
 10
17.2938408576
 20
-18.0261736858
  0
LWPOLYLINE
  5
2D1
100
AcDbEntity
  8
0
100
AcDbPolyline
 62
7
  6
CONTINUOUS
 90
3
 70
0
 10
17.2938408576
 20
-18.0261736858
 10
17.3418036453
 20
-18.0302853364
 10
17.3667993709
 20
-18.0326235901
  0
LWPOLYLINE
  5
2D2
100
AcDbEntity
  8
0
100
AcDbPolyline
 62
7
  6
CONTINUOUS
 90
3
 70
0
 10
17.3667993709
 20
-18.0326235901
 10
17.4192262589
 20
-18.0379590658
 10
17.4470648967
 20
-18.041029992
  0
LWPOLYLINE
  5
2D3
100
AcDbEntity
  8
0
100
AcDbPolyline
 62
7
  6
CONTINUOUS
 90
7
 70
0
 10
16.8281347141
 20
-17.9924088851
 10
16.8522398874
 20
-17.9952917981
 10
16.8764004652
 20
-17.9983390428
 10
16.9006164401
 20
-18.0015506244
 10
16.9248878049
 20
-18.004926548
 10
16.9492145521
 20
-18.0084668189
 10
16.9735966743
 20
-18.0121714422
  0
LWPOLYLINE
  5
2D4
100
AcDbEntity
  8
0
100
AcDbPolyline
 62
7
  6
CONTINUOUS
 90
5
 70
0
 10
17.4470648967
 20
-18.041029992
 10
17.5063537388
 20
-18.0481411419
 10
17.5385201087
 20
-18.0521857027
 10
17.5720918107
 20
-18.0567568804
 10
17.6069587879
 20
-18.0619801356
  0
LWPOLYLINE
  5
2D5
100
AcDbEntity
  8
0
100
AcDbPolyline
 62
250
  6
CONTINUOUS
 90
9
 70
0
 10
18.5783928987
 20
-17.6680279079
 10
18.4445732412
 20
-17.6406402599
 10
18.3084390739
 20
-17.6173373629
 10
18.1703720243
 20
-17.5981853928
 10
18.0307639588
 20
-17.5832385711
 10
17.8900073828
 20
-17.5725378033
 10
17.7484808121
 20
-17.5661107576
 10
17.6065600355
 20
-17.563974389
 10
17.4646253796
 20
-17.5661353466
  0
LINE
  5
2D6
100
AcDbEntity
  8
0
100
AcDbLine
 62
7
  6
CONTINUOUS
 10
18.2162366993
 20
-19.1710545143
 11
18.2403210201
 21
-19.1767491655
  0
LWPOLYLINE
  5
2D7
100
AcDbEntity
  8
0
100
AcDbPolyline
 62
7
  6
CONTINUOUS
 90
3
 70
0
 10
17.7075639643
 20
-19.025255795
 10
17.6418258924
 20
-19.0092675759
 10
17.6069589152
 20
-19.0005768009
  0
LINE
  5
2D8
100
AcDbEntity
  8
0
100
AcDbLine
 62
7
  6
CONTINUOUS
 10
17.7380050201
 20
-19.0328850755
 11
17.7075639643
 21
-19.025255795
  0
LINE
  5
2D9
100
AcDbEntity
  8
0
100
AcDbLine
 62
7
  6
CONTINUOUS
 10
17.8214813966
 20
-19.0546841099
 11
17.7380050201
 21
-19.0328850755
  0
LINE
  5
2DA
100
AcDbEntity
  8
0
100
AcDbLine
 62
7
  6
CONTINUOUS
 10
17.8964607394
 20
-19.0750591371
 11
17.8214813966
 21
-19.0546841099
  0
LINE
  5
2DB
100
AcDbEntity
  8
0
100
AcDbLine
 62
7
  6
CONTINUOUS
 10
17.9664569244
 20
-19.0947874085
 11
17.8964607394
 21
-19.0750591371
  0
LINE
  5
2DC
100
AcDbEntity
  8
0
100
AcDbLine
 62
7
  6
CONTINUOUS
 10
18.0118574436
 20
-19.1079715853
 11
17.9664569244
 21
-19.0947874085
  0
LINE
  5
2DD
100
AcDbEntity
  8
0
100
AcDbLine
 62
7
  6
CONTINUOUS
 10
18.0572291993
 20
-19.1214308989
 11
18.0118574436
 21
-19.1079715853
  0
LINE
  5
2DE
100
AcDbEntity
  8
0
100
AcDbLine
 62
7
  6
CONTINUOUS
 10
18.1026520749
 20
-19.1352065442
 11
18.0572291993
 21
-19.1214308989
  0
LINE
  5
2DF
100
AcDbEntity
  8
0
100
AcDbLine
 62
7
  6
CONTINUOUS
 10
18.1481463239
 20
-19.1493274349
 11
18.1026520749
 21
-19.1352065442
  0
LINE
  5
2E0
100
AcDbEntity
  8
SMUSSO
100
AcDbLine
 62
250
  6
CONTINUOUS
 10
-80.8311890995
 20
24.7921370438
 11
17.3099744883
 21
-31.8733408142
  0
LWPOLYLINE
  5
2E1
100
AcDbEntity
  8
0
100
AcDbPolyline
 62
7
  6
CONTINUOUS
 90
10
 70
0
 10
-61.8418987842
 20
26.1587830289
 10
-61.8117137338
 20
26.1350969381
 10
-61.7800016168
 20
26.1120856407
 10
-61.7468076391
 20
26.0897819398
 10
-61.712179119
 20
26.0682176294
 10
-61.67616542
 20
26.0474234497
 10
-61.63881788
 20
26.0274290431
 10
-61.6001897383
 20
26.0082629118
 10
-61.5603360598
 20
25.9899523774
 10
-61.5193136563
 20
25.9725235418
  0
LWPOLYLINE
  5
2E2
100
AcDbEntity
  8
0
100
AcDbPolyline
 62
7
  6
CONTINUOUS
 90
10
 70
0
 10
-59.6390462206
 20
27.058149619
 10
-59.6692312711
 20
27.0818357102
 10
-59.7009433884
 20
27.1048470079
 10
-59.7341373664
 20
27.1271507092
 10
-59.7687658868
 20
27.1487150199
 10
-59.8047795861
 20
27.1695091998
 10
-59.8421271265
 20
27.1895036067
 10
-59.8807552687
 20
27.2086697382
 10
-59.9206089476
 20
27.2269802728
 10
-59.9616313515
 20
27.2444091087
  0
LWPOLYLINE
  5
2E3
100
AcDbEntity
  8
0
100
AcDbPolyline
 62
250
  6
CONTINUOUS
 90
45
 70
0
 10
-20.4031215798
 20
49.9470459318
 10
-20.3916202193
 20
49.8626670858
 10
-20.3724862906
 20
49.7787514138
 10
-20.3457722248
 20
49.6955288964
 10
-20.3115512447
 20
49.6132276688
 10
-20.26991718
 20
49.5320733776
 10
-20.2209841982
 20
49.4522885152
 10
-20.1648864073
 20
49.3740917048
 10
-20.1017774902
 20
49.2976971725
 10
-20.0318303577
 20
49.2233142631
 10
-19.955236757
 20
49.1511469135
 10
-19.8722066748
 20
49.0813929849
 10
-19.7829677139
 20
49.0142436845
 10
-19.6877644532
 20
48.9498830467
 10
-19.5868578385
 20
48.8884874798
 10
-19.4805244484
 20
48.8302252653
 10
-19.3690557358
 20
48.7752560959
 10
-19.2527572287
 20
48.7237306383
 10
-19.1319476635
 20
48.6757901094
 10
-19.0069581996
 20
48.631565924
 10
-18.8781315209
 20
48.5911793263
 10
-18.7458208338
 20
48.5547410285
 10
-18.6103887109
 20
48.5223508672
 10
-18.4722061783
 20
48.4940975768
 10
-18.3316518778
 20
48.4700585896
 10
-18.189111153
 20
48.4502998246
 10
-18.0449748107
 20
48.4348754579
 10
-17.899637968
 20
48.4238277675
 10
-17.7534989365
 20
48.4171870262
 10
-17.6069582451
 20
48.4149714336
 10
-17.460417545
 20
48.4171870631
 10
-17.3142785008
 20
48.4238278424
 10
-17.1689416617
 20
48.4348755705
 10
-17.0248053634
 20
48.4502999702
 10
-16.8822646974
 20
48.4700587641
 10
-16.7417104173
 20
48.4940977845
 10
-16.6035278041
 20
48.5223511305
 10
-16.4680955691
 20
48.5547413627
 10
-16.3357848778
 20
48.59117971
 10
-16.2069583685
 20
48.6315663024
 10
-16.0819691613
 20
48.6757904387
 10
-15.9611598478
 20
48.7237309012
 10
-15.8448615584
 20
48.775256287
 10
-15.7333930553
 20
48.830225369
 10
-15.6270598642
 20
48.8884874801
  0
LWPOLYLINE
  5
2E4
100
AcDbEntity
  8
0
100
AcDbPolyline
 62
7
  6
CONTINUOUS
 90
3
 70
0
 10
-19.0508066282
 20
44.0335730133
 10
-19.0563356728
 20
44.0770898141
 10
-19.0569588515
 20
44.0974418355
  0
LWPOLYLINE
  5
2E5
100
AcDbEntity
  8
0
100
AcDbPolyline
 62
7
  6
CONTINUOUS
 90
3
 70
0
 10
-19.0508067264
 20
44.931690931
 10
-19.056335701
 20
44.9752076739
 10
-19.0565213081
 20
44.9812694404
  0
LINE
  5
2E6
100
AcDbEntity
  8
0
100
AcDbLine
 62
7
  6
CONTINUOUS
 10
-18.5934184556
 20
50.9821549904
 11
-18.6154477712
 21
51.1814194443
  0
LWPOLYLINE
  5
2E7
100
AcDbEntity
  8
0
100
AcDbPolyline
 62
7
  6
CONTINUOUS
 90
43
 70
0
 10
-14.8069588515
 20
50.8765791307
 10
-14.8109979273
 20
50.9693680211
 10
-14.8232152751
 20
51.0624902121
 10
-14.843735695
 20
51.1555928065
 10
-14.8726669993
 20
51.2483725899
 10
-14.9100570506
 20
51.3404318961
 10
-14.9558644178
 20
51.4313112764
 10
-15.0100817242
 20
51.5207350468
 10
-15.0726595068
 20
51.6083953714
 10
-15.1433972217
 20
51.6938534458
 10
-15.2222677069
 20
51.7769458353
 10
-15.3090842914
 20
51.8573481279
 10
-15.4032323658
 20
51.9344533486
 10
-15.5044075883
 20
52.0080422629
 10
-15.6123857761
 20
52.0779699645
 10
-15.7264552517
 20
52.1438218481
 10
-15.8461273595
 20
52.2054038874
 10
-15.9711378721
 20
52.2626559589
 10
-16.1009833255
 20
52.3154115945
 10
-16.2352019364
 20
52.363550536
 10
-16.3734195536
 20
52.4069980347
 10
-16.5152129204
 20
52.4456700341
 10
-16.6601247877
 20
52.4794858763
 10
-16.8077311241
 20
52.5083856022
 10
-16.9576352003
 20
52.5323221079
 10
-17.1093839342
 20
52.5512470252
 10
-17.2625231786
 20
52.5651241976
 10
-17.4166435017
 20
52.573931255
 10
-17.5712895534
 20
52.5776512832
 10
-17.7259972889
 20
52.5762793607
 10
-17.8803414346
 20
52.5698211821
 10
-18.0338559282
 20
52.5582940329
 10
-18.1860924732
 20
52.541726485
 10
-18.3366578811
 20
52.5201497997
 10
-18.4851162022
 20
52.4936078481
 10
-18.6310088193
 20
52.462160444
 10
-18.7739232353
 20
52.4258696659
 10
-18.9134393101
 20
52.3848086812
 10
-19.0491207791
 20
52.3390672646
 10
-19.1805586715
 20
52.2887392225
 10
-19.3073562376
 20
52.2339246387
 10
-19.4291143288
 20
52.1747360134
 10
-19.5454413147
 20
52.1112953715
  0
LINE
  5
2E8
100
AcDbEntity
  8
RACCORDO
100
AcDbLine
 62
7
  6
CONTINUOUS
 10
9.2277434945
 20
19.0668060646
 11
9.1923881554
 21
19.046392335
  0
LWPOLYLINE
  5
2E9
100
AcDbEntity
  8
0
100
AcDbPolyline
 62
7
  6
CONTINUOUS
 90
3
 70
0
 10
60.4940130699
 20
5.8414324053
 10
60.4526630468
 20
5.8301349661
 10
60.3702070359
 20
5.8068466193
  0
LWPOLYLINE
  5
2EA
100
AcDbEntity
  8
0
100
AcDbPolyline
 62
7
  6
CONTINUOUS
 90
3
 70
0
 10
60.6181311482
 20
5.8739975688
 10
60.5769395174
 20
5.863402675
 10
60.4940130699
 20
5.8414324053
  0
LWPOLYLINE
  5
2EB
100
AcDbEntity
  8
0
100
AcDbPolyline
 62
7
  6
CONTINUOUS
 90
3
 70
0
 10
60.7404725676
 20
5.9041733921
 10
60.6997770645
 20
5.8942787274
 10
60.6181311482
 20
5.8739975688
  0
LWPOLYLINE
  5
2EC
100
AcDbEntity
  8
0
100
AcDbPolyline
 62
250
  6
CONTINUOUS
 90
9
 70
0
 10
59.7683015894
 20
7.2365587232
 10
59.6371039892
 20
7.2051212089
 10
59.5090984068
 20
7.1698015006
 10
59.3847279384
 20
7.130745592
 10
59.2642097262
 20
7.0880459788
 10
59.1477179742
 20
7.0417738491
 10
59.0355251583
 20
6.9920345909
 10
58.927985369
 20
6.9389822625
 10
58.8253916382
 20
6.8827617887
  0
LINE
  5
2ED
100
AcDbEntity
  8
0
100
AcDbLine
 62
7
  6
CONTINUOUS
 10
60.1311945561
 20
5.7336956462
 11
60.10748207
 21
5.7280896279
  0
LWPOLYLINE
  5
2EE
100
AcDbEntity
  8
RACCORDO
100
AcDbPolyline
 62
7
  6
CONTINUOUS
 90
10
 70
0
 10
64.1977649975
 20
-12.5418670204
 10
64.1804827859
 20
-12.5408335549
 10
64.1593979995
 20
-12.5408335549
 10
64.1386534997
 20
-12.5420740631
 10
64.1182603896
 20
-12.544595556
 10
64.0982075661
 20
-12.5483575571
 10
64.0791422927
 20
-12.5532386369
 10
64.0612803239
 20
-12.5591983187
 10
64.0444059051
 20
-12.5662770792
 10
64.0285190364
 20
-12.5744749183
  0
LWPOLYLINE
  5
2EF
100
AcDbEntity
  8
0
100
AcDbPolyline
 62
7
  6
CONTINUOUS
 90
3
 70
0
 10
18.2162366993
 20
-19.1710545143
 10
18.193571811
 20
-19.1637174936
 10
18.1481463239
 20
-19.1493274349
  0
LWPOLYLINE
  5
2F0
100
AcDbEntity
  8
TRASH
100
AcDbPolyline
 62
7
  6
CONTINUOUS
 90
6
 70
0
 10
18.2315298634
 20
-18.4030657312
 10
18.2756036876
 20
-18.4204348529
 10
18.3182446706
 20
-18.4389759952
 10
18.359358848
 20
-18.4586501415
 10
18.3988489765
 20
-18.4794135861
 10
18.4366344912
 20
-18.5012241611
  0
LWPOLYLINE
  5
2F1
100
AcDbEntity
  8
0
100
AcDbPolyline
 62
250
  6
CONTINUOUS
 90
26
 70
0
 10
15.9008756587
 20
-20.3422168534
 10
16.0135013657
 20
-20.3921925453
 10
16.130472261
 20
-20.4386759125
 10
16.2515047598
 20
-20.4815565671
 10
16.3762571623
 20
-20.5207136482
 10
16.5043792238
 20
-20.5560383358
 10
16.6355248044
 20
-20.5874362799
 10
16.7693444619
 20
-20.6148239266
 10
16.9054786292
 20
-20.6381268211
 10
17.0435456788
 20
-20.6572787882
 10
17.1831537443
 20
-20.6722256074
 10
17.3239103203
 20
-20.6829263752
 10
17.465436891
 20
-20.6893534212
 10
17.6073576676
 20
-20.6914897864
 10
17.7492923235
 20
-20.6893288142
 10
17.8908411269
 20
-20.6828756742
 10
18.0315994125
 20
-20.6721490604
 10
18.1711685883
 20
-20.6571808832
 10
18.3091776988
 20
-20.6380124229
 10
18.4452680016
 20
-20.6146934346
 10
18.5791297661
 20
-20.58727263
 10
18.7103273662
 20
-20.5558349607
 10
18.8383329487
 20
-20.5205152105
 10
18.9627034171
 20
-20.4814595045
 10
19.0832216293
 20
-20.4387602069
 10
19.1997133812
 20
-20.3924882671
  0
LWPOLYLINE
  5
2F2
100
AcDbEntity
  8
0
100
AcDbPolyline
 62
7
  6
CONTINUOUS
 90
7
 70
0
 10
16.5055446024
 20
-18.1786654953
 10
16.5217318641
 20
-18.1870815328
 10
16.537643619
 20
-18.1954820462
 10
16.5532798671
 20
-18.2038670353
 10
16.5686406084
 20
-18.2122365003
 10
16.5837258428
 20
-18.2205904411
 10
16.5985355704
 20
-18.2289288578
  0
LWPOLYLINE
  5
2F3
100
AcDbEntity
  8
TRASH
100
AcDbPolyline
 62
7
  6
CONTINUOUS
 90
16
 70
0
 10
16.9823878397
 20
-18.4030657312
 10
17.0354801619
 20
-18.4334581327
 10
17.0865221627
 20
-18.4623527499
 10
17.1355749711
 20
-18.4897229467
 10
17.1827294979
 20
-18.515449032
 10
17.2280662567
 20
-18.5395890132
 10
17.2716395249
 20
-18.5623721424
 10
17.3135036388
 20
-18.5837301503
 10
17.3538404948
 20
-18.6036479266
 10
17.3928653852
 20
-18.622435918
 10
17.4306809636
 20
-18.6400969248
 10
17.4674218282
 20
-18.656575238
 10
17.5032979827
 20
-18.6721119985
 10
17.5384429391
 20
-18.6867863184
 10
17.5729508163
 20
-18.700508824
 10
17.606952242
 20
-18.7132829144
  0
LWPOLYLINE
  5
2F4
100
AcDbEntity
  8
TRASH
100
AcDbPolyline
 62
7
  6
CONTINUOUS
 90
16
 70
0
 10
-61.3650435158
 20
26.8337592095
 10
-61.3119511936
 20
26.803366808
 10
-61.2609091928
 20
26.7744721908
 10
-61.2118563843
 20
26.747101994
 10
-61.1647018575
 20
26.7213759088
 10
-61.1193650987
 20
26.6972359275
 10
-61.0757918305
 20
26.6744527983
 10
-61.0339277166
 20
26.6530947904
 10
-60.9935908607
 20
26.6331770141
 10
-60.9545659702
 20
26.6143890227
 10
-60.9167503919
 20
26.5967280159
 10
-60.8800095273
 20
26.5802497027
 10
-60.8441333728
 20
26.5647129422
 10
-60.8089884164
 20
26.5500386224
 10
-60.7744805392
 20
26.5363161167
 10
-60.7404791135
 20
26.5235420263
  0
LINE
  5
2F5
100
AcDbEntity
  8
0
100
AcDbLine
 62
7
  6
CONTINUOUS
 10
-60.0584014615
 20
26.0312793077
 11
-60.1071103354
 21
26.0600757752
  0
LINE
  5
2F6
100
AcDbEntity
  8
0
100
AcDbLine
 62
7
  6
CONTINUOUS
 10
18.2890298939
 20
-19.205545633
 11
18.2403210201
 21
-19.1767491655
  0
LINE
  5
2F7
100
AcDbEntity
  8
0
100
AcDbLine
 62
7
  6
CONTINUOUS
 10
-60.00991412
 20
26.0020929332
 11
-60.0584014615
 21
26.0312793077
  0
LINE
  5
2F8
100
AcDbEntity
  8
0
100
AcDbLine
 62
7
  6
CONTINUOUS
 10
18.3375172355
 20
-19.2347320075
 11
18.2890298939
 21
-19.205545633
  0
LINE
  5
2F9
100
AcDbEntity
  8
0
100
AcDbLine
 62
7
  6
CONTINUOUS
 10
-59.9616483695
 20
25.9725165937
 11
-60.00991412
 21
26.0020929332
  0
LINE
  5
2FA
100
AcDbEntity
  8
0
100
AcDbLine
 62
7
  6
CONTINUOUS
 10
18.385782986
 20
-19.264308347
 11
18.3375172355
 21
-19.2347320075
  0
LINE
  5
2FB
100
AcDbEntity
  8
0
100
AcDbLine
 62
7
  6
CONTINUOUS
 10
-19.0395793697
 20
43.9903602591
 11
-19.0508066282
 21
44.0335730133
  0
LINE
  5
2FC
100
AcDbEntity
  8
0
100
AcDbLine
 62
7
  6
CONTINUOUS
 10
-19.0395795502
 20
44.8884782307
 11
-19.0508067264
 21
44.931690931
  0
LINE
  5
2FD
100
AcDbEntity
  8
0
100
AcDbLine
 62
7
  6
CONTINUOUS
 10
-18.4197551327
 20
51.6102966513
 11
-18.3419588515
 21
51.0039143988
  0
LINE
  5
2FE
100
AcDbEntity
  8
0
100
AcDbLine
 62
7
  6
CONTINUOUS
 10
-18.5866162414
 20
50.9779190295
 11
-18.6111883677
 21
51.1985607628
  0
LINE
  5
2FF
100
AcDbEntity
  8
RACCORDO
100
AcDbLine
 62
7
  6
CONTINUOUS
 10
0.4242640687
 20
23.2924481056
 11
0.3446579725
 21
33.7792716777
  0
LWPOLYLINE
  5
300
100
AcDbEntity
  8
0
100
AcDbPolyline
 62
250
  6
CONTINUOUS
 90
3
 70
0
 10
60.0382536567
 20
7.2872984049
 10
59.9021633539
 20
7.2639794157
 10
59.7683015894
 20
7.2365587232
  0
LWPOLYLINE
  5
301
100
AcDbEntity
  8
0
100
AcDbPolyline
 62
7
  6
CONTINUOUS
 90
16
 70
0
 10
60.7404724403
 20
6.8427700574
 10
60.7811679434
 20
6.848677296
 10
60.8219234328
 20
6.8541766913
 10
60.8628138596
 20
6.8593044378
 10
60.9040054904
 20
6.8641363279
 10
60.9454725622
 20
6.8686441018
 10
60.9869319379
 20
6.8727290044
 10
61.0282819611
 20
6.8764607781
 10
61.0695937495
 20
6.8798723016
 10
61.1107379719
 20
6.8828498096
 10
61.1516202019
 20
6.8854691391
 10
61.1922118279
 20
6.8877855238
 10
61.2324118694
 20
6.8896738747
 10
61.2721175302
 20
6.8911464376
 10
61.3112567434
 20
6.8923466795
 10
61.3497504517
 20
6.893354754
  0
LINE
  5
302
100
AcDbEntity
  8
0
100
AcDbLine
 62
250
  6
CONTINUOUS
 10
60.1762627672
 20
7.3064669088
 11
60.1613388823
 21
7.3049015443
  0
LWPOLYLINE
  5
303
100
AcDbEntity
  8
0
100
AcDbPolyline
 62
7
  6
CONTINUOUS
 90
7
 70
0
 10
61.5193136563
 20
6.912334361
 10
61.4950192668
 20
6.9094375971
 10
61.4707192518
 20
6.9063833518
 10
61.4464136114
 20
6.903171625
 10
61.4221023457
 20
6.8998024168
 10
61.3977854545
 20
6.896275727
 10
61.3734629379
 20
6.8925915559
  0
LINE
  5
304
100
AcDbEntity
  8
0
100
AcDbLine
 62
250
  6
CONTINUOUS
 10
60.315831943
 20
7.321435117
 11
60.3135754272
 21
7.3214690921
  0
LWPOLYLINE
  5
305
100
AcDbEntity
  8
0
100
AcDbPolyline
 62
7
  6
CONTINUOUS
 90
24
 70
0
 10
60.4893682381
 20
-0.9475302394
 10
60.4211965236
 20
-0.9467813859
 10
60.333014895
 20
-0.9425758897
 10
60.2464413135
 20
-0.935199439
 10
60.161817445
 20
-0.9247165898
 10
60.0794772609
 20
-0.9112041576
 10
59.99974572
 20
-0.8947509142
 10
59.9229374857
 20
-0.8754572375
 10
59.8493556847
 20
-0.8534347154
 10
59.7792907105
 20
-0.828805705
 10
59.7130190772
 20
-0.8017028503
 10
59.6508023283
 20
-0.7722685581
 10
59.5928860047
 20
-0.7406544367
 10
59.5394986754
 20
-0.7070206969
 10
59.4908510355
 20
-0.67153552
 10
59.4471350748
 20
-0.6343743943
 10
59.4085233202
 20
-0.595719422
 10
59.3751681545
 20
-0.5557586011
 10
59.347201215
 20
-0.5146850829
 10
59.3247328746
 20
-0.4726964103
 10
59.3078518053
 20
-0.4299937377
 10
59.2966246291
 20
-0.3867810374
 10
59.2910956545
 20
-0.3432642945
 10
59.2904725039
 20
-0.3229127384
  0
LWPOLYLINE
  5
306
100
AcDbEntity
  8
0
100
AcDbPolyline
 62
250
  6
CONTINUOUS
 90
26
 70
0
 10
-62.4465556968
 20
24.8946080873
 10
-62.3339299898
 20
24.8446323954
 10
-62.2169590945
 20
24.7981490282
 10
-62.0959265957
 20
24.7552683736
 10
-61.9711741932
 20
24.7161112926
 10
-61.8430521316
 20
24.6807866049
 10
-61.7119065511
 20
24.6493886608
 10
-61.5780868936
 20
24.6220010141
 10
-61.4419527263
 20
24.5986981196
 10
-61.3038856767
 20
24.5795461525
 10
-61.1642776111
 20
24.5645993333
 10
-61.0235210351
 20
24.5538985655
 10
-60.8819944645
 20
24.5474715195
 10
-60.7400736879
 20
24.5453351544
 10
-60.5981390319
 20
24.5474961265
 10
-60.4565902285
 20
24.5539492665
 10
-60.315831943
 20
24.5646758803
 10
-60.1762627672
 20
24.5796440575
 10
-60.0382536567
 20
24.5988125178
 10
-59.9021633539
 20
24.6221315061
 10
-59.7683015894
 20
24.6495523107
 10
-59.6371039892
 20
24.68098998
 10
-59.5090984068
 20
24.7163097302
 10
-59.3847279384
 20
24.7553654363
 10
-59.2642097262
 20
24.7980647338
 10
-59.1477179742
 20
24.8443366736
  0
LWPOLYLINE
  5
307
100
AcDbEntity
  8
0
100
AcDbPolyline
 62
7
  6
CONTINUOUS
 90
7
 70
0
 10
-61.841886753
 20
27.0581594455
 10
-61.8256994913
 20
27.0497434079
 10
-61.8097877364
 20
27.0413428946
 10
-61.7941514884
 20
27.0329579054
 10
-61.7787907471
 20
27.0245884404
 10
-61.7637055127
 20
27.0162344996
 10
-61.748895785
 20
27.0078960829
  0
LINE
  5
308
100
AcDbEntity
  8
SMUSSO
100
AcDbLine
 62
7
  6
CONTINUOUS
 10
-66.9642302823
 20
32.798745271
 11
31.1769333055
 21
-23.8667325869
  0
LWPOLYLINE
  5
309
100
AcDbEntity
  8
0
100
AcDbPolyline
 62
7
  6
CONTINUOUS
 90
10
 70
0
 10
16.5055325713
 20
-19.0780419118
 10
16.5357176216
 20
-19.1017280027
 10
16.5674297387
 20
-19.1247393
 10
16.6006237164
 20
-19.147043001
 10
16.6352522365
 20
-19.1686073114
 10
16.6712659355
 20
-19.189401491
 10
16.7086134755
 20
-19.2093958976
 10
16.7472416172
 20
-19.2285620289
 10
16.7870952957
 20
-19.2468725633
 10
16.8281176992
 20
-19.2643013989
  0
LWPOLYLINE
  5
30A
100
AcDbEntity
  8
0
100
AcDbPolyline
 62
7
  6
CONTINUOUS
 90
10
 70
0
 10
18.7083851349
 20
-18.1786753217
 10
18.6782000844
 20
-18.1549892305
 10
18.6464879671
 20
-18.1319779328
 10
18.6132939891
 20
-18.1096742315
 10
18.5786654687
 20
-18.0881099208
 10
18.5426517693
 20
-18.0673157409
 10
18.5053042289
 20
-18.047321334
 10
18.4666760868
 20
-18.0281552025
 10
18.4268224078
 20
-18.0098446679
 10
18.3858000039
 20
-17.992415832
  0
LINE
  5
30B
100
AcDbEntity
  8
SMUSSO
100
AcDbLine
 62
250
  6
CONTINUOUS
 10
17.3099744883
 20
-31.8733408142
 11
17.4514012292
 21
-32.1168802331
  0
LINE
  5
30C
100
AcDbEntity
  8
0
100
AcDbLine
 62
7
  6
CONTINUOUS
 10
-18.385782989
 20
52.1491662486
 11
-18.2552450846
 21
51.7767070135
  0
LINE
  5
30D
100
AcDbEntity
  8
0
100
AcDbLine
 62
7
  6
CONTINUOUS
 10
-16.6027293056
 20
51.1985606898
 11
-16.5985355704
 21
51.1816847893
  0
LINE
  5
30E
100
AcDbEntity
  8
RACCORDO
100
AcDbLine
 62
250
  6
CONTINUOUS
 10
1.166726189
 20
23.7211364286
 11
1.166726189
 21
33.3046197925
  0
LINE
  5
30F
100
AcDbEntity
  8
RACCORDO
100
AcDbLine
 62
250
  6
CONTINUOUS
 10
1.4495689014
 20
23.7211364286
 11
1.4495689014
 21
33.1413099551
  0
LINE
  5
310
100
AcDbEntity
  8
RACCORDO
100
AcDbLine
 62
7
  6
CONTINUOUS
 10
2.0506096654
 20
23.1699657276
 11
2.0506096654
 21
32.7942765508
  0
LINE
  5
311
100
AcDbEntity
  8
0
100
AcDbLine
 62
250
  6
CONTINUOUS
 10
60.4670899208
 20
7.3329962414
 11
60.4565902285
 21
7.3321617249
  0
LINE
  5
312
100
AcDbEntity
  8
0
100
AcDbLine
 62
7
  6
CONTINUOUS
 10
60.1071103267
 20
6.8925787508
 11
60.1311946562
 21
6.893354752
  0
LWPOLYLINE
  5
313
100
AcDbEntity
  8
0
100
AcDbPolyline
 62
7
  6
CONTINUOUS
 90
20
 70
0
 10
60.3399529919
 20
-0.8612597488
 10
60.333014895
 20
-0.860928862
 10
60.2464413135
 20
-0.8535524113
 10
60.161817445
 20
-0.8430695621
 10
60.0794772609
 20
-0.8295571299
 10
59.99974572
 20
-0.8131038865
 10
59.9229374857
 20
-0.7938102099
 10
59.8493556847
 20
-0.7717876877
 10
59.7792907105
 20
-0.7471586773
 10
59.7130190772
 20
-0.7200558226
 10
59.6508023283
 20
-0.6906215304
 10
59.5928860047
 20
-0.659007409
 10
59.5394986754
 20
-0.6253736692
 10
59.4908510355
 20
-0.5898884923
 10
59.4471350748
 20
-0.5527273666
 10
59.4085233202
 20
-0.5140723943
 10
59.3751681545
 20
-0.4741115734
 10
59.347201215
 20
-0.4330380552
 10
59.3247328746
 20
-0.3910493826
 10
59.3078518053
 20
-0.34834671
  0
LINE
  5
314
100
AcDbEntity
  8
0
100
AcDbLine
 62
7
  6
CONTINUOUS
 10
-60.2675170671
 20
26.1085522845
 11
-60.3128605122
 21
26.122162625
  0
LINE
  5
315
100
AcDbEntity
  8
0
100
AcDbLine
 62
7
  6
CONTINUOUS
 10
-60.2220293489
 20
26.0945894019
 11
-60.2675170671
 21
26.1085522845
  0
LWPOLYLINE
  5
316
100
AcDbEntity
  8
0
100
AcDbPolyline
 62
7
  6
CONTINUOUS
 90
4
 70
0
 10
-60.1311946562
 20
26.0657704264
 10
-60.1538595445
 20
26.0731074471
 10
-60.1765595564
 20
26.0803457217
 10
-60.2220293489
 20
26.0945894019
  0
LWPOLYLINE
  5
317
100
AcDbEntity
  8
TRASH
100
AcDbPolyline
 62
7
  6
CONTINUOUS
 90
6
 70
0
 10
-60.115901492
 20
26.8337592095
 10
-60.0718276679
 20
26.8163900878
 10
-60.0291866849
 20
26.7978489455
 10
-59.9880725074
 20
26.7781747992
 10
-59.948582379
 20
26.7574113546
 10
-59.9107968643
 20
26.7356007796
  0
LWPOLYLINE
  5
318
100
AcDbEntity
  8
TRASH
100
AcDbPolyline
 62
7
  6
CONTINUOUS
 90
9
 70
0
 10
18.3419588511
 20
-19.1376607351
 10
18.3542627029
 20
-19.1516118926
 10
18.3668400089
 20
-19.1650708385
 10
18.3796965499
 20
-19.1781126009
 10
18.3927415124
 20
-19.1908311354
 10
18.4060476252
 20
-19.2032632111
 10
18.4198412656
 20
-19.2154097983
 10
18.4340505232
 20
-19.2273556933
 10
18.4469734308
 20
-19.2377908871
  0
LWPOLYLINE
  5
319
100
AcDbEntity
  8
0
100
AcDbPolyline
 62
7
  6
CONTINUOUS
 90
3
 70
0
 10
18.6153821326
 20
-18.9598903444
 10
18.6302466316
 20
-18.9783508648
 10
18.6453647288
 20
-18.9973046032
  0
LINE
  5
31A
100
AcDbEntity
  8
0
100
AcDbLine
 62
7
  6
CONTINUOUS
 10
18.6453647288
 20
-18.9973046032
 11
18.6763617182
 21
-19.0366917336
  0
LINE
  5
31B
100
AcDbEntity
  8
0
100
AcDbLine
 62
7
  6
CONTINUOUS
 10
18.6763617182
 20
-19.0366917336
 11
18.7083731006
 21
-19.0780517357
  0
LWPOLYLINE
  5
31C
100
AcDbEntity
  8
0
100
AcDbPolyline
 62
7
  6
CONTINUOUS
 90
3
 70
0
 10
16.6288198463
 20
-18.2771285874
 10
16.6116363757
 20
-18.2523826929
 10
16.6027293056
 20
-18.2394355419
  0
LINE
  5
31D
100
AcDbEntity
  8
0
100
AcDbLine
 62
7
  6
CONTINUOUS
 10
16.6369101002
 20
-18.2889470446
 11
16.6288198463
 21
-18.2771285874
  0
LINE
  5
31E
100
AcDbEntity
  8
0
100
AcDbLine
 62
7
  6
CONTINUOUS
 10
16.6594110829
 20
-18.3223516346
 11
16.6369101002
 21
-18.2889470446
  0
LWPOLYLINE
  5
31F
100
AcDbEntity
  8
0
100
AcDbPolyline
 62
7
  6
CONTINUOUS
 90
3
 70
0
 10
16.6923146127
 20
-18.3721910374
 10
16.6797475306
 20
-18.3530142248
 10
16.6594110829
 20
-18.3223516346
  0
LINE
  5
320
100
AcDbEntity
  8
0
100
AcDbLine
 62
7
  6
CONTINUOUS
 10
16.7100763797
 20
-18.3994795446
 11
16.6923146127
 21
-18.3721910374
  0
LINE
  5
321
100
AcDbEntity
  8
0
100
AcDbLine
 62
7
  6
CONTINUOUS
 10
16.754506237
 20
-18.4687000095
 11
16.7100763797
 21
-18.3994795446
  0
LINE
  5
322
100
AcDbEntity
  8
0
100
AcDbLine
 62
7
  6
CONTINUOUS
 10
16.7941625704
 20
-18.5312784824
 11
16.754506237
 21
-18.4687000095
  0
LINE
  5
323
100
AcDbEntity
  8
TRASH
100
AcDbLine
 62
7
  6
CONTINUOUS
 10
16.9586486696
 20
-18.3648869813
 11
16.9823828059
 21
-18.4030627112
  0
LINE
  5
324
100
AcDbEntity
  8
0
100
AcDbLine
 62
7
  6
CONTINUOUS
 10
18.4197551327
 20
-18.5312784789
 11
18.4255109739
 21
-18.5419789077
  0
LWPOLYLINE
  5
325
100
AcDbEntity
  8
0
100
AcDbPolyline
 62
7
  6
CONTINUOUS
 90
3
 70
0
 10
18.4255109739
 20
-18.5419789077
 10
18.4369094255
 20
-18.5635117954
 10
18.4425775576
 20
-18.5743616896
  0
LINE
  5
326
100
AcDbEntity
  8
0
100
AcDbLine
 62
7
  6
CONTINUOUS
 10
-16.737937043
 20
51.5012338951
 11
-16.7269313244
 21
51.4787539531
  0
LINE
  5
327
100
AcDbEntity
  8
0
100
AcDbLine
 62
7
  6
CONTINUOUS
 10
-16.7269313244
 20
51.4787539531
 11
-16.7157855935
 21
51.4555624748
  0
LINE
  5
328
100
AcDbEntity
  8
0
100
AcDbLine
 62
7
  6
CONTINUOUS
 10
-16.7157855935
 20
51.4555624748
 11
-16.7042752541
 21
51.4312553554
  0
LWPOLYLINE
  5
329
100
AcDbEntity
  8
0
100
AcDbPolyline
 62
7
  6
CONTINUOUS
 90
3
 70
0
 10
-16.7042752541
 20
51.4312553554
 10
-16.6923146127
 20
51.4055330578
 10
-16.6860973533
 20
51.3919934777
  0
LWPOLYLINE
  5
32A
100
AcDbEntity
  8
0
100
AcDbPolyline
 62
7
  6
CONTINUOUS
 90
3
 70
0
 10
-16.6860973533
 20
51.3919934777
 10
-16.673156119
 20
51.3633968042
 10
-16.6663699582
 20
51.3482115064
  0
LWPOLYLINE
  5
32B
100
AcDbEntity
  8
0
100
AcDbPolyline
 62
7
  6
CONTINUOUS
 90
3
 70
0
 10
-16.6663699582
 20
51.3482115064
 10
-16.6521472817
 20
51.3158667262
 10
-16.6446352618
 20
51.2985610332
  0
LWPOLYLINE
  5
32C
100
AcDbEntity
  8
0
100
AcDbPolyline
 62
7
  6
CONTINUOUS
 90
4
 70
0
 10
-16.6446352618
 20
51.2985610332
 10
-16.6203534368
 20
51.2414857342
 10
-16.6116363757
 20
51.2205311266
 10
-16.6027293056
 20
51.1985606898
  0
LINE
  5
32D
100
AcDbEntity
  8
0
100
AcDbLine
 62
7
  6
CONTINUOUS
 10
-18.6153821326
 20
51.9126462759
 11
-18.6111883975
 21
51.9021395918
  0
LWPOLYLINE
  5
32E
100
AcDbEntity
  8
0
100
AcDbPolyline
 62
250
  6
CONTINUOUS
 90
46
 70
0
 10
14.8069588515
 20
-19.2649959971
 10
14.8107962102
 20
-19.3496073587
 10
14.8223234058
 20
-19.4341275886
 10
14.84148297
 20
-19.5180888
 10
14.8681716015
 20
-19.6011943902
 10
14.9023036155
 20
-19.683289225
 10
14.9438233677
 20
-19.7642640387
 10
14.9926519637
 20
-19.8439401623
 10
15.0486407791
 20
-19.9220539606
 10
15.1116248267
 20
-19.9983708407
 10
15.1814309994
 20
-20.0726813282
 10
15.2578690182
 20
-20.144783117
 10
15.3407102069
 20
-20.2144634837
 10
15.4296751899
 20
-20.281499029
 10
15.5245590381
 20
-20.3457461199
 10
15.6252391053
 20
-20.4071126054
 10
15.7315478855
 20
-20.4654668411
 10
15.8431313028
 20
-20.5205863948
 10
15.9595689581
 20
-20.5722535699
 10
16.0804988688
 20
-20.6203102196
 10
16.2056278522
 20
-20.6646422194
 10
16.3346026436
 20
-20.7051246173
 10
16.4670611439
 20
-20.7416449103
 10
16.6026454977
 20
-20.7741055548
 10
16.7409944356
 20
-20.8024201693
 10
16.8817362204
 20
-20.8265117796
 10
17.0244763082
 20
-20.8463119702
 10
17.1688095698
 20
-20.8617646843
 10
17.3143302151
 20
-20.872827632
 10
17.4606469164
 20
-20.8794722085
 10
17.607371166
 20
-20.8816808849
 10
17.7541097656
 20
-20.8794467869
 10
17.9004494549
 20
-20.8727752515
 10
18.0459718704
 20
-20.8616855888
 10
18.1902649223
 20
-20.846210765
 10
18.3329451003
 20
-20.8263934823
 10
18.4736415351
 20
-20.8022852352
 10
18.612034044
 20
-20.7739364522
 10
18.7476722445
 20
-20.741434888
 10
18.8800103537
 20
-20.7049197367
 10
19.0085901974
 20
-20.6645419487
 10
19.1331873222
 20
-20.6203971482
 10
19.2536217523
 20
-20.5725589113
 10
19.3696118557
 20
-20.5211361766
 10
19.4807915299
 20
-20.4662882178
 10
19.5868578389
 20
-20.408164857
  0
LINE
  5
32F
100
AcDbEntity
  8
RACCORDO
100
AcDbLine
 62
7
  6
CONTINUOUS
 10
9.4045201898
 20
18.1073607703
 11
9.3249140936
 21
28.5941843424
  0
LINE
  5
330
100
AcDbEntity
  8
RACCORDO
100
AcDbLine
 62
7
  6
CONTINUOUS
 10
9.1923881554
 20
28.6707031582
 11
9.1923881554
 21
19.046392335
  0
LINE
  5
331
100
AcDbEntity
  8
RACCORDO
100
AcDbLine
 62
250
  6
CONTINUOUS
 10
9.2277434945
 20
19.0668060646
 11
9.2277434945
 21
28.6502894285
  0
LWPOLYLINE
  5
332
100
AcDbEntity
  8
0
100
AcDbPolyline
 62
7
  6
CONTINUOUS
 90
3
 70
0
 10
60.2088274777
 20
5.7585732558
 10
60.1696882645
 20
5.7462726271
 10
60.1311945561
 20
5.7336956462
  0
LWPOLYLINE
  5
333
100
AcDbEntity
  8
0
100
AcDbPolyline
 62
7
  6
CONTINUOUS
 90
4
 70
0
 10
60.3702070359
 20
5.8068466193
 10
60.3293248059
 20
5.7949723463
 10
60.2887331799
 20
5.7828337441
 10
60.2088274777
 20
5.7585732558
  0
LWPOLYLINE
  5
334
100
AcDbEntity
  8
0
100
AcDbPolyline
 62
7
  6
CONTINUOUS
 90
7
 70
0
 10
60.1311946562
 20
6.893354752
 10
60.1765595564
 20
6.8922574305
 10
60.1992850315
 20
6.8915644862
 10
60.2220293489
 20
6.8907566455
 10
60.2447792806
 20
6.8898336185
 10
60.2675170671
 20
6.8888113422
 10
60.2902021562
 20
6.8876838879
  0
LINE
  5
335
100
AcDbEntity
  8
0
100
AcDbLine
 62
7
  6
CONTINUOUS
 10
61.3734629379
 20
6.8925915559
 11
61.3497504517
 21
6.893354754
  0
LWPOLYLINE
  5
336
100
AcDbEntity
  8
0
100
AcDbPolyline
 62
7
  6
CONTINUOUS
 90
3
 70
0
 10
60.2902021562
 20
6.8876838879
 10
60.3355739119
 20
6.8851053894
 10
60.35825541
 20
6.883653853
  0
LWPOLYLINE
  5
337
100
AcDbEntity
  8
0
100
AcDbPolyline
 62
7
  6
CONTINUOUS
 90
3
 70
0
 10
60.35825541
 20
6.883653853
 10
60.4040331022
 20
6.8804048358
 10
60.4273545099
 20
6.8785765072
  0
LWPOLYLINE
  5
338
100
AcDbEntity
  8
0
100
AcDbPolyline
 62
7
  6
CONTINUOUS
 90
3
 70
0
 10
60.4273545099
 20
6.8785765072
 10
60.4753172977
 20
6.8744648566
 10
60.5003130233
 20
6.8721266029
  0
LWPOLYLINE
  5
339
100
AcDbEntity
  8
0
100
AcDbPolyline
 62
7
  6
CONTINUOUS
 90
3
 70
0
 10
60.5003130233
 20
6.8721266029
 10
60.5527399113
 20
6.8667911272
 10
60.5805785491
 20
6.863720201
  0
LWPOLYLINE
  5
33A
100
AcDbEntity
  8
0
100
AcDbPolyline
 62
7
  6
CONTINUOUS
 90
7
 70
0
 10
59.9616483665
 20
6.9123413078
 10
59.9857535398
 20
6.9094583949
 10
60.0099141176
 20
6.9064111502
 10
60.0341300925
 20
6.9031995686
 10
60.0584014572
 20
6.899823645
 10
60.0827282044
 20
6.8962833741
 10
60.1071103267
 20
6.8925787508
  0
LWPOLYLINE
  5
33B
100
AcDbEntity
  8
0
100
AcDbPolyline
 62
7
  6
CONTINUOUS
 90
5
 70
0
 10
60.5805785491
 20
6.863720201
 10
60.6398673912
 20
6.8566090511
 10
60.6720337611
 20
6.8525644903
 10
60.7056054631
 20
6.8479933126
 10
60.7404724403
 20
6.8427700574
  0
LINE
  5
33C
100
AcDbEntity
  8
0
100
AcDbLine
 62
7
  6
CONTINUOUS
 10
-60.1311946562
 20
26.0657704264
 11
-60.1071103354
 21
26.0600757752
  0
LWPOLYLINE
  5
33D
100
AcDbEntity
  8
0
100
AcDbPolyline
 62
7
  6
CONTINUOUS
 90
3
 70
0
 10
-60.6398673912
 20
26.2115691457
 10
-60.7056054631
 20
26.2275573648
 10
-60.7404724403
 20
26.2362481398
  0
LINE
  5
33E
100
AcDbEntity
  8
0
100
AcDbLine
 62
7
  6
CONTINUOUS
 10
-60.6094263354
 20
26.2039398652
 11
-60.6398673912
 21
26.2115691457
  0
LINE
  5
33F
100
AcDbEntity
  8
0
100
AcDbLine
 62
7
  6
CONTINUOUS
 10
-60.5259499589
 20
26.1821408308
 11
-60.6094263354
 21
26.2039398652
  0
LINE
  5
340
100
AcDbEntity
  8
0
100
AcDbLine
 62
7
  6
CONTINUOUS
 10
-60.450970616
 20
26.1617658036
 11
-60.5259499589
 21
26.1821408308
  0
LINE
  5
341
100
AcDbEntity
  8
0
100
AcDbLine
 62
7
  6
CONTINUOUS
 10
-60.380974431
 20
26.1420375322
 11
-60.450970616
 21
26.1617658036
  0
LWPOLYLINE
  5
342
100
AcDbEntity
  8
0
100
AcDbPolyline
 62
7
  6
CONTINUOUS
 90
3
 70
0
 10
-60.3128605122
 20
26.122162625
 10
-60.3355739119
 20
26.1288533554
 10
-60.380974431
 20
26.1420375322
  0
LINE
  5
343
100
AcDbEntity
  8
SMUSSO
100
AcDbLine
 62
7
  6
CONTINUOUS
 10
74.6704760933
 20
-27.7418760604
 11
73.3977000427
 21
-27.0069911204
  0
LINE
  5
344
100
AcDbEntity
  8
SMUSSO
100
AcDbLine
 62
7
  6
CONTINUOUS
 10
-24.1830519166
 20
29.3349120868
 11
-22.9102758659
 21
28.6000271468
  0
LINE
  5
345
100
AcDbEntity
  8
0
100
AcDbLine
 62
7
  6
CONTINUOUS
 10
-17.6069588515
 20
42.1118946565
 11
-18.6110974626
 21
43.4081652083
  0
LWPOLYLINE
  5
346
100
AcDbEntity
  8
0
100
AcDbPolyline
 62
7
  6
CONTINUOUS
 90
6
 70
0
 10
-18.6110974626
 20
43.4081652083
 10
-18.6232263373
 20
43.4244271795
 10
-18.648581994
 20
43.4633248285
 10
-18.6694772605
 20
43.5030966988
 10
-18.68582266
 20
43.5435724814
 10
-18.6916934949
 20
43.5641038733
  0
LWPOLYLINE
  5
347
100
AcDbEntity
  8
0
100
AcDbPolyline
 62
7
  6
CONTINUOUS
 90
3
 70
0
 10
-18.5850978568
 20
51.8644465463
 10
-18.6022813274
 20
51.8891924408
 10
-18.6111883975
 20
51.9021395918
  0
LINE
  5
348
100
AcDbEntity
  8
0
100
AcDbLine
 62
7
  6
CONTINUOUS
 10
-18.5770076029
 20
51.8526280891
 11
-18.5850978568
 21
51.8644465463
  0
LINE
  5
349
100
AcDbEntity
  8
0
100
AcDbLine
 62
7
  6
CONTINUOUS
 10
-18.5545066201
 20
51.8192234991
 11
-18.5770076029
 21
51.8526280891
  0
LINE
  5
34A
100
AcDbEntity
  8
0
100
AcDbLine
 62
7
  6
CONTINUOUS
 10
-18.5155321649
 20
51.7601133912
 11
-18.5278203497
 21
51.7788661459
  0
LWPOLYLINE
  5
34B
100
AcDbEntity
  8
0
100
AcDbPolyline
 62
7
  6
CONTINUOUS
 90
3
 70
0
 10
-18.5278203497
 20
51.7788661459
 10
-18.5341701725
 20
51.7885609089
 10
-18.5545066201
 20
51.8192234991
  0
LINE
  5
34C
100
AcDbEntity
  8
0
100
AcDbLine
 62
7
  6
CONTINUOUS
 10
-18.4594114661
 20
51.6728751242
 11
-18.5155321649
 21
51.7601133912
  0
LINE
  5
34D
100
AcDbEntity
  8
0
100
AcDbLine
 62
7
  6
CONTINUOUS
 10
-18.448227569
 20
51.655271751
 11
-18.4594114661
 21
51.6728751242
  0
LINE
  5
34E
100
AcDbEntity
  8
0
100
AcDbLine
 62
7
  6
CONTINUOUS
 10
-18.4197551327
 20
51.6102966513
 11
-18.448227569
 21
51.655271751
  0
LINE
  5
34F
100
AcDbEntity
  8
TRASH
100
AcDbLine
 62
7
  6
CONTINUOUS
 10
-18.2552690335
 20
51.7766881524
 11
-18.2315348971
 21
51.7385124225
  0
LINE
  5
350
100
AcDbEntity
  8
0
100
AcDbLine
 62
7
  6
CONTINUOUS
 10
-16.7941625704
 20
51.6102966548
 11
-16.7884067292
 21
51.599596226
  0
LINE
  5
351
100
AcDbEntity
  8
0
100
AcDbLine
 62
7
  6
CONTINUOUS
 10
-16.7884067292
 20
51.599596226
 11
-16.7770082776
 21
51.5780633383
  0
LINE
  5
352
100
AcDbEntity
  8
0
100
AcDbLine
 62
7
  6
CONTINUOUS
 10
-16.7770082776
 20
51.5780633383
 11
-16.765690134
 21
51.5563069723
  0
LINE
  5
353
100
AcDbEntity
  8
0
100
AcDbLine
 62
7
  6
CONTINUOUS
 10
18.4425775576
 20
-18.5743616896
 11
18.4538378775
 21
-18.5962100091
  0
LINE
  5
354
100
AcDbEntity
  8
0
100
AcDbLine
 62
7
  6
CONTINUOUS
 10
-16.765690134
 20
51.5563069723
 11
-16.754506237
 21
51.5343984221
  0
LINE
  5
355
100
AcDbEntity
  8
0
100
AcDbLine
 62
7
  6
CONTINUOUS
 10
18.4538378775
 20
-18.5962100091
 11
18.4649636548
 21
-18.6181839066
  0
LWPOLYLINE
  5
356
100
AcDbEntity
  8
0
100
AcDbPolyline
 62
7
  6
CONTINUOUS
 90
3
 70
0
 10
-16.754506237
 20
51.5343984221
 10
-16.7434259764
 20
51.5123271381
 10
-16.737937043
 20
51.5012338951
  0
LINE
  5
357
100
AcDbEntity
  8
0
100
AcDbLine
 62
7
  6
CONTINUOUS
 10
18.4649636548
 20
-18.6181839066
 11
18.4759806601
 21
-18.6403412386
  0
LINE
  5
358
100
AcDbEntity
  8
0
100
AcDbLine
 62
7
  6
CONTINUOUS
 10
18.4759806601
 20
-18.6403412386
 11
18.4869863787
 21
-18.6628211806
  0
LINE
  5
359
100
AcDbEntity
  8
0
100
AcDbLine
 62
7
  6
CONTINUOUS
 10
18.4869863787
 20
-18.6628211806
 11
18.4981321096
 21
-18.686012659
  0
LINE
  5
35A
100
AcDbEntity
  8
0
100
AcDbLine
 62
7
  6
CONTINUOUS
 10
18.4981321096
 20
-18.686012659
 11
18.509642449
 21
-18.7103197783
  0
LWPOLYLINE
  5
35B
100
AcDbEntity
  8
0
100
AcDbPolyline
 62
7
  6
CONTINUOUS
 90
3
 70
0
 10
18.509642449
 20
-18.7103197783
 10
18.5216030904
 20
-18.7360420759
 10
18.5278203497
 20
-18.749581656
  0
LWPOLYLINE
  5
35C
100
AcDbEntity
  8
0
100
AcDbPolyline
 62
7
  6
CONTINUOUS
 90
3
 70
0
 10
18.5278203497
 20
-18.749581656
 10
18.5407615841
 20
-18.7781783295
 10
18.5475477449
 20
-18.7933636273
  0
LWPOLYLINE
  5
35D
100
AcDbEntity
  8
0
100
AcDbPolyline
 62
7
  6
CONTINUOUS
 90
3
 70
0
 10
18.5475477449
 20
-18.7933636273
 10
18.5617704214
 20
-18.8257084075
 10
18.5692824413
 20
-18.8430141005
  0
LWPOLYLINE
  5
35E
100
AcDbEntity
  8
0
100
AcDbPolyline
 62
7
  6
CONTINUOUS
 90
4
 70
0
 10
18.5692824413
 20
-18.8430141005
 10
18.5935642663
 20
-18.9000893995
 10
18.6022813274
 20
-18.9210440071
 10
18.6111883975
 20
-18.9430144439
  0
LINE
  5
35F
100
AcDbEntity
  8
0
100
AcDbLine
 62
7
  6
CONTINUOUS
 10
16.5985355704
 20
-18.2289288578
 11
16.6027293056
 21
-18.2394355419
  0
LINE
  5
360
100
AcDbEntity
  8
0
100
AcDbLine
 62
7
  6
CONTINUOUS
 10
16.8281347141
 20
-17.9924088851
 11
16.9586726184
 21
-18.3648681202
  0
LINE
  5
361
100
AcDbEntity
  8
0
100
AcDbLine
 62
7
  6
CONTINUOUS
 10
18.6111883975
 20
-18.9430144439
 11
18.6153821326
 21
-18.9598903444
  0
LWPOLYLINE
  5
362
100
AcDbEntity
  8
0
100
AcDbPolyline
 62
250
  6
CONTINUOUS
 90
45
 70
0
 10
14.8107961233
 20
-20.1945292019
 10
14.8222974838
 20
-20.2789080479
 10
14.8414314125
 20
-20.3628237199
 10
14.8681454783
 20
-20.4460462373
 10
14.9023664584
 20
-20.5283474649
 10
14.9440005231
 20
-20.6095017561
 10
14.9929335049
 20
-20.6892866185
 10
15.0490312958
 20
-20.7674834289
 10
15.1121402129
 20
-20.8438779612
 10
15.1820873454
 20
-20.9182608706
 10
15.2586809461
 20
-20.9904282202
 10
15.3417110283
 20
-21.0601821488
 10
15.4309499891
 20
-21.1273314492
 10
15.5261532499
 20
-21.191692087
 10
15.6270598646
 20
-21.2530876539
 10
15.7333932547
 20
-21.3113498684
 10
15.8448619673
 20
-21.3663190378
 10
15.9611604744
 20
-21.4178444954
 10
16.0819700396
 20
-21.4657850244
 10
16.2069595035
 20
-21.5100092097
 10
16.3357861822
 20
-21.5503958074
 10
16.4680968693
 20
-21.5868341052
 10
16.6035289922
 20
-21.6192242665
 10
16.7417115247
 20
-21.6474775569
 10
16.8822658253
 20
-21.6715165441
 10
17.0248065501
 20
-21.6912753091
 10
17.1689428924
 20
-21.7066996758
 10
17.3142797351
 20
-21.7177473662
 10
17.4604187666
 20
-21.7243881075
 10
17.606959458
 20
-21.7266037001
 10
17.7535001581
 20
-21.7243880706
 10
17.8996392023
 20
-21.7177472913
 10
18.0449760414
 20
-21.7066995632
 10
18.1891123397
 20
-21.6912751635
 10
18.3316530056
 20
-21.6715163696
 10
18.4722072858
 20
-21.6474773492
 10
18.610389899
 20
-21.6192240032
 10
18.745822134
 20
-21.586833771
 10
18.8781328253
 20
-21.5503954237
 10
19.0069593346
 20
-21.5100088313
 10
19.1319485418
 20
-21.465784695
 10
19.2527578552
 20
-21.4178442325
 10
19.3690561447
 20
-21.3663188467
 10
19.4805246478
 20
-21.3113497647
 10
19.5868578389
 20
-21.2530876536
  0
LINE
  5
363
100
AcDbEntity
  8
0
100
AcDbLine
 62
7
  6
CONTINUOUS
 10
16.7941625704
 20
-18.5312784824
 11
16.8719588515
 21
-19.1376607349
  0
LINE
  5
364
100
AcDbEntity
  8
0
100
AcDbLine
 62
7
  6
CONTINUOUS
 10
16.6273014617
 20
-19.1636561042
 11
16.6027293354
 21
-18.9430143709
  0
LINE
  5
365
100
AcDbEntity
  8
0
100
AcDbLine
 62
7
  6
CONTINUOUS
 10
16.6204992474
 20
-19.1594201433
 11
16.5984699319
 21
-18.9601556894
  0
LWPOLYLINE
  5
366
100
AcDbEntity
  8
0
100
AcDbPolyline
 62
7
  6
CONTINUOUS
 90
43
 70
0
 10
20.4069588515
 20
-19.2649960031
 10
20.4029197758
 20
-19.1722071126
 10
20.390702428
 20
-19.0790849216
 10
20.3701820081
 20
-18.9859823272
 10
20.3412507038
 20
-18.8932025438
 10
20.3038606525
 20
-18.8011432376
 10
20.2580532853
 20
-18.7102638573
 10
20.2038359789
 20
-18.6208400869
 10
20.1412581963
 20
-18.5331797623
 10
20.0705204814
 20
-18.4477216879
 10
19.9916499962
 20
-18.3646292984
 10
19.9048334117
 20
-18.2842270058
 10
19.8106853373
 20
-18.2071217851
 10
19.7095101148
 20
-18.1335328708
 10
19.601531927
 20
-18.0636051692
 10
19.4874624514
 20
-17.9977532856
 10
19.3677903436
 20
-17.9361712463
 10
19.242779831
 20
-17.8789191748
 10
19.1129343776
 20
-17.8261635392
 10
18.9787157667
 20
-17.7780245977
 10
18.8404981495
 20
-17.734577099
 10
18.6987047827
 20
-17.6959050996
 10
18.5537929154
 20
-17.6620892574
 10
18.406186579
 20
-17.6331895315
 10
18.2562825028
 20
-17.6092530258
 10
18.1045337689
 20
-17.5903281085
 10
17.9513945245
 20
-17.5764509361
 10
17.7972742014
 20
-17.5676438787
 10
17.6426281497
 20
-17.5639238505
 10
17.4879204142
 20
-17.565295773
 10
17.3335762685
 20
-17.5717539516
 10
17.1800617749
 20
-17.5832811008
 10
17.0278252299
 20
-17.5998486487
 10
16.877259822
 20
-17.621425334
 10
16.7288015009
 20
-17.6479672856
 10
16.5829088838
 20
-17.6794146897
 10
16.4399944678
 20
-17.7157054678
 10
16.300478393
 20
-17.7567664525
 10
16.164796924
 20
-17.8025078691
 10
16.0333590316
 20
-17.8528359112
 10
15.9065614655
 20
-17.907650495
 10
15.7848033743
 20
-17.9668391203
 10
15.6684763884
 20
-18.0302797622
  0
LWPOLYLINE
  5
367
100
AcDbEntity
  8
0
100
AcDbPolyline
 62
7
  6
CONTINUOUS
 90
3
 70
0
 10
18.2399492855
 20
-18.0121586371
 10
18.2423550922
 20
-18.0709752082
 10
18.2552690313
 20
-18.3648869755
  0
LINE
  5
368
100
AcDbEntity
  8
0
100
AcDbLine
 62
7
  6
CONTINUOUS
 10
18.2162367993
 20
-18.011395439
 11
18.2315348949
 21
-18.4030627053
  0
LINE
  5
369
100
AcDbEntity
  8
0
100
AcDbLine
 62
7
  6
CONTINUOUS
 10
14.8069588515
 20
-19.2649959957
 11
14.8069588515
 21
-20.1099187923
  0
LINE
  5
36A
100
AcDbEntity
  8
SMUSSO
100
AcDbLine
 62
7
  6
CONTINUOUS
 10
15.5563438014
 20
-61.7103191162
 11
15.5563438014
 21
-34.925474971
  0
LINE
  5
36B
100
AcDbEntity
  8
SMUSSO
100
AcDbLine
 62
7
  6
CONTINUOUS
 10
15.8391972833
 20
-61.7103191162
 11
15.8391972833
 21
-34.925474971
  0
LINE
  5
36C
100
AcDbEntity
  8
0
100
AcDbLine
 62
7
  6
CONTINUOUS
 10
17.6069588515
 20
-18.7132809467
 11
17.6069587879
 21
-18.0619801356
  0
LINE
  5
36D
100
AcDbEntity
  8
0
100
AcDbLine
 62
7
  6
CONTINUOUS
 10
20.4069588515
 20
-19.2649959957
 11
20.4069588515
 21
-20.1099187923
  0
LWPOLYLINE
  5
36E
100
AcDbEntity
  8
SMUSSO
100
AcDbPolyline
 62
7
  6
CONTINUOUS
 90
31
 70
0
 10
15.8391972833
 20
-34.925474971
 10
15.8414517904
 20
-34.8251559109
 10
15.848054545
 20
-34.7231680221
 10
15.8590055472
 20
-34.6195113045
 10
15.8743582125
 20
-34.5138954623
 10
15.8940591254
 20
-34.4066107914
 10
15.9179480391
 20
-34.2985281792
 10
15.946058555
 20
-34.1896427069
 10
15.9783570718
 20
-34.0799592933
 10
16.0145825384
 20
-33.9703635818
 10
16.0547670935
 20
-33.8608551983
 10
16.0988785985
 20
-33.751434517
 10
16.1465595859
 20
-33.6429883036
 10
16.1978390411
 20
-33.5355246451
 10
16.2526879789
 20
-33.4290354546
 10
16.3106619764
 20
-33.3243832363
 10
16.3717857743
 20
-33.2215837228
 10
16.436034632
 20
-33.1206211817
 10
16.502889905
 20
-33.0223109196
 10
16.5723750113
 20
-32.9266718324
 10
16.6444665329
 20
-32.8336850243
 10
16.7185755709
 20
-32.744109115
 10
16.7947180921
 20
-32.6579735076
 10
16.8728781296
 20
-32.575248799
 10
16.9524188843
 20
-32.4966053996
 10
17.0333497061
 20
-32.4220783754
 10
17.115661245
 20
-32.3516326605
 10
17.1986886517
 20
-32.2858334675
 10
17.2822103097
 20
-32.2248692007
 10
17.3664478356
 20
-32.1685514559
 10
17.4514012292
 20
-32.1168802331
  0
LWPOLYLINE
  5
36F
100
AcDbEntity
  8
SMUSSO
100
AcDbPolyline
 62
7
  6
CONTINUOUS
 90
31
 70
0
 10
15.5563438014
 20
-34.925474971
 10
15.5588013721
 20
-34.8169774205
 10
15.5660495076
 20
-34.7060573569
 10
15.578066573
 20
-34.5930143709
 10
15.5948162057
 20
-34.4781519442
 10
15.6162529126
 20
-34.3617822326
 10
15.6423218942
 20
-34.2442253136
 10
15.6729499255
 20
-34.1258006249
 10
15.7080520733
 20
-34.0068264657
 10
15.7475375591
 20
-33.8876247711
 10
15.7912981995
 20
-33.7685165358
 10
15.8392131298
 20
-33.6498248046
 10
15.8911554809
 20
-33.5318742157
 10
15.9469828535
 20
-33.4149838623
 10
16.0065421573
 20
-33.2994694573
 10
16.0696746846
 20
-33.1856462838
 10
16.1362073897
 20
-33.0738231494
 10
16.2059587812
 20
-32.9643012469
 10
16.2787439741
 20
-32.8573765225
 10
16.3543671701
 20
-32.7533353154
 10
16.4326199069
 20
-32.6524623578
 10
16.5132865945
 20
-32.5550390659
 10
16.5961467131
 20
-32.461329503
 10
16.6809749431
 20
-32.3715854895
 10
16.7675390854
 20
-32.2860538254
 10
16.8556018879
 20
-32.2049665541
 10
16.9449253141
 20
-32.1285397888
 10
17.0352700725
 20
-32.0569781823
 10
17.1263920746
 20
-31.9904740997
 10
17.2180430154
 20
-31.9292067395
 10
17.3099744883
 20
-31.8733408142
  0
LINE
  5
370
100
AcDbEntity
  8
0
100
AcDbLine
 62
7
  6
CONTINUOUS
 10
16.9823828059
 20
-18.4030627112
 11
16.9976810038
 21
-18.011395441
  0
LWPOLYLINE
  5
371
100
AcDbEntity
  8
0
100
AcDbPolyline
 62
7
  6
CONTINUOUS
 90
16
 70
0
 10
20.4069588515
 20
-20.1099187923
 10
20.4031956428
 20
-20.1994858031
 10
20.3918234294
 20
-20.2893270552
 10
20.372740493
 20
-20.379126172
 10
20.3458882669
 20
-20.4685299835
 10
20.3112177332
 20
-20.557266895
 10
20.2686454257
 20
-20.6451626325
 10
20.2180363486
 20
-20.7320937087
 10
20.1594455442
 20
-20.817619944
 10
20.0931456729
 20
-20.9011512572
 10
20.0191990891
 20
-20.982493934
 10
19.9377341261
 20
-21.0613944249
 10
19.8493323708
 20
-21.1372580914
 10
19.7543943951
 20
-21.2097947948
 10
19.6530156438
 20
-21.2789729124
 10
19.5454413147
 20
-21.3446350258
  0
LINE
  5
372
100
AcDbEntity
  8
0
100
AcDbLine
 62
7
  6
CONTINUOUS
 10
16.9586486696
 20
-18.3648869813
 11
16.9735966743
 21
-18.0121714422
  0
LINE
  5
373
100
AcDbEntity
  8
0
100
AcDbLine
 62
7
  6
CONTINUOUS
 10
18.6153821326
 20
-18.9598903444
 11
18.5933020993
 21
-19.1596635071
  0
LINE
  5
374
100
AcDbEntity
  8
0
100
AcDbLine
 62
7
  6
CONTINUOUS
 10
18.6111883975
 20
-18.9430144439
 11
18.5866051766
 21
-19.1637556608
  0
LINE
  5
375
100
AcDbEntity
  8
0
100
AcDbLine
 62
7
  6
CONTINUOUS
 10
18.3419588515
 20
-19.1376607349
 11
18.4197551327
 21
-18.5312784789
  0
LINE
  5
376
100
AcDbEntity
  8
0
100
AcDbLine
 62
7
  6
CONTINUOUS
 10
16.6027293354
 20
-18.9430143709
 11
16.5984699319
 21
-18.9601556894
  0
LWPOLYLINE
  5
377
100
AcDbEntity
  8
0
100
AcDbPolyline
 62
250
  6
CONTINUOUS
 90
4
 70
0
 10
62.3332270336
 20
4.5122619259
 10
62.4454198496
 20
4.5620011991
 10
62.5529596389
 20
4.6150536682
 10
62.6555533696
 20
4.6712744081
  0
LWPOLYLINE
  5
378
100
AcDbEntity
  8
0
100
AcDbPolyline
 62
7
  6
CONTINUOUS
 90
10
 70
0
 10
59.9616483665
 20
6.9123413078
 10
59.9409935282
 20
6.9037384731
 10
59.9206236579
 20
6.8949120256
 10
59.9005460162
 20
6.8858651113
 10
59.8807677596
 20
6.8766009551
 10
59.8612959379
 20
6.867122859
 10
59.8421374916
 20
6.8574342015
 10
59.8232992498
 20
6.8475384359
 10
59.804787927
 20
6.8374390896
 10
59.7866101216
 20
6.8271397624
  0
LWPOLYLINE
  5
379
100
AcDbEntity
  8
0
100
AcDbPolyline
 62
7
  6
CONTINUOUS
 90
10
 70
0
 10
61.5192966384
 20
5.640441846
 10
61.539951477
 20
5.6490446808
 10
61.5603213477
 20
5.6578711285
 10
61.5803989898
 20
5.6669180428
 10
61.6001772467
 20
5.6761821992
 10
61.6196490687
 20
5.6856602954
 10
61.6388075153
 20
5.6953489531
 10
61.6576457575
 20
5.7052447188
 10
61.6761570805
 20
5.7153440653
 10
61.6943348862
 20
5.7256433927
  0
LWPOLYLINE
  5
37A
100
AcDbEntity
  8
TRASH
100
AcDbPolyline
 62
7
  6
CONTINUOUS
 90
16
 70
0
 10
60.7404791135
 20
6.1914672786
 10
60.7744873142
 20
6.2042445434
 10
60.8090004437
 20
6.2179691914
 10
60.8441489267
 20
6.2326447658
 10
60.8800259127
 20
6.2481818696
 10
60.916765434
 20
6.2646599986
 10
60.9545797275
 20
6.2823208783
 10
60.9936046378
 20
6.3011092138
 10
61.0339416585
 20
6.3210273105
 10
61.0758047378
 20
6.3423847506
 10
61.1193741882
 20
6.3651657236
 10
61.1647055041
 20
6.3893029457
 10
61.2118558922
 20
6.4150272111
 10
61.2609070978
 20
6.442396848
 10
61.3119492085
 20
6.4712915266
 10
61.3650435158
 20
6.5016844618
  0
LWPOLYLINE
  5
37B
100
AcDbEntity
  8
RACCORDO
100
AcDbPolyline
 62
7
  6
CONTINUOUS
 90
10
 70
0
 10
9.3969894555
 20
19.0994139625
 10
9.3797072439
 20
19.100447428
 10
9.3586224575
 20
19.100447428
 10
9.3378779577
 20
19.0992069198
 10
9.3174848477
 20
19.0966854269
 10
9.2974320242
 20
19.0929234258
 10
9.2783667508
 20
19.088042346
 10
9.2605047819
 20
19.0820826642
 10
9.2436303632
 20
19.0750039037
 10
9.2277434945
 20
19.0668060646
  0
LWPOLYLINE
  5
37C
100
AcDbEntity
  8
0
100
AcDbPolyline
 62
7
  6
CONTINUOUS
 90
3
 70
0
 10
-60.9806319846
 20
27.2042013506
 10
-60.9282050965
 20
27.1988658749
 10
-60.9003664588
 20
27.1957949487
  0
LWPOLYLINE
  5
37D
100
AcDbEntity
  8
0
100
AcDbPolyline
 62
7
  6
CONTINUOUS
 90
7
 70
0
 10
-61.5192966414
 20
27.2444160556
 10
-61.4951914681
 20
27.2415331426
 10
-61.4710308903
 20
27.2384858979
 10
-61.4468149154
 20
27.2352743163
 10
-61.4225435506
 20
27.2318983927
 10
-61.3982168034
 20
27.2283581218
 10
-61.3738346811
 20
27.2246534985
  0
LWPOLYLINE
  5
37E
100
AcDbEntity
  8
0
100
AcDbPolyline
 62
7
  6
CONTINUOUS
 90
5
 70
0
 10
-60.9003664588
 20
27.1957949487
 10
-60.8410776167
 20
27.1886837988
 10
-60.8089112467
 20
27.184639238
 10
-60.7753395448
 20
27.1800680603
 10
-60.7404725676
 20
27.1748448051
  0
LWPOLYLINE
  5
37F
100
AcDbEntity
  8
0
100
AcDbPolyline
 62
250
  6
CONTINUOUS
 90
9
 70
0
 10
-59.7690384568
 20
27.5687970328
 10
-59.9028581143
 20
27.5961846809
 10
-60.0389922816
 20
27.6194875778
 10
-60.1770593311
 20
27.6386395479
 10
-60.3166673967
 20
27.6535863696
 10
-60.4574239727
 20
27.6642871374
 10
-60.5989505434
 20
27.6707141831
 10
-60.7408713199
 20
27.6728505518
 10
-60.8828059759
 20
27.6706895941
  0
LWPOLYLINE
  5
380
100
AcDbEntity
  8
0
100
AcDbPolyline
 62
250
  6
CONTINUOUS
 90
9
 70
0
 10
61.7119065511
 20
7.2367222851
 10
61.5780868936
 20
7.2641099331
 10
61.4419527263
 20
7.2874128301
 10
61.3038856767
 20
7.3065648001
 10
61.1642776111
 20
7.3215116219
 10
61.0235210351
 20
7.3322123897
 10
60.8819944645
 20
7.3386394354
 10
60.7400736879
 20
7.340775804
 10
60.5981390319
 20
7.3386148464
  0
LINE
  5
381
100
AcDbEntity
  8
0
100
AcDbLine
 62
7
  6
CONTINUOUS
 10
61.3497503517
 20
5.7336956787
 11
61.3738346725
 21
5.7280010274
  0
LWPOLYLINE
  5
382
100
AcDbEntity
  8
0
100
AcDbPolyline
 62
7
  6
CONTINUOUS
 90
3
 70
0
 10
60.8410776167
 20
5.879494398
 10
60.7753395448
 20
5.895482617
 10
60.7404725676
 20
5.9041733921
  0
LINE
  5
383
100
AcDbEntity
  8
0
100
AcDbLine
 62
7
  6
CONTINUOUS
 10
60.8715186724
 20
5.8718651175
 11
60.8410776167
 21
5.879494398
  0
LWPOLYLINE
  5
384
100
AcDbEntity
  8
0
100
AcDbPolyline
 62
7
  6
CONTINUOUS
 90
3
 70
0
 10
60.9806319846
 20
5.8431362631
 10
60.9549950489
 20
5.8500660831
 10
60.8715186724
 20
5.8718651175
  0
LWPOLYLINE
  5
385
100
AcDbEntity
  8
RACCORDO
100
AcDbPolyline
 62
7
  6
CONTINUOUS
 90
16
 70
0
 10
56.2503444434
 20
-7.9201445543
 10
56.2344575747
 20
-7.9119467152
 10
56.2175831559
 20
-7.9048679548
 10
56.1997211871
 20
-7.898908273
 10
56.1806559137
 20
-7.8940271932
 10
56.1606030902
 20
-7.8902651921
 10
56.1402099802
 20
-7.8877436991
 10
56.1194654803
 20
-7.8865031909
 10
56.098380694
 20
-7.8865031909
 10
56.0776361941
 20
-7.8877436991
 10
56.0572430841
 20
-7.8902651921
 10
56.0371902606
 20
-7.8940271932
 10
56.0181249872
 20
-7.898908273
 10
56.0002630184
 20
-7.9048679548
 10
55.9833885996
 20
-7.9119467152
 10
55.9675017309
 20
-7.9201445543
  0
LINE
  5
386
100
AcDbEntity
  8
RACCORDO
100
AcDbLine
 62
7
  6
CONTINUOUS
 10
-15.556354571
 20
32.519457024
 11
0.4242640687
 21
23.2924481056
  0
LINE
  5
387
100
AcDbEntity
  8
DRAFT
100
AcDbLine
 62
7
  6
CONTINUOUS
 10
9.4045201898
 20
18.1073607703
 11
55.2250396107
 21
-8.3488328773
  0
LINE
  5
388
100
AcDbEntity
  8
RACCORDO
100
AcDbLine
 62
7
  6
CONTINUOUS
 10
64.2052957317
 20
-13.5339202126
 11
73.3359858048
 21
-18.8058662263
  0
LINE
  5
389
100
AcDbEntity
  8
0
100
AcDbLine
 62
7
  6
CONTINUOUS
 10
2.0506096654
 20
23.1699657276
 11
9.1923881554
 21
19.046392335
  0
LINE
  5
38A
100
AcDbEntity
  8
0
100
AcDbLine
 62
7
  6
CONTINUOUS
 10
56.8513852074
 20
-8.4713152553
 11
63.9931636974
 21
-12.5948886479
  0
LINE
  5
38B
100
AcDbEntity
  8
RACCORDO
100
AcDbLine
 62
7
  6
CONTINUOUS
 10
56.8513852074
 20
-8.2671779586
 11
56.2503444434
 21
-7.9201445543
  0
LINE
  5
38C
100
AcDbEntity
  8
RACCORDO
100
AcDbLine
 62
7
  6
CONTINUOUS
 10
1.4495689014
 20
23.7211364286
 11
2.0506096654
 21
23.3741030243
  0
LWPOLYLINE
  5
38D
100
AcDbEntity
  8
TRASH
100
AcDbPolyline
 62
7
  6
CONTINUOUS
 90
9
 70
0
 10
-16.871958852
 20
51.0039143986
 10
-16.8596550002
 20
50.9899632411
 10
-16.8470776942
 20
50.9765042952
 10
-16.8342211532
 20
50.9634625328
 10
-16.8211761907
 20
50.9507439983
 10
-16.8078700779
 20
50.9383119226
 10
-16.7940764375
 20
50.9261653354
 10
-16.7798671799
 20
50.9142194404
 10
-16.7669442723
 20
50.9037842466
  0
LWPOLYLINE
  5
38E
100
AcDbEntity
  8
0
100
AcDbPolyline
 62
7
  6
CONTINUOUS
 90
3
 70
0
 10
-16.5985355704
 20
51.1816847893
 10
-16.5836710715
 20
51.1632242689
 10
-16.5685529743
 20
51.1442705305
  0
LINE
  5
38F
100
AcDbEntity
  8
0
100
AcDbLine
 62
7
  6
CONTINUOUS
 10
-16.5685529743
 20
51.1442705305
 11
-16.5375559849
 21
51.1048834001
  0
LINE
  5
390
100
AcDbEntity
  8
0
100
AcDbLine
 62
7
  6
CONTINUOUS
 10
-16.5375559849
 20
51.1048834001
 11
-16.5055446024
 21
51.063523398
  0
LINE
  5
391
100
AcDbEntity
  8
DRAFT
100
AcDbLine
 62
7
  6
CONTINUOUS
 10
24.1830519166
 20
-56.892682024
 11
23.9794146126
 21
-29.8315852627
  0
LINE
  5
392
100
AcDbEntity
  8
0
100
AcDbLine
 62
7
  6
CONTINUOUS
 10
18.255153959
 20
-18.3648026435
 11
18.3858000039
 21
-17.992415832
  0
LINE
  5
393
100
AcDbEntity
  8
0
100
AcDbLine
 62
7
  6
CONTINUOUS
 10
18.615447769
 20
-18.2287649264
 11
18.6111883677
 21
-18.2394355844
  0
LINE
  5
394
100
AcDbEntity
  8
0
100
AcDbLine
 62
7
  6
CONTINUOUS
 10
16.6027293354
 20
-18.9430143709
 11
16.6381740992
 21
-18.8580911072
  0
LINE
  5
395
100
AcDbEntity
  8
0
100
AcDbLine
 62
7
  6
CONTINUOUS
 10
16.6381740992
 20
-18.8580911072
 11
16.6503519445
 21
-18.8297103719
  0
LWPOLYLINE
  5
396
100
AcDbEntity
  8
0
100
AcDbPolyline
 62
7
  6
CONTINUOUS
 90
11
 70
0
 10
16.6503519445
 20
-18.8297103719
 10
16.6754044742
 20
-18.7731737985
 10
16.688086847
 20
-18.7451161028
 10
16.701056044
 20
-18.7172403966
 10
16.7140384196
 20
-18.6896544667
 10
16.7271202908
 20
-18.6623004605
 10
16.7404450379
 20
-18.6352227927
 10
16.7537744866
 20
-18.6086168488
 10
16.7670608222
 20
-18.5824966101
 10
16.7804942611
 20
-18.5567358949
 10
16.7941625704
 20
-18.5312784824
  0
LINE
  5
397
100
AcDbEntity
  8
TRASH
100
AcDbLine
 62
7
  6
CONTINUOUS
 10
18.2315348949
 20
-18.4030627053
 11
18.2552690313
 21
-18.3648869755
  0
LINE
  5
398
100
AcDbEntity
  8
0
100
AcDbLine
 62
7
  6
CONTINUOUS
 10
18.4601432165
 20
-18.4675565533
 11
18.4197551327
 21
-18.5312784789
  0
LINE
  5
399
100
AcDbEntity
  8
0
100
AcDbLine
 62
7
  6
CONTINUOUS
 10
18.4998792835
 20
-18.4056006043
 11
18.4601432165
 21
-18.4675565533
  0
LWPOLYLINE
  5
39A
100
AcDbEntity
  8
0
100
AcDbPolyline
 62
7
  6
CONTINUOUS
 90
3
 70
0
 10
18.5385132289
 20
-18.3464658073
 10
18.5128616591
 20
-18.3855535726
 10
18.4998792835
 20
-18.4056006043
  0
LWPOLYLINE
  5
39B
100
AcDbEntity
  8
0
100
AcDbPolyline
 62
7
  6
CONTINUOUS
 90
3
 70
0
 10
18.5875728981
 20
-18.2731780405
 10
18.5510529222
 20
-18.3275014967
 10
18.5385132289
 20
-18.3464658073
  0
LWPOLYLINE
  5
39C
100
AcDbEntity
  8
0
100
AcDbPolyline
 62
7
  6
CONTINUOUS
 90
3
 70
0
 10
18.6111883677
 20
-18.2394355844
 10
18.5993402277
 20
-18.2560219647
 10
18.5875728981
 20
-18.2731780405
  0
LINE
  5
39D
100
AcDbEntity
  8
0
100
AcDbLine
 62
7
  6
CONTINUOUS
 10
16.5055325713
 20
-19.0780419118
 11
16.5362801174
 21
-19.0383507831
  0
LINE
  5
39E
100
AcDbEntity
  8
0
100
AcDbLine
 62
7
  6
CONTINUOUS
 10
16.5362801174
 20
-19.0383507831
 11
16.5672592089
 21
-18.9990553671
  0
LINE
  5
39F
100
AcDbEntity
  8
0
100
AcDbLine
 62
7
  6
CONTINUOUS
 10
16.5672592089
 20
-18.9990553671
 11
16.5984699319
 21
-18.9601556894
  0
LWPOLYLINE
  5
3A0
100
AcDbEntity
  8
TRASH
100
AcDbPolyline
 62
7
  6
CONTINUOUS
 90
9
 70
0
 10
16.7670838047
 20
-19.2376784033
 10
16.7798701575
 20
-19.2273533521
 10
16.7940794979
 20
-19.2154071923
 10
16.8078733968
 20
-19.203260029
 10
16.8211798453
 20
-19.1908273535
 10
16.8342248938
 20
-19.178108862
 10
16.8470809332
 20
-19.1650679159
 10
16.8596570506
 20
-19.1516102443
 10
16.871958852
 20
-19.1376607351
  0
LWPOLYLINE
  5
3A1
100
AcDbEntity
  8
TRASH
100
AcDbPolyline
 62
7
  6
CONTINUOUS
 90
7
 70
0
 10
16.7757233767
 20
-18.5022022239
 10
16.7769038156
 20
-18.5014536288
 10
16.814656877
 20
-18.4796404573
 10
16.8541620108
 20
-18.458849171
 10
16.8953483268
 20
-18.4391240872
 10
16.9381201128
 20
-18.4205151023
 10
16.9823878397
 20
-18.4030657312
  0
LWPOLYLINE
  5
3A2
100
AcDbEntity
  8
TRASH
100
AcDbPolyline
 62
7
  6
CONTINUOUS
 90
7
 70
0
 10
59.9092370291
 20
6.4025479691
 10
59.910417468
 20
6.4032965642
 10
59.9481705294
 20
6.4251097357
 10
59.9876756632
 20
6.445901022
 10
60.0288619792
 20
6.4656261058
 10
60.0716337652
 20
6.4842350907
 10
60.115901492
 20
6.5016844618
  0
LWPOLYLINE
  5
3A3
100
AcDbEntity
  8
0
100
AcDbPolyline
 62
7
  6
CONTINUOUS
 90
16
 70
0
 10
15.6684763884
 20
-18.0302797622
 10
15.5608378826
 20
-18.0959832902
 10
15.4594323637
 20
-18.1651856438
 10
15.3644997281
 20
-18.23772598
 10
15.2761368783
 20
-18.3135629079
 10
15.1947293691
 20
-18.3924097622
 10
15.1208336092
 20
-18.4736911252
 10
15.0545761905
 20
-18.557154009
 10
14.9960185459
 20
-18.6426043401
 10
14.9454204653
 20
-18.7294739864
 10
14.9028415687
 20
-18.8173239874
 10
14.868151001
 20
-18.9060327358
 10
14.8412636223
 20
-18.9954514107
 10
14.822139956
 20
-19.0853180656
 10
14.8107352762
 20
-19.1752719653
 10
14.8069588515
 20
-19.2649960026
  0
LWPOLYLINE
  5
3A4
100
AcDbEntity
  8
0
100
AcDbPolyline
 62
7
  6
CONTINUOUS
 90
16
 70
0
 10
58.8019900408
 20
6.8744704308
 10
58.6943515349
 20
6.8087669028
 10
58.5929460161
 20
6.7395645492
 10
58.4980133805
 20
6.667024213
 10
58.4096505307
 20
6.5911872851
 10
58.3282430215
 20
6.5123404308
 10
58.2543472615
 20
6.4310590678
 10
58.1880898429
 20
6.347596184
 10
58.1295321982
 20
6.2621458529
 10
58.0789341177
 20
6.1752762066
 10
58.0363552211
 20
6.0874262056
 10
58.0016646534
 20
5.9987174572
 10
57.9747772747
 20
5.9092987823
 10
57.9556536083
 20
5.8194321274
 10
57.9442489285
 20
5.7294782277
 10
57.9404725039
 20
5.6397541904
  0
LINE
  5
3A5
100
AcDbEntity
  8
0
100
AcDbLine
 62
7
  6
CONTINUOUS
 10
16.8764798081
 20
-19.2347099009
 11
16.8281176992
 21
-19.2643013989
  0
LINE
  5
3A6
100
AcDbEntity
  8
0
100
AcDbLine
 62
7
  6
CONTINUOUS
 10
60.0099934605
 20
5.6700402921
 11
59.9616313515
 21
5.6404487941
  0
LWPOLYLINE
  5
3A7
100
AcDbEntity
  8
0
100
AcDbPolyline
 62
250
  6
CONTINUOUS
 90
15
 70
0
 10
19.5868578389
 20
-21.2530876536
 10
19.6877642748
 20
-21.1916922014
 10
19.7829673842
 20
-21.1273316843
 10
19.8722062211
 20
-21.0601825093
 10
19.9552361885
 20
-20.9904287256
 10
20.0318297046
 20
-20.9182615237
 10
20.1017768278
 20
-20.8438787118
 10
20.1648858304
 20
-20.7674841769
 10
20.2209837438
 20
-20.6892873019
 10
20.2699168216
 20
-20.609502393
 10
20.311550944
 20
-20.528348113
 10
20.345771974
 20
-20.4460469186
 10
20.3724860968
 20
-20.3628244263
 10
20.3916200901
 20
-20.2789087573
 10
20.403121516
 20
-20.1945299053
  0
LWPOLYLINE
  5
3A8
100
AcDbEntity
  8
0
100
AcDbPolyline
 62
250
  6
CONTINUOUS
 90
33
 70
0
 10
15.6918779858
 20
-18.0219884043
 10
15.5945096471
 20
-18.0812233441
 10
15.5026263462
 20
-18.1433151892
 10
15.4164794369
 20
-18.2080949188
 10
15.3363360447
 20
-18.275358342
 10
15.2623792088
 20
-18.3449481629
 10
15.1947327901
 20
-18.4167635561
 10
15.1335573418
 20
-18.4906790024
 10
15.0791059399
 20
-18.5664388733
 10
15.0316120938
 20
-18.643738633
 10
14.9912226686
 20
-18.72232813
 10
14.9580234072
 20
-18.8020271674
 10
14.9321020357
 20
-18.8826245784
 10
14.9135298067
 20
-18.9639037196
 10
14.9023604417
 20
-19.0456365949
 10
14.8986255983
 20
-19.1275923788
 10
14.9023373085
 20
-19.2095734141
 10
14.91348712
 20
-19.2913266137
 10
14.9320194319
 20
-19.3725390956
 10
14.9578343242
 20
-19.4529239678
 10
14.9908489179
 20
-19.5323311744
 10
15.0310093887
 20
-19.6106550277
 10
15.0782394241
 20
-19.687722709
 10
15.1323952664
 20
-19.7632792133
 10
15.1933173308
 20
-19.8370976271
 10
15.2608381775
 20
-19.9089753338
 10
15.3347737569
 20
-19.9787166504
 10
15.4149028796
 20
-20.0461158169
 10
15.5009553169
 20
-20.1109567474
 10
15.5927328477
 20
-20.1731005113
 10
15.6901168403
 20
-20.2324579757
 10
15.7929452717
 20
-20.2889018066
 10
15.9008756587
 20
-20.3422168534
  0
LWPOLYLINE
  5
3A9
100
AcDbEntity
  8
0
100
AcDbPolyline
 62
250
  6
CONTINUOUS
 90
33
 70
0
 10
58.8253916382
 20
6.8827617887
 10
58.7280232995
 20
6.8235268489
 10
58.6361399986
 20
6.7614350038
 10
58.5499930893
 20
6.6966552742
 10
58.4698496971
 20
6.629391851
 10
58.3958928612
 20
6.5598020301
 10
58.3282464425
 20
6.4879866369
 10
58.2670709941
 20
6.4140711906
 10
58.2126195923
 20
6.3383113197
 10
58.1651257461
 20
6.26101156
 10
58.124736321
 20
6.182422063
 10
58.0915370596
 20
6.1027230256
 10
58.0656156881
 20
6.0221256146
 10
58.047043459
 20
5.9408464734
 10
58.0358740941
 20
5.8591135981
 10
58.0321392507
 20
5.7771578142
 10
58.0358509609
 20
5.6951767789
 10
58.0470007724
 20
5.6134235793
 10
58.0655330843
 20
5.5322110973
 10
58.0913479766
 20
5.4518262252
 10
58.1243625703
 20
5.3724190186
 10
58.1645230411
 20
5.2940951653
 10
58.2117530765
 20
5.217027484
 10
58.2659089187
 20
5.1414709797
 10
58.3268309832
 20
5.0676525659
 10
58.3943518299
 20
4.9957748592
 10
58.4682874093
 20
4.9260335426
 10
58.548416532
 20
4.8586343761
 10
58.6344689693
 20
4.7937934456
 10
58.7262465001
 20
4.7316496817
 10
58.8236304927
 20
4.6722922173
 10
58.9264589241
 20
4.6158483864
 10
59.0343893111
 20
4.5625333396
  0
LWPOLYLINE
  5
3AA
100
AcDbEntity
  8
0
100
AcDbPolyline
 62
250
  6
CONTINUOUS
 90
39
 70
0
 10
19.5220397172
 20
-20.2334757849
 10
19.619408056
 20
-20.1742412067
 10
19.7112913569
 20
-20.112149546
 10
19.7974382662
 20
-20.0473698238
 10
19.8775816584
 20
-19.9801061158
 10
19.9515384943
 20
-19.9105158331
 10
20.019184913
 20
-19.838700146
 10
20.0803603613
 20
-19.7647847671
 10
20.1348117632
 20
-19.6890251316
 10
20.1823056093
 20
-19.6117255414
 10
20.2226950344
 20
-19.5331360413
 10
20.2558942959
 20
-19.4534369349
 10
20.2818156674
 20
-19.3728394753
 10
20.3003878964
 20
-19.2915603429
 10
20.3115572614
 20
-19.2098274968
 10
20.3152921047
 20
-19.1278717375
 10
20.3115803946
 20
-19.0458907125
 10
20.3004305831
 20
-18.9641375186
 10
20.2818982712
 20
-18.8829250412
 10
20.2560833789
 20
-18.8025401731
 10
20.2230687851
 20
-18.7231329693
 10
20.1829083144
 20
-18.6448091195
 10
20.135678279
 20
-18.5677414436
 10
20.0815224367
 20
-18.4921849453
 10
20.0206003722
 20
-18.4183665371
 10
19.9530795256
 20
-18.3464888356
 10
19.8791439462
 20
-18.2767475237
 10
19.7990148235
 20
-18.2093483609
 10
19.7129623862
 20
-18.1445074323
 10
19.6211848554
 20
-18.0823636691
 10
19.5238008628
 20
-18.0230062058
 10
19.4209724314
 20
-17.9665623772
 10
19.3130420444
 20
-17.9132473332
 10
19.2004163374
 20
-17.8632716433
 10
19.0834454421
 20
-17.8167882768
 10
18.9624129433
 20
-17.7739076223
 10
18.8376605408
 20
-17.7347505409
 10
18.7095384793
 20
-17.6994258528
 10
18.5783928987
 20
-17.6680279079
  0
LWPOLYLINE
  5
3AB
100
AcDbEntity
  8
0
100
AcDbPolyline
 62
250
  6
CONTINUOUS
 90
16
 70
0
 10
19.5868578389
 20
-20.408164857
 10
19.6875214574
 20
-20.3469251117
 10
19.7825145018
 20
-20.2827317436
 10
19.8715771297
 20
-20.215759483
 10
19.9544332859
 20
-20.1462193887
 10
20.030893662
 20
-20.0742740918
 10
20.1008299136
 20
-20.0000279255
 10
20.164075866
 20
-19.9236107369
 10
20.2203700307
 20
-19.8452867633
 10
20.2694712057
 20
-19.7653707676
 10
20.3112276607
 20
-19.6841213166
 10
20.345550656
 20
-19.6017247407
 10
20.3723494142
 20
-19.5183993908
 10
20.391550234
 20
-19.434369264
 10
20.4030976109
 20
-19.3498700577
 10
20.4069588515
 20
-19.2649959976
  0
LINE
  5
3AC
100
AcDbEntity
  8
0
100
AcDbLine
 62
7
  6
CONTINUOUS
 10
16.9250967142
 20
-19.2054962896
 11
16.8764798081
 21
-19.2347099009
  0
LINE
  5
3AD
100
AcDbEntity
  8
0
100
AcDbLine
 62
7
  6
CONTINUOUS
 10
60.0586103666
 20
5.6992539034
 11
60.0099934605
 21
5.6700402921
  0
LWPOLYLINE
  5
3AE
100
AcDbEntity
  8
0
100
AcDbPolyline
 62
7
  6
CONTINUOUS
 90
10
 70
0
 10
16.6530964692
 20
-18.0776104306
 10
16.6352602665
 20
-18.0881051046
 10
16.6177703551
 20
-18.0987923127
 10
16.6006329679
 20
-18.1096682462
 10
16.5838542123
 20
-18.120729029
 10
16.5674400679
 20
-18.1319707195
 10
16.5513963844
 20
-18.1433893114
 10
16.5357288793
 20
-18.1549807353
 10
16.5204431361
 20
-18.1667408602
 10
16.5055446024
 20
-18.1786654953
  0
LWPOLYLINE
  5
3AF
100
AcDbEntity
  8
0
100
AcDbPolyline
 62
7
  6
CONTINUOUS
 90
10
 70
0
 10
59.7866101216
 20
6.8271397624
 10
59.7687739189
 20
6.8166450883
 10
59.7512840074
 20
6.8059578803
 10
59.7341466202
 20
6.7950819468
 10
59.7173678647
 20
6.784021164
 10
59.7009537203
 20
6.7727794734
 10
59.6849100368
 20
6.7613608816
 10
59.6692425316
 20
6.7497694577
 10
59.6539567885
 20
6.7380093328
 10
59.6390582548
 20
6.7260846977
  0
LWPOLYLINE
  5
3B0
100
AcDbEntity
  8
0
100
AcDbPolyline
 62
7
  6
CONTINUOUS
 90
10
 70
0
 10
18.5608212339
 20
-19.1791068003
 10
18.5786574366
 20
-19.1686121263
 10
18.596147348
 20
-19.1579249182
 10
18.6132847352
 20
-19.1470489848
 10
18.6300634908
 20
-19.1359882019
 10
18.6464776352
 20
-19.1247465114
 10
18.6625213187
 20
-19.1133279196
 10
18.6781888238
 20
-19.1017364957
 10
18.693474567
 20
-19.0899763707
 10
18.7083731006
 20
-19.0780517357
  0
LWPOLYLINE
  5
3B1
100
AcDbEntity
  8
0
100
AcDbPolyline
 62
7
  6
CONTINUOUS
 90
10
 70
0
 10
61.6943348862
 20
5.7256433927
 10
61.7121710889
 20
5.7361380667
 10
61.7296610004
 20
5.7468252748
 10
61.7467983876
 20
5.7577012082
 10
61.7635771432
 20
5.7687619911
 10
61.7799912875
 20
5.7800036816
 10
61.7960349711
 20
5.7914222734
 10
61.8117024762
 20
5.8030136973
 10
61.8269882193
 20
5.8147738223
 10
61.841886753
 20
5.8266984573
  0
LINE
  5
3B2
100
AcDbEntity
  8
0
100
AcDbLine
 62
7
  6
CONTINUOUS
 10
16.9739684176
 20
-19.1766605651
 11
16.9250967142
 21
-19.2054962896
  0
LINE
  5
3B3
100
AcDbEntity
  8
0
100
AcDbLine
 62
7
  6
CONTINUOUS
 10
60.10748207
 20
5.7280896279
 11
60.0586103666
 21
5.6992539034
  0
LWPOLYLINE
  5
3B4
100
AcDbEntity
  8
0
100
AcDbPolyline
 62
7
  6
CONTINUOUS
 90
43
 70
0
 10
62.6789549671
 20
3.5601151672
 10
62.5621853442
 20
3.4964466321
 10
62.4398822328
 20
3.4370331942
 10
62.3124337524
 20
3.3820047903
 10
62.1802033031
 20
3.3314700745
 10
62.0436183758
 20
3.2855519581
 10
61.9031961409
 20
3.2443821716
 10
61.7594080113
 20
3.2080541747
 10
61.6126602108
 20
3.1766312274
 10
61.4634112646
 20
3.1501784553
 10
61.3121496899
 20
3.128751214
 10
61.1593008113
 20
3.112382323
 10
61.0052429721
 20
3.1010942614
 10
60.850422063
 20
3.0949097206
 10
60.695316781
 20
3.0938407797
 10
60.540358168
 20
3.0978870477
 10
60.3860118032
 20
3.1070372927
 10
60.232735483
 20
3.1212681654
 10
60.0809441185
 20
3.1405502282
 10
59.9310901647
 20
3.1648405664
 10
59.7836252389
 20
3.1940839581
 10
59.6389497503
 20
3.2282250379
 10
59.4974816586
 20
3.267197154
 10
59.3596731922
 20
3.3109125702
 10
59.2259500174
 20
3.3592770722
 10
59.0966779216
 20
3.4122085567
 10
58.9723067427
 20
3.4695805228
 10
58.8533339599
 20
3.5312169545
 10
58.7400169857
 20
3.5970478562
 10
58.632821955
 20
3.6668771675
 10
58.5324319689
 20
3.7402940466
 10
58.4390662601
 20
3.8171435031
 10
58.3530048495
 20
3.8972110292
 10
58.274816605
 20
3.9799217336
 10
58.2046898347
 20
4.064944954
 10
58.1426385764
 20
4.1521286967
 10
58.0888223117
 20
4.2411025522
 10
58.0433030236
 20
4.3315679347
 10
58.0061027504
 20
4.4232553061
 10
57.9772601405
 20
4.5157771162
 10
57.9567561077
 20
4.6087654962
 10
57.9445239598
 20
4.701900491
 10
57.9404725039
 20
4.7948314007
  0
LWPOLYLINE
  5
3B5
100
AcDbEntity
  8
0
100
AcDbPolyline
 62
7
  6
CONTINUOUS
 90
43
 70
0
 10
19.5454413147
 20
-21.3446350258
 10
19.4286716918
 20
-21.4083035609
 10
19.3063685804
 20
-21.4677169988
 10
19.1789201
 20
-21.5227454027
 10
19.0466896507
 20
-21.5732801185
 10
18.9101047234
 20
-21.6191982349
 10
18.7696824885
 20
-21.6603680214
 10
18.625894359
 20
-21.6966960183
 10
18.4791465584
 20
-21.7281189656
 10
18.3298976123
 20
-21.7545717377
 10
18.1786360375
 20
-21.775998979
 10
18.0257871589
 20
-21.79236787
 10
17.8717293197
 20
-21.8036559316
 10
17.7169084106
 20
-21.8098404724
 10
17.5618031286
 20
-21.8109094133
 10
17.4068445156
 20
-21.8068631453
 10
17.2524981509
 20
-21.7977129002
 10
17.0992218306
 20
-21.7834820276
 10
16.9474304661
 20
-21.7641999648
 10
16.7975765123
 20
-21.7399096266
 10
16.6501115865
 20
-21.7106662349
 10
16.5054360979
 20
-21.6765251551
 10
16.3639680063
 20
-21.637553039
 10
16.2261595398
 20
-21.5938376228
 10
16.092436365
 20
-21.5454731208
 10
15.9631642692
 20
-21.4925416363
 10
15.8387930903
 20
-21.4351696702
 10
15.7198203075
 20
-21.3735332385
 10
15.6065033333
 20
-21.3077023367
 10
15.4993083026
 20
-21.2378730255
 10
15.3989183165
 20
-21.1644561464
 10
15.3055526077
 20
-21.0876066899
 10
15.2194911971
 20
-21.0075391638
 10
15.1413029526
 20
-20.9248284594
 10
15.0711761823
 20
-20.839805239
 10
15.009124924
 20
-20.7526214963
 10
14.9553086593
 20
-20.6636476408
 10
14.9097893712
 20
-20.5731822583
 10
14.872589098
 20
-20.4814948869
 10
14.8437464881
 20
-20.3889730768
 10
14.8232424554
 20
-20.2959846968
 10
14.8110103074
 20
-20.202849702
 10
14.8069588515
 20
-20.1099187923
  0
LWPOLYLINE
  5
3B6
100
AcDbEntity
  8
0
100
AcDbPolyline
 62
7
  6
CONTINUOUS
 90
7
 70
0
 10
61.8418987873
 20
6.7260748713
 10
61.8265539511
 20
6.7181338497
 10
61.8111512394
 20
6.7100299226
 10
61.7956906413
 20
6.7017630956
 10
61.7801721462
 20
6.6933333736
 10
61.7645957431
 20
6.6847407622
 10
61.7489614214
 20
6.6759852666
  0
LWPOLYLINE
  5
3B7
100
AcDbEntity
  8
0
100
AcDbPolyline
 62
7
  6
CONTINUOUS
 90
7
 70
0
 10
18.7083851349
 20
-18.1786753217
 10
18.6930402987
 20
-18.1866163433
 10
18.677637587
 20
-18.1947202703
 10
18.6621769889
 20
-18.2029870974
 10
18.6466584938
 20
-18.2114168193
 10
18.6310820907
 20
-18.2200094308
 10
18.615447769
 20
-18.2287649264
  0
LWPOLYLINE
  5
3B8
100
AcDbEntity
  8
0
100
AcDbPolyline
 62
7
  6
CONTINUOUS
 90
24
 70
0
 10
61.5167210356
 20
-1.5407108689
 10
61.4759649304
 20
-1.5603286082
 10
61.3960492919
 20
-1.5945509173
 10
61.3135463899
 20
-1.6258261207
 10
61.2287818254
 20
-1.654066234
 10
61.1420901256
 20
-1.6791952506
 10
61.0538134229
 20
-1.7011494423
 10
60.964300105
 20
-1.7198776104
 10
60.8739034403
 20
-1.7353412877
 10
60.7829801831
 20
-1.7475148907
 10
60.6918891661
 20
-1.7563858201
 10
60.6009898839
 20
-1.7619545108
 10
60.5106410747
 20
-1.7642344303
 10
60.4211993041
 20
-1.763252025
 10
60.3330175581
 20
-1.7590466167
 10
60.2464438501
 20
-1.7516702466
 10
60.161819847
 20
-1.7411874702
 10
60.0794795215
 20
-1.7276751029
 10
59.9997478334
 20
-1.7112219161
 10
59.9229394478
 20
-1.6919282877
 10
59.8493574925
 20
-1.6699058053
 10
59.7792923622
 20
-1.6452768261
 10
59.7130205724
 20
-1.618173994
 10
59.6508036679
 20
-1.5887397159
  0
LWPOLYLINE
  5
3B9
100
AcDbEntity
  8
0
100
AcDbPolyline
 62
250
  6
CONTINUOUS
 90
4
 70
0
 10
19.1997133812
 20
-20.3924882671
 10
19.3119061972
 20
-20.3427489939
 10
19.4194459865
 20
-20.2896965248
 10
19.5220397173
 20
-20.2334757849
  0
LWPOLYLINE
  5
3BA
100
AcDbEntity
  8
0
100
AcDbPolyline
 62
7
  6
CONTINUOUS
 90
10
 70
0
 10
16.8281347141
 20
-17.9924088851
 10
16.8074798759
 20
-18.0010117199
 10
16.7871100055
 20
-18.0098381674
 10
16.7670323638
 20
-18.0188850817
 10
16.7472541072
 20
-18.0281492379
 10
16.7277822855
 20
-18.037627334
 10
16.7086238393
 20
-18.0473159915
 10
16.6897855974
 20
-18.0572117571
 10
16.6712742747
 20
-18.0673111034
 10
16.6530964692
 20
-18.0776104306
  0
LWPOLYLINE
  5
3BB
100
AcDbEntity
  8
0
100
AcDbPolyline
 62
7
  6
CONTINUOUS
 90
10
 70
0
 10
18.385782986
 20
-19.264308347
 10
18.4064378246
 20
-19.2557055122
 10
18.4268076953
 20
-19.2468790645
 10
18.4468853374
 20
-19.2378321501
 10
18.4666635943
 20
-19.2285679938
 10
18.4861354164
 20
-19.2190898976
 10
18.5052938629
 20
-19.2094012399
 10
18.5241321051
 20
-19.1995054742
 10
18.5426434281
 20
-19.1894061277
 10
18.5608212339
 20
-19.1791068003
  0
LWPOLYLINE
  5
3BC
100
AcDbEntity
  8
TRASH
100
AcDbPolyline
 62
7
  6
CONTINUOUS
 90
16
 70
0
 10
17.6069654611
 20
-18.7132829144
 10
17.6409736618
 20
-18.7005056496
 10
17.6754867914
 20
-18.6867810016
 10
17.7106352744
 20
-18.6721054272
 10
17.7465122603
 20
-18.6565683234
 10
17.7832517816
 20
-18.6400901944
 10
17.8210660752
 20
-18.6224293147
 10
17.8600909854
 20
-18.6036409792
 10
17.9004280061
 20
-18.5837228825
 10
17.9422910854
 20
-18.5623654424
 10
17.9858605358
 20
-18.5395844694
 10
18.0311918517
 20
-18.5154472473
 10
18.0783422398
 20
-18.4897229819
 10
18.1273934454
 20
-18.462353345
 10
18.1784355561
 20
-18.4334586664
 10
18.2315298634
 20
-18.4030657312
  0
LWPOLYLINE
  5
3BD
100
AcDbEntity
  8
0
100
AcDbPolyline
 62
7
  6
CONTINUOUS
 90
31
 70
0
 10
61.1024189596
 20
-1.3014980426
 10
61.0922294967
 20
-1.3051183124
 10
61.0221546206
 20
-1.3268012228
 10
60.9511820189
 20
-1.3456816039
 10
60.8798348455
 20
-1.3617176716
 10
60.8082409044
 20
-1.3749755927
 10
60.7365607754
 20
-1.3854981079
 10
60.6651174305
 20
-1.3933014829
 10
60.5941940188
 20
-1.3984177102
 10
60.5238847609
 20
-1.4008902267
 10
60.4544901988
 20
-1.4007476481
 10
60.386296355
 20
-1.398029744
 10
60.3193863897
 20
-1.3927667877
 10
60.2538938455
 20
-1.3849741461
 10
60.1902897923
 20
-1.3747126206
 10
60.1291420157
 20
-1.3621075604
 10
60.0708193196
 20
-1.3472966035
 10
60.0154285859
 20
-1.3303688565
 10
59.9631085782
 20
-1.3114126736
 10
59.9140834328
 20
-1.2905479169
 10
59.8685609932
 20
-1.2679016626
 10
59.8266677089
 20
-1.2435663893
 10
59.7885208687
 20
-1.217616691
 10
59.7544053466
 20
-1.1902499566
 10
59.7246315175
 20
-1.1617658336
 10
59.6993476068
 20
-1.1324190737
 10
59.6785304386
 20
-1.1023067228
 10
59.6621797722
 20
-1.0715060976
 10
59.6503616863
 20
-1.040188483
 10
59.6431208913
 20
-1.0085221169
 10
59.6404725039
 20
-0.9743968383
  0
LWPOLYLINE
  5
3BE
100
AcDbEntity
  8
0
100
AcDbPolyline
 62
7
  6
CONTINUOUS
 90
3
 70
0
 10
17.0753138253
 20
-19.1461769372
 10
17.0361746121
 20
-19.1584775659
 10
16.9976809038
 20
-19.1710545468
  0
LWPOLYLINE
  5
3BF
100
AcDbEntity
  8
0
100
AcDbPolyline
 62
7
  6
CONTINUOUS
 90
4
 70
0
 10
17.2366933836
 20
-19.0979035737
 10
17.1958111535
 20
-19.1097778467
 10
17.1552195275
 20
-19.1219164489
 10
17.0753138253
 20
-19.1461769372
  0
LWPOLYLINE
  5
3C0
100
AcDbEntity
  8
0
100
AcDbPolyline
 62
7
  6
CONTINUOUS
 90
7
 70
0
 10
-61.3497503517
 20
27.2254294997
 10
-61.3043854514
 20
27.2243321782
 10
-61.2816599763
 20
27.2236392339
 10
-61.258915659
 20
27.2228313933
 10
-61.2361657273
 20
27.2219083662
 10
-61.2134279407
 20
27.2208860899
 10
-61.1907428516
 20
27.2197586356
  0
LINE
  5
3C1
100
AcDbEntity
  8
0
100
AcDbLine
 62
7
  6
CONTINUOUS
 10
-60.10748207
 20
27.2246663036
 11
-60.1311945561
 21
27.2254295017
  0
LWPOLYLINE
  5
3C2
100
AcDbEntity
  8
0
100
AcDbPolyline
 62
7
  6
CONTINUOUS
 90
3
 70
0
 10
-61.1907428516
 20
27.2197586356
 10
-61.145371096
 20
27.2171801372
 10
-61.1226895979
 20
27.2157286007
  0
LWPOLYLINE
  5
3C3
100
AcDbEntity
  8
0
100
AcDbPolyline
 62
7
  6
CONTINUOUS
 90
3
 70
0
 10
-61.1226895979
 20
27.2157286007
 10
-61.0769119057
 20
27.2124795835
 10
-61.0535904979
 20
27.2106512549
  0
LWPOLYLINE
  5
3C4
100
AcDbEntity
  8
0
100
AcDbPolyline
 62
7
  6
CONTINUOUS
 90
3
 70
0
 10
-61.0535904979
 20
27.2106512549
 10
-61.0056277101
 20
27.2065396043
 10
-60.9806319846
 20
27.2042013506
  0
LINE
  5
3C5
100
AcDbEntity
  8
0
100
AcDbLine
 62
7
  6
CONTINUOUS
 10
61.0299743918
 20
5.8296910558
 11
60.9806319846
 21
5.8431362631
  0
LINE
  5
3C6
100
AcDbEntity
  8
0
100
AcDbLine
 62
7
  6
CONTINUOUS
 10
61.0999705768
 20
5.8099627845
 11
61.0299743918
 21
5.8296910558
  0
LINE
  5
3C7
100
AcDbEntity
  8
0
100
AcDbLine
 62
7
  6
CONTINUOUS
 10
61.145371096
 20
5.7967786077
 11
61.0999705768
 21
5.8099627845
  0
LINE
  5
3C8
100
AcDbEntity
  8
0
100
AcDbLine
 62
7
  6
CONTINUOUS
 10
61.1907428516
 20
5.7833192941
 11
61.145371096
 21
5.7967786077
  0
LINE
  5
3C9
100
AcDbEntity
  8
0
100
AcDbLine
 62
7
  6
CONTINUOUS
 10
61.2361657273
 20
5.7695436488
 11
61.1907428516
 21
5.7833192941
  0
LINE
  5
3CA
100
AcDbEntity
  8
0
100
AcDbLine
 62
7
  6
CONTINUOUS
 10
61.2816599763
 20
5.7554227581
 11
61.2361657273
 21
5.7695436488
  0
LWPOLYLINE
  5
3CB
100
AcDbEntity
  8
0
100
AcDbPolyline
 62
7
  6
CONTINUOUS
 90
3
 70
0
 10
61.3497503517
 20
5.7336956787
 10
61.3270854634
 20
5.7410326994
 10
61.2816599763
 20
5.7554227581
  0
LWPOLYLINE
  5
3CC
100
AcDbEntity
  8
0
100
AcDbPolyline
 62
250
  6
CONTINUOUS
 90
26
 70
0
 10
59.0343893111
 20
4.5625333396
 10
59.1470150181
 20
4.5125576477
 10
59.2639859133
 20
4.4660742805
 10
59.3850184122
 20
4.4231936259
 10
59.5097708147
 20
4.3840365448
 10
59.6378928762
 20
4.3487118572
 10
59.7690384568
 20
4.3173139131
 10
59.9028581143
 20
4.2899262664
 10
60.0389922816
 20
4.2666233719
 10
60.1770593311
 20
4.2474714048
 10
60.3166673967
 20
4.2325245855
 10
60.4574239727
 20
4.2218238178
 10
60.5989505434
 20
4.2153967717
 10
60.7408713199
 20
4.2132604066
 10
60.8828059759
 20
4.2154213788
 10
61.0243547793
 20
4.2218745188
 10
61.1651130649
 20
4.2326011326
 10
61.3046822407
 20
4.2475693098
 10
61.4426913511
 20
4.2667377701
 10
61.578781654
 20
4.2900567584
 10
61.7126434185
 20
4.317477563
 10
61.8438410186
 20
4.3489152323
 10
61.9718466011
 20
4.3842349825
 10
62.0962170694
 20
4.4232906885
 10
62.2167352817
 20
4.4659899861
 10
62.3332270336
 20
4.5122619259
  0
LWPOLYLINE
  5
3CD
100
AcDbEntity
  8
RACCORDO
100
AcDbPolyline
 62
7
  6
CONTINUOUS
 90
16
 70
0
 10
1.4495689014
 20
23.7211364286
 10
1.4336820327
 20
23.7293342677
 10
1.416807614
 20
23.7364130281
 10
1.3989456451
 20
23.7423727099
 10
1.3798803717
 20
23.7472537897
 10
1.3598275482
 20
23.7510157908
 10
1.3394344382
 20
23.7535372838
 10
1.3186899384
 20
23.754777792
 10
1.297605152
 20
23.754777792
 10
1.2768606522
 20
23.7535372838
 10
1.2564675421
 20
23.7510157908
 10
1.2364147187
 20
23.7472537897
 10
1.2173494452
 20
23.7423727099
 10
1.1994874764
 20
23.7364130281
 10
1.1826130576
 20
23.7293342677
 10
1.166726189
 20
23.7211364286
  0
LWPOLYLINE
  5
3CE
100
AcDbEntity
  8
0
100
AcDbPolyline
 62
7
  6
CONTINUOUS
 90
10
 70
0
 10
59.6508036679
 20
-1.5887397159
 10
59.5928871909
 20
-1.5571256003
 10
59.5394997116
 20
-1.523491858
 10
59.4908519264
 20
-1.4880066708
 10
59.4471358263
 20
-1.4508455271
 10
59.4085239393
 20
-1.4121905296
 10
59.3751686493
 20
-1.3722296767
 10
59.3472015947
 20
-1.3311561202
 10
59.3247331492
 20
-1.2891674035
 10
59.3078519858
 20
-1.2464646816
  0
LINE
  5
3CF
100
AcDbEntity
  8
SMUSSO
100
AcDbLine
 62
7
  6
CONTINUOUS
 10
31.2003931264
 20
-25.6622827689
 11
31.1781567941
 21
-24.1912236065
  0
LINE
  5
3D0
100
AcDbEntity
  8
SMUSSO
100
AcDbLine
 62
7
  6
CONTINUOUS
 10
31.1757098168
 20
-23.8660261599
 11
31.1781567941
 21
-24.1912236065
  0
LWPOLYLINE
  5
3D1
100
AcDbEntity
  8
TRASH
100
AcDbPolyline
 62
7
  6
CONTINUOUS
 90
9
 70
0
 10
59.9005974571
 20
5.6670717896
 10
59.9133838098
 20
5.6773968409
 10
59.9275931503
 20
5.6893430007
 10
59.9413870492
 20
5.7014901639
 10
59.9546934977
 20
5.7139228395
 10
59.9677385461
 20
5.726641331
 10
59.9805945856
 20
5.7396822771
 10
59.9931707029
 20
5.7531399487
 10
60.0054725044
 20
5.7670894578
  0
LWPOLYLINE
  5
3D2
100
AcDbEntity
  8
0
100
AcDbPolyline
 62
250
  6
CONTINUOUS
 90
15
 70
0
 10
62.7203714912
 20
3.6516625394
 10
62.8212779272
 20
3.7130579916
 10
62.9164810366
 20
3.7774185087
 10
63.0057198735
 20
3.8445676837
 10
63.0887498409
 20
3.9143214674
 10
63.165343357
 20
3.9864886693
 10
63.2352904802
 20
4.0608714812
 10
63.2983994828
 20
4.1372660161
 10
63.3544973962
 20
4.215462891
 10
63.403430474
 20
4.2952478
 10
63.4450645964
 20
4.37640208
 10
63.4792856264
 20
4.4587032744
 10
63.5059997491
 20
4.5419257667
 10
63.5251337425
 20
4.6258414357
 10
63.5366351683
 20
4.7102202877
  0
LWPOLYLINE
  5
3D3
100
AcDbEntity
  8
0
100
AcDbPolyline
 62
250
  6
CONTINUOUS
 90
39
 70
0
 10
62.6555533696
 20
4.6712744081
 10
62.7529217084
 20
4.7305089863
 10
62.8448050093
 20
4.7926006469
 10
62.9309519185
 20
4.8573803692
 10
63.0110953107
 20
4.9246440772
 10
63.0850521466
 20
4.9942343599
 10
63.1526985654
 20
5.066050047
 10
63.2138740137
 20
5.1399654259
 10
63.2683254155
 20
5.2157250614
 10
63.3158192617
 20
5.2930246516
 10
63.3562086868
 20
5.3716141517
 10
63.3894079483
 20
5.4513132581
 10
63.4153293198
 20
5.5319107177
 10
63.4339015488
 20
5.6131898501
 10
63.4450709138
 20
5.6949226962
 10
63.4488057571
 20
5.7768784555
 10
63.445094047
 20
5.8588594805
 10
63.4339442355
 20
5.9406126743
 10
63.4154119236
 20
6.0218251517
 10
63.3895970312
 20
6.1022100199
 10
63.3565824375
 20
6.1816172237
 10
63.3164219667
 20
6.2599410735
 10
63.2691919313
 20
6.3370087494
 10
63.2150360891
 20
6.4125652477
 10
63.1541140246
 20
6.4863836559
 10
63.086593178
 20
6.5582613574
 10
63.0126575985
 20
6.6280026692
 10
62.9325284758
 20
6.6954018321
 10
62.8464760386
 20
6.7602427607
 10
62.7546985077
 20
6.8223865239
 10
62.6573145152
 20
6.8817439872
 10
62.5544860838
 20
6.9381878158
 10
62.4465556968
 20
6.9915028598
 10
62.3339299898
 20
7.0414785497
 10
62.2169590945
 20
7.0879619162
 10
62.0959265957
 20
7.1308425707
 10
61.9711741932
 20
7.1699996521
 10
61.8430521316
 20
7.2053243402
 10
61.7119065511
 20
7.2367222851
  0
LWPOLYLINE
  5
3D4
100
AcDbEntity
  8
0
100
AcDbPolyline
 62
250
  6
CONTINUOUS
 90
16
 70
0
 10
62.7203714912
 20
4.496585336
 10
62.8210351098
 20
4.5578250813
 10
62.9160281542
 20
4.6220184494
 10
63.0050907821
 20
4.68899071
 10
63.0879469383
 20
4.7585308043
 10
63.1644073143
 20
4.8304761012
 10
63.234343566
 20
4.9047222675
 10
63.2975895184
 20
4.9811394561
 10
63.3538836831
 20
5.0594634297
 10
63.4029848581
 20
5.1393794254
 10
63.4447413131
 20
5.2206288764
 10
63.4790643083
 20
5.3030254523
 10
63.5058630665
 20
5.3863508022
 10
63.5250638864
 20
5.470380929
 10
63.5366112633
 20
5.5548801353
 10
63.5404725039
 20
5.6397541954
  0
LINE
  5
3D5
100
AcDbEntity
  8
RACCORDO
100
AcDbLine
 62
7
  6
CONTINUOUS
 10
55.9675017309
 20
-7.9201445543
 11
55.2250396107
 21
-8.3488328773
  0
LWPOLYLINE
  5
3D6
100
AcDbEntity
  8
0
100
AcDbPolyline
 62
7
  6
CONTINUOUS
 90
31
 70
0
 10
61.5182899632
 20
-2.0184475344
 10
61.4657529005
 20
-2.046858652
 10
61.4101100758
 20
-2.0732249849
 10
61.3515997602
 20
-2.0974336284
 10
61.2904725039
 20
-2.1193809174
 10
61.2269900632
 20
-2.1389728703
 10
61.1614242795
 20
-2.1561255912
 10
61.0940559158
 20
-2.1707656296
 10
61.0251734535
 20
-2.1828302945
 10
60.9550718581
 20
-2.1922679234
 10
60.8840513154
 20
-2.1990381027
 10
60.8124159461
 20
-2.2031118415
 10
60.7404725039
 20
-2.2044716955
 10
60.6685290618
 20
-2.2031118415
 10
60.5968936925
 20
-2.1990381027
 10
60.5258731497
 20
-2.1922679234
 10
60.4557715543
 20
-2.1828302945
 10
60.3868890921
 20
-2.1707656296
 10
60.3195207283
 20
-2.1561255912
 10
60.2539549447
 20
-2.1389728703
 10
60.1904725039
 20
-2.1193809174
 10
60.1293452476
 20
-2.0974336284
 10
60.070834932
 20
-2.0732249849
 10
60.0151921073
 20
-2.046858652
 10
59.9626550446
 20
-2.0184475344
 10
59.9134487157
 20
-1.9881132928
 10
59.8677838296
 20
-1.9559858232
 10
59.8258559304
 20
-1.9222027003
 10
59.7878445598
 20
-1.8869085886
 10
59.7539124882
 20
-1.8502546229
 10
59.7363338928
 20
-1.8286597324
  0
LWPOLYLINE
  5
3D7
100
AcDbEntity
  8
0
100
AcDbPolyline
 62
7
  6
CONTINUOUS
 90
37
 70
0
 10
61.591716874
 20
-1.5840125261
 10
61.5529779149
 20
-1.6049058363
 10
61.4759649304
 20
-1.6419756358
 10
61.3960492919
 20
-1.676197945
 10
61.3135463899
 20
-1.7074731484
 10
61.2287818254
 20
-1.7357132616
 10
61.1420901256
 20
-1.7608422782
 10
61.0538134229
 20
-1.78279647
 10
60.964300105
 20
-1.801524638
 10
60.8739034403
 20
-1.8169883154
 10
60.7829801831
 20
-1.8291619184
 10
60.6918891661
 20
-1.8380328478
 10
60.6009898839
 20
-1.8436015385
 10
60.5106410747
 20
-1.8458814579
 10
60.4211993041
 20
-1.8448990527
 10
60.3330175581
 20
-1.8406936444
 10
60.2464438501
 20
-1.8333172742
 10
60.161819847
 20
-1.8228344979
 10
60.0794795215
 20
-1.8093221305
 10
59.9997478334
 20
-1.7928689438
 10
59.9229394478
 20
-1.7735753154
 10
59.8493574925
 20
-1.751552833
 10
59.7792923622
 20
-1.7269238538
 10
59.7130205724
 20
-1.6998210217
 10
59.6508036679
 20
-1.6703867436
 10
59.5928871909
 20
-1.6387726279
 10
59.5394997116
 20
-1.6051388857
 10
59.4908519264
 20
-1.5696536985
 10
59.4471358263
 20
-1.5324925548
 10
59.4085239393
 20
-1.4938375573
 10
59.3751686493
 20
-1.4538767044
 10
59.3472015947
 20
-1.4128031479
 10
59.3247331492
 20
-1.3708144312
 10
59.3078519858
 20
-1.3281117093
 10
59.2966247272
 20
-1.2848989551
 10
59.2910956827
 20
-1.2413821543
 10
59.2904725039
 20
-1.2210301329
  0
LWPOLYLINE
  5
3D8
100
AcDbEntity
  8
0
100
AcDbPolyline
 62
7
  6
CONTINUOUS
 90
7
 70
0
 10
-59.9616313515
 20
27.2444091087
 10
-59.9859257411
 20
27.2415123448
 10
-60.010225756
 20
27.2384580995
 10
-60.0345313964
 20
27.2352463727
 10
-60.0588426622
 20
27.2318771645
 10
-60.0831595534
 20
27.2283504748
 10
-60.10748207
 20
27.2246663036
  0
LINE
  5
3D9
100
AcDbEntity
  8
0
100
AcDbLine
 62
250
  6
CONTINUOUS
 10
-61.1651130649
 20
27.6535098647
 11
-61.1673695806
 21
27.6535438399
  0
LINE
  5
3DA
100
AcDbEntity
  8
0
100
AcDbLine
 62
250
  6
CONTINUOUS
 10
-61.013855087
 20
27.6650709891
 11
-61.0243547793
 21
27.6642364727
  0
LINE
  5
3DB
100
AcDbEntity
  8
0
100
AcDbLine
 62
7
  6
CONTINUOUS
 10
-61.3738346811
 20
27.2246534985
 11
-61.3497503517
 21
27.2254294997
  0
LINE
  5
3DC
100
AcDbEntity
  8
SMUSSO
100
AcDbLine
 62
7
  6
CONTINUOUS
 10
-22.627406228
 20
28.6000240373
 11
-22.9102758659
 21
28.6000271468
  0
LWPOLYLINE
  5
3DD
100
AcDbEntity
  8
TRASH
100
AcDbPolyline
 62
7
  6
CONTINUOUS
 90
6
 70
0
 10
61.3650435158
 20
6.5016844618
 10
61.40911734
 20
6.4843153401
 10
61.451758323
 20
6.4657741978
 10
61.4928725004
 20
6.4461000515
 10
61.5323626289
 20
6.4253366068
 10
61.5701481436
 20
6.4035260318
  0
LWPOLYLINE
  5
3DE
100
AcDbEntity
  8
0
100
AcDbPolyline
 62
7
  6
CONTINUOUS
 90
7
 70
0
 10
59.6390582548
 20
6.7260846977
 10
59.6552455165
 20
6.7176686602
 10
59.6711572714
 20
6.7092681468
 10
59.6867935195
 20
6.7008831577
 10
59.7021542607
 20
6.6925136927
 10
59.7172394952
 20
6.6841597519
 10
59.7320492228
 20
6.6758213352
  0
LWPOLYLINE
  5
3DF
100
AcDbEntity
  8
0
100
AcDbPolyline
 62
7
  6
CONTINUOUS
 90
10
 70
0
 10
-18.6966276876
 20
43.6480852248
 10
-18.7545441646
 20
43.6796993404
 10
-18.8079316439
 20
43.7133330827
 10
-18.8565794291
 20
43.7488182699
 10
-18.9002955291
 20
43.7859794136
 10
-18.9389074161
 20
43.8246344111
 10
-18.9722627062
 20
43.864595264
 10
-19.0002297608
 20
43.9056688205
 10
-19.0226982063
 20
43.9476575372
 10
-19.0395793697
 20
43.9903602591
  0
LINE
  5
3E0
100
AcDbEntity
  8
SMUSSO
100
AcDbLine
 62
7
  6
CONTINUOUS
 10
-31.1979030658
 20
51.9929666356
 11
66.9630067937
 21
-4.6839124721
  0
LINE
  5
3E1
100
AcDbEntity
  8
SMUSSO
100
AcDbLine
 62
7
  6
CONTINUOUS
 10
67.2458602755
 20
-3.3661836508
 11
66.9630067937
 21
-3.2028894056
  0
LINE
  5
3E2
100
AcDbEntity
  8
SMUSSO
100
AcDbLine
 62
7
  6
CONTINUOUS
 10
66.9642302823
 20
-3.2035958327
 11
-31.1769333055
 21
53.4618820253
  0
LINE
  5
3E3
100
AcDbEntity
  8
SMUSSO
100
AcDbLine
 62
7
  6
CONTINUOUS
 10
66.9630067937
 20
-4.6839124721
 11
67.2458602755
 21
-4.8500817928
  0
LINE
  5
3E4
100
AcDbEntity
  8
0
100
AcDbLine
 62
7
  6
CONTINUOUS
 10
-16.9248878092
 20
50.9360295007
 11
-16.973596683
 21
50.9648259682
  0
LINE
  5
3E5
100
AcDbEntity
  8
0
100
AcDbLine
 62
7
  6
CONTINUOUS
 10
-16.8764004676
 20
50.9068431262
 11
-16.9248878092
 21
50.9360295007
  0
LINE
  5
3E6
100
AcDbEntity
  8
0
100
AcDbLine
 62
7
  6
CONTINUOUS
 10
-16.8281347171
 20
50.8772667867
 11
-16.8764004676
 21
50.9068431262
  0
LWPOLYLINE
  5
3E7
100
AcDbEntity
  8
0
100
AcDbPolyline
 62
7
  6
CONTINUOUS
 90
10
 70
0
 10
-18.7083851318
 20
51.0635332219
 10
-18.6782000814
 20
51.039847131
 10
-18.6464879644
 20
51.0168358337
 10
-18.6132939867
 20
50.9945321327
 10
-18.5786654666
 20
50.9729678223
 10
-18.5426517676
 20
50.9521736427
 10
-18.5053042276
 20
50.9321792361
 10
-18.4666760859
 20
50.9130131048
 10
-18.4268224074
 20
50.8947025704
 10
-18.3858000039
 20
50.8772737348
  0
LWPOLYLINE
  5
3E8
100
AcDbEntity
  8
0
100
AcDbPolyline
 62
7
  6
CONTINUOUS
 90
10
 70
0
 10
-16.5055325682
 20
51.962899812
 10
-16.5357176187
 20
51.9865859032
 10
-16.567429736
 20
52.0095972009
 10
-16.600623714
 20
52.0319009022
 10
-16.6352522344
 20
52.0534652129
 10
-16.6712659338
 20
52.0742593928
 10
-16.7086134742
 20
52.0942537997
 10
-16.7472416163
 20
52.1134199312
 10
-16.7870952952
 20
52.1317304658
 10
-16.8281176992
 20
52.1491593017
  0
LWPOLYLINE
  5
3E9
100
AcDbEntity
  8
0
100
AcDbPolyline
 62
7
  6
CONTINUOUS
 90
14
 70
0
 10
61.6073450136
 20
-2.0517017178
 10
61.5588026264
 20
-2.0859315868
 10
61.5080986309
 20
-2.11814864
 10
61.4554752852
 20
-2.1482965516
 10
61.4011786408
 20
-2.1763284856
 10
61.3454574468
 20
-2.2022071509
 10
61.2885620589
 20
-2.225904816
 10
61.2307433542
 20
-2.2474032813
 10
61.172251658
 20
-2.2666938121
 10
61.1133356875
 20
-2.2837770311
 10
61.0542415153
 20
-2.2986627723
 10
60.9952115588
 20
-2.3113698969
 10
60.9364835975
 20
-2.3219260727
 10
60.8782898243
 20
-2.3303675182
  0
LINE
  5
3EA
100
AcDbEntity
  8
SMUSSO
100
AcDbLine
 62
7
  6
CONTINUOUS
 10
80.8311890995
 20
4.8030123946
 11
66.9642302823
 21
-3.2035958327
  0
LINE
  5
3EB
100
AcDbEntity
  8
SMUSSO
100
AcDbLine
 62
7
  6
CONTINUOUS
 10
17.3099744883
 20
-31.8733408142
 11
31.1769333055
 21
-23.8667325869
  0
LINE
  5
3EC
100
AcDbEntity
  8
SMUSSO
100
AcDbLine
 62
7
  6
CONTINUOUS
 10
80.9726158405
 20
4.5594729757
 11
67.2458602755
 21
-3.3661836508
  0
LINE
  5
3ED
100
AcDbEntity
  8
SMUSSO
100
AcDbLine
 62
7
  6
CONTINUOUS
 10
17.4514012292
 20
-32.1168802331
 11
31.1781567941
 21
-24.1912236065
  0
LINE
  5
3EE
100
AcDbEntity
  8
SMUSSO
100
AcDbLine
 62
7
  6
CONTINUOUS
 10
31.2003931264
 20
-25.6622827689
 11
23.9794146126
 21
-29.8315852627
  0
LINE
  5
3EF
100
AcDbEntity
  8
SMUSSO
100
AcDbLine
 62
7
  6
CONTINUOUS
 10
67.2458602755
 20
-4.8500817928
 11
74.4668387893
 21
-0.6807792991
  0
LWPOLYLINE
  5
3F0
100
AcDbEntity
  8
0
100
AcDbPolyline
 62
7
  6
CONTINUOUS
 90
3
 70
0
 10
-60.9869319379
 20
26.1735071531
 10
-61.0282819611
 20
26.1622097138
 10
-61.1107379719
 20
26.138921367
  0
LWPOLYLINE
  5
3F1
100
AcDbEntity
  8
0
100
AcDbPolyline
 62
7
  6
CONTINUOUS
 90
3
 70
0
 10
-60.8628138596
 20
26.2060723165
 10
-60.9040054904
 20
26.1954774227
 10
-60.9869319379
 20
26.1735071531
  0
LWPOLYLINE
  5
3F2
100
AcDbEntity
  8
0
100
AcDbPolyline
 62
7
  6
CONTINUOUS
 90
3
 70
0
 10
-60.7404724403
 20
26.2362481398
 10
-60.7811679434
 20
26.2263534751
 10
-60.8628138596
 20
26.2060723165
  0
LWPOLYLINE
  5
3F3
100
AcDbEntity
  8
0
100
AcDbPolyline
 62
250
  6
CONTINUOUS
 90
9
 70
0
 10
-61.7126434185
 20
27.5686334709
 10
-61.8438410186
 20
27.5371959566
 10
-61.9718466011
 20
27.5018762483
 10
-62.0962170694
 20
27.4628203397
 10
-62.2167352817
 20
27.4201207266
 10
-62.3332270336
 20
27.3738485968
 10
-62.4454198496
 20
27.3241093387
 10
-62.5529596389
 20
27.2710570102
 10
-62.6555533696
 20
27.2148365364
  0
LINE
  5
3F4
100
AcDbEntity
  8
0
100
AcDbLine
 62
7
  6
CONTINUOUS
 10
-61.3497504517
 20
26.0657703939
 11
-61.3734629379
 21
26.0601643756
  0
LWPOLYLINE
  5
3F5
100
AcDbEntity
  8
0
100
AcDbPolyline
 62
250
  6
CONTINUOUS
 90
3
 70
0
 10
-61.4426913511
 20
27.6193731526
 10
-61.578781654
 20
27.5960541634
 10
-61.7126434185
 20
27.5686334709
  0
LWPOLYLINE
  5
3F6
100
AcDbEntity
  8
0
100
AcDbPolyline
 62
7
  6
CONTINUOUS
 90
16
 70
0
 10
-60.7404725676
 20
27.1748448051
 10
-60.6997770645
 20
27.1807520437
 10
-60.659021575
 20
27.186251439
 10
-60.6181311482
 20
27.1913791855
 10
-60.5769395174
 20
27.1962110756
 10
-60.5354724456
 20
27.2007188495
 10
-60.4940130699
 20
27.2048037521
 10
-60.4526630468
 20
27.2085355258
 10
-60.4113512583
 20
27.2119470493
 10
-60.3702070359
 20
27.2149245574
 10
-60.3293248059
 20
27.2175438869
 10
-60.2887331799
 20
27.2198602715
 10
-60.2485331385
 20
27.2217486224
 10
-60.2088274777
 20
27.2232211854
 10
-60.1696882645
 20
27.2244214273
 10
-60.1311945561
 20
27.2254295017
  0
LINE
  5
3F7
100
AcDbEntity
  8
0
100
AcDbLine
 62
250
  6
CONTINUOUS
 10
-61.3046822407
 20
27.6385416566
 11
-61.3196061256
 21
27.636976292
  0
LWPOLYLINE
  5
3F8
100
AcDbEntity
  8
TRASH
100
AcDbPolyline
 62
7
  6
CONTINUOUS
 90
6
 70
0
 10
-16.9823878397
 20
51.7385094025
 10
-16.9383140155
 20
51.7211402808
 10
-16.8956730325
 20
51.7025991385
 10
-16.8545588551
 20
51.6829249922
 10
-16.8150687266
 20
51.6621615476
 10
-16.7772832119
 20
51.6403509726
  0
LWPOLYLINE
  5
3F9
100
AcDbEntity
  8
0
100
AcDbPolyline
 62
250
  6
CONTINUOUS
 90
26
 70
0
 10
-19.3130420444
 20
49.7993582803
 10
-19.2004163374
 20
49.7493825884
 10
-19.0834454421
 20
49.7028992212
 10
-18.9624129433
 20
49.6600185666
 10
-18.8376605408
 20
49.6208614855
 10
-18.7095384793
 20
49.5855367979
 10
-18.5783928987
 20
49.5541388538
 10
-18.4445732412
 20
49.5267512071
 10
-18.3084390739
 20
49.5034483126
 10
-18.1703720243
 20
49.4842963455
 10
-18.0307639588
 20
49.4693495263
 10
-17.8900073828
 20
49.4586487585
 10
-17.7484808121
 20
49.4522217125
 10
-17.6065600355
 20
49.4500853474
 10
-17.4646253796
 20
49.4522463195
 10
-17.3230765762
 20
49.4586994595
 10
-17.1823182906
 20
49.4694260733
 10
-17.0427491148
 20
49.4843942505
 10
-16.9047400043
 20
49.5035627108
 10
-16.7686497015
 20
49.5268816991
 10
-16.634787937
 20
49.5543025037
 10
-16.5035903369
 20
49.585740173
 10
-16.3755847544
 20
49.6210599232
 10
-16.251214286
 20
49.6601156292
 10
-16.1306960738
 20
49.7028149268
 10
-16.0142043219
 20
49.7490868666
  0
LWPOLYLINE
  5
3FA
100
AcDbEntity
  8
SMUSSO
100
AcDbPolyline
 62
7
  6
CONTINUOUS
 90
16
 70
0
 10
82.0854068481
 20
4.924464854
 10
82.0121216584
 20
4.9621532072
 10
81.9414081463
 20
4.9905722684
 10
81.8677230801
 20
5.0129261997
 10
81.7912627988
 20
5.0291550598
 10
81.7122352973
 20
5.0392145905
 10
81.6308625842
 20
5.0430759784
 10
81.5473650283
 20
5.0407301456
 10
81.4619681512
 20
5.0321851227
 10
81.3749112642
 20
5.0174654392
 10
81.2864321262
 20
4.9966138875
 10
81.1967685339
 20
4.9696894973
 10
81.1061659886
 20
4.9367674393
 10
81.0148707275
 20
4.8979394718
 10
80.9231290027
 20
4.8533133802
 10
80.8311890995
 20
4.8030123946
  0
LWPOLYLINE
  5
3FB
100
AcDbEntity
  8
0
100
AcDbPolyline
 62
7
  6
CONTINUOUS
 90
7
 70
0
 10
-18.7083731006
 20
51.9629096384
 10
-18.6921858389
 20
51.9544936009
 10
-18.6762740841
 20
51.9460930876
 10
-18.660637836
 20
51.9377080984
 10
-18.6452770947
 20
51.9293386334
 10
-18.6301918603
 20
51.9209846926
 10
-18.6153821326
 20
51.9126462759
  0
LWPOLYLINE
  5
3FC
100
AcDbEntity
  8
TRASH
100
AcDbPolyline
 62
7
  6
CONTINUOUS
 90
16
 70
0
 10
60.115901492
 20
6.5016844618
 10
60.1689938143
 20
6.4712920603
 10
60.2200358151
 20
6.4423974431
 10
60.2690886235
 20
6.4150272463
 10
60.3162431503
 20
6.389301161
 10
60.3615799091
 20
6.3651611798
 10
60.4051531773
 20
6.3423780506
 10
60.4470172912
 20
6.3210200427
 10
60.4873541472
 20
6.3011022664
 10
60.5263790376
 20
6.282314275
 10
60.5641946159
 20
6.2646532682
 10
60.6009354806
 20
6.2481749549
 10
60.6368116351
 20
6.2326381945
 10
60.6719565915
 20
6.2179638746
 10
60.7064644686
 20
6.204241369
 10
60.7404658944
 20
6.1914672786
  0
LWPOLYLINE
  5
3FD
100
AcDbEntity
  8
TRASH
100
AcDbPolyline
 62
7
  6
CONTINUOUS
 90
16
 70
0
 10
-18.2315298634
 20
51.7385094025
 10
-18.1784375412
 20
51.708117001
 10
-18.1273955404
 20
51.6792223838
 10
-18.078342732
 20
51.651852187
 10
-18.0311882051
 20
51.6261261018
 10
-17.9858514464
 20
51.6019861205
 10
-17.9422781782
 20
51.5792029913
 10
-17.9004140642
 20
51.5578449834
 10
-17.8600772083
 20
51.5379272071
 10
-17.8210523179
 20
51.5191392157
 10
-17.7832367395
 20
51.5014782089
 10
-17.7464958749
 20
51.4849998957
 10
-17.7106197204
 20
51.4694631352
 10
-17.675474764
 20
51.4547888154
 10
-17.6409668868
 20
51.4410663097
 10
-17.6069654611
 20
51.4282922193
  0
LINE
  5
3FE
100
AcDbEntity
  8
0
100
AcDbLine
 62
7
  6
CONTINUOUS
 10
61.4225435463
 20
5.6992045599
 11
61.3738346725
 21
5.7280010274
  0
LINE
  5
3FF
100
AcDbEntity
  8
0
100
AcDbLine
 62
7
  6
CONTINUOUS
 10
61.4710308879
 20
5.6700181855
 11
61.4225435463
 21
5.6992045599
  0
LINE
  5
400
100
AcDbEntity
  8
0
100
AcDbLine
 62
7
  6
CONTINUOUS
 10
61.5192966384
 20
5.640441846
 11
61.4710308879
 21
5.6700181855
  0
LWPOLYLINE
  5
401
100
AcDbEntity
  8
0
100
AcDbPolyline
 62
7
  6
CONTINUOUS
 90
10
 70
0
 10
59.6390462237
 20
5.8267082812
 10
59.669231274
 20
5.8030221903
 10
59.7009433911
 20
5.780010893
 10
59.7341373688
 20
5.757707192
 10
59.7687658888
 20
5.7361428816
 10
59.8047795879
 20
5.715348702
 10
59.8421271279
 20
5.6953542954
 10
59.8807552696
 20
5.6761881641
 10
59.9206089481
 20
5.6578776297
 10
59.9616313515
 20
5.6404487941
  0
LINE
  5
402
100
AcDbEntity
  8
TRASH
100
AcDbLine
 62
7
  6
CONTINUOUS
 10
61.3650485473
 20
6.5016874877
 11
61.3887826836
 21
6.5398632175
  0
LINE
  5
403
100
AcDbEntity
  8
0
100
AcDbLine
 62
7
  6
CONTINUOUS
 10
61.5936568688
 20
6.4371936397
 11
61.553268785
 21
6.3734717141
  0
LINE
  5
404
100
AcDbEntity
  8
0
100
AcDbLine
 62
7
  6
CONTINUOUS
 10
61.6333929358
 20
6.4991495887
 11
61.5936568688
 21
6.4371936397
  0
LWPOLYLINE
  5
405
100
AcDbEntity
  8
0
100
AcDbPolyline
 62
7
  6
CONTINUOUS
 90
3
 70
0
 10
61.6720268813
 20
6.5582843857
 10
61.6463753115
 20
6.5191966204
 10
61.6333929358
 20
6.4991495887
  0
LWPOLYLINE
  5
406
100
AcDbEntity
  8
0
100
AcDbPolyline
 62
7
  6
CONTINUOUS
 90
3
 70
0
 10
61.7210865505
 20
6.6315721525
 10
61.6845665746
 20
6.5772486962
 10
61.6720268813
 20
6.5582843857
  0
LWPOLYLINE
  5
407
100
AcDbEntity
  8
0
100
AcDbPolyline
 62
7
  6
CONTINUOUS
 90
3
 70
0
 10
61.7447020201
 20
6.6653146086
 10
61.7328538801
 20
6.6487282283
 10
61.7210865505
 20
6.6315721525
  0
LINE
  5
408
100
AcDbEntity
  8
0
100
AcDbLine
 62
7
  6
CONTINUOUS
 10
59.6390462237
 20
5.8267082812
 11
59.6697937698
 21
5.8663994099
  0
LINE
  5
409
100
AcDbEntity
  8
0
100
AcDbLine
 62
7
  6
CONTINUOUS
 10
59.6697937698
 20
5.8663994099
 11
59.7007728612
 21
5.9056948259
  0
LINE
  5
40A
100
AcDbEntity
  8
0
100
AcDbLine
 62
7
  6
CONTINUOUS
 10
59.7007728612
 20
5.9056948259
 11
59.7319835843
 21
5.9445945036
  0
LWPOLYLINE
  5
40B
100
AcDbEntity
  8
0
100
AcDbPolyline
 62
7
  6
CONTINUOUS
 90
17
 70
0
 10
61.7104234694
 20
-1.8727935181
 10
61.6774975273
 20
-1.9127896391
 10
61.6390660246
 20
-1.9542110409
 10
61.597556137
 20
-1.9940356265
 10
61.5531613437
 20
-2.0321597519
 10
61.5060874332
 20
-2.0684861057
 10
61.4565502233
 20
-2.1029255979
 10
61.4047730874
 20
-2.1353985785
 10
61.3509901106
 20
-2.1658324526
 10
61.2954414617
 20
-2.1941644603
 10
61.2383701071
 20
-2.2203425695
 10
61.180027537
 20
-2.2443222735
 10
61.1206708009
 20
-2.2660682428
 10
61.0605571301
 20
-2.2855560506
 10
60.9999472113
 20
-2.30277052
 10
60.9391041154
 20
-2.317706081
 10
60.8782898243
 20
-2.3303675182
  0
LINE
  5
40C
100
AcDbEntity
  8
RACCORDO
100
AcDbLine
 62
7
  6
CONTINUOUS
 10
64.0285190364
 20
-12.5744749183
 11
63.9931636974
 21
-12.5948886479
  0
LWPOLYLINE
  5
40D
100
AcDbEntity
  8
0
100
AcDbPolyline
 62
7
  6
CONTINUOUS
 90
13
 70
0
 10
-17.4691415311
 20
42.9064574225
 10
-17.5295811064
 20
42.8931544006
 10
-17.589237779
 20
42.8820311484
 10
-17.6478436401
 20
42.8730511978
 10
-17.7051627026
 20
42.8661638043
 10
-17.7609055063
 20
42.8613148233
 10
-17.8147406155
 20
42.8584367043
 10
-17.8664775941
 20
42.857439779
 10
-17.9158466301
 20
42.8582278032
 10
-17.9624556084
 20
42.8606788939
 10
-18.0060884449
 20
42.8646514765
 10
-18.0466698184
 20
42.8700083534
 10
-18.0840788053
 20
42.8766062494
  0
LWPOLYLINE
  5
40E
100
AcDbEntity
  8
0
100
AcDbPolyline
 62
7
  6
CONTINUOUS
 90
24
 70
0
 10
-17.8580631173
 20
44.2892947013
 10
-17.9262348319
 20
44.2900435549
 10
-18.0144164605
 20
44.294249051
 10
-18.100990042
 20
44.3016255017
 10
-18.1856139105
 20
44.3121083509
 10
-18.2679540945
 20
44.3256207831
 10
-18.3476856355
 20
44.3420740265
 10
-18.4244938698
 20
44.3613677032
 10
-18.4980756707
 20
44.3833902253
 10
-18.5681406449
 20
44.4080192357
 10
-18.6344122783
 20
44.4351220905
 10
-18.6966290271
 20
44.4645563826
 10
-18.7545453508
 20
44.496170504
 10
-18.8079326801
 20
44.5298042438
 10
-18.85658032
 20
44.5652894207
 10
-18.9002962806
 20
44.6024505464
 10
-18.9389080352
 20
44.6411055187
 10
-18.972263201
 20
44.6810663396
 10
-19.0002301405
 20
44.7221398578
 10
-19.0226984809
 20
44.7641285304
 10
-19.0395795502
 20
44.806831203
 10
-19.0508067264
 20
44.8500439033
 10
-19.056335701
 20
44.8935606462
 10
-19.0569588515
 20
44.9139122023
  0
LWPOLYLINE
  5
40F
100
AcDbEntity
  8
0
100
AcDbPolyline
 62
7
  6
CONTINUOUS
 90
20
 70
0
 10
-18.0074783636
 20
44.3755651919
 10
-18.0144164605
 20
44.3758960787
 10
-18.100990042
 20
44.3832725294
 10
-18.1856139105
 20
44.3937553786
 10
-18.2679540945
 20
44.4072678108
 10
-18.3476856355
 20
44.4237210542
 10
-18.4244938698
 20
44.4430147308
 10
-18.4980756707
 20
44.465037253
 10
-18.5681406449
 20
44.4896662634
 10
-18.6344122783
 20
44.5167691181
 10
-18.6966290271
 20
44.5462034103
 10
-18.7545453508
 20
44.5778175317
 10
-18.8079326801
 20
44.6114512715
 10
-18.85658032
 20
44.6469364484
 10
-18.9002962806
 20
44.6840975741
 10
-18.9389080352
 20
44.7227525464
 10
-18.972263201
 20
44.7627133673
 10
-19.0002301405
 20
44.8037868855
 10
-19.0226984809
 20
44.8457755581
 10
-19.0395795502
 20
44.8884782307
  0
LWPOLYLINE
  5
410
100
AcDbEntity
  8
0
100
AcDbPolyline
 62
250
  6
CONTINUOUS
 90
9
 70
0
 10
-16.6355248044
 20
52.4735472258
 10
-16.7693444619
 20
52.5009348738
 10
-16.9054786292
 20
52.5242377708
 10
-17.0435456788
 20
52.5433897409
 10
-17.1831537443
 20
52.5583365626
 10
-17.3239103203
 20
52.5690373304
 10
-17.465436891
 20
52.5754643761
 10
-17.6073576676
 20
52.5776007448
 10
-17.7492923235
 20
52.5754397871
  0
LINE
  5
411
100
AcDbEntity
  8
0
100
AcDbLine
 62
7
  6
CONTINUOUS
 10
-16.9976810038
 20
50.9705206194
 11
-16.973596683
 21
50.9648259682
  0
LWPOLYLINE
  5
412
100
AcDbEntity
  8
0
100
AcDbPolyline
 62
7
  6
CONTINUOUS
 90
3
 70
0
 10
-17.5063537388
 20
51.1163193387
 10
-17.5720918107
 20
51.1323075578
 10
-17.6069587879
 20
51.1409983328
  0
LINE
  5
413
100
AcDbEntity
  8
0
100
AcDbLine
 62
7
  6
CONTINUOUS
 10
-17.475912683
 20
51.1086900582
 11
-17.5063537388
 21
51.1163193387
  0
LINE
  5
414
100
AcDbEntity
  8
0
100
AcDbLine
 62
7
  6
CONTINUOUS
 10
-17.3924363065
 20
51.0868910238
 11
-17.475912683
 21
51.1086900582
  0
LINE
  5
415
100
AcDbEntity
  8
0
100
AcDbLine
 62
7
  6
CONTINUOUS
 10
-17.3174569637
 20
51.0665159966
 11
-17.3924363065
 21
51.0868910238
  0
LINE
  5
416
100
AcDbEntity
  8
0
100
AcDbLine
 62
7
  6
CONTINUOUS
 10
-17.2474607787
 20
51.0467877252
 11
-17.3174569637
 21
51.0665159966
  0
LINE
  5
417
100
AcDbEntity
  8
0
100
AcDbLine
 62
7
  6
CONTINUOUS
 10
-17.2020602595
 20
51.0336035484
 11
-17.2474607787
 21
51.0467877252
  0
LINE
  5
418
100
AcDbEntity
  8
0
100
AcDbLine
 62
7
  6
CONTINUOUS
 10
-17.1566885038
 20
51.0201442348
 11
-17.2020602595
 21
51.0336035484
  0
LINE
  5
419
100
AcDbEntity
  8
0
100
AcDbLine
 62
7
  6
CONTINUOUS
 10
-17.1112656282
 20
51.0063685895
 11
-17.1566885038
 21
51.0201442348
  0
LINE
  5
41A
100
AcDbEntity
  8
0
100
AcDbLine
 62
7
  6
CONTINUOUS
 10
-17.0657713791
 20
50.9922476988
 11
-17.1112656282
 21
51.0063685895
  0
LWPOLYLINE
  5
41B
100
AcDbEntity
  8
0
100
AcDbPolyline
 62
7
  6
CONTINUOUS
 90
3
 70
0
 10
-16.9976810038
 20
50.9705206194
 10
-17.0203458921
 20
50.9778576401
 10
-17.0657713791
 20
50.9922476988
  0
LWPOLYLINE
  5
41C
100
AcDbEntity
  8
SMUSSO
100
AcDbPolyline
 62
7
  6
CONTINUOUS
 90
16
 70
0
 10
-16.0640716619
 20
61.5947436344
 10
-16.1362073897
 20
61.6317741606
 10
-16.2059587812
 20
61.6596437412
 10
-16.2787439741
 20
61.6814847235
 10
-16.3543671701
 20
61.6972374322
 10
-16.4326199069
 20
61.7068573014
 10
-16.5132865945
 20
61.7103191162
 10
-16.5961467131
 20
61.7076141324
 10
-16.6809749431
 20
61.6987500548
 10
-16.7675390854
 20
61.6837534594
 10
-16.8556018879
 20
61.6626669761
 10
-16.9449253141
 20
61.6355486701
 10
-17.0352700725
 20
61.602473354
 10
-17.1263920746
 20
61.5635315763
 10
-17.2180430154
 20
61.5188298287
 10
-17.2944522408
 20
61.4773742669
  0
LINE
  5
41D
100
AcDbEntity
  8
SMUSSO
100
AcDbLine
 62
250
  6
CONTINUOUS
 10
80.8311890995
 20
4.8030123946
 11
-17.3099744883
 21
61.4684902525
  0
LINE
  5
41E
100
AcDbEntity
  8
RACCORDO
100
AcDbLine
 62
7
  6
CONTINUOUS
 10
82.0854069109
 20
4.9244649018
 11
-16.0640714932
 21
61.5947436304
  0
LWPOLYLINE
  5
41F
100
AcDbEntity
  8
0
100
AcDbPolyline
 62
7
  6
CONTINUOUS
 90
10
 70
0
 10
61.8418987873
 20
6.7260748713
 10
61.8117137367
 20
6.7497609625
 10
61.7800016195
 20
6.7727722602
 10
61.7468076414
 20
6.7950759615
 10
61.7121791211
 20
6.8166402722
 10
61.6761654217
 20
6.8374344521
 10
61.6388178813
 20
6.857428859
 10
61.6001897392
 20
6.8765949905
 10
61.5603360602
 20
6.8949055251
 10
61.5193136563
 20
6.912334361
  0
LINE
  5
420
100
AcDbEntity
  8
0
100
AcDbLine
 62
7
  6
CONTINUOUS
 10
60.7404725039
 20
-3.1249302842
 11
59.7363338928
 21
-1.8286597324
  0
LWPOLYLINE
  5
421
100
AcDbEntity
  8
0
100
AcDbPolyline
 62
7
  6
CONTINUOUS
 90
6
 70
0
 10
59.7363338928
 20
-1.8286597324
 10
59.7242050182
 20
-1.8123977612
 10
59.6988493615
 20
-1.7735001123
 10
59.677954095
 20
-1.7337282419
 10
59.6616086955
 20
-1.6932524593
 10
59.6557378605
 20
-1.6727210674
  0
LINE
  5
422
100
AcDbEntity
  8
RACCORDO
100
AcDbLine
 62
7
  6
CONTINUOUS
 10
55.2250396107
 20
-8.3488328773
 11
55.1454335145
 21
2.1379906948
  0
LINE
  5
423
100
AcDbEntity
  8
RACCORDO
100
AcDbLine
 62
250
  6
CONTINUOUS
 10
55.9675017309
 20
-7.9201445543
 11
55.9675017309
 21
1.6633388096
  0
LINE
  5
424
100
AcDbEntity
  8
0
100
AcDbLine
 62
7
  6
CONTINUOUS
 10
61.3886676114
 20
6.5399475495
 11
61.5193136563
 21
6.912334361
  0
LINE
  5
425
100
AcDbEntity
  8
0
100
AcDbLine
 62
7
  6
CONTINUOUS
 10
61.7489614214
 20
6.6759852666
 11
61.7447020201
 21
6.6653146086
  0
LINE
  5
426
100
AcDbEntity
  8
0
100
AcDbLine
 62
7
  6
CONTINUOUS
 10
59.7362429878
 20
5.9617358221
 11
59.7716877516
 21
6.0466590858
  0
LINE
  5
427
100
AcDbEntity
  8
0
100
AcDbLine
 62
7
  6
CONTINUOUS
 10
59.7716877516
 20
6.0466590858
 11
59.7838655969
 21
6.0750398211
  0
LWPOLYLINE
  5
428
100
AcDbEntity
  8
0
100
AcDbPolyline
 62
7
  6
CONTINUOUS
 90
11
 70
0
 10
59.7838655969
 20
6.0750398211
 10
59.8089181266
 20
6.1315763945
 10
59.8216004994
 20
6.1596340902
 10
59.8345696964
 20
6.1875097964
 10
59.847552072
 20
6.2150957263
 10
59.8606339432
 20
6.2424497325
 10
59.8739586903
 20
6.2695274003
 10
59.887288139
 20
6.2961333442
 10
59.9005744746
 20
6.3222535829
 10
59.9140079135
 20
6.3480142981
 10
59.9276762228
 20
6.3734717106
  0
LINE
  5
429
100
AcDbEntity
  8
0
100
AcDbLine
 62
7
  6
CONTINUOUS
 10
60.7404725039
 20
-3.1249302842
 11
61.418883435
 21
-2.2491506834
  0
LINE
  5
42A
100
AcDbEntity
  8
0
100
AcDbLine
 62
7
  6
CONTINUOUS
 10
61.7104234694
 20
-1.8727935181
 11
61.744611115
 21
-1.8286597324
  0
LWPOLYLINE
  5
42B
100
AcDbEntity
  8
0
100
AcDbPolyline
 62
7
  6
CONTINUOUS
 90
8
 70
0
 10
61.744611115
 20
-1.8286597324
 10
61.7326869549
 20
-1.8435349192
 10
61.704286197
 20
-1.8754497031
 10
61.6728093046
 20
-1.9063875164
 10
61.6383567401
 20
-1.9362496168
 10
61.6010384633
 20
-1.9649406959
 10
61.5609735803
 20
-1.9923691822
 10
61.5182899632
 20
-2.0184475344
  0
LWPOLYLINE
  5
42C
100
AcDbEntity
  8
0
100
AcDbPolyline
 62
7
  6
CONTINUOUS
 90
3
 70
0
 10
-17.8534182856
 20
51.0782573461
 10
-17.8947683087
 20
51.0669599068
 10
-17.9772243195
 20
51.04367156
  0
LWPOLYLINE
  5
42D
100
AcDbEntity
  8
0
100
AcDbPolyline
 62
7
  6
CONTINUOUS
 90
3
 70
0
 10
-17.7293002073
 20
51.1108225095
 10
-17.7704918381
 20
51.1002276157
 10
-17.8534182856
 20
51.0782573461
  0
LWPOLYLINE
  5
42E
100
AcDbEntity
  8
0
100
AcDbPolyline
 62
7
  6
CONTINUOUS
 90
3
 70
0
 10
-17.6069587879
 20
51.1409983328
 10
-17.647654291
 20
51.1311036681
 10
-17.7293002073
 20
51.1108225095
  0
LWPOLYLINE
  5
42F
100
AcDbEntity
  8
0
100
AcDbPolyline
 62
250
  6
CONTINUOUS
 90
9
 70
0
 10
-18.5791297661
 20
52.4733836639
 10
-18.7103273662
 20
52.4419461496
 10
-18.8383329487
 20
52.4066264413
 10
-18.9627034171
 20
52.3675705327
 10
-19.0832216293
 20
52.3248709195
 10
-19.1997133812
 20
52.2785987898
 10
-19.3119061972
 20
52.2288595317
 10
-19.4194459865
 20
52.1758072032
 10
-19.5220397173
 20
52.1195867294
  0
LINE
  5
430
100
AcDbEntity
  8
0
100
AcDbLine
 62
7
  6
CONTINUOUS
 10
-18.2162367993
 20
50.9705205869
 11
-18.2399492855
 21
50.9649145686
  0
LWPOLYLINE
  5
431
100
AcDbEntity
  8
0
100
AcDbPolyline
 62
250
  6
CONTINUOUS
 90
3
 70
0
 10
-18.3091776988
 20
52.5241233456
 10
-18.4452680016
 20
52.5008043564
 10
-18.5791297661
 20
52.4733836639
  0
LWPOLYLINE
  5
432
100
AcDbEntity
  8
0
100
AcDbPolyline
 62
7
  6
CONTINUOUS
 90
16
 70
0
 10
-17.6069589152
 20
52.0795949981
 10
-17.5662634121
 20
52.0855022367
 10
-17.5255079226
 20
52.091001632
 10
-17.4846174958
 20
52.0961293785
 10
-17.443425865
 20
52.1009612686
 10
-17.4019587933
 20
52.1054690425
 10
-17.3604994175
 20
52.1095539451
 10
-17.3191493944
 20
52.1132857188
 10
-17.2778376059
 20
52.1166972423
 10
-17.2366933836
 20
52.1196747504
 10
-17.1958111535
 20
52.1222940799
 10
-17.1552195275
 20
52.1246104645
 10
-17.1150194861
 20
52.1264988154
 10
-17.0753138253
 20
52.1279713784
 10
-17.0361746121
 20
52.1291716203
 10
-16.9976809038
 20
52.1301796947
  0
LINE
  5
433
100
AcDbEntity
  8
0
100
AcDbLine
 62
250
  6
CONTINUOUS
 10
-18.1711685883
 20
52.5432918496
 11
-18.1860924732
 21
52.541726485
  0
LWPOLYLINE
  5
434
100
AcDbEntity
  8
0
100
AcDbPolyline
 62
7
  6
CONTINUOUS
 90
7
 70
0
 10
-16.8281176992
 20
52.1491593017
 10
-16.8524120887
 20
52.1462625378
 10
-16.8767121037
 20
52.1432082925
 10
-16.901017744
 20
52.1399965657
 10
-16.9253290098
 20
52.1366273575
 10
-16.949645901
 20
52.1331006678
 10
-16.9739684176
 20
52.1294164966
  0
LINE
  5
435
100
AcDbEntity
  8
0
100
AcDbLine
 62
250
  6
CONTINUOUS
 10
-18.0315994125
 20
52.5582600577
 11
-18.0338559282
 21
52.5582940329
  0
LINE
  5
436
100
AcDbEntity
  8
0
100
AcDbLine
 62
250
  6
CONTINUOUS
 10
-17.8803414346
 20
52.5698211821
 11
-17.8908411269
 21
52.5689866657
  0
LINE
  5
437
100
AcDbEntity
  8
0
100
AcDbLine
 62
7
  6
CONTINUOUS
 10
-18.2403210287
 20
52.1294036915
 11
-18.2162366993
 21
52.1301796927
  0
LWPOLYLINE
  5
438
100
AcDbEntity
  8
0
100
AcDbPolyline
 62
7
  6
CONTINUOUS
 90
7
 70
0
 10
-18.2162366993
 20
52.1301796927
 10
-18.1708717991
 20
52.1290823712
 10
-18.1481463239
 20
52.1283894269
 10
-18.1254020066
 20
52.1275815862
 10
-18.1026520749
 20
52.1266585592
 10
-18.0799142884
 20
52.1256362829
 10
-18.0572291993
 20
52.1245088286
  0
LINE
  5
439
100
AcDbEntity
  8
0
100
AcDbLine
 62
7
  6
CONTINUOUS
 10
-16.9739684176
 20
52.1294164966
 11
-16.9976809038
 21
52.1301796947
  0
LWPOLYLINE
  5
43A
100
AcDbEntity
  8
0
100
AcDbPolyline
 62
7
  6
CONTINUOUS
 90
3
 70
0
 10
-18.0572291993
 20
52.1245088286
 10
-18.0118574436
 20
52.1219303302
 10
-17.9891759455
 20
52.1204787937
  0
LWPOLYLINE
  5
43B
100
AcDbEntity
  8
0
100
AcDbPolyline
 62
7
  6
CONTINUOUS
 90
3
 70
0
 10
-17.9891759455
 20
52.1204787937
 10
-17.9433982533
 20
52.1172297765
 10
-17.9200768455
 20
52.1154014479
  0
LWPOLYLINE
  5
43C
100
AcDbEntity
  8
0
100
AcDbPolyline
 62
7
  6
CONTINUOUS
 90
3
 70
0
 10
-17.9200768455
 20
52.1154014479
 10
-17.8721140578
 20
52.1112897973
 10
-17.8471183322
 20
52.1089515436
  0
LWPOLYLINE
  5
43D
100
AcDbEntity
  8
0
100
AcDbPolyline
 62
7
  6
CONTINUOUS
 90
3
 70
0
 10
-17.8471183322
 20
52.1089515436
 10
-17.7946914441
 20
52.1036160679
 10
-17.7668528064
 20
52.1005451417
  0
LWPOLYLINE
  5
43E
100
AcDbEntity
  8
0
100
AcDbPolyline
 62
7
  6
CONTINUOUS
 90
7
 70
0
 10
-18.385782989
 20
52.1491662486
 10
-18.3616778157
 20
52.1462833356
 10
-18.3375172379
 20
52.1432360909
 10
-18.313301263
 20
52.1400245093
 10
-18.2890298982
 20
52.1366485857
 10
-18.264703151
 20
52.1331083148
 10
-18.2403210287
 20
52.1294036915
  0
LWPOLYLINE
  5
43F
100
AcDbEntity
  8
0
100
AcDbPolyline
 62
7
  6
CONTINUOUS
 90
5
 70
0
 10
-17.7668528064
 20
52.1005451417
 10
-17.7075639643
 20
52.0934339918
 10
-17.6753975944
 20
52.089389431
 10
-17.6418258924
 20
52.0848182533
 10
-17.6069589152
 20
52.0795949981
  0
LWPOLYLINE
  5
440
100
AcDbEntity
  8
TRASH
100
AcDbPolyline
 62
7
  6
CONTINUOUS
 90
9
 70
0
 10
61.4754725035
 20
5.7670894578
 10
61.4877763552
 20
5.7531383004
 10
61.5003536613
 20
5.7396793545
 10
61.5132102023
 20
5.7266375921
 10
61.5262551648
 20
5.7139190576
 10
61.5395612775
 20
5.7014869819
 10
61.5533549179
 20
5.6893403947
 10
61.5675641755
 20
5.6773944996
 10
61.5804870832
 20
5.6669593059
  0
LWPOLYLINE
  5
441
100
AcDbEntity
  8
0
100
AcDbPolyline
 62
7
  6
CONTINUOUS
 90
3
 70
0
 10
61.748895785
 20
5.9448598486
 10
61.763760284
 20
5.9263993281
 10
61.7788783812
 20
5.9074455898
  0
LINE
  5
442
100
AcDbEntity
  8
0
100
AcDbLine
 62
7
  6
CONTINUOUS
 10
61.7788783812
 20
5.9074455898
 11
61.8098753705
 21
5.8680584594
  0
LINE
  5
443
100
AcDbEntity
  8
0
100
AcDbLine
 62
7
  6
CONTINUOUS
 10
61.8098753705
 20
5.8680584594
 11
61.841886753
 21
5.8266984573
  0
LWPOLYLINE
  5
444
100
AcDbEntity
  8
0
100
AcDbPolyline
 62
7
  6
CONTINUOUS
 90
3
 70
0
 10
59.7623334986
 20
6.6276216056
 10
59.745150028
 20
6.6523675001
 10
59.736242958
 20
6.6653146511
  0
LINE
  5
445
100
AcDbEntity
  8
0
100
AcDbLine
 62
7
  6
CONTINUOUS
 10
59.7704237526
 20
6.6158031484
 11
59.7623334986
 21
6.6276216056
  0
LINE
  5
446
100
AcDbEntity
  8
0
100
AcDbLine
 62
7
  6
CONTINUOUS
 10
59.7929247353
 20
6.5823985584
 11
59.7704237526
 21
6.6158031484
  0
LWPOLYLINE
  5
447
100
AcDbEntity
  8
0
100
AcDbPolyline
 62
7
  6
CONTINUOUS
 90
3
 70
0
 10
59.8258282651
 20
6.5325591556
 10
59.813261183
 20
6.5517359682
 10
59.7929247353
 20
6.5823985584
  0
LINE
  5
448
100
AcDbEntity
  8
0
100
AcDbLine
 62
7
  6
CONTINUOUS
 10
59.8435900321
 20
6.5052706484
 11
59.8258282651
 21
6.5325591556
  0
LINE
  5
449
100
AcDbEntity
  8
0
100
AcDbLine
 62
7
  6
CONTINUOUS
 10
59.8880198894
 20
6.4360501835
 11
59.8435900321
 21
6.5052706484
  0
LINE
  5
44A
100
AcDbEntity
  8
0
100
AcDbLine
 62
7
  6
CONTINUOUS
 10
59.9276762228
 20
6.3734717106
 11
59.8880198894
 21
6.4360501835
  0
LINE
  5
44B
100
AcDbEntity
  8
TRASH
100
AcDbLine
 62
7
  6
CONTINUOUS
 10
60.0921623219
 20
6.5398632117
 11
60.1158964583
 21
6.5016874818
  0
LWPOLYLINE
  5
44C
100
AcDbEntity
  8
0
100
AcDbPolyline
 62
250
  6
CONTINUOUS
 90
46
 70
0
 10
57.9404725039
 20
5.6397541959
 10
57.9443098626
 20
5.5551428343
 10
57.9558370582
 20
5.4706226044
 10
57.9749966224
 20
5.386661393
 10
58.0016852538
 20
5.3035558028
 10
58.0358172678
 20
5.221460968
 10
58.0773370201
 20
5.1404861543
 10
58.1261656161
 20
5.0608100307
 10
58.1821544314
 20
4.9826962324
 10
58.2451384791
 20
4.9063793523
 10
58.3149446517
 20
4.8320688648
 10
58.3913826706
 20
4.759967076
 10
58.4742238593
 20
4.6902867093
 10
58.5631888423
 20
4.623251164
 10
58.6580726905
 20
4.5590040731
 10
58.7587527577
 20
4.4976375876
 10
58.8650615379
 20
4.4392833519
 10
58.9766449552
 20
4.3841637982
 10
59.0930826105
 20
4.3324966231
 10
59.2140125211
 20
4.2844399733
 10
59.3391415045
 20
4.2401079736
 10
59.4681162959
 20
4.1996255756
 10
59.6005747963
 20
4.1631052827
 10
59.7361591501
 20
4.1306446382
 10
59.8745080879
 20
4.1023300237
 10
60.0152498728
 20
4.0782384134
 10
60.1579899606
 20
4.0584382228
 10
60.3023232222
 20
4.0429855087
 10
60.4478438675
 20
4.031922561
 10
60.5941605688
 20
4.0252779845
 10
60.7408848183
 20
4.0230693081
 10
60.887623418
 20
4.0253034061
 10
61.0339631073
 20
4.0319749414
 10
61.1794855227
 20
4.0430646042
 10
61.3237785747
 20
4.058539428
 10
61.4664587527
 20
4.0783567107
 10
61.6071551875
 20
4.1024649578
 10
61.7455476963
 20
4.1308137408
 10
61.8811858969
 20
4.163315305
 10
62.0135240061
 20
4.1998304563
 10
62.1421038497
 20
4.2402082443
 10
62.2667009746
 20
4.2843530448
 10
62.3871354047
 20
4.3321912817
 10
62.5031255081
 20
4.3836140164
 10
62.6143051823
 20
4.4384619752
 10
62.7203714912
 20
4.496585336
  0
LWPOLYLINE
  5
44D
100
AcDbEntity
  8
0
100
AcDbPolyline
 62
7
  6
CONTINUOUS
 90
3
 70
0
 10
61.3734629379
 20
6.8925915559
 10
61.3758687446
 20
6.8337749848
 10
61.3887826836
 20
6.5398632175
  0
LINE
  5
44E
100
AcDbEntity
  8
0
100
AcDbLine
 62
7
  6
CONTINUOUS
 10
61.3497504517
 20
6.893354754
 11
61.3650485473
 21
6.5016874877
  0
LINE
  5
44F
100
AcDbEntity
  8
RACCORDO
100
AcDbLine
 62
250
  6
CONTINUOUS
 10
56.2503444434
 20
-7.9201445543
 11
56.2503444434
 21
1.5000289722
  0
LINE
  5
450
100
AcDbEntity
  8
RACCORDO
100
AcDbLine
 62
7
  6
CONTINUOUS
 10
56.8513852074
 20
1.1529955679
 11
56.8513852074
 21
-8.4713152553
  0
LINE
  5
451
100
AcDbEntity
  8
0
100
AcDbLine
 62
7
  6
CONTINUOUS
 10
57.9404725039
 20
5.6397541973
 11
57.9404725039
 21
4.7948314007
  0
LINE
  5
452
100
AcDbEntity
  8
0
100
AcDbLine
 62
7
  6
CONTINUOUS
 10
59.2904725039
 20
-0.2553028682
 11
59.2904725039
 21
-0.3229127384
  0
LINE
  5
453
100
AcDbEntity
  8
0
100
AcDbLine
 62
7
  6
CONTINUOUS
 10
59.2904725039
 20
-1.1393831052
 11
59.2904725039
 21
-1.2210301329
  0
LINE
  5
454
100
AcDbEntity
  8
0
100
AcDbLine
 62
7
  6
CONTINUOUS
 10
59.6404725039
 20
-0.766629935
 11
59.6404725039
 21
-0.9743968383
  0
LINE
  5
455
100
AcDbEntity
  8
0
100
AcDbLine
 62
7
  6
CONTINUOUS
 10
60.7404725039
 20
6.1914692463
 11
60.7404724403
 21
6.8427700574
  0
LWPOLYLINE
  5
456
100
AcDbEntity
  8
0
100
AcDbPolyline
 62
7
  6
CONTINUOUS
 90
12
 70
0
 10
59.2904725039
 20
-1.1393831052
 10
59.2912866731
 20
-1.1161214651
 10
59.2971969451
 20
-1.0726185108
 10
59.3088031739
 20
-1.0294333949
 10
59.3260595552
 20
-0.9867719942
 10
59.3488979862
 20
-0.9448381186
 10
59.3772283343
 20
-0.9038327069
 10
59.4109387927
 20
-0.8639530337
 10
59.4498963218
 20
-0.8253919307
 10
59.4939471742
 20
-0.7883370259
 10
59.5429175012
 20
-0.7529700031
 10
59.5778435661
 20
-0.7311777786
  0
LINE
  5
457
100
AcDbEntity
  8
0
100
AcDbLine
 62
7
  6
CONTINUOUS
 10
60.1158964583
 20
6.5016874818
 11
60.1311946562
 21
6.893354752
  0
LINE
  5
458
100
AcDbEntity
  8
0
100
AcDbLine
 62
7
  6
CONTINUOUS
 10
60.0921623219
 20
6.5398632117
 11
60.1071103267
 21
6.8925787508
  0
LINE
  5
459
100
AcDbEntity
  8
0
100
AcDbLine
 62
7
  6
CONTINUOUS
 10
61.748895785
 20
5.9448598486
 11
61.7268157517
 21
5.7450866859
  0
LINE
  5
45A
100
AcDbEntity
  8
0
100
AcDbLine
 62
7
  6
CONTINUOUS
 10
61.7447020499
 20
5.9617357491
 11
61.720118829
 21
5.7409945322
  0
LINE
  5
45B
100
AcDbEntity
  8
0
100
AcDbLine
 62
7
  6
CONTINUOUS
 10
61.4754725039
 20
5.767089458
 11
61.553268785
 21
6.3734717141
  0
LINE
  5
45C
100
AcDbEntity
  8
0
100
AcDbLine
 62
7
  6
CONTINUOUS
 10
59.7362429878
 20
5.9617358221
 11
59.7319835843
 21
5.9445945036
  0
LWPOLYLINE
  5
45D
100
AcDbEntity
  8
0
100
AcDbPolyline
 62
7
  6
CONTINUOUS
 90
37
 70
0
 10
61.9040323644
 20
-1.764339576
 10
61.8892615657
 20
-1.8004638212
 10
61.8664666351
 20
-1.8460553946
 10
61.8400925883
 20
-1.8904813142
 10
61.8102968618
 20
-1.9336284728
 10
61.7772474421
 20
-1.9753903808
 10
61.7411220667
 20
-2.0156674881
 10
61.7021073966
 20
-2.0543674745
 10
61.6603981634
 20
-2.091405508
 10
61.6161962949
 20
-2.1267044704
 10
61.5697100233
 20
-2.1601951497
 10
61.5211529791
 20
-2.1918163989
 10
61.4707432748
 20
-2.2215152606
 10
61.4187025821
 20
-2.2492470575
 10
61.3652552066
 20
-2.2749754492
 10
61.3106271628
 20
-2.2986724542
 10
61.2550452548
 20
-2.3203184393
 10
61.1987361646
 20
-2.3399020745
 10
61.1419255525
 20
-2.3574202562
 10
61.0848371729
 20
-2.3728779972
 10
61.0276920091
 20
-2.3862882867
 10
60.9707074301
 20
-2.3976719186
 10
60.9140963726
 20
-2.4070572909
 10
60.8580665513
 20
-2.414480177
 10
60.8028197008
 20
-2.4199834697
 10
60.7485508515
 20
-2.4236168995
 10
60.6954476414
 20
-2.4254367285
 10
60.643689668
 20
-2.4255054216
 10
60.5934478804
 20
-2.4238912967
 10
60.5448840159
 20
-2.420668155
 10
60.4981500804
 20
-2.4159148934
 10
60.4533878772
 20
-2.4097151014
 10
60.4107285826
 20
-2.402156643
 10
60.370292372
 20
-2.3933312274
 10
60.3321880964
 20
-2.3833339677
 10
60.2965130101
 20
-2.3722629328
 10
60.2633525502
 20
-2.3602186913
  0
LWPOLYLINE
  5
45E
100
AcDbEntity
  8
0
100
AcDbPolyline
 62
7
  6
CONTINUOUS
 90
5
 70
0
 10
61.8124320893
 20
-1.7114507252
 10
61.7985767674
 20
-1.7429609751
 10
61.7799075954
 20
-1.7771846725
 10
61.7579209335
 20
-1.8107450246
 10
61.744611115
 20
-1.8286597324
  0
LWPOLYLINE
  5
45F
100
AcDbEntity
  8
0
100
AcDbPolyline
 62
7
  6
CONTINUOUS
 90
9
 70
0
 10
61.8749123065
 20
-1.7475260195
 10
61.8675634395
 20
-1.7623938472
 10
61.8403902685
 20
-1.8083700629
 10
61.8095561781
 20
-1.8529800591
 10
61.7752470069
 20
-1.8961061226
 10
61.7376597225
 20
-1.9376384835
 10
61.6970014415
 20
-1.9774756582
 10
61.6534884194
 20
-2.015524751
 10
61.6073450136
 20
-2.0517017178
  0
LINE
  5
460
100
AcDbEntity
  8
SMUSSO
100
AcDbLine
 62
7
  6
CONTINUOUS
 10
83.0143307266
 20
-22.9242389682
 11
74.6704760933
 21
-27.7418760604
  0
LINE
  5
461
100
AcDbEntity
  8
SMUSSO
100
AcDbLine
 62
7
  6
CONTINUOUS
 10
24.1830519166
 20
-56.892682024
 11
15.8391972833
 21
-61.7103191162
  0
LINE
  5
462
100
AcDbEntity
  8
0
100
AcDbLine
 62
7
  6
CONTINUOUS
 10
61.553268785
 20
6.3734717141
 11
61.5590246263
 21
6.3627712853
  0
LINE
  5
463
100
AcDbEntity
  8
0
100
AcDbLine
 62
7
  6
CONTINUOUS
 10
61.5590246263
 20
6.3627712853
 11
61.5704230778
 21
6.3412383976
  0
LINE
  5
464
100
AcDbEntity
  8
0
100
AcDbLine
 62
7
  6
CONTINUOUS
 10
61.5704230778
 20
6.3412383976
 11
61.5817412214
 21
6.3194820316
  0
LINE
  5
465
100
AcDbEntity
  8
0
100
AcDbLine
 62
7
  6
CONTINUOUS
 10
61.5817412214
 20
6.3194820316
 11
61.5929251185
 21
6.2975734814
  0
LINE
  5
466
100
AcDbEntity
  8
0
100
AcDbLine
 62
7
  6
CONTINUOUS
 10
61.5929251185
 20
6.2975734814
 11
61.604005379
 21
6.2755021974
  0
LINE
  5
467
100
AcDbEntity
  8
0
100
AcDbLine
 62
7
  6
CONTINUOUS
 10
61.604005379
 20
6.2755021974
 11
61.6149744622
 21
6.2532546427
  0
LINE
  5
468
100
AcDbEntity
  8
0
100
AcDbLine
 62
7
  6
CONTINUOUS
 10
61.6149744622
 20
6.2532546427
 11
61.6260534395
 21
6.2304254652
  0
LINE
  5
469
100
AcDbEntity
  8
0
100
AcDbLine
 62
7
  6
CONTINUOUS
 10
61.6260534395
 20
6.2304254652
 11
61.6373549757
 21
6.2067454412
  0
LINE
  5
46A
100
AcDbEntity
  8
0
100
AcDbLine
 62
7
  6
CONTINUOUS
 10
61.6373549757
 20
6.2067454412
 11
61.6490458173
 21
6.1817878346
  0
LINE
  5
46B
100
AcDbEntity
  8
0
100
AcDbLine
 62
7
  6
CONTINUOUS
 10
61.6490458173
 20
6.1817878346
 11
61.6613340021
 21
6.155168537
  0
LWPOLYLINE
  5
46C
100
AcDbEntity
  8
0
100
AcDbPolyline
 62
7
  6
CONTINUOUS
 90
3
 70
0
 10
61.6613340021
 20
6.155168537
 10
61.6742752365
 20
6.1265718635
 10
61.6810613973
 20
6.1113865657
  0
LWPOLYLINE
  5
46D
100
AcDbEntity
  8
0
100
AcDbPolyline
 62
7
  6
CONTINUOUS
 90
3
 70
0
 10
61.6810613973
 20
6.1113865657
 10
61.6952840737
 20
6.0790417854
 10
61.7027960936
 20
6.0617360925
  0
LWPOLYLINE
  5
46E
100
AcDbEntity
  8
0
100
AcDbPolyline
 62
7
  6
CONTINUOUS
 90
4
 70
0
 10
61.7027960936
 20
6.0617360925
 10
61.7270779186
 20
6.0046607935
 10
61.7357949798
 20
5.9837061859
 10
61.7447020499
 20
5.9617357491
  0
LINE
  5
46F
100
AcDbEntity
  8
0
100
AcDbLine
 62
7
  6
CONTINUOUS
 10
59.7320492228
 20
6.6758213352
 11
59.736242958
 21
6.6653146511
  0
LINE
  5
470
100
AcDbEntity
  8
0
100
AcDbLine
 62
7
  6
CONTINUOUS
 10
59.9616483665
 20
6.9123413078
 11
60.0921862708
 21
6.5398820728
  0
LINE
  5
471
100
AcDbEntity
  8
0
100
AcDbLine
 62
7
  6
CONTINUOUS
 10
59.3078519858
 20
-1.2464646816
 11
59.2966247272
 21
-1.2032519274
  0
LINE
  5
472
100
AcDbEntity
  8
0
100
AcDbLine
 62
7
  6
CONTINUOUS
 10
59.3078518053
 20
-0.34834671
 11
59.2966246291
 21
-0.3051340097
  0
LINE
  5
473
100
AcDbEntity
  8
0
100
AcDbLine
 62
7
  6
CONTINUOUS
 10
61.7447020499
 20
5.9617357491
 11
61.748895785
 21
5.9448598486
  0
LWPOLYLINE
  5
474
100
AcDbEntity
  8
0
100
AcDbPolyline
 62
250
  6
CONTINUOUS
 90
45
 70
0
 10
57.9443097757
 20
4.7102209911
 10
57.9558111362
 20
4.6258421451
 10
57.9749450649
 20
4.5419264731
 10
58.0016591307
 20
4.4587039557
 10
58.0358801107
 20
4.3764027281
 10
58.0775141754
 20
4.2952484369
 10
58.1264471573
 20
4.2154635745
 10
58.1825449482
 20
4.1372667641
 10
58.2456538653
 20
4.0608722318
 10
58.3156009978
 20
3.9864893224
 10
58.3921945985
 20
3.9143219728
 10
58.4752246807
 20
3.8445680442
 10
58.5644636415
 20
3.7774187438
 10
58.6596669023
 20
3.713058106
 10
58.760573517
 20
3.6516625391
 10
58.8669069071
 20
3.5934003245
 10
58.9783756197
 20
3.5384311551
 10
59.0946741268
 20
3.4869056976
 10
59.215483692
 20
3.4389651686
 10
59.3404731558
 20
3.3947409833
 10
59.4692998346
 20
3.3543543856
 10
59.6016105217
 20
3.3179160878
 10
59.7370426446
 20
3.2855259265
 10
59.8752251771
 20
3.2572726361
 10
60.0157794777
 20
3.2332336489
 10
60.1583202025
 20
3.2134748839
 10
60.3024565448
 20
3.1980505172
 10
60.4477933875
 20
3.1870028268
 10
60.593932419
 20
3.1803620855
 10
60.7404731104
 20
3.1781464929
 10
60.8870138105
 20
3.1803621224
 10
61.0331528546
 20
3.1870029017
 10
61.1784896938
 20
3.1980506298
 10
61.322625992
 20
3.2134750295
 10
61.465166658
 20
3.2332338234
 10
61.6057209382
 20
3.2572728438
 10
61.7439035514
 20
3.2855261898
 10
61.8793357864
 20
3.317916422
 10
62.0116464777
 20
3.3543547693
 10
62.1404729869
 20
3.3947413617
 10
62.2654621941
 20
3.4389654979
 10
62.3862715076
 20
3.4869059605
 10
62.502569797
 20
3.5384313463
 10
62.6140383002
 20
3.5934004282
 10
62.7203714912
 20
3.6516625394
  0
LINE
  5
475
100
AcDbEntity
  8
0
100
AcDbLine
 62
7
  6
CONTINUOUS
 10
59.9276762228
 20
6.3734717106
 11
60.0054725039
 21
5.767089458
  0
LWPOLYLINE
  5
476
100
AcDbEntity
  8
0
100
AcDbPolyline
 62
7
  6
CONTINUOUS
 90
3
 70
0
 10
59.2966247272
 20
-1.2032519274
 10
59.2910956827
 20
-1.1597351266
 10
59.2904725039
 20
-1.1393831052
  0
LWPOLYLINE
  5
477
100
AcDbEntity
  8
0
100
AcDbPolyline
 62
7
  6
CONTINUOUS
 90
3
 70
0
 10
59.2966246291
 20
-0.3051340097
 10
59.2910956545
 20
-0.2616172668
 10
59.2909100474
 20
-0.2555555003
  0
LINE
  5
478
100
AcDbEntity
  8
0
100
AcDbLine
 62
7
  6
CONTINUOUS
 10
59.7608151141
 20
5.7410940887
 11
59.7362429878
 21
5.9617358221
  0
LINE
  5
479
100
AcDbEntity
  8
0
100
AcDbLine
 62
7
  6
CONTINUOUS
 10
59.7540128998
 20
5.7453300497
 11
59.7319835843
 21
5.9445945036
  0
LWPOLYLINE
  5
47A
100
AcDbEntity
  8
0
100
AcDbPolyline
 62
7
  6
CONTINUOUS
 90
43
 70
0
 10
63.5404725039
 20
5.6397541899
 10
63.5364334281
 20
5.7325430804
 10
63.5242160804
 20
5.8256652714
 10
63.5036956605
 20
5.9187678658
 10
63.4747643561
 20
6.0115476492
 10
63.4373743049
 20
6.1036069554
 10
63.3915669377
 20
6.1944863357
 10
63.3373496313
 20
6.2839101061
 10
63.2747718487
 20
6.3715704307
 10
63.2040341338
 20
6.4570285051
 10
63.1251636486
 20
6.5401208946
 10
63.0383470641
 20
6.6205231872
 10
62.9441989897
 20
6.6976284079
 10
62.8430237672
 20
6.7712173222
 10
62.7350455793
 20
6.8411450238
 10
62.6209761038
 20
6.9069969074
 10
62.501303996
 20
6.9685789467
 10
62.3762934834
 20
7.0258310182
 10
62.24644803
 20
7.0785866538
 10
62.112229419
 20
7.1267255953
 10
61.9740118019
 20
7.170173094
 10
61.8322184351
 20
7.2088450934
 10
61.6873065678
 20
7.2426609356
 10
61.5397002314
 20
7.2715606615
 10
61.3897961552
 20
7.2954971672
 10
61.2380474212
 20
7.3144220845
 10
61.0849081769
 20
7.3282992568
 10
60.9307878538
 20
7.3371063142
 10
60.7761418021
 20
7.3408263425
 10
60.6214340666
 20
7.33945442
 10
60.4670899208
 20
7.3329962414
 10
60.3135754272
 20
7.3214690921
 10
60.1613388823
 20
7.3049015443
 10
60.0107734744
 20
7.283324859
 10
59.8623151533
 20
7.2567829074
 10
59.7164225362
 20
7.2253355033
 10
59.5735081202
 20
7.1890447252
 10
59.4339920454
 20
7.1479837405
 10
59.2983105763
 20
7.1022423239
 10
59.166872684
 20
7.0519142818
 10
59.0400751179
 20
6.997099698
 10
58.9183170267
 20
6.9379110727
 10
58.8019900408
 20
6.8744704308
  0
LINE
  5
47B
100
AcDbEntity
  8
RACCORDO
100
AcDbLine
 62
7
  6
CONTINUOUS
 10
64.2052957317
 20
-13.5339202126
 11
64.1256896356
 21
-3.0470966405
  0
LINE
  5
47C
100
AcDbEntity
  8
0
100
AcDbLine
 62
7
  6
CONTINUOUS
 10
63.5404725039
 20
5.6397541973
 11
63.5404725039
 21
4.7948314007
  0
LINE
  5
47D
100
AcDbEntity
  8
RACCORDO
100
AcDbLine
 62
7
  6
CONTINUOUS
 10
63.9931636974
 20
-12.5948886479
 11
63.9931636974
 21
-2.9705778247
  0
LINE
  5
47E
100
AcDbEntity
  8
RACCORDO
100
AcDbLine
 62
250
  6
CONTINUOUS
 10
64.0285190364
 20
-12.5744749183
 11
64.0285190364
 21
-2.9909915544
  0
LINE
  5
47F
100
AcDbEntity
  8
SMUSSO
100
AcDbLine
 62
7
  6
CONTINUOUS
 10
66.9630067937
 20
-4.6839124721
 11
66.9630067937
 21
-3.2028894056
  0
LINE
  5
480
100
AcDbEntity
  8
SMUSSO
100
AcDbLine
 62
7
  6
CONTINUOUS
 10
67.2458602755
 20
-4.8500817928
 11
67.2458602755
 21
-3.3661836508
  0
LWPOLYLINE
  5
481
100
AcDbEntity
  8
0
100
AcDbPolyline
 62
7
  6
CONTINUOUS
 90
16
 70
0
 10
63.5404725039
 20
4.7948314007
 10
63.5367092952
 20
4.7052643898
 10
63.5253370818
 20
4.6154231378
 10
63.5062541454
 20
4.525624021
 10
63.4794019193
 20
4.4362202095
 10
63.4447313856
 20
4.347483298
 10
63.4021590781
 20
4.2595875605
 10
63.3515500009
 20
4.1726564843
 10
63.2929591966
 20
4.087130249
 10
63.2266593253
 20
4.0035989358
 10
63.1527127415
 20
3.922256259
 10
63.0712477785
 20
3.8433557681
 10
62.9828460232
 20
3.7674921016
 10
62.8879080475
 20
3.6949553982
 10
62.7865292962
 20
3.6257772806
 10
62.6789549671
 20
3.5601151672
  0
LINE
  5
482
100
AcDbEntity
  8
SMUSSO
100
AcDbLine
 62
7
  6
CONTINUOUS
 10
73.2050750482
 20
-1.4093058696
 11
73.3977000427
 21
-27.0069911204
  0
LINE
  5
483
100
AcDbEntity
  8
DRAFT
100
AcDbLine
 62
7
  6
CONTINUOUS
 10
74.6704760933
 20
-27.7418760604
 11
74.4668387893
 21
-0.6807792991
  0
LINE
  5
484
100
AcDbEntity
  8
SMUSSO
100
AcDbLine
 62
250
  6
CONTINUOUS
 10
80.9726158405
 20
4.5594729757
 11
80.8311890995
 21
4.8030123946
  0
LWPOLYLINE
  5
485
100
AcDbEntity
  8
SMUSSO
100
AcDbPolyline
 62
7
  6
CONTINUOUS
 90
3
 70
0
 10
82.6129576963
 20
3.6288574197
 10
82.6092190883
 20
3.725721426
 10
82.6011443849
 20
3.8192399229
  0
LWPOLYLINE
  5
486
100
AcDbEntity
  8
SMUSSO
100
AcDbPolyline
 62
7
  6
CONTINUOUS
 90
16
 70
0
 10
82.6129576963
 20
3.7921734752
 10
82.6090160064
 20
3.8969818483
 10
82.6002958574
 20
3.9986876756
 10
82.5868188849
 20
4.0970163039
 10
82.5686175096
 20
4.1917042137
 10
82.5457411504
 20
4.282493703
 10
82.5182565313
 20
4.3691339566
 10
82.4862374591
 20
4.4513897378
 10
82.4497685981
 20
4.5290414092
 10
82.4089513244
 20
4.6018792019
 10
82.3638937583
 20
4.669707539
 10
82.3147166989
 20
4.7323422375
 10
82.2615575301
 20
4.7896106227
 10
82.2045592612
 20
4.8413581183
 10
82.1438744909
 20
4.8874458018
 10
82.0854068481
 20
4.924464854
  0
LINE
  5
487
100
AcDbEntity
  8
SMUSSO
100
AcDbLine
 62
7
  6
CONTINUOUS
 10
83.0143307266
 20
-22.9242389682
 11
82.6129576963
 21
3.6288574197
  0
LINE
  5
488
100
AcDbEntity
  8
SMUSSO
100
AcDbLine
 62
250
  6
CONTINUOUS
 10
82.6129576963
 20
3.6288574197
 11
82.6129576963
 21
3.7921734752
  0
LWPOLYLINE
  5
489
100
AcDbEntity
  8
SMUSSO
100
AcDbPolyline
 62
7
  6
CONTINUOUS
 90
29
 70
0
 10
82.6011443849
 20
3.8192399229
 10
82.5887335861
 20
3.9094129102
 10
82.5719292687
 20
3.9964669748
 10
82.550788856
 20
4.0801755299
 10
82.5254846176
 20
4.1598588155
 10
82.4959833891
 20
4.2354825546
 10
82.4623183351
 20
4.3070810242
 10
82.4247612184
 20
4.374077296
 10
82.3832799721
 20
4.4364352369
 10
82.3379066631
 20
4.49419098
 10
82.2890092559
 20
4.5468759965
 10
82.2365592737
 20
4.5944487471
 10
82.1805851933
 20
4.6369507711
 10
82.121540409
 20
4.6740381577
 10
82.0594005267
 20
4.7056669328
 10
81.9941899404
 20
4.7318810705
 10
81.9264352271
 20
4.7524685829
 10
81.8561134532
 20
4.7673837622
 10
81.7832475523
 20
4.7766723162
 10
81.708432901
 20
4.7802593804
 10
81.6316533394
 20
4.7780971081
 10
81.5529250274
 20
4.7702333461
 10
81.4728918225
 20
4.7567367698
 10
81.3915447035
 20
4.737561108
 10
81.3088926915
 20
4.7127526319
 10
81.2256067072
 20
4.6825188317
 10
81.1419103907
 20
4.6469288705
 10
81.0575801017
 20
4.6059135852
 10
80.9726158405
 20
4.5594729757
  0
ELLIPSE
  5
48A
100
AcDbEntity
  8
RACCORDO
100
AcDbEllipse
 62
7
  6
CONTINUOUS
 10
-15.6977705423
 20
32.4377927776
 30
0.0
 11
0.2
 21
-0.0
 31
0.0
 40
0.5774314382
 41
0.7854362396
 42
2.356156414
  0
ENDSEC
  0
SECTION
  2
OBJECTS
  0
DICTIONARY
  5
C
100
AcDbDictionary
280
0
281
1
  3
ACAD_GROUP
350
D
  3
ACAD_MLINESTYLE
350
17
  3
ACAD_LAYOUT
350
1A
  3
ACAD_PLOTSETTINGS
350
19
  3
ACAD_PLOTSTYLENAME
350
E
  0
DICTIONARY
  5
D
102
{ACAD_REACTORS
330
C
102
}
100
AcDbDictionary
280
0
281
1
  0
ACDBDICTIONARYWDFLT
  5
E
102
{ACAD_REACTORS
330
C
102
}
100
AcDbDictionary
281
1
  3
Normal
350
F
100
AcDbDictionaryWithDefault
340
F
  0
DICTIONARY
  5
17
102
{ACAD_REACTORS
330
C
102
}
100
AcDbDictionary
280
0
281
1
  3
Standard
350
18
  0
DICTIONARY
  5
19
102
{ACAD_REACTORS
330
C
102
}
100
AcDbDictionary
281
1
  0
DICTIONARY
  5
1A
102
{ACAD_REACTORS
330
C
102
}
100
AcDbDictionary
281
1
  3
Model
350
48B
  3
Layout1
350
48C
  0
ACDBPLACEHOLDER
  5
F
102
{ACAD_REACTORS
330
E
102
}
  0
MLINESTYLE
  5
18
102
{ACAD_REACTORS
330
17
102
}
100
AcDbMlineStyle
  2
STANDARD
 70
0
  3

 62
256
 51
90.0
 52
90.0
 71
2
 49
0.5
 62
256
  6
BYLAYER
 49
-0.5
 62
256
  6
BYLAYER
  0
LAYOUT
  5
48B
102
{ACAD_REACTORS
330
1A
102
}
100
AcDbPlotSettings
  1

  2
none_device
  4
ANSI_C_(22.00_x_17.00_Inches)
  6

 40
0.0
 41
0.0
 42
0.0
 43
0.0
 44
558.8
 45
431.8
 46
0.0
 47
0.0
 48
0.0
 49
0.0
140
0.0
141
0.0
142
1.0
143
1.0
 70
1024
 72
1
 73
0
 74
0
  7

 75
0
147
1.0
148
0.0
149
0.0
100
AcDbLayout
  1
Model
 70
0
 71
0
 10
0.0
 20
0.0
 11
558.8
 21
431.8
 12
0.0
 22
0.0
 32
0.0
 14
0.0
 24
0.0
 34
0.0
 15
0.0
 25
0.0
 35
0.0
146
0.0
 13
0.0
 23
0.0
 33
0.0
 16
1.0
 26
0.0
 36
0.0
 17
0.0
 27
1.0
 37
0.0
 76
0
330
212
345
0
346
0
  0
LAYOUT
  5
48C
102
{ACAD_REACTORS
330
1A
102
}
100
AcDbPlotSettings
  1

  2
none_device
  4
ANSI_C_(22.00_x_17.00_Inches)
  6

 40
0.0
 41
0.0
 42
0.0
 43
0.0
 44
558.8
 45
431.8
 46
0.0
 47
0.0
 48
0.0
 49
0.0
140
0.0
141
0.0
142
1.0
143
1.0
 70
0
 72
1
 73
0
 74
0
  7

 75
0
147
1.0
148
0.0
149
0.0
100
AcDbLayout
  1
Layout1
 70
0
 71
1
 10
0.0
 20
0.0
 11
558.8
 21
431.8
 12
0.0
 22
0.0
 32
0.0
 14
0.0
 24
0.0
 34
0.0
 15
0.0
 25
0.0
 35
0.0
146
0.0
 13
0.0
 23
0.0
 33
0.0
 16
1.0
 26
0.0
 36
0.0
 17
0.0
 27
1.0
 37
0.0
 76
0
330
213
345
0
346
0
  0
ENDSEC
  0
EOF
