  0
SECTION
  2
HEADER
  9
$ACADVER
  1
AC1024
  9
$DWGCODEPAGE
  3
ANSI_1252
  9
$EXTMAX
 10
558.8
 20
431.8
 30
0.0
  9
$EXTMIN
 10
0.0
 20
0.0
 30
0.0
  9
$LIMMIN
 10
0.0
 20
0.0
  9
$LIMMAX
 10
558.8
 20
431.8
  9
$VIEWCTR
 10
279.4
 20
215.9
  9
$VIEWSIZE
 40
431.8
  9
$CLAYER
  8
0
  9
$LTSCALE
 40
30.734
  9
$CELTYPE
  6
BYLAYER
  9
$DIMSCALE
 40
1.0
  9
$DIMASZ
 40
3.0
  9
$DIMEXO
 40
0.5
  9
$DIMDLI
 40
21.2344
  9
$DIMEXE
 40
1.5
  9
$DIMCEN
 40
5.0292
  9
$DIMLFAC
 40
1.0
  9
$DIMBLK
  1
_FILLED
  9
$DIMALT
 70
0
  9
$DIMALTF
 40
0.0393700787
  9
$DIMTXT
 40
3.0
  9
$DIMTOL
 70
1
  9
$DIMLIM
 70
0
  9
$DIMTFAC
 40
1.0
  9
$DIMTP
 40
0.01
  9
$DIMTM
 40
0.01
  9
$DIMGAP
 40
0.625
  9
$DIMDSEP
 70
44
  9
$AUNITS
 70
0
  9
$PDMODE
 70
3
  9
$PDSIZE
 40
3.0
  9
$HANDSEED
  5
52E
  9
$TILEMODE
 70
1
  9
$MEASUREMENT
 70
1
  9
$INSUNITS
 70
4
  0
ENDSEC
  0
SECTION
  2
CLASSES
  0
CLASS
  1
ACDBDICTIONARYWDFLT
  2
AcDbDictionaryWithDefault
  3
AutoCAD 2000
 90
0
 91
1
280
0
281
0
  0
CLASS
  1
ACDBPLACEHOLDER
  2
AcDbPlaceHolder
  3
AutoCAD 2000
 90
0
 91
1
280
0
281
0
  0
CLASS
  1
LAYOUT
  2
AcDbLayout
  3
AutoCAD 2000
 90
0
 91
0
280
0
281
0
  0
ENDSEC
  0
SECTION
  2
TABLES
  0
TABLE
  2
VPORT
  5
8
100
AcDbSymbolTable
 70
2
  0
VPORT
  5
1F4
100
AcDbSymbolTableRecord
100
AcDbViewportTableRecord
  2
*ACTIVE
 70
0
 10
0.0
 20
0.0
 11
1.0
 21
1.0
 12
279.4
 22
215.9
 13
0.0
 23
0.0
 14
1.0
 24
1.0
 15
0.0
 25
0.0
 16
0.0
 26
0.0
 36
1.0
 17
0.0
 27
0.0
 37
0.0
 40
431.8
 41
1.2941176471
 42
50.0
 43
0.0
 44
0.0
 50
0.0
 51
0.0
 71
0
 72
100
 73
1
 74
1
 75
0
 76
0
 77
0
 78
0
  0
ENDTAB
  0
TABLE
  2
LTYPE
  5
5
100
AcDbSymbolTable
 70
6
  0
LTYPE
  5
14
100
AcDbSymbolTableRecord
100
AcDbLinetypeTableRecord
  2
BYBLOCK
 70
0
  3

 72
65
 73
0
 40
0.0
  0
LTYPE
  5
15
100
AcDbSymbolTableRecord
100
AcDbLinetypeTableRecord
  2
BYLAYER
 70
0
  3

 72
65
 73
0
 40
0.0
  0
LTYPE
  5
16
100
AcDbSymbolTableRecord
100
AcDbLinetypeTableRecord
  2
CONTINUOUS
 70
64
  3
Solid line
 72
65
 73
0
 40
0.0
  0
LTYPE
  5
1F5
100
AcDbSymbolTableRecord
100
AcDbLinetypeTableRecord
  2
CENTER
 70
64
  3
____ _ ____ _ ____ _ ____ _ ____ _ ____ _ ____
 72
65
 73
4
 40
0.6
 49
0.375
 74
0
 49
-0.075
 74
0
 49
0.075
 74
0
 49
-0.075
 74
0
  0
LTYPE
  5
1F6
100
AcDbSymbolTableRecord
100
AcDbLinetypeTableRecord
  2
HIDDEN
 70
64
  3
- - - - - - - - - - - - - - - - - - - -
 72
65
 73
2
 40
0.2
 49
0.1
 74
0
 49
-0.1
 74
0
  0
LTYPE
  5
1F7
100
AcDbSymbolTableRecord
100
AcDbLinetypeTableRecord
  2
PHANTOM
 70
64
  3
_____ _ _ _____ _ _ _____ _ _ _____
 72
65
 73
6
 40
0.8
 49
0.45
 74
0
 49
-0.05
 74
0
 49
0.1
 74
0
 49
-0.05
 74
0
 49
0.1
 74
0
 49
-0.05
 74
0
  0
LTYPE
  5
1F8
100
AcDbSymbolTableRecord
100
AcDbLinetypeTableRecord
  2
DOT
 70
64
  3
. . . . . . . . . . . . . . . . . . . .
 72
65
 73
2
 40
0.2
 49
0.1
 74
0
 49
-0.1
 74
0
  0
LTYPE
  5
1F9
100
AcDbSymbolTableRecord
100
AcDbLinetypeTableRecord
  2
DASHED
 70
64
  3
- - - - - - - - - - - - - - - - - - - -
 72
65
 73
2
 40
0.2
 49
0.1
 74
0
 49
-0.1
 74
0
  0
ENDTAB
  0
TABLE
  2
LAYER
  5
2
100
AcDbSymbolTable
 70
36
  0
LAYER
  5
10
100
AcDbSymbolTableRecord
100
AcDbLayerTableRecord
  2
0
 70
0
 62
7
  6
CONTINUOUS
370
-3
390
F
  0
LAYER
  5
1FA
100
AcDbSymbolTableRecord
100
AcDbLayerTableRecord
  2
DEFAULT_1
 70
0
 62
7
  6
CENTER
370
-3
390
F
  0
LAYER
  5
1FB
100
AcDbSymbolTableRecord
100
AcDbLayerTableRecord
  2
DEFAULT_2
 70
0
 62
7
  6
HIDDEN
370
-3
390
F
  0
LAYER
  5
1FC
100
AcDbSymbolTableRecord
100
AcDbLayerTableRecord
  2
DEFAULT_3
 70
0
 62
7
  6
PHANTOM
370
-3
390
F
  0
LAYER
  5
1FD
100
AcDbSymbolTableRecord
100
AcDbLayerTableRecord
  2
ASSI
 70
0
 62
7
  6
CONTINUOUS
370
-3
390
F
  0
LAYER
  5
1FE
100
AcDbSymbolTableRecord
100
AcDbLayerTableRecord
  2
COLOR5
 70
0
 62
7
  6
CONTINUOUS
370
-3
390
F
  0
LAYER
  5
1FF
100
AcDbSymbolTableRecord
100
AcDbLayerTableRecord
  2
COORDINATE
 70
0
 62
7
  6
CONTINUOUS
370
-3
390
F
  0
LAYER
  5
200
100
AcDbSymbolTableRecord
100
AcDbLayerTableRecord
  2
COORD_ORIGINE
 70
0
 62
7
  6
CONTINUOUS
370
-3
390
F
  0
LAYER
  5
201
100
AcDbSymbolTableRecord
100
AcDbLayerTableRecord
  2
COPY_PUBLISH
 70
0
 62
7
  6
CONTINUOUS
370
-3
390
F
  0
LAYER
  5
202
100
AcDbSymbolTableRecord
100
AcDbLayerTableRecord
  2
COSMETICI
 70
0
 62
7
  6
CONTINUOUS
370
-3
390
F
  0
LAYER
  5
203
100
AcDbSymbolTableRecord
100
AcDbLayerTableRecord
  2
CURVE
 70
0
 62
7
  6
CONTINUOUS
370
-3
390
F
  0
LAYER
  5
204
100
AcDbSymbolTableRecord
100
AcDbLayerTableRecord
  2
DRAFT
 70
0
 62
7
  6
CONTINUOUS
370
-3
390
F
  0
LAYER
  5
205
100
AcDbSymbolTableRecord
100
AcDbLayerTableRecord
  2
IMPORT_IGES
 70
0
 62
7
  6
CONTINUOUS
370
-3
390
F
  0
LAYER
  5
206
100
AcDbSymbolTableRecord
100
AcDbLayerTableRecord
  2
NOTE
 70
0
 62
7
  6
CONTINUOUS
370
-3
390
F
  0
LAYER
  5
207
100
AcDbSymbolTableRecord
100
AcDbLayerTableRecord
  2
PIANI
 70
0
 62
7
  6
CONTINUOUS
370
-3
390
F
  0
LAYER
  5
208
100
AcDbSymbolTableRecord
100
AcDbLayerTableRecord
  2
PIANI_ORIGINE
 70
0
 62
7
  6
CONTINUOUS
370
-3
390
F
  0
LAYER
  5
209
100
AcDbSymbolTableRecord
100
AcDbLayerTableRecord
  2
PUNTI
 70
0
 62
7
  6
CONTINUOUS
370
-3
390
F
  0
LAYER
  5
20A
100
AcDbSymbolTableRecord
100
AcDbLayerTableRecord
  2
RACCORDO
 70
0
 62
7
  6
CONTINUOUS
370
-3
390
F
  0
LAYER
  5
20B
100
AcDbSymbolTableRecord
100
AcDbLayerTableRecord
  2
SIMBOLI
 70
0
 62
7
  6
CONTINUOUS
370
-3
390
F
  0
LAYER
  5
20C
100
AcDbSymbolTableRecord
100
AcDbLayerTableRecord
  2
SMUSSO
 70
0
 62
7
  6
CONTINUOUS
370
-3
390
F
  0
LAYER
  5
20D
100
AcDbSymbolTableRecord
100
AcDbLayerTableRecord
  2
SNAPLINE
 70
0
 62
7
  6
CONTINUOUS
370
-3
390
F
  0
LAYER
  5
20E
100
AcDbSymbolTableRecord
100
AcDbLayerTableRecord
  2
SUPERFICI
 70
0
 62
7
  6
CONTINUOUS
370
-3
390
F
  0
LAYER
  5
20F
100
AcDbSymbolTableRecord
100
AcDbLayerTableRecord
  2
TRASH
 70
0
 62
7
  6
CONTINUOUS
370
-3
390
F
  0
ENDTAB
  0
TABLE
  2
STYLE
  5
3
100
AcDbSymbolTable
 70
1
  0
STYLE
  5
11
100
AcDbSymbolTableRecord
100
AcDbTextStyleTableRecord
  2
STANDARD
 70
0
 40
0.0
 41
0.8
 50
0.0
 71
0
 42
0.2
  3
txt
  4

  0
STYLE
  5
210
100
AcDbSymbolTableRecord
100
AcDbTextStyleTableRecord
  2
TEXTSTYLE_1
 70
0
 40
0.0
 41
0.8
 50
0.0
 71
0
 42
0.2
  3
gdt
  4

  0
ENDTAB
  0
TABLE
  2
VIEW
  5
6
100
AcDbSymbolTable
 70
0
  0
ENDTAB
  0
TABLE
  2
UCS
  5
7
100
AcDbSymbolTable
 70
0
  0
ENDTAB
  0
TABLE
  2
APPID
  5
9
100
AcDbSymbolTable
 70
1
  0
APPID
  5
211
100
AcDbSymbolTableRecord
100
AcDbRegAppTableRecord
  2
ACAD
 70
0
  0
ENDTAB
  0
TABLE
  2
BLOCK_RECORD
  5
1
100
AcDbSymbolTable
 70
0
  0
BLOCK_RECORD
  5
212
100
AcDbSymbolTableRecord
100
AcDbBlockTableRecord
  2
*Model_Space
  0
BLOCK_RECORD
  5
213
100
AcDbSymbolTableRecord
100
AcDbBlockTableRecord
  2
*Paper_Space
  0
BLOCK_RECORD
  5
214
100
AcDbSymbolTableRecord
100
AcDbBlockTableRecord
  2
_FILLED
  0
ENDTAB
  0
TABLE
  2
DIMSTYLE
  5
A
100
AcDbSymbolTable
 70
1
100
AcDbDimStyleTable
 71
0
  0
DIMSTYLE
105
215
100
AcDbSymbolTableRecord
100
AcDbDimStyleTableRecord
  2
STANDARD
 70
0
  3

  4

 40
1.0
 41
3.0
 42
0.5
 43
0.38
 44
1.5
 45
0.0
 46
0.0
 47
0.01
 48
0.01
140
3.0
141
0.09
142
0.0
143
25.4
144
1.0
145
0.0
146
1.0
147
0.625
 71
1
 72
0
 73
0
 74
0
 75
0
 76
0
 77
1
 78
8
 79
2
170
0
171
1
172
0
173
0
174
0
175
0
176
0
177
0
178
0
270
2
179
2
271
2
272
2
273
2
274
2
275
0
280
0
281
0
282
0
283
1
284
8
285
0
286
0
287
3
288
0
340
11
278
44
341
214
342
214
343
214
344
214
  0
ENDTAB
  0
ENDSEC
  0
SECTION
  2
BLOCKS
  0
BLOCK
  5
20
100
AcDbEntity
  8
0
100
AcDbBlockBegin
  2
*Model_Space
 70
0
 10
0.0
 20
0.0
 30
0.0
  3
*Model_Space
  1

  0
ENDBLK
  5
21
100
AcDbEntity
  8
0
100
AcDbBlockEnd
  0
BLOCK
  5
1C
100
AcDbEntity
  8
0
100
AcDbBlockBegin
  2
*Paper_Space
 70
0
 10
0.0
 20
0.0
 30
0.0
  3
*Paper_Space
  1

  0
ENDBLK
  5
1D
100
AcDbEntity
  8
0
100
AcDbBlockEnd
  0
BLOCK
  5
216
100
AcDbEntity
  8
0
100
AcDbBlockBegin
  2
_FILLED
 70
64
 10
0.0
 20
0.0
  3
_FILLED
  1

  0
SOLID
  5
217
100
AcDbEntity
  8
0
  6
BYBLOCK
 62
0
100
AcDbTrace
 10
0.0
 20
0.0
 11
-1.0
 21
0.3166666667
 12
-1.0
 22
-0.3166666667
 13
-1.0
 23
-0.3166666667
  0
ENDBLK
  5
218
100
AcDbEntity
  8
0
  6
BYBLOCK
 62
0
100
AcDbBlockEnd
  0
ENDSEC
  0
SECTION
  2
ENTITIES
  0
LWPOLYLINE
  5
219
100
AcDbEntity
  8
RACCORDO
100
AcDbPolyline
 62
250
  6
CONTINUOUS
 90
13
 70
0
 10
-41.7224469662
 20
18.7309216803
 10
-41.7213664851
 20
18.7129881558
 10
-41.7181462117
 20
18.6946030669
 10
-41.7128016333
 20
18.6763833851
 10
-41.7053565671
 20
18.6584080518
 10
-41.695843173
 20
18.640753097
 10
-41.6843017573
 20
18.6234928281
 10
-41.6707756599
 20
18.6066942002
 10
-41.6553273444
 20
18.5904366168
 10
-41.6380448005
 20
18.5748080676
 10
-41.6190164073
 20
18.5598789082
 10
-41.5983230051
 20
18.5457039008
 10
-41.5760585316
 20
18.5323405803
  0
LINE
  5
21A
100
AcDbEntity
  8
RACCORDO
100
AcDbLine
 62
7
  6
CONTINUOUS
 10
-41.662264541
 20
3.2494306722
 11
-41.7224469816
 21
18.73092564
  0
LINE
  5
21B
100
AcDbEntity
  8
RACCORDO
100
AcDbLine
 62
250
  6
CONTINUOUS
 10
-41.5158818893
 20
3.0523371854
 11
-41.5760585316
 21
18.5323405803
  0
LWPOLYLINE
  5
21C
100
AcDbEntity
  8
RACCORDO
100
AcDbPolyline
 62
250
  6
CONTINUOUS
 90
25
 70
0
 10
-41.5760585316
 20
18.5323405803
 10
-41.5756147788
 20
18.559717283
 10
-41.5736754741
 20
18.5878272366
 10
-41.5702488302
 20
18.6165514032
 10
-41.5653493577
 20
18.6457681439
 10
-41.5589978047
 20
18.6753537339
 10
-41.5512210682
 20
18.7051828865
 10
-41.5420520805
 20
18.7351292835
 10
-41.5315296697
 20
18.7650661101
 10
-41.5196983954
 20
18.7948665922
 10
-41.5066083597
 20
18.824404533
 10
-41.4923149953
 20
18.8535548475
 10
-41.4768788307
 20
18.8821940922
 10
-41.4603652336
 20
18.9102009879
 10
-41.4428441346
 20
18.937456933
 10
-41.4243897308
 20
18.9638465063
 10
-41.4050801714
 20
18.9892579552
 10
-41.384997227
 20
19.0135836692
 10
-41.3642259433
 20
19.0367206357
 10
-41.342854281
 20
19.058570876
 10
-41.3209727432
 20
19.0790418604
 10
-41.2986739921
 20
19.0980469
 10
-41.2760524566
 20
19.1155055137
 10
-41.2532039329
 20
19.1313437691
 10
-41.230225178
 20
19.1454945956
  0
LWPOLYLINE
  5
21D
100
AcDbEntity
  8
0
100
AcDbPolyline
 62
7
  6
CONTINUOUS
 90
6
 70
0
 10
-29.2657045996
 20
22.4650237453
 10
-29.2504423469
 20
22.4848210724
 10
-29.2427659388
 20
22.4946445086
 10
-29.2350593358
 20
22.5044177912
 10
-29.2273225325
 20
22.5141409186
 10
-29.2195555235
 20
22.5238138895
  0
LINE
  5
21E
100
AcDbEntity
  8
RACCORDO
100
AcDbLine
 62
7
  6
CONTINUOUS
 10
-41.4724628396
 20
19.1658750421
 11
-30.4973611181
 21
25.5027612258
  0
LINE
  5
21F
100
AcDbEntity
  8
RACCORDO
100
AcDbLine
 62
250
  6
CONTINUOUS
 10
-41.230225178
 20
19.1454945956
 11
-30.2555516244
 21
25.4821335605
  0
LWPOLYLINE
  5
220
100
AcDbEntity
  8
RACCORDO
100
AcDbPolyline
 62
250
  6
CONTINUOUS
 90
12
 70
0
 10
-30.2555516244
 20
25.4821335605
 10
-30.2424035232
 20
25.489148394
 10
-30.2293066443
 20
25.4949834122
 10
-30.2163334203
 20
25.4996063457
 10
-30.203555599
 20
25.5029916287
 10
-30.1910438488
 20
25.50512054
 10
-30.1788673673
 20
25.505981307
 10
-30.1670934963
 20
25.5055691711
 10
-30.1557873502
 20
25.5038864136
 10
-30.1450114583
 20
25.5009423431
 10
-30.1348254154
 20
25.4967532442
 10
-30.1308528458
 20
25.4946920345
  0
LINE
  5
221
100
AcDbEntity
  8
0
100
AcDbLine
 62
7
  6
CONTINUOUS
 10
-29.2174554301
 20
22.5322754128
 11
-29.2195555235
 21
22.5238138895
  0
LINE
  5
222
100
AcDbEntity
  8
0
100
AcDbLine
 62
7
  6
CONTINUOUS
 10
-28.3880642802
 20
22.8200433693
 11
-28.325570885
 21
23.0078369706
  0
LINE
  5
223
100
AcDbEntity
  8
0
100
AcDbLine
 62
7
  6
CONTINUOUS
 10
-28.2111119569
 20
22.8942977519
 11
-28.2132736627
 21
22.8891063515
  0
LINE
  5
224
100
AcDbEntity
  8
0
100
AcDbLine
 62
7
  6
CONTINUOUS
 10
-29.2174554301
 20
22.5322754128
 11
-29.1998875737
 21
22.5742997884
  0
LINE
  5
225
100
AcDbEntity
  8
0
100
AcDbLine
 62
7
  6
CONTINUOUS
 10
-29.1998875737
 20
22.5742997884
 11
-29.1938458123
 21
22.5883384691
  0
LWPOLYLINE
  5
226
100
AcDbEntity
  8
0
100
AcDbPolyline
 62
7
  6
CONTINUOUS
 90
11
 70
0
 10
-29.1938458123
 20
22.5883384691
 10
-29.1814068001
 20
22.6162981366
 10
-29.1751052467
 20
22.6301691295
 10
-29.1686577937
 20
22.6439486621
 10
-29.1622007899
 20
22.6575814859
 10
-29.1556912219
 20
22.6710966879
 10
-29.1490575634
 20
22.6844737237
 10
-29.1424185208
 20
22.6976148798
 10
-29.1357979909
 20
22.7105129994
 10
-29.1291011889
 20
22.7232315479
 10
-29.122284364
 20
22.7357988014
  0
LINE
  5
227
100
AcDbEntity
  8
TRASH
100
AcDbLine
 62
7
  6
CONTINUOUS
 10
-28.399557061
 20
22.800640481
 11
-28.3880069202
 21
22.8200031436
  0
LINE
  5
228
100
AcDbEntity
  8
0
100
AcDbLine
 62
7
  6
CONTINUOUS
 10
-28.2893225358
 20
22.7774766077
 11
-28.3095863482
 21
22.7461741217
  0
LINE
  5
229
100
AcDbEntity
  8
0
100
AcDbLine
 62
7
  6
CONTINUOUS
 10
-28.2693585714
 20
22.8078665654
 11
-28.2893225358
 21
22.7774766077
  0
LWPOLYLINE
  5
22A
100
AcDbEntity
  8
0
100
AcDbPolyline
 62
7
  6
CONTINUOUS
 90
3
 70
0
 10
-28.2499203719
 20
22.8368265322
 10
-28.2628297822
 20
22.8176894036
 10
-28.2693585714
 20
22.8078665654
  0
LWPOLYLINE
  5
22B
100
AcDbEntity
  8
0
100
AcDbPolyline
 62
7
  6
CONTINUOUS
 90
3
 70
0
 10
-28.2251933601
 20
22.8726448972
 10
-28.2436048493
 20
22.8461032231
 10
-28.2499203719
 20
22.8368265322
  0
LWPOLYLINE
  5
22C
100
AcDbEntity
  8
0
100
AcDbPolyline
 62
7
  6
CONTINUOUS
 90
3
 70
0
 10
-28.2132736627
 20
22.8891063515
 10
-28.2192548767
 20
22.8810166812
 10
-28.2251933601
 20
22.8726448972
  0
LWPOLYLINE
  5
22D
100
AcDbEntity
  8
TRASH
100
AcDbPolyline
 62
7
  6
CONTINUOUS
 90
7
 70
0
 10
-29.117001338
 20
22.3920859921
 10
-29.1100107647
 20
22.3979542853
 10
-29.103272525
 20
22.4039738618
 10
-29.0966725013
 20
22.410144425
 10
-29.0901741298
 20
22.4164837217
 10
-29.0838232204
 20
22.4230378945
 10
-29.0776169626
 20
22.4298437048
  0
LINE
  5
22E
100
AcDbEntity
  8
TRASH
100
AcDbLine
 62
7
  6
CONTINUOUS
 10
-29.1242081279
 20
22.3863279067
 11
-29.117001338
 21
22.3920859921
  0
LINE
  5
22F
100
AcDbEntity
  8
TRASH
100
AcDbLine
 62
7
  6
CONTINUOUS
 10
-29.126191692
 20
22.3848104351
 11
-29.1242081279
 21
22.3863279067
  0
LWPOLYLINE
  5
230
100
AcDbEntity
  8
TRASH
100
AcDbPolyline
 62
7
  6
CONTINUOUS
 90
7
 70
0
 10
-29.1269408007
 20
22.7431560477
 10
-29.1267949126
 20
22.743248381
 10
-29.1079183977
 20
22.7541548303
 10
-29.0881660551
 20
22.764572808
 10
-29.0675733255
 20
22.7744801849
 10
-29.0461880691
 20
22.7838519614
 10
-29.0240550497
 20
22.7926662897
  0
LINE
  5
231
100
AcDbEntity
  8
0
100
AcDbLine
 62
7
  6
CONTINUOUS
 10
-29.0803837478
 20
22.3909836125
 11
-29.1044510358
 21
22.3760118224
  0
LWPOLYLINE
  5
232
100
AcDbEntity
  8
0
100
AcDbPolyline
 62
7
  6
CONTINUOUS
 90
16
 70
0
 10
-29.677967872
 20
22.9640725299
 10
-29.7325141178
 20
22.930788703
 10
-29.7838753626
 20
22.8957669836
 10
-29.8319238656
 20
22.8590868284
 10
-29.8766137286
 20
22.8207580365
 10
-29.9177301728
 20
22.7809324479
 10
-29.9549602201
 20
22.7399273989
 10
-29.9882407172
 20
22.697870833
 10
-30.0175426412
 20
22.6548586704
 10
-30.0427221447
 20
22.6112038522
 10
-30.0637550892
 20
22.5671357533
 10
-30.080719578
 20
22.5227095698
 10
-30.0936636364
 20
22.47800948
 10
-30.1026156153
 20
22.4331738922
 10
-30.1076090749
 20
22.3883859823
 10
-30.1087004767
 20
22.3438093049
  0
LINE
  5
233
100
AcDbEntity
  8
0
100
AcDbLine
 62
7
  6
CONTINUOUS
 10
-29.0561841138
 20
22.4057637247
 11
-29.0803837478
 21
22.3909836125
  0
LWPOLYLINE
  5
234
100
AcDbEntity
  8
0
100
AcDbPolyline
 62
250
  6
CONTINUOUS
 90
32
 70
0
 10
-29.667564837
 20
22.9679784359
 10
-29.7162493204
 20
22.9383942987
 10
-29.7621919163
 20
22.9074482988
 10
-29.8052669455
 20
22.8752246826
 10
-29.8453408404
 20
22.8418249943
 10
-29.8823220756
 20
22.8073273104
 10
-29.9161487159
 20
22.7717817167
 10
-29.9467404802
 20
22.7352506085
 10
-29.97397082
 20
22.6978605912
 10
-29.9977229642
 20
22.6597620585
 10
-30.0179234631
 20
22.6210782593
 10
-30.0345294313
 20
22.5818978465
 10
-30.0474969884
 20
22.5423246285
 10
-30.0567904896
 20
22.5024649865
 10
-30.0623830537
 20
22.4624307416
 10
-30.0642588298
 20
22.4223349572
 10
-30.0624117819
 20
22.3822743539
 10
-30.0568461092
 20
22.3423726235
 10
-30.0475895759
 20
22.3027823935
 10
-30.034692106
 20
22.2636433009
 10
-30.0181951183
 20
22.2250281859
 10
-29.9981255105
 20
22.1869883804
 10
-29.9745214163
 20
22.1496078966
 10
-29.9474546791
 20
22.1130105004
 10
-29.9170050579
 20
22.0773061218
 10
-29.8832562412
 20
22.0425927606
 10
-29.8463002223
 20
22.0089649207
 10
-29.8062475609
 20
21.9765217956
 10
-29.7632333325
 20
21.9453673152
 10
-29.717356621
 20
21.9155681436
 10
-29.6686767258
 20
21.887167105
 10
-29.6172746353
 20
21.8602254247
  0
LWPOLYLINE
  5
235
100
AcDbEntity
  8
0
100
AcDbPolyline
 62
250
  6
CONTINUOUS
 90
38
 70
0
 10
-27.7529470294
 20
21.9111266379
 10
-27.7042625425
 20
21.9407105924
 10
-27.6583199448
 20
21.9716564991
 10
-27.6152449156
 20
22.0038801116
 10
-27.5751710234
 20
22.0372799438
 10
-27.5381897926
 20
22.0717778611
 10
-27.5043631551
 20
22.1073236033
 10
-27.4737713901
 20
22.1438546774
 10
-27.4465410481
 20
22.1812445758
 10
-27.4227889023
 20
22.2193430228
 10
-27.4025884034
 20
22.2580268235
 10
-27.3859824359
 20
22.2972072712
 10
-27.3730148793
 20
22.3367805138
 10
-27.3637213779
 20
22.3766401513
 10
-27.3581288136
 20
22.4166743815
 10
-27.3562530373
 20
22.4567701534
 10
-27.358100085
 20
22.4968307516
 10
-27.3636657577
 20
22.5367324791
 10
-27.372922291
 20
22.5763227068
 10
-27.3858197608
 20
22.6154617974
 10
-27.4023167485
 20
22.654076911
 10
-27.4223863562
 20
22.6921167146
 10
-27.4459904504
 20
22.7294971958
 10
-27.4730571875
 20
22.7660945889
 10
-27.5035068087
 20
22.8017989647
 10
-27.5372556253
 20
22.8365123232
 10
-27.5742116442
 20
22.8701401608
 10
-27.6142643055
 20
22.902583284
 10
-27.6572785339
 20
22.9337377635
 10
-27.7031552454
 20
22.9635369347
 10
-27.7518351406
 20
22.9919379727
 10
-27.8032372311
 20
23.0188796519
 10
-27.8571903186
 20
23.0442589614
 10
-27.9134911318
 20
23.0679755396
 10
-27.9719646422
 20
23.0899568274
 10
-28.032469086
 20
23.1101506607
 10
-28.0948336466
 20
23.1285001259
 10
-28.1588832342
 20
23.1449542512
  0
LWPOLYLINE
  5
236
100
AcDbEntity
  8
0
100
AcDbPolyline
 62
250
  6
CONTINUOUS
 90
17
 70
0
 10
-27.71923878
 20
21.8238714381
 10
-27.6689066441
 20
21.8544568457
 10
-27.6214091434
 20
21.8864502229
 10
-27.5768762016
 20
21.9197644777
 10
-27.5354458518
 20
21.9542946518
 10
-27.4972127538
 20
21.9899600192
 10
-27.4622410825
 20
22.026708747
 10
-27.4306139291
 20
22.0644762862
 10
-27.4024620494
 20
22.1031317703
 10
-27.3779060632
 20
22.1425197581
 10
-27.3570218536
 20
22.182512856
 10
-27.3398538044
 20
22.2230193921
 10
-27.3264473216
 20
22.2639320252
 10
-27.3168392749
 20
22.3051407622
 10
-27.3110574379
 20
22.3465300058
 10
-27.3091181859
 20
22.3879828722
 10
-27.3091973397
 20
22.3965557336
  0
LINE
  5
237
100
AcDbEntity
  8
0
100
AcDbLine
 62
7
  6
CONTINUOUS
 10
-29.0318521339
 20
22.4203521589
 11
-29.0561841138
 21
22.4057637247
  0
LWPOLYLINE
  5
238
100
AcDbEntity
  8
0
100
AcDbPolyline
 62
7
  6
CONTINUOUS
 90
10
 70
0
 10
-29.1918268317
 20
22.955122466
 10
-29.2007449536
 20
22.9498772986
 10
-29.209489971
 20
22.9445402027
 10
-29.2180587673
 20
22.9391130803
 10
-29.2264482888
 20
22.9335978654
 10
-29.2346555457
 20
22.9279965236
 10
-29.2426776131
 20
22.9223110511
 10
-29.2505116322
 20
22.916543474
 10
-29.2581548109
 20
22.9106958478
 10
-29.2656044256
 20
22.9047702565
  0
LWPOLYLINE
  5
239
100
AcDbEntity
  8
0
100
AcDbPolyline
 62
7
  6
CONTINUOUS
 90
10
 70
0
 10
-28.2381950891
 20
22.4287263269
 10
-28.2292769672
 20
22.4339714943
 10
-28.2205319498
 20
22.4393085902
 10
-28.2119631535
 20
22.4447357126
 10
-28.203573632
 20
22.4502509275
 10
-28.1953663751
 20
22.4558522693
 10
-28.1873443077
 20
22.4615377418
 10
-28.1795102887
 20
22.4673053189
 10
-28.1718671099
 20
22.4731529451
 10
-28.1644174952
 20
22.4790785364
  0
LWPOLYLINE
  5
23A
100
AcDbEntity
  8
0
100
AcDbPolyline
 62
7
  6
CONTINUOUS
 90
7
 70
0
 10
-28.1643173197
 20
22.9188250464
 10
-28.1720471803
 20
22.9149425865
 10
-28.1798047319
 20
22.9109779542
 10
-28.18758998
 20
22.9069311521
 10
-28.1954029299
 20
22.9028021827
 10
-28.2032435871
 20
22.8985910484
 10
-28.2111119569
 20
22.8942977519
  0
LINE
  5
23B
100
AcDbEntity
  8
0
100
AcDbLine
 62
7
  6
CONTINUOUS
 10
-30.1087004768
 20
22.3438093083
 11
-30.1006551338
 21
21.9168047791
  0
LINE
  5
23C
100
AcDbEntity
  8
0
100
AcDbLine
 62
7
  6
CONTINUOUS
 10
-29.0240575957
 20
22.7926677849
 11
-29.0199059355
 21
22.9903074655
  0
LINE
  5
23D
100
AcDbEntity
  8
0
100
AcDbLine
 62
7
  6
CONTINUOUS
 10
-29.0362387218
 20
22.811727482
 11
-29.0319155802
 21
22.9897211651
  0
LINE
  5
23E
100
AcDbEntity
  8
0
100
AcDbLine
 62
7
  6
CONTINUOUS
 10
-28.2112218035
 20
22.5368173719
 11
-28.2200623944
 21
22.4396059873
  0
LINE
  5
23F
100
AcDbEntity
  8
0
100
AcDbLine
 62
7
  6
CONTINUOUS
 10
-28.213347308
 20
22.5450943347
 11
-28.2231987461
 21
22.4376810408
  0
LINE
  5
240
100
AcDbEntity
  8
0
100
AcDbLine
 62
7
  6
CONTINUOUS
 10
-28.3427058227
 20
22.4392259564
 11
-28.3095863482
 21
22.7461741217
  0
LWPOLYLINE
  5
241
100
AcDbEntity
  8
0
100
AcDbPolyline
 62
7
  6
CONTINUOUS
 90
16
 70
0
 10
-0.6525039957
 20
33.7949058781
 10
-0.7070502416
 20
33.7616220511
 10
-0.7584114864
 20
33.7266003317
 10
-0.8064599894
 20
33.6899201765
 10
-0.8511498524
 20
33.6515913847
 10
-0.8922662966
 20
33.611765796
 10
-0.9294963439
 20
33.570760747
 10
-0.962776841
 20
33.5287041812
 10
-0.992078765
 20
33.4856920185
 10
-1.0172582684
 20
33.4420372003
 10
-1.038291213
 20
33.3979691014
 10
-1.0552557017
 20
33.3535429179
 10
-1.0681997601
 20
33.3088428281
 10
-1.0771517391
 20
33.2640072403
 10
-1.0821451987
 20
33.2192193304
 10
-1.0832366005
 20
33.174642653
  0
LWPOLYLINE
  5
242
100
AcDbEntity
  8
0
100
AcDbPolyline
 62
250
  6
CONTINUOUS
 90
17
 70
0
 10
-27.711193437
 20
21.3968669089
 10
-27.660739891
 20
21.4275299989
 10
-27.6131373531
 20
21.4596064438
 10
-27.5685162989
 20
21.4930083248
 10
-27.5269990315
 20
21.5276440906
 10
-27.488699348
 20
21.5634188068
 10
-27.4537222272
 20
21.600234416
 10
-27.4221635427
 20
21.6379900047
 10
-27.3941097904
 20
21.6765820922
 10
-27.3696378564
 20
21.7159049129
 10
-27.3488148156
 20
21.7558506966
 10
-27.3316977528
 20
21.7963099454
 10
-27.3183335934
 20
21.8371717464
 10
-27.3087589679
 20
21.8783240933
 10
-27.3030001163
 20
21.9196541968
 10
-27.3010728222
 20
21.9610487766
 10
-27.3011519967
 20
21.9695512053
  0
LWPOLYLINE
  5
243
100
AcDbEntity
  8
0
100
AcDbPolyline
 62
250
  6
CONTINUOUS
 90
61
 70
0
 10
-0.6421009608
 20
33.7988117841
 10
-0.6907854441
 20
33.7692276468
 10
-0.7367280401
 20
33.7382816469
 10
-0.7798030692
 20
33.7060580307
 10
-0.8198769642
 20
33.6726583424
 10
-0.8568581994
 20
33.6381606585
 10
-0.8906848396
 20
33.6026150648
 10
-0.921276604
 20
33.5660839567
 10
-0.9485069438
 20
33.5286939393
 10
-0.9722590879
 20
33.4905954066
 10
-0.9924595868
 20
33.4519116074
 10
-1.009065555
 20
33.4127311947
 10
-1.0220331121
 20
33.3731579766
 10
-1.0313266134
 20
33.3332983347
 10
-1.0369191775
 20
33.2932640898
 10
-1.0387949535
 20
33.2531683054
 10
-1.0369479057
 20
33.213107702
 10
-1.0313822329
 20
33.1732059716
 10
-1.0221256997
 20
33.1336157416
 10
-1.0092282298
 20
33.094476649
 10
-0.992731242
 20
33.055861534
 10
-0.9726616343
 20
33.0178217286
 10
-0.9490575401
 20
32.9804412447
 10
-0.9219908029
 20
32.9438438485
 10
-0.8915411816
 20
32.9081394699
 10
-0.857792365
 20
32.8734261088
 10
-0.8208363461
 20
32.8397982688
 10
-0.7807836847
 20
32.8073551438
 10
-0.7377694563
 20
32.7762006633
 10
-0.6918927448
 20
32.7464014918
 10
-0.6432128496
 20
32.7180004532
 10
-0.5918107591
 20
32.6910587728
 10
-0.5378576716
 20
32.6656794618
 10
-0.4815568583
 20
32.6419628827
 10
-0.4230833479
 20
32.6199815945
 10
-0.3625789042
 20
32.5997877612
 10
-0.3002143435
 20
32.5814382962
 10
-0.2361647559
 20
32.5649841711
 10
-0.1706031804
 20
32.5504693088
 10
-0.1037043082
 20
32.5379323324
 10
-0.0356478934
 20
32.5274073512
 10
0.0333752803
 20
32.5189242857
 10
0.103169309
 20
32.5125071456
 10
0.1735379682
 20
32.5081734254
 10
0.2442920255
 20
32.5059342385
 10
0.3152436112
 20
32.5057954786
 10
0.3862025855
 20
32.507757973
 10
0.4569691063
 20
32.5118166426
 10
0.5273408633
 20
32.5179597643
 10
0.5971185817
 20
32.5261691913
 10
0.6661168014
 20
32.5364223724
 10
0.7341561677
 20
32.5486926909
 10
0.8010818284
 20
32.5629543531
 10
0.8666759883
 20
32.5791630413
 10
0.9306747393
 20
32.5972494832
 10
0.9928565453
 20
32.6171394024
 10
1.0531128381
 20
32.638786253
 10
1.1113565176
 20
32.6621542345
 10
1.1674513509
 20
32.6871901185
 10
1.2212202985
 20
32.7138162792
 10
1.2725168469
 20
32.741959986
  0
LWPOLYLINE
  5
244
100
AcDbEntity
  8
0
100
AcDbPolyline
 62
7
  6
CONTINUOUS
 90
10
 70
0
 10
-0.1663629555
 20
33.7859558142
 10
-0.1752810774
 20
33.7807106468
 10
-0.1840260948
 20
33.7753735509
 10
-0.1925948911
 20
33.7699464284
 10
-0.2009844126
 20
33.7644312136
 10
-0.2091916695
 20
33.7588298718
 10
-0.2172137369
 20
33.7531443993
 10
-0.2250477559
 20
33.7473768222
 10
-0.2326909347
 20
33.741529196
 10
-0.2401405494
 20
33.7356036046
  0
LINE
  5
245
100
AcDbEntity
  8
RACCORDO
100
AcDbLine
 62
7
  6
CONTINUOUS
 10
2.2442793929
 20
34.9699318759
 11
0.6010894049
 21
34.0211745709
  0
LINE
  5
246
100
AcDbEntity
  8
RACCORDO
100
AcDbLine
 62
7
  6
CONTINUOUS
 10
-1.0808885707
 20
33.0500215679
 11
-1.6363265909
 21
32.7293186163
  0
LINE
  5
247
100
AcDbEntity
  8
0
100
AcDbLine
 62
250
  6
CONTINUOUS
 10
-27.8042435777
 20
21.8829829311
 11
-27.7529470293
 21
21.9111266379
  0
LWPOLYLINE
  5
248
100
AcDbEntity
  8
0
100
AcDbPolyline
 62
7
  6
CONTINUOUS
 90
43
 70
0
 10
-27.7318846016
 20
21.3492879837
 10
-27.7899830195
 20
21.3175627834
 10
-27.8508157303
 20
21.2878709774
 10
-27.9141901866
 20
21.2602764842
 10
-27.9799264712
 20
21.2348327193
 10
-28.0478126752
 20
21.2116006467
 10
-28.1175919505
 20
21.1906463217
 10
-28.1890253501
 20
21.1720180778
 10
-28.2619173223
 20
21.1557461398
 10
-28.3360577317
 20
21.1418609207
 10
-28.4112131609
 20
21.1303917485
 10
-28.4871674162
 20
21.121359037
 10
-28.5637297255
 20
21.1147768215
 10
-28.6406754827
 20
21.1106591683
 10
-28.7177737977
 20
21.1090146001
 10
-28.7948228269
 20
21.1098460933
 10
-28.8715943641
 20
21.1131524698
 10
-28.9478615855
 20
21.1189266254
 10
-29.0234267878
 20
21.127159098
 10
-29.0980685065
 20
21.1378343724
 10
-29.1715612208
 20
21.1509304869
 10
-29.2437075036
 20
21.1664254462
 10
-29.3143053349
 20
21.1842932712
 10
-29.3831249505
 20
21.2044956457
 10
-29.4499417162
 20
21.2269872952
 10
-29.5145694643
 20
21.2517295062
 10
-29.5767925224
 20
21.2786673188
 10
-29.6363704288
 20
21.3077231702
 10
-29.6931684711
 20
21.3388625298
 10
-29.7469645717
 20
21.3720004545
 10
-29.7974455483
 20
21.4069655935
 10
-29.8445184076
 20
21.4437082095
 10
-29.8880132943
 20
21.4821168287
 10
-29.9276068903
 20
21.5218897995
 10
-29.9632102669
 20
21.5628762045
 10
-29.9948115685
 20
21.6050000015
 10
-30.0222983065
 20
21.6480314274
 10
-30.045637062
 20
21.6917932319
 10
-30.0648491823
 20
21.7361823319
 10
-30.0799368952
 20
21.7810466906
 10
-30.090912059
 20
21.8262190025
 10
-30.0978031428
 20
21.8715294103
 10
-30.1006551338
 20
21.9168047791
  0
LWPOLYLINE
  5
249
100
AcDbEntity
  8
0
100
AcDbPolyline
 62
7
  6
CONTINUOUS
 90
7
 70
0
 10
0.8611465566
 20
33.7496583946
 10
0.853416696
 20
33.7457759347
 10
0.8456591443
 20
33.7418113024
 10
0.8378738963
 20
33.7377645003
 10
0.8300609463
 20
33.7336355308
 10
0.8222202892
 20
33.7294243966
 10
0.8143519193
 20
33.7251311001
  0
LINE
  5
24A
100
AcDbEntity
  8
0
100
AcDbLine
 62
250
  6
CONTINUOUS
 10
-27.8580125253
 20
21.8563567704
 11
-27.8042435777
 21
21.8829829311
  0
LWPOLYLINE
  5
24B
100
AcDbEntity
  8
RACCORDO
100
AcDbPolyline
 62
250
  6
CONTINUOUS
 90
11
 70
0
 10
7.5433026216
 20
36.5998779942
 10
7.5486589423
 20
36.6021515285
 10
7.5585454621
 20
36.6024790625
 10
7.5692271448
 20
36.598068196
 10
7.5808060435
 20
36.5888463462
 10
7.593079257
 20
36.5745680766
 10
7.6059212288
 20
36.5551105222
 10
7.6194759219
 20
36.5307194849
 10
7.6336120591
 20
36.5014915925
 10
7.6479474687
 20
36.4672971652
 10
7.6622022116
 20
36.4281609733
  0
LWPOLYLINE
  5
24C
100
AcDbEntity
  8
0
100
AcDbPolyline
 62
7
  6
CONTINUOUS
 90
10
 70
0
 10
-29.1043093701
 20
22.9978985933
 10
-29.1146364413
 20
22.9935604432
 10
-29.1248210692
 20
22.9891147772
 10
-29.1348596235
 20
22.9845631802
 10
-29.1447485262
 20
22.9799072743
 10
-29.1544842523
 20
22.9751487193
 10
-29.1640633316
 20
22.9702892111
 10
-29.1734823498
 20
22.9653304821
 10
-29.1827379496
 20
22.9602742997
 10
-29.1918268317
 20
22.955122466
  0
LWPOLYLINE
  5
24D
100
AcDbEntity
  8
0
100
AcDbPolyline
 62
7
  6
CONTINUOUS
 90
10
 70
0
 10
-28.3257125522
 20
22.385950199
 10
-28.3153854808
 20
22.3902883492
 10
-28.3052008527
 20
22.3947340152
 10
-28.2951622982
 20
22.3992856123
 10
-28.2852733954
 20
22.4039415182
 10
-28.2755376692
 20
22.4087000734
 10
-28.2659585896
 20
22.4135595815
 10
-28.2565395713
 20
22.4185183106
 10
-28.2472839714
 20
22.4235744932
 10
-28.2381950891
 20
22.4287263269
  0
LWPOLYLINE
  5
24E
100
AcDbEntity
  8
0
100
AcDbPolyline
 62
7
  6
CONTINUOUS
 90
10
 70
0
 10
-0.0788454938
 20
33.8287319415
 10
-0.0891725651
 20
33.8243937913
 10
-0.099357193
 20
33.8199481254
 10
-0.1093957473
 20
33.8153965283
 10
-0.1192846499
 20
33.8107406224
 10
-0.129020376
 20
33.8059820674
 10
-0.1385994554
 20
33.8011225593
 10
-0.1480184736
 20
33.7961638303
 10
-0.1572740733
 20
33.7911076478
 10
-0.1663629555
 20
33.7859558142
  0
LWPOLYLINE
  5
24F
100
AcDbEntity
  8
0
100
AcDbPolyline
 62
7
  6
CONTINUOUS
 90
10
 70
0
 10
0.699751324
 20
33.2167835471
 10
0.7100783954
 20
33.2211216973
 10
0.7202630235
 20
33.2255673633
 10
0.730301578
 20
33.2301189605
 10
0.7401904808
 20
33.2347748664
 10
0.7499262071
 20
33.2395334215
 10
0.7595052866
 20
33.2443929297
 10
0.768924305
 20
33.2493516588
 10
0.7781799048
 20
33.2544078413
 10
0.7872687871
 20
33.259559675
  0
LWPOLYLINE
  5
250
100
AcDbEntity
  8
TRASH
100
AcDbPolyline
 62
7
  6
CONTINUOUS
 90
16
 70
0
 10
-28.7101136506
 20
22.6420326652
 10
-28.6931649048
 20
22.6485903685
 10
-28.6759712051
 20
22.6556274501
 10
-28.6584673468
 20
22.6631464747
 10
-28.6406064041
 20
22.671103702
 10
-28.6223217265
 20
22.6795394813
 10
-28.6035082809
 20
22.6885752313
 10
-28.5840980416
 20
22.6981845828
 10
-28.5640403852
 20
22.7083695109
 10
-28.5432297674
 20
22.7192852242
 10
-28.5215761927
 20
22.7309253959
 10
-28.4990517762
 20
22.7432572292
 10
-28.4756288989
 20
22.7563956504
 10
-28.4512670218
 20
22.7703702724
 10
-28.4259207843
 20
22.7851222636
 10
-28.3995595471
 20
22.8006389187
  0
LWPOLYLINE
  5
251
100
AcDbEntity
  8
TRASH
100
AcDbPolyline
 62
7
  6
CONTINUOUS
 90
16
 70
0
 10
0.3153502257
 20
33.4728660134
 10
0.3322989715
 20
33.4794237167
 10
0.3494926711
 20
33.4864607982
 10
0.3669965295
 20
33.4939798228
 10
0.3848574722
 20
33.5019370502
 10
0.4031421497
 20
33.5103728294
 10
0.4219555954
 20
33.5194085794
 10
0.4413658346
 20
33.5290179309
 10
0.4614234911
 20
33.5392028591
 10
0.4822341089
 20
33.5501185723
 10
0.5038876836
 20
33.5617587441
 10
0.5264121
 20
33.5740905774
 10
0.5498349774
 20
33.5872289986
 10
0.5741968544
 20
33.6012036206
 10
0.599543092
 20
33.6159556117
 10
0.6259043292
 20
33.6314722668
  0
LWPOLYLINE
  5
252
100
AcDbEntity
  8
0
100
AcDbPolyline
 62
7
  6
CONTINUOUS
 90
3
 70
0
 10
0.0441417392
 20
33.2669757548
 10
0.0246266406
 20
33.2606204116
 10
0.0054364817
 20
33.2541302179
  0
LWPOLYLINE
  5
253
100
AcDbEntity
  8
0
100
AcDbPolyline
 62
7
  6
CONTINUOUS
 90
3
 70
0
 10
-28.9813221371
 20
22.4361424066
 10
-29.0008372356
 20
22.4297870634
 10
-29.0200273945
 20
22.4232968697
  0
LWPOLYLINE
  5
254
100
AcDbEntity
  8
0
100
AcDbPolyline
 62
250
  6
CONTINUOUS
 90
7
 70
0
 10
-0.3002588559
 20
33.9435224316
 10
-0.36244066
 20
33.92363241
 10
-0.4226969498
 20
33.9019854
 10
-0.4809406274
 20
33.8786173224
 10
-0.5370354609
 20
33.853581446
 10
-0.5908044098
 20
33.8269553563
 10
-0.6421009608
 20
33.7988117841
  0
LWPOLYLINE
  5
255
100
AcDbEntity
  8
0
100
AcDbPolyline
 62
250
  6
CONTINUOUS
 90
7
 70
0
 10
-29.3257227321
 20
23.1126890835
 10
-29.3879045362
 20
23.0927990619
 10
-29.448160826
 20
23.0711520518
 10
-29.5064045037
 20
23.0477839742
 10
-29.5624993372
 20
23.0227480979
 10
-29.6162682861
 20
22.9961220082
 10
-29.667564837
 20
22.9679784359
  0
LWPOLYLINE
  5
256
100
AcDbEntity
  8
0
100
AcDbPolyline
 62
7
  6
CONTINUOUS
 90
4
 70
0
 10
0.1246343954
 20
33.2919372515
 10
0.1042390557
 20
33.2857944097
 10
0.0839917033
 20
33.2795195196
 10
0.0441417392
 20
33.2669757548
  0
LWPOLYLINE
  5
257
100
AcDbEntity
  8
0
100
AcDbPolyline
 62
7
  6
CONTINUOUS
 90
4
 70
0
 10
-28.9008294808
 20
22.4611039034
 10
-28.9212248205
 20
22.4549610616
 10
-28.941472173
 20
22.4486861714
 10
-28.9813221371
 20
22.4361424066
  0
LWPOLYLINE
  5
258
100
AcDbEntity
  8
0
100
AcDbPolyline
 62
7
  6
CONTINUOUS
 90
43
 70
0
 10
-27.3091973396
 20
22.3965557309
 10
-27.3120425664
 20
22.4417679971
 10
-27.318927665
 20
22.4870768273
 10
-27.3299138018
 20
22.5323076805
 10
-27.3450495421
 20
22.5772985709
 10
-27.3643602742
 20
22.6218673364
 10
-27.3878457301
 20
22.6658267416
 10
-27.4155339815
 20
22.7090704645
 10
-27.447397517
 20
22.751417051
 10
-27.4833029589
 20
22.7926044635
 10
-27.5232322401
 20
22.8325519589
 10
-27.5670966719
 20
22.8711112582
 10
-27.6145482056
 20
22.9079646064
 10
-27.6654026511
 20
22.942997755
 10
-27.7195658021
 20
22.9761675134
 10
-27.7767138946
 20
23.007303248
 10
-27.8366153244
 20
23.0363217504
 10
-27.8991311522
 20
23.0631926601
 10
-27.9640184352
 20
23.0878430966
 10
-28.0310548149
 20
23.1102208109
 10
-28.1000512875
 20
23.1302910844
 10
-28.1707883197
 20
23.148014347
 10
-28.2430359568
 20
23.1633556735
 10
-28.3165878969
 20
23.1762914479
 10
-28.3912471947
 20
23.1868029704
 10
-28.466787673
 20
23.1948712846
 10
-28.5429872793
 20
23.2004838493
 10
-28.6196497519
 20
23.2036342102
 10
-28.6965488298
 20
23.2043181684
 10
-28.7734576708
 20
23.2025374255
 10
-28.850177802
 20
23.1982976091
 10
-28.9264835147
 20
23.1916095182
 10
-29.0021498016
 20
23.1824898186
 10
-29.0769816919
 20
23.1709561051
 10
-29.1507619151
 20
23.1570327307
 10
-29.2232665631
 20
23.1407510952
 10
-29.2942976
 20
23.1221421415
 10
-29.3636488987
 20
23.1012426982
 10
-29.4311030341
 20
23.0780986213
 10
-29.4964583729
 20
23.052756808
 10
-29.5595188658
 20
23.0252671116
 10
-29.6200866855
 20
22.9956855468
 10
-29.677967872
 20
22.9640725299
  0
LWPOLYLINE
  5
259
100
AcDbEntity
  8
0
100
AcDbPolyline
 62
7
  6
CONTINUOUS
 90
3
 70
0
 10
-28.398816311
 20
22.9978107346
 10
-28.3970883736
 20
22.9681610675
 10
-28.3880069202
 20
22.8200031436
  0
LINE
  5
25A
100
AcDbEntity
  8
0
100
AcDbLine
 62
7
  6
CONTINUOUS
 10
-28.410701698
 20
22.9980848791
 11
-28.399557061
 21
22.800640481
  0
LINE
  5
25B
100
AcDbEntity
  8
0
100
AcDbLine
 62
250
  6
CONTINUOUS
 10
-30.1006551338
 20
21.9168047791
 11
-30.0988247627
 21
21.8839616132
  0
LWPOLYLINE
  5
25C
100
AcDbEntity
  8
0
100
AcDbPolyline
 62
250
  6
CONTINUOUS
 90
46
 70
0
 10
-30.1087004768
 20
22.3438093075
 10
-30.1068700623
 20
22.3109656769
 10
-30.10111601
 20
22.269713427
 10
-30.0915461763
 20
22.2287832204
 10
-30.0782121746
 20
22.1883194204
 10
-30.0611568256
 20
22.1483973325
 10
-30.0404079369
 20
22.1090700264
 10
-30.0160049321
 20
22.0704243581
 10
-29.9880220869
 20
22.0325882824
 10
-29.9565418603
 20
21.9956754495
 10
-29.9216507735
 20
21.9597871762
 10
-29.8834439333
 20
21.9250211648
 10
-29.8420356417
 20
21.891479966
 10
-29.7975655462
 20
21.8592710268
 10
-29.7501360841
 20
21.8284632681
 10
-29.6998085611
 20
21.799100964
 10
-29.6466667066
 20
21.7712474123
 10
-29.5908875137
 20
21.7450091104
 10
-29.5326811338
 20
21.7204898172
 10
-29.4722285198
 20
21.6977645473
 10
-29.4096762333
 20
21.6768872304
 10
-29.3452008723
 20
21.6579167064
 10
-29.2789834525
 20
21.6409056722
 10
-29.21120287
 20
21.6258995373
 10
-29.1420397284
 20
21.6129382318
 10
-29.071679866
 20
21.6020570193
 10
-29.0003205235
 20
21.5932868332
 10
-28.9281642353
 20
21.5866524963
 10
-28.8554138674
 20
21.5821720963
 10
-28.7822650571
 20
21.5798571217
 10
-28.7089120329
 20
21.5797136635
 10
-28.6355513693
 20
21.5817425735
 10
-28.5623896723
 20
21.5859386042
 10
-28.4896361002
 20
21.5922896441
 10
-28.4174966765
 20
21.6007769443
 10
-28.3461631375
 20
21.6113771778
 10
-28.2758209011
 20
21.6240627997
 10
-28.2066300445
 20
21.6388071098
 10
-28.1388157408
 20
21.655564326
 10
-28.072650863
 20
21.6742629064
 10
-28.0083644863
 20
21.6948261199
 10
-27.9460688337
 20
21.7172057791
 10
-27.8858538903
 20
21.7413647608
 10
-27.8278604664
 20
21.7672480023
 10
-27.7722716079
 20
21.794775291
 10
-27.71923878
 20
21.8238714381
  0
LINE
  5
25D
100
AcDbEntity
  8
0
100
AcDbLine
 62
7
  6
CONTINUOUS
 10
-27.3091973397
 20
22.3965557345
 11
-27.3011519967
 21
21.9695512053
  0
LINE
  5
25E
100
AcDbEntity
  8
0
100
AcDbLine
 62
7
  6
CONTINUOUS
 10
-28.7101169629
 20
22.642033599
 11
-28.7158862554
 21
22.9704479751
  0
LWPOLYLINE
  5
25F
100
AcDbEntity
  8
0
100
AcDbPolyline
 62
7
  6
CONTINUOUS
 90
16
 70
0
 10
-27.3011519967
 20
21.9695512053
 10
-27.302238301
 20
21.9250497944
 10
-27.3072168717
 20
21.8803154015
 10
-27.3161497493
 20
21.8355111356
 10
-27.3290775535
 20
21.7908160751
 10
-27.3460335335
 20
21.7463736388
 10
-27.3670646819
 20
21.7022814169
 10
-27.3922508845
 20
21.6585956878
 10
-27.4215702234
 20
21.6155461546
 10
-27.4548721653
 20
21.5734567855
 10
-27.4921265267
 20
21.5324237049
 10
-27.5332694155
 20
21.4925745457
 10
-27.5779764228
 20
21.4542350208
 10
-27.6260257899
 20
21.417558423
 10
-27.6773719637
 20
21.3825501366
 10
-27.7318846016
 20
21.3492879837
  0
LWPOLYLINE
  5
260
100
AcDbEntity
  8
TRASH
100
AcDbPolyline
 62
7
  6
CONTINUOUS
 90
7
 70
0
 10
-0.0915374618
 20
33.2229193402
 10
-0.0845468885
 20
33.2287876334
 10
-0.0778086488
 20
33.23480721
 10
-0.071208625
 20
33.2409777731
 10
-0.0647102536
 20
33.2473170698
 10
-0.0583593442
 20
33.2538712426
 10
-0.0521530864
 20
33.2606770529
  0
LINE
  5
261
100
AcDbEntity
  8
TRASH
100
AcDbLine
 62
7
  6
CONTINUOUS
 10
-0.0987442517
 20
33.2171612548
 11
-0.0915374618
 21
33.2229193402
  0
LINE
  5
262
100
AcDbEntity
  8
TRASH
100
AcDbLine
 62
7
  6
CONTINUOUS
 10
-0.1007278157
 20
33.2156437832
 11
-0.0987442517
 21
33.2171612548
  0
LWPOLYLINE
  5
263
100
AcDbEntity
  8
TRASH
100
AcDbPolyline
 62
7
  6
CONTINUOUS
 90
7
 70
0
 10
-0.1014769245
 20
33.5739893958
 10
-0.1013310364
 20
33.5740817291
 10
-0.0824545215
 20
33.5849881784
 10
-0.0627021789
 20
33.5954061562
 10
-0.0421094492
 20
33.605313533
 10
-0.0207241929
 20
33.6146853095
 10
0.0014088266
 20
33.6234996378
  0
LINE
  5
264
100
AcDbEntity
  8
0
100
AcDbLine
 62
7
  6
CONTINUOUS
 10
-0.0549198715
 20
33.2218169607
 11
-0.0789871596
 21
33.2068451705
  0
LINE
  5
265
100
AcDbEntity
  8
0
100
AcDbLine
 62
7
  6
CONTINUOUS
 10
-0.0307202376
 20
33.2365970728
 11
-0.0549198715
 21
33.2218169607
  0
LWPOLYLINE
  5
266
100
AcDbEntity
  8
0
100
AcDbPolyline
 62
250
  6
CONTINUOUS
 90
17
 70
0
 10
1.3142704392
 20
32.2277002571
 10
1.3647239853
 20
32.258363347
 10
1.4123265232
 20
32.2904397919
 10
1.4569475773
 20
32.3238416729
 10
1.4984648448
 20
32.3584774387
 10
1.5367645283
 20
32.3942521549
 10
1.5717416491
 20
32.4310677641
 10
1.6033003335
 20
32.4688233529
 10
1.6313540859
 20
32.5074154403
 10
1.6558260199
 20
32.5467382611
 10
1.6766490606
 20
32.5866840447
 10
1.6937661234
 20
32.6271432936
 10
1.7071302829
 20
32.6680050946
 10
1.7167049084
 20
32.7091574414
 10
1.72246376
 20
32.750487545
 10
1.724391054
 20
32.7918821247
 10
1.7243118795
 20
32.8003845535
  0
LWPOLYLINE
  5
267
100
AcDbEntity
  8
0
100
AcDbPolyline
 62
250
  6
CONTINUOUS
 90
38
 70
0
 10
1.2725168469
 20
32.741959986
 10
1.3212013337
 20
32.7715439406
 10
1.3671439314
 20
32.8024898472
 10
1.4102189606
 20
32.8347134597
 10
1.4502928528
 20
32.8681132919
 10
1.4872740836
 20
32.9026112093
 10
1.5211007211
 20
32.9381569514
 10
1.5516924861
 20
32.9746880256
 10
1.5789228282
 20
33.0120779239
 10
1.6026749739
 20
33.0501763709
 10
1.6228754728
 20
33.0888601717
 10
1.6394814403
 20
33.1280406193
 10
1.652448997
 20
33.167613862
 10
1.6617424983
 20
33.2074734995
 10
1.6673350627
 20
33.2475077296
 10
1.669210839
 20
33.2876035016
 10
1.6673637912
 20
33.3276640997
 10
1.6617981185
 20
33.3675658272
 10
1.6525415853
 20
33.4071560549
 10
1.6396441154
 20
33.4462951455
 10
1.6231471277
 20
33.4849102591
 10
1.60307752
 20
33.5229500628
 10
1.5794734259
 20
33.5603305439
 10
1.5524066887
 20
33.596927937
 10
1.5219570675
 20
33.6326323128
 10
1.4882082509
 20
33.6673456713
 10
1.451252232
 20
33.7009735089
 10
1.4111995707
 20
33.7334166321
 10
1.3681853423
 20
33.7645711116
 10
1.3223086308
 20
33.7943702828
 10
1.2736287356
 20
33.8227713208
 10
1.2222266451
 20
33.849713
 10
1.1682735577
 20
33.8750923096
 10
1.1119727444
 20
33.8988088877
 10
1.0534992341
 20
33.9207901755
 10
0.9929947903
 20
33.9409840088
 10
0.9306302297
 20
33.959333474
 10
0.866580642
 20
33.9757875993
  0
LWPOLYLINE
  5
268
100
AcDbEntity
  8
0
100
AcDbPolyline
 62
250
  6
CONTINUOUS
 90
17
 70
0
 10
1.3062250963
 20
32.6547047863
 10
1.3565572321
 20
32.6852901939
 10
1.4040547328
 20
32.7172835711
 10
1.4485876746
 20
32.7505978258
 10
1.4900180244
 20
32.785128
 10
1.5282511225
 20
32.8207933673
 10
1.5632227937
 20
32.8575420951
 10
1.5948499472
 20
32.8953096343
 10
1.6230018268
 20
32.9339651185
 10
1.647557813
 20
32.9733531062
 10
1.6684420227
 20
33.0133462042
 10
1.6856100719
 20
33.0538527403
 10
1.6990165547
 20
33.0947653733
 10
1.7086246013
 20
33.1359741104
 10
1.7144064383
 20
33.1773633539
 10
1.7163456903
 20
33.2188162203
 10
1.7162665366
 20
33.2273890817
  0
LINE
  5
269
100
AcDbEntity
  8
0
100
AcDbLine
 62
7
  6
CONTINUOUS
 10
-0.0063882577
 20
33.251185507
 11
-0.0307202376
 21
33.2365970728
  0
LWPOLYLINE
  5
26A
100
AcDbEntity
  8
0
100
AcDbPolyline
 62
7
  6
CONTINUOUS
 90
10
 70
0
 10
0.7872687871
 20
33.259559675
 10
0.796186909
 20
33.2648048424
 10
0.8049319264
 20
33.2701419383
 10
0.8135007227
 20
33.2755690608
 10
0.8218902442
 20
33.2810842756
 10
0.8300975011
 20
33.2866856174
 10
0.8381195685
 20
33.2923710899
 10
0.8459535876
 20
33.298138667
 10
0.8535967664
 20
33.3039862932
 10
0.861046381
 20
33.3099118846
  0
LINE
  5
26B
100
AcDbEntity
  8
RACCORDO
100
AcDbLine
 62
250
  6
CONTINUOUS
 10
2.3653982242
 20
34.959741653
 11
0.7139715977
 21
34.0062286161
  0
LINE
  5
26C
100
AcDbEntity
  8
RACCORDO
100
AcDbLine
 62
250
  6
CONTINUOUS
 10
-1.0793951963
 20
32.9707611054
 11
-1.5143513421
 21
32.7196228781
  0
LINE
  5
26D
100
AcDbEntity
  8
RACCORDO
100
AcDbLine
 62
7
  6
CONTINUOUS
 10
7.5433533647
 20
36.5999072932
 11
3.7764792063
 21
34.4249613641
  0
LINE
  5
26E
100
AcDbEntity
  8
RACCORDO
100
AcDbLine
 62
250
  6
CONTINUOUS
 10
7.6622411704
 20
36.4281834676
 11
3.7731538739
 21
34.1826732043
  0
LINE
  5
26F
100
AcDbEntity
  8
0
100
AcDbLine
 62
7
  6
CONTINUOUS
 10
6.6011963238
 20
34.0192450124
 11
5.3637594567
 21
33.3047644741
  0
LINE
  5
270
100
AcDbEntity
  8
0
100
AcDbLine
 62
7
  6
CONTINUOUS
 10
6.6027512074
 20
33.9367199563
 11
5.4506533387
 21
33.271513086
  0
LWPOLYLINE
  5
271
100
AcDbEntity
  8
0
100
AcDbPolyline
 62
7
  6
CONTINUOUS
 90
43
 70
0
 10
1.2935792747
 20
32.1801213319
 10
1.2354808568
 20
32.1483961315
 10
1.174648146
 20
32.1187043255
 10
1.1112736897
 20
32.0911098323
 10
1.0455374051
 20
32.0656660675
 10
0.9776512011
 20
32.0424339948
 10
0.9078719258
 20
32.0214796699
 10
0.8364385261
 20
32.0028514259
 10
0.7635465539
 20
31.9865794879
 10
0.6894061446
 20
31.9726942688
 10
0.6142507153
 20
31.9612250966
 10
0.53829646
 20
31.9521923851
 10
0.4617341508
 20
31.9456101696
 10
0.3847883935
 20
31.9414925165
 10
0.3076900785
 20
31.9398479483
 10
0.2306410493
 20
31.9406794414
 10
0.1538695121
 20
31.9439858179
 10
0.0776022907
 20
31.9497599735
 10
0.0020370884
 20
31.9579924461
 10
-0.0726046303
 20
31.9686677206
 10
-0.1460973445
 20
31.981763835
 10
-0.2182436274
 20
31.9972587943
 10
-0.2888414587
 20
32.0151266193
 10
-0.3576610743
 20
32.0353289938
 10
-0.42447784
 20
32.0578206433
 10
-0.4891055881
 20
32.0825628543
 10
-0.5513286461
 20
32.109500667
 10
-0.6109065525
 20
32.1385565184
 10
-0.6677045949
 20
32.169695878
 10
-0.7215006955
 20
32.2028338026
 10
-0.7719816721
 20
32.2377989417
 10
-0.8190545313
 20
32.2745415576
 10
-0.8625494181
 20
32.3129501768
 10
-0.9021430141
 20
32.3527231476
 10
-0.9377463907
 20
32.3937095526
 10
-0.9693476923
 20
32.4358333496
 10
-0.9968344303
 20
32.4788647755
 10
-1.0201731857
 20
32.5226265801
 10
-1.039385306
 20
32.56701568
 10
-1.054473019
 20
32.6118800388
 10
-1.0654481828
 20
32.6570523506
 10
-1.0723392665
 20
32.7023627584
 10
-1.0751912576
 20
32.7476381273
  0
LWPOLYLINE
  5
272
100
AcDbEntity
  8
0
100
AcDbPolyline
 62
7
  6
CONTINUOUS
 90
31
 70
0
 10
0.7739746068
 20
29.3430806517
 10
0.7477062768
 20
29.3288538345
 10
0.7198854676
 20
29.315606984
 10
0.6906313122
 20
29.3033968253
 10
0.6600690814
 20
29.292275644
 10
0.6283296473
 20
29.2822910628
 10
0.5955489231
 20
29.2734858372
 10
0.5618672808
 20
29.2658976726
 10
0.5274289505
 20
29.2595590626
 10
0.4923814023
 20
29.2544971501
 10
0.4568747152
 20
29.2507336111
 10
0.4210609344
 20
29.2482845615
 10
0.3850934198
 20
29.2471604885
 10
0.34912619
 20
29.2473662057
 10
0.3133132621
 20
29.2489008321
 10
0.2778079927
 20
29.2517577962
 10
0.2427624206
 20
29.2559248641
 10
0.2083266164
 20
29.2613841917
 10
0.1746480396
 20
29.2681124013
 10
0.141870907
 20
29.2760806817
 10
0.1101355752
 20
29.2852549115
 10
0.0795779398
 20
29.2955958053
 10
0.0503288534
 20
29.3070590818
 10
0.022513565
 20
29.3195956534
 10
-0.0037488161
 20
29.3331518366
 10
-0.0283458302
 20
29.3476695819
 10
-0.0511721494
 20
29.3630867218
 10
-0.0721300276
 20
29.379337238
 10
-0.0911297201
 20
29.3963515431
 10
-0.1080898672
 20
29.4140567794
 10
-0.1177401624
 20
29.4255895049
  0
LWPOLYLINE
  5
273
100
AcDbEntity
  8
0
100
AcDbPolyline
 62
7
  6
CONTINUOUS
 90
35
 70
0
 10
0.6841059872
 20
30.8831388155
 10
0.6810817623
 20
30.8818197134
 10
0.639918483
 20
30.8658536865
 10
0.597624827
 20
30.8513572196
 10
0.5543680456
 20
30.8383696108
 10
0.5103191908
 20
30.8269242035
 10
0.4656524411
 20
30.8170482546
 10
0.420544413
 20
30.8087628271
 10
0.375173465
 20
30.8020827072
 10
0.329718993
 20
30.7970163453
 10
0.2843607225
 20
30.7935658233
 10
0.2392779996
 20
30.7917268461
 10
0.1946490827
 20
30.7914887583
 10
0.1506504393
 20
30.7928345869
 10
0.1074560497
 20
30.7957411076
 10
0.0652367199
 20
30.8001789369
 10
0.0241594081
 20
30.8061126479
 10
-0.0156134348
 20
30.8135009102
 10
-0.0539245058
 20
30.8222966528
 10
-0.090622271
 20
30.83244725
 10
-0.1255615635
 20
30.8438947294
 10
-0.1586041559
 20
30.8565759999
 10
-0.1896193068
 20
30.8704231017
 10
-0.2184842756
 20
30.8853634737
 10
-0.2450848079
 20
30.9013202401
 10
-0.2693155859
 20
30.9182125139
 10
-0.2910806439
 20
30.9359557163
 10
-0.3102937475
 20
30.9544619099
 10
-0.3268787337
 20
30.9736401464
 10
-0.3407698114
 20
30.9933968251
 10
-0.3519118212
 20
31.0136360625
 10
-0.3602604528
 20
31.0342600705
 10
-0.3657824204
 20
31.0551695427
 10
-0.3684555937
 20
31.0762640459
 10
-0.3686983109
 20
31.0825163922
  0
LWPOLYLINE
  5
274
100
AcDbEntity
  8
0
100
AcDbPolyline
 62
7
  6
CONTINUOUS
 90
31
 70
0
 10
0.6400378183
 20
30.9074640481
 10
0.6391410412
 20
30.9071162146
 10
0.5968473852
 20
30.8926197477
 10
0.5535906037
 20
30.8796321389
 10
0.509541749
 20
30.8681867316
 10
0.4648749992
 20
30.8583107826
 10
0.4197669712
 20
30.8500253552
 10
0.3743960231
 20
30.8433452353
 10
0.3289415511
 20
30.8382788734
 10
0.2835832807
 20
30.8348283514
 10
0.2385005577
 20
30.8329893741
 10
0.1938716408
 20
30.8327512864
 10
0.1498729975
 20
30.8340971149
 10
0.1066786078
 20
30.8370036356
 10
0.0644592781
 20
30.841441465
 10
0.0233819662
 20
30.847375176
 10
-0.0163908766
 20
30.8547634383
 10
-0.0547019477
 20
30.8635591808
 10
-0.0913997129
 20
30.8737097781
 10
-0.1263390053
 20
30.8851572574
 10
-0.1593815978
 20
30.897838528
 10
-0.1903967486
 20
30.9116856298
 10
-0.2192617175
 20
30.9266260018
 10
-0.2458622498
 20
30.9425827681
 10
-0.2700930277
 20
30.959475042
 10
-0.2918580857
 20
30.9772182444
 10
-0.3110711894
 20
30.995724438
 10
-0.3276561756
 20
31.0149026745
 10
-0.3415472533
 20
31.0346593532
 10
-0.352689263
 20
31.0548985905
 10
-0.3610378947
 20
31.0755225986
  0
LINE
  5
275
100
AcDbEntity
  8
0
100
AcDbLine
 62
7
  6
CONTINUOUS
 10
-29.122284364
 20
22.7357988014
 11
-29.0776169629
 21
22.4298437049
  0
LWPOLYLINE
  5
276
100
AcDbEntity
  8
0
100
AcDbPolyline
 62
250
  6
CONTINUOUS
 90
45
 70
0
 10
-30.0988247627
 20
21.8839616132
 10
-30.0930836116
 20
21.8427783275
 10
-30.0835265893
 20
21.8018702236
 10
-30.0701798841
 20
21.7613494149
 10
-30.0530800791
 20
21.7213269799
 10
-30.0322740599
 20
21.6819126486
 10
-30.0078188799
 20
21.6432144792
 10
-29.9797815622
 20
21.6053385106
 10
-29.9482389165
 20
21.5683885069
 10
-29.913277366
 20
21.5324657229
 10
-29.8749927511
 20
21.4976686488
 10
-29.8334900319
 20
21.4640926878
 10
-29.788882976
 20
21.4318298772
 10
-29.7412938387
 20
21.4009686389
 10
-29.6908530587
 20
21.3715935615
 10
-29.6376988911
 20
21.3437851602
 10
-29.5819770279
 20
21.3176196561
 10
-29.5238401989
 20
21.2931687669
 10
-29.4634477382
 20
21.2704995057
 10
-29.4009651917
 20
21.2496740137
 10
-29.336563868
 20
21.2307493855
 10
-29.2704203373
 20
21.2137774992
 10
-29.2027158536
 20
21.1988048551
 10
-29.1336358983
 20
21.1858724717
 10
-29.0633697611
 20
21.1750157924
 10
-28.9921100838
 20
21.1662645887
 10
-28.9200522403
 20
21.1596428554
 10
-28.8473937611
 20
21.1551687422
 10
-28.7743337745
 20
21.1528545089
 10
-28.701072519
 20
21.1527064975
 10
-28.6278107952
 20
21.1547251142
 10
-28.5547494118
 20
21.1589048263
 10
-28.4820886211
 20
21.165234178
 10
-28.41002757
 20
21.173695823
 10
-28.3387637848
 20
21.1842665683
 10
-28.2684926243
 20
21.1969174349
 10
-28.1994067127
 20
21.2116137416
 10
-28.1316953909
 20
21.2283152077
 10
-28.0655442284
 20
21.24697606
 10
-28.001134533
 20
21.267545153
 10
-27.9386428549
 20
21.2899661058
 10
-27.8782404818
 20
21.3141774632
 10
-27.8200929728
 20
21.3401128626
 10
-27.7643597045
 20
21.3677012172
 10
-27.711193437
 20
21.3968669089
  0
LINE
  5
277
100
AcDbEntity
  8
0
100
AcDbLine
 62
7
  6
CONTINUOUS
 10
-29.2033858264
 20
22.4230751262
 11
-29.2174554301
 21
22.5322754128
  0
LINE
  5
278
100
AcDbEntity
  8
0
100
AcDbLine
 62
7
  6
CONTINUOUS
 10
-29.2069305795
 20
22.42518904
 11
-29.2195555235
 21
22.5238138895
  0
LINE
  5
279
100
AcDbEntity
  8
0
100
AcDbLine
 62
7
  6
CONTINUOUS
 10
0.9331694067
 20
30.5763709335
 11
0.9041487072
 21
30.551680408
  0
LINE
  5
27A
100
AcDbEntity
  8
0
100
AcDbLine
 62
7
  6
CONTINUOUS
 10
0.9417217778
 20
30.1224835014
 11
0.9127011497
 21
30.0977929779
  0
LINE
  5
27B
100
AcDbEntity
  8
0
100
AcDbLine
 62
7
  6
CONTINUOUS
 10
0.8425460525
 20
29.3436998052
 11
0.819556444
 21
29.3255748906
  0
LWPOLYLINE
  5
27C
100
AcDbEntity
  8
0
100
AcDbPolyline
 62
7
  6
CONTINUOUS
 90
40
 70
0
 10
0.9041487072
 20
30.551680408
 10
0.8729862222
 20
30.5280334445
 10
0.8398052735
 20
30.5055054538
 10
0.8047371488
 20
30.4841674307
 10
0.7679205837
 20
30.4640856738
 10
0.7295012141
 20
30.4453215236
 10
0.6896310013
 20
30.4279311208
 10
0.6484676326
 20
30.4119651845
 10
0.6061738986
 20
30.397468812
 10
0.562917051
 20
30.3844813009
 10
0.5188681425
 20
30.373035994
 10
0.4742013517
 20
30.3631601479
 10
0.4290932955
 20
30.3548748249
 10
0.3837223326
 20
30.3481948106
 10
0.3382678588
 20
30.343128555
 10
0.2929095999
 20
30.3396781392
 10
0.2478269016
 20
30.3378392677
 10
0.2031980225
 20
30.3376012845
 10
0.1591994298
 20
30.3389472159
 10
0.1160051034
 20
30.3418538373
 10
0.073785849
 20
30.3462917645
 10
0.0327086242
 20
30.3522255701
 10
-0.0070641203
 20
30.3596139232
 10
-0.0453750824
 20
30.3684097523
 10
-0.0820727287
 20
30.3785604314
 10
-0.1170118929
 20
30.3900079875
 10
-0.1500543486
 20
30.4026893293
 10
-0.181069355
 20
30.4165364964
 10
-0.2099341726
 20
30.4314769275
 10
-0.2365345476
 20
30.4474337466
 10
-0.2607651633
 20
30.4643260665
 10
-0.282530055
 20
30.482069308
 10
-0.3017429892
 20
30.5005755338
 10
-0.3183278039
 20
30.5197537953
 10
-0.3322187089
 20
30.5395104919
 10
-0.343360546
 20
30.5597497399
 10
-0.3517090058
 20
30.5803737515
 10
-0.3572308035
 20
30.6012832201
 10
-0.3599038097
 20
30.622377713
 10
-0.3601464554
 20
30.6286288431
  0
LWPOLYLINE
  5
27D
100
AcDbEntity
  8
0
100
AcDbPolyline
 62
7
  6
CONTINUOUS
 90
40
 70
0
 10
0.9127011497
 20
30.0977929779
 10
0.8815387377
 20
30.0741460124
 10
0.848357863
 20
30.0516180157
 10
0.8132898126
 20
30.0302799825
 10
0.7764733215
 20
30.0101982114
 10
0.7380540249
 20
29.9914340428
 10
0.6981838836
 20
29.9740436176
 10
0.657020584
 20
29.9580776547
 10
0.6147269162
 20
29.9435812517
 10
0.5714701314
 20
29.9305937062
 10
0.5274212816
 20
29.9191483613
 10
0.4827545447
 20
29.9092724736
 10
0.4376465373
 20
29.9009871058
 10
0.3922756174
 20
29.8943070436
 10
0.3468211804
 20
29.8892407372
 10
0.3014629517
 20
29.8857902681
 10
0.2563802766
 20
29.8839513409
 10
0.2117514132
 20
29.8837133001
 10
0.1677528286
 20
29.8850591724
 10
0.1245585022
 20
29.8879657333
 10
0.0823392398
 20
29.8924035991
 10
0.0412619987
 20
29.8983373427
 10
0.0014892293
 20
29.9057256336
 10
-0.0368217661
 20
29.9145214007
 10
-0.0735194541
 20
29.9246720184
 10
-0.1084586685
 20
29.936119514
 10
-0.1415011827
 20
29.9488007967
 10
-0.1725162557
 20
29.9626479063
 10
-0.2013811479
 20
29.9775882821
 10
-0.2279816052
 20
29.9935450482
 10
-0.2522123105
 20
30.0104373179
 10
-0.2739772989
 20
30.0281805124
 10
-0.2931903363
 20
30.0466866946
 10
-0.3097752604
 20
30.0658649162
 10
-0.3236662805
 20
30.0856215769
 10
-0.3348082377
 20
30.1058607934
 10
-0.3431568223
 20
30.1264847779
 10
-0.3486787488
 20
30.1473942242
 10
-0.3513518871
 20
30.1684886997
 10
-0.3515945911
 20
30.1747408209
  0
LWPOLYLINE
  5
27E
100
AcDbEntity
  8
0
100
AcDbPolyline
 62
7
  6
CONTINUOUS
 90
37
 70
0
 10
0.7565507036
 20
30.2678498804
 10
0.7306546677
 20
30.2490891431
 10
0.7032302648
 20
30.2312829183
 10
0.6743917946
 20
30.2144870189
 10
0.6442485166
 20
30.1987475854
 10
0.6129367315
 20
30.1841181695
 10
0.5806232248
 20
30.1706554205
 10
0.5474730314
 20
30.1584025197
 10
0.5136020266
 20
30.1473770331
 10
0.4791087407
 20
30.1375905696
 10
0.444135023
 20
30.1290658004
 10
0.4088289911
 20
30.121821186
 10
0.3732986217
 20
30.1158633031
 10
0.3377045811
 20
30.1112049711
 10
0.3021860183
 20
30.1078501252
 10
0.266821352
 20
30.1057963783
 10
0.231667809
 20
30.1050464658
 10
0.1969830697
 20
30.1056050683
 10
0.16313694
 20
30.1074474889
 10
0.1303222014
 20
30.110528922
 10
0.0986163007
 20
30.1148078817
 10
0.0681894351
 20
30.120227614
 10
0.0392504128
 20
30.1267074939
 10
0.0117997218
 20
30.13420375
 10
-0.0142852851
 20
30.1427309813
 10
-0.0389235908
 20
30.1522673501
 10
-0.0619343549
 20
30.1627486165
 10
-0.0832460993
 20
30.1741505446
 10
-0.1027816597
 20
30.1864569751
 10
-0.1203485616
 20
30.1995758211
 10
-0.1357363177
 20
30.2133531498
 10
-0.1488741488
 20
30.2277080084
 10
-0.1596988404
 20
30.2425543796
 10
-0.1681116547
 20
30.2577050981
 10
-0.1741007295
 20
30.2730097193
 10
-0.1777175525
 20
30.2884306146
 10
-0.1789740838
 20
30.3026802615
  0
LWPOLYLINE
  5
27F
100
AcDbEntity
  8
0
100
AcDbPolyline
 62
7
  6
CONTINUOUS
 90
37
 70
0
 10
0.7651025675
 20
29.813961879
 10
0.7392801283
 20
29.795251616
 10
0.7117724573
 20
29.7773889756
 10
0.6826691175
 20
29.7604476871
 10
0.6520197053
 20
29.7444744364
 10
0.619980852
 20
29.7295664663
 10
0.5868342388
 20
29.7158521428
 10
0.552708064
 20
29.7033701052
 10
0.5177641492
 20
29.6921648104
 10
0.4823712746
 20
29.6823248301
 10
0.4467907424
 20
29.6738743559
 10
0.4110866875
 20
29.6667814292
 10
0.3753395757
 20
29.6610258524
 10
0.3397108503
 20
29.6566017705
 10
0.3043420868
 20
29.6534953114
 10
0.2692806401
 20
29.6516854034
 10
0.2346767533
 20
29.6511599848
 10
0.2006734229
 20
29.6519014241
 10
0.167312496
 20
29.6538949807
 10
0.1346609633
 20
29.6571336022
 10
0.1029540958
 20
29.6615909575
 10
0.0724753267
 20
29.6672100854
 10
0.0434088349
 20
29.6739263598
 10
0.0158082319
 20
29.6816965769
 10
-0.0102569721
 20
29.6904781725
 10
-0.0346747371
 20
29.7002139745
 10
-0.057341165
 20
29.7108431726
 10
-0.078192896
 20
29.7223210962
 10
-0.0971710963
 20
29.7346116734
 10
-0.114133571
 20
29.747620558
 10
-0.1289256423
 20
29.7612040039
 10
-0.1414734781
 20
29.7752388157
 10
-0.1517884301
 20
29.789676977
 10
-0.1598703515
 20
29.8044802126
 10
-0.1656862319
 20
29.8195652074
 10
-0.1692137293
 20
29.8348499753
 10
-0.1704222226
 20
29.8487924063
  0
LWPOLYLINE
  5
280
100
AcDbEntity
  8
0
100
AcDbPolyline
 62
7
  6
CONTINUOUS
 90
37
 70
0
 10
0.7479988415
 20
30.7217377812
 10
0.7219746623
 20
30.7028892063
 10
0.6942771056
 20
30.6849242623
 10
0.6650032468
 20
30.6679141953
 10
0.6341916662
 20
30.6518939641
 10
0.6020217189
 20
30.6369674206
 10
0.5688379011
 20
30.6232810944
 10
0.5348118921
 20
30.6108747219
 10
0.5000785444
 20
30.599766946
 10
0.4649628495
 20
30.5900223511
 10
0.429806849
 20
30.5816763854
 10
0.394590963
 20
30.5746667822
 10
0.3590947363
 20
30.5689245148
 10
0.3233718699
 20
30.56445899
 10
0.2876699929
 20
30.5613014132
 10
0.25205957
 20
30.5594574043
 10
0.2165981391
 20
30.5589395752
 10
0.1815601006
 20
30.5597612829
 10
0.147334475
 20
30.5619036226
 10
0.1140764015
 20
30.5653337043
 10
0.0819303739
 20
30.5700134676
 10
0.0512267867
 20
30.5758589815
 10
0.0221603868
 20
30.5827778565
 10
-0.0052641993
 20
30.5907133622
 10
-0.0310277182
 20
30.5996162108
 10
-0.054984308
 20
30.6093923616
 10
-0.0771185483
 20
30.6199909851
 10
-0.0975553333
 20
30.6314573506
 10
-0.1162570998
 20
30.6437962504
 10
-0.1330087025
 20
30.6568958084
 10
-0.1476475868
 20
30.6706353712
 10
-0.1601066489
 20
30.6849498463
 10
-0.1703054569
 20
30.6997477989
 10
-0.1781433902
 20
30.7148486732
 10
-0.1836050851
 20
30.7301185773
 10
-0.1867232794
 20
30.7455105964
 10
-0.1875259481
 20
30.7565682837
  0
LWPOLYLINE
  5
281
100
AcDbEntity
  8
0
100
AcDbPolyline
 62
7
  6
CONTINUOUS
 90
14
 70
0
 10
0.819556444
 20
29.3255748906
 10
0.7953676937
 20
29.3083866901
 10
0.7700984806
 20
29.2921688513
 10
0.7438699251
 20
29.2769504606
 10
0.7168050429
 20
29.2627559887
 10
0.6890281975
 20
29.2496052566
 10
0.6606645544
 20
29.2375134214
 10
0.631839539
 20
29.2264909829
 10
0.6026782997
 20
29.2165438097
 10
0.5733051799
 20
29.2076731846
 10
0.5438432002
 20
29.19987587
 10
0.5144135525
 20
29.1931441909
 10
0.4851351093
 20
29.187466137
 10
0.4561239493
 20
29.1828254813
  0
LINE
  5
282
100
AcDbEntity
  8
0
100
AcDbLine
 62
7
  6
CONTINUOUS
 10
7.7754511047
 20
32.3818905836
 11
6.4239238001
 21
31.6015356566
  0
LINE
  5
283
100
AcDbEntity
  8
0
100
AcDbLine
 62
7
  6
CONTINUOUS
 10
7.7770059884
 20
32.2993655275
 11
6.5108176821
 21
31.5682842685
  0
LINE
  5
284
100
AcDbEntity
  8
DRAFT
100
AcDbLine
 62
7
  6
CONTINUOUS
 10
3.2830997771
 20
28.9689550582
 11
3.707724994
 21
29.2141283366
  0
LINE
  5
285
100
AcDbEntity
  8
0
100
AcDbLine
 62
7
  6
CONTINUOUS
 10
7.8772146731
 20
31.5624097082
 11
9.4289395474
 21
32.458356203
  0
LWPOLYLINE
  5
286
100
AcDbEntity
  8
0
100
AcDbPolyline
 62
7
  6
CONTINUOUS
 90
10
 70
0
 10
10.5251915947
 20
27.9753989061
 10
10.5148645235
 20
27.9710607559
 10
10.5046798956
 20
27.96661509
 10
10.4946413413
 20
27.9620634929
 10
10.4847524386
 20
27.9574075871
 10
10.4750167125
 20
27.952649032
 10
10.4654376332
 20
27.9477895239
 10
10.456018615
 20
27.9428307949
 10
10.4467630152
 20
27.9377746124
 10
10.4376741331
 20
27.9326227788
  0
LWPOLYLINE
  5
287
100
AcDbEntity
  8
TRASH
100
AcDbPolyline
 62
7
  6
CONTINUOUS
 90
16
 70
0
 10
10.9193873142
 20
27.619532978
 10
10.93633606
 20
27.6260906813
 10
10.9535297597
 20
27.6331277628
 10
10.971033618
 20
27.6406467874
 10
10.9888945607
 20
27.6486040148
 10
11.0071792383
 20
27.657039794
 10
11.0259926839
 20
27.6660755441
 10
11.0454029232
 20
27.6756848956
 10
11.0654605796
 20
27.6858698237
 10
11.0862711975
 20
27.696785537
 10
11.1079247721
 20
27.7084257087
 10
11.1304491886
 20
27.720757542
 10
11.1538720659
 20
27.7338959632
 10
11.178233943
 20
27.7478705852
 10
11.2035801805
 20
27.7626225764
 10
11.2299414177
 20
27.7781392315
  0
LWPOLYLINE
  5
288
100
AcDbEntity
  8
0
100
AcDbPolyline
 62
7
  6
CONTINUOUS
 90
3
 70
0
 10
10.6481788277
 20
27.4136427194
 10
10.6286637292
 20
27.4072873762
 10
10.6094735703
 20
27.4007971825
  0
LWPOLYLINE
  5
289
100
AcDbEntity
  8
0
100
AcDbPolyline
 62
250
  6
CONTINUOUS
 90
7
 70
0
 10
10.3037782327
 20
28.0901893962
 10
10.2415964286
 20
28.0702993746
 10
10.1813401388
 20
28.0486523646
 10
10.1230964611
 20
28.025284287
 10
10.0670016276
 20
28.0002484107
 10
10.0132326787
 20
27.973622321
 10
9.9619361278
 20
27.9454787487
  0
LWPOLYLINE
  5
28A
100
AcDbEntity
  8
0
100
AcDbPolyline
 62
7
  6
CONTINUOUS
 90
4
 70
0
 10
10.728671484
 20
27.4386042162
 10
10.7082761443
 20
27.4324613743
 10
10.6880287918
 20
27.4261864842
 10
10.6481788277
 20
27.4136427194
  0
LINE
  5
28B
100
AcDbEntity
  8
0
100
AcDbLine
 62
7
  6
CONTINUOUS
 10
-28.213347308
 20
22.5450943347
 11
-28.2112218035
 21
22.5368173719
  0
LWPOLYLINE
  5
28C
100
AcDbEntity
  8
0
100
AcDbPolyline
 62
7
  6
CONTINUOUS
 90
3
 70
0
 10
0.7755435043
 20
33.6676598803
 10
0.762634094
 20
33.6485227518
 10
0.7561053049
 20
33.6386999135
  0
LWPOLYLINE
  5
28D
100
AcDbEntity
  8
0
100
AcDbPolyline
 62
7
  6
CONTINUOUS
 90
3
 70
0
 10
0.8002705161
 20
33.7034782453
 10
0.781859027
 20
33.6769365712
 10
0.7755435043
 20
33.6676598803
  0
LWPOLYLINE
  5
28E
100
AcDbEntity
  8
0
100
AcDbPolyline
 62
7
  6
CONTINUOUS
 90
3
 70
0
 10
0.8121902135
 20
33.7199396996
 10
0.8062089995
 20
33.7118500293
 10
0.8002705161
 20
33.7034782453
  0
LWPOLYLINE
  5
28F
100
AcDbEntity
  8
0
100
AcDbPolyline
 62
7
  6
CONTINUOUS
 90
6
 70
0
 10
0.8315601781
 20
30.8017454292
 10
0.8315410224
 20
30.8017203025
 10
0.8132356253
 20
30.780699083
 10
0.7931487974
 20
30.7603103392
 10
0.7713751475
 20
30.7406368523
 10
0.7479988415
 20
30.7217377812
  0
LWPOLYLINE
  5
290
100
AcDbEntity
  8
0
100
AcDbPolyline
 62
7
  6
CONTINUOUS
 90
6
 70
0
 10
-0.2402407233
 20
33.2958570934
 10
-0.2249784706
 20
33.3156544206
 10
-0.2173020626
 20
33.3254778567
 10
-0.2095954596
 20
33.3352511393
 10
-0.2018586563
 20
33.3449742668
 10
-0.1940916472
 20
33.3546472377
  0
LWPOLYLINE
  5
291
100
AcDbEntity
  8
0
100
AcDbPolyline
 62
7
  6
CONTINUOUS
 90
16
 70
0
 10
9.9515330928
 20
27.9415728427
 10
9.896986847
 20
27.9082890157
 10
9.8456256022
 20
27.8732672964
 10
9.7975770992
 20
27.8365871412
 10
9.7528872362
 20
27.7982583493
 10
9.711770792
 20
27.7584327607
 10
9.6745407447
 20
27.7174277117
 10
9.6412602476
 20
27.6753711458
 10
9.6119583236
 20
27.6323589831
 10
9.5867788201
 20
27.588704165
 10
9.5657458756
 20
27.5446360661
 10
9.5487813868
 20
27.5002098825
 10
9.5358373284
 20
27.4555097928
 10
9.5268853495
 20
27.4106742049
 10
9.5218918899
 20
27.365886295
 10
9.5208004881
 20
27.3213096177
  0
LWPOLYLINE
  5
292
100
AcDbEntity
  8
0
100
AcDbPolyline
 62
250
  6
CONTINUOUS
 90
61
 70
0
 10
9.9619361278
 20
27.9454787487
 10
9.9132516444
 20
27.9158946114
 10
9.8673090485
 20
27.8849486115
 10
9.8242340193
 20
27.8527249953
 10
9.7841601244
 20
27.8193253071
 10
9.7471788892
 20
27.7848276232
 10
9.7133522489
 20
27.7492820295
 10
9.6827604846
 20
27.7127509213
 10
9.6555301448
 20
27.6753609039
 10
9.6317780006
 20
27.6372623713
 10
9.6115775017
 20
27.5985785721
 10
9.5949715335
 20
27.5593981593
 10
9.5820039764
 20
27.5198249412
 10
9.5727104752
 20
27.4799652993
 10
9.5671179111
 20
27.4399310544
 10
9.565242135
 20
27.39983527
 10
9.5670891829
 20
27.3597746667
 10
9.5726548556
 20
27.3198729363
 10
9.5819113889
 20
27.2802827063
 10
9.5948088588
 20
27.2411436137
 10
9.6113058465
 20
27.2025284986
 10
9.6313754543
 20
27.1644886932
 10
9.6549795485
 20
27.1271082094
 10
9.6820462857
 20
27.0905108132
 10
9.7124959069
 20
27.0548064346
 10
9.7462447236
 20
27.0200930734
 10
9.7832007425
 20
26.9864652334
 10
9.8232534039
 20
26.9540221084
 10
9.8662676323
 20
26.9228676279
 10
9.9121443438
 20
26.8930684564
 10
9.960824239
 20
26.8646674178
 10
10.0122263295
 20
26.8377257374
 10
10.066179417
 20
26.8123464265
 10
10.1224802303
 20
26.7886298473
 10
10.1809537406
 20
26.7666485592
 10
10.2414581844
 20
26.7464547258
 10
10.303822745
 20
26.7281052608
 10
10.3678723327
 20
26.7116511357
 10
10.4334339082
 20
26.6971362734
 10
10.5003327803
 20
26.684599297
 10
10.5683891952
 20
26.6740743159
 10
10.6374123688
 20
26.6655912504
 10
10.7072063976
 20
26.6591741103
 10
10.7775750567
 20
26.6548403901
 10
10.8483291141
 20
26.6526012032
 10
10.9192806997
 20
26.6524624433
 10
10.9902396741
 20
26.6544249376
 10
11.0610061948
 20
26.6584836072
 10
11.1313779519
 20
26.6646267289
 10
11.2011556702
 20
26.6728361559
 10
11.27015389
 20
26.6830893371
 10
11.3381932563
 20
26.6953596556
 10
11.405118917
 20
26.7096213178
 10
11.4707130769
 20
26.7258300059
 10
11.5347118279
 20
26.7439164478
 10
11.5968936338
 20
26.763806367
 10
11.6571499267
 20
26.7854532176
 10
11.7153936061
 20
26.8088211992
 10
11.7714884395
 20
26.8338570831
 10
11.8252573871
 20
26.8604832439
 10
11.8765539355
 20
26.8886269507
  0
LWPOLYLINE
  5
293
100
AcDbEntity
  8
0
100
AcDbPolyline
 62
7
  6
CONTINUOUS
 90
4
 70
0
 10
10.5976488309
 20
27.3978524717
 10
10.5854662977
 20
27.3905822143
 10
10.573316851
 20
27.3832640375
 10
10.549117217
 20
27.3684839253
  0
LWPOLYLINE
  5
294
100
AcDbEntity
  8
0
100
AcDbPolyline
 62
7
  6
CONTINUOUS
 90
10
 70
0
 10
10.4376741331
 20
27.9326227788
 10
10.4287560112
 20
27.9273776114
 10
10.4200109938
 20
27.9220405155
 10
10.4114421975
 20
27.916613393
 10
10.403052676
 20
27.9110981782
 10
10.3948454191
 20
27.9054968364
 10
10.3868233517
 20
27.8998113639
 10
10.3789893326
 20
27.8940437868
 10
10.3713461539
 20
27.8881961606
 10
10.3638965392
 20
27.8822705693
  0
LINE
  5
295
100
AcDbEntity
  8
RACCORDO
100
AcDbLine
 62
250
  6
CONTINUOUS
 10
13.4933596758
 20
28.8172070846
 11
17.3824469723
 21
31.0627173479
  0
LWPOLYLINE
  5
296
100
AcDbEntity
  8
0
100
AcDbPolyline
 62
7
  6
CONTINUOUS
 90
7
 70
0
 10
11.4651836451
 20
27.8963253592
 10
11.4574537845
 20
27.8924428993
 10
11.4496962329
 20
27.888478267
 10
11.4419109848
 20
27.8844314649
 10
11.4340980349
 20
27.8803024954
 10
11.4262573777
 20
27.8760913612
 10
11.4183890079
 20
27.8717980647
  0
LWPOLYLINE
  5
297
100
AcDbEntity
  8
0
100
AcDbPolyline
 62
7
  6
CONTINUOUS
 90
10
 70
0
 10
11.3037884126
 20
27.3634505117
 10
11.314115484
 20
27.367788662
 10
11.3243001121
 20
27.3722343279
 10
11.3343386666
 20
27.3767859251
 10
11.3442275694
 20
27.381441831
 10
11.3539632957
 20
27.3862003861
 10
11.3635423752
 20
27.3910598943
 10
11.3729613935
 20
27.3960186234
 10
11.3822169934
 20
27.4010748059
 10
11.3913058757
 20
27.4062266397
  0
LWPOLYLINE
  5
298
100
AcDbEntity
  8
0
100
AcDbPolyline
 62
7
  6
CONTINUOUS
 90
30
 70
0
 10
11.2431781297
 20
25.0537831792
 10
11.2008844738
 20
25.0392867123
 10
11.1576276923
 20
25.0262991035
 10
11.1135788375
 20
25.0148536962
 10
11.0689120878
 20
25.0049777473
 10
11.0238040597
 20
24.9966923198
 10
10.9784331117
 20
24.9900121999
 10
10.9329786397
 20
24.984945838
 10
10.8876203692
 20
24.9814953161
 10
10.8425376463
 20
24.9796563388
 10
10.7979087294
 20
24.979418251
 10
10.753910086
 20
24.9807640796
 10
10.7107156964
 20
24.9836706003
 10
10.6684963667
 20
24.9881084296
 10
10.6274190548
 20
24.9940421406
 10
10.5876462119
 20
25.0014304029
 10
10.5493351409
 20
25.0102261455
 10
10.5126373757
 20
25.0203767427
 10
10.4776980833
 20
25.0318242221
 10
10.4446554908
 20
25.0445054927
 10
10.41364034
 20
25.0583525944
 10
10.3847753711
 20
25.0732929664
 10
10.3581748388
 20
25.0892497328
 10
10.3339440608
 20
25.1061420066
 10
10.3121790028
 20
25.123885209
 10
10.2929658992
 20
25.1423914026
 10
10.276380913
 20
25.1615696391
 10
10.2624898353
 20
25.1813263178
 10
10.2513478256
 20
25.2015655552
 10
10.2429991939
 20
25.2221895632
  0
LWPOLYLINE
  5
299
100
AcDbEntity
  8
0
100
AcDbPolyline
 62
7
  6
CONTINUOUS
 90
3
 70
0
 10
34.6791340754
 20
-12.5824592166
 10
34.6584967967
 20
-12.5883091253
 10
34.6173526797
 20
-12.6003609785
  0
LWPOLYLINE
  5
29A
100
AcDbEntity
  8
0
100
AcDbPolyline
 62
7
  6
CONTINUOUS
 90
3
 70
0
 10
34.7410968909
 20
-12.5655871809
 10
34.7205301956
 20
-12.571077762
 10
34.6791340754
 20
-12.5824592166
  0
LWPOLYLINE
  5
29B
100
AcDbEntity
  8
0
100
AcDbPolyline
 62
7
  6
CONTINUOUS
 90
3
 70
0
 10
34.8021977035
 20
-12.5499399212
 10
34.7818705689
 20
-12.5550703744
 10
34.7410968909
 20
-12.5655871809
  0
LINE
  5
29C
100
AcDbEntity
  8
0
100
AcDbLine
 62
7
  6
CONTINUOUS
 10
34.498154766
 20
-12.6381680121
 11
34.4863300266
 21
-12.641112723
  0
LINE
  5
29D
100
AcDbEntity
  8
0
100
AcDbLine
 62
7
  6
CONTINUOUS
 10
-29.2194466414
 20
22.8813455216
 11
-29.2173817845
 21
22.8762874141
  0
LINE
  5
29E
100
AcDbEntity
  8
0
100
AcDbLine
 62
7
  6
CONTINUOUS
 10
-29.1043093701
 20
22.9978985933
 11
-29.0362267115
 21
22.8117367967
  0
LWPOLYLINE
  5
29F
100
AcDbEntity
  8
0
100
AcDbPolyline
 62
7
  6
CONTINUOUS
 90
6
 70
0
 10
1.0303964844
 20
30.6919895777
 10
1.0256730279
 20
30.6839229852
 10
1.0062770483
 20
30.6558898936
 10
0.9843348783
 20
30.6285607481
 10
0.9599334515
 20
30.6020254915
 10
0.9331694067
 20
30.5763709335
  0
LINE
  5
2A0
100
AcDbEntity
  8
TRASH
100
AcDbLine
 62
7
  6
CONTINUOUS
 10
0.6259068152
 20
33.6314738292
 11
0.6374569561
 21
33.6508364918
  0
LINE
  5
2A1
100
AcDbEntity
  8
0
100
AcDbLine
 62
7
  6
CONTINUOUS
 10
0.7361413404
 20
33.6083099558
 11
0.7158775281
 21
33.5770074698
  0
LINE
  5
2A2
100
AcDbEntity
  8
0
100
AcDbLine
 62
7
  6
CONTINUOUS
 10
0.7561053049
 20
33.6386999135
 11
0.7361413404
 21
33.6083099558
  0
LWPOLYLINE
  5
2A3
100
AcDbEntity
  8
0
100
AcDbPolyline
 62
7
  6
CONTINUOUS
 90
42
 70
0
 10
1.0097954203
 20
30.7033611797
 10
1.0054996064
 20
30.6971524217
 10
0.9835574365
 20
30.6698232762
 10
0.9591560096
 20
30.6432880196
 10
0.9323919649
 20
30.6176334616
 10
0.9033712654
 20
30.5929429361
 10
0.8722087804
 20
30.5692959726
 10
0.8390278316
 20
30.5467679819
 10
0.8039597069
 20
30.5254299588
 10
0.7671431418
 20
30.5053482018
 10
0.7287237722
 20
30.4865840517
 10
0.6888535594
 20
30.4691936489
 10
0.6476901907
 20
30.4532277126
 10
0.6053964567
 20
30.4387313401
 10
0.5621396092
 20
30.425743829
 10
0.5180907007
 20
30.4142985221
 10
0.4734239099
 20
30.4044226759
 10
0.4283158537
 20
30.396137353
 10
0.3829448907
 20
30.3894573387
 10
0.3374904169
 20
30.3843910831
 10
0.292132158
 20
30.3809406673
 10
0.2470494598
 20
30.3791017957
 10
0.2024205807
 20
30.3788638126
 10
0.158421988
 20
30.380209744
 10
0.1152276615
 20
30.3831163654
 10
0.0730084071
 20
30.3875542926
 10
0.0319311824
 20
30.3934880982
 10
-0.0078415622
 20
30.4008764513
 10
-0.0461525243
 20
30.4096722804
 10
-0.0828501706
 20
30.4198229595
 10
-0.1177893347
 20
30.4312705155
 10
-0.1508317905
 20
30.4439518573
 10
-0.1818467969
 20
30.4577990245
 10
-0.2107116144
 20
30.4727394556
 10
-0.2373119895
 20
30.4886962746
 10
-0.2615426051
 20
30.5055885945
 10
-0.2833074968
 20
30.5233318361
 10
-0.302520431
 20
30.5418380619
 10
-0.3191052457
 20
30.5610163234
 10
-0.3329961508
 20
30.5807730199
 10
-0.3441379878
 20
30.601012268
 10
-0.3524864477
 20
30.6216362795
  0
LINE
  5
2A4
100
AcDbEntity
  8
0
100
AcDbLine
 62
7
  6
CONTINUOUS
 10
0.3999721702
 20
28.7715461172
 11
0.7366852548
 21
29.2315253049
  0
LINE
  5
2A5
100
AcDbEntity
  8
0
100
AcDbLine
 62
7
  6
CONTINUOUS
 10
0.877264057
 20
29.4235681039
 11
0.8926796827
 21
29.4446271817
  0
LWPOLYLINE
  5
2A6
100
AcDbEntity
  8
0
100
AcDbPolyline
 62
7
  6
CONTINUOUS
 90
18
 70
0
 10
0.877264057
 20
29.4235681039
 10
0.8716703187
 20
29.4161022761
 10
0.8541840721
 20
29.3947264479
 10
0.8350676274
 20
29.3740553983
 10
0.8144125209
 20
29.3541451549
 10
0.7923154943
 20
29.335047624
 10
0.7688794392
 20
29.3168116995
 10
0.7442122613
 20
29.2994823185
 10
0.7184256455
 20
29.2830998451
 10
0.6916366267
 20
29.2677012705
 10
0.6639652826
 20
29.2533188116
 10
0.6355330945
 20
29.2399794473
 10
0.6064657982
 20
29.2277065422
 10
0.5768919054
 20
29.2165190131
 10
0.5469400227
 20
29.2064304383
 10
0.5167404806
 20
29.1974499003
 10
0.4864247979
 20
29.1895818038
 10
0.4561239493
 20
29.1828254813
  0
LWPOLYLINE
  5
2A7
100
AcDbEntity
  8
0
100
AcDbPolyline
 62
7
  6
CONTINUOUS
 90
8
 70
0
 10
0.8926796827
 20
29.4446271817
 10
0.8811784549
 20
29.4299718476
 10
0.8669764515
 20
29.4141859766
 10
0.851236669
 20
29.3988581581
 10
0.834009343
 20
29.3840373128
 10
0.8153494567
 20
29.3697707433
 10
0.7953165654
 20
29.3561039832
 10
0.7739746068
 20
29.3430806517
  0
LINE
  5
2A8
100
AcDbEntity
  8
0
100
AcDbLine
 62
7
  6
CONTINUOUS
 10
10.342248609
 20
31.5146321797
 11
9.5970803727
 21
30.9042745148
  0
LINE
  5
2A9
100
AcDbEntity
  8
0
100
AcDbLine
 62
7
  6
CONTINUOUS
 10
9.1668757783
 20
30.5518994954
 11
8.4217075421
 21
29.9415418305
  0
LINE
  5
2AA
100
AcDbEntity
  8
0
100
AcDbLine
 62
7
  6
CONTINUOUS
 10
10.3438034927
 20
31.4321071236
 11
9.5986352564
 21
30.8217494587
  0
LINE
  5
2AB
100
AcDbEntity
  8
0
100
AcDbLine
 62
7
  6
CONTINUOUS
 10
9.168430662
 20
30.4693744393
 11
8.5289127428
 21
29.9455535826
  0
LINE
  5
2AC
100
AcDbEntity
  8
TRASH
100
AcDbLine
 62
7
  6
CONTINUOUS
 10
10.5052928369
 20
27.3638282194
 11
10.5124996268
 21
27.3695863048
  0
LINE
  5
2AD
100
AcDbEntity
  8
TRASH
100
AcDbLine
 62
7
  6
CONTINUOUS
 10
10.5033092728
 20
27.3623107478
 11
10.5052928369
 21
27.3638282194
  0
LINE
  5
2AE
100
AcDbEntity
  8
RACCORDO
100
AcDbLine
 62
250
  6
CONTINUOUS
 10
15.4488421337
 20
27.5352219444
 11
15.4663337217
 21
27.546780865
  0
LWPOLYLINE
  5
2AF
100
AcDbEntity
  8
RACCORDO
100
AcDbPolyline
 62
7
  6
CONTINUOUS
 90
9
 70
0
 10
18.2780523178
 20
30.3552676796
 10
18.2954323872
 20
30.3665217053
 10
18.3107774343
 20
30.3787485795
 10
18.3238929765
 20
30.3918236639
 10
18.3346410607
 20
30.4056625526
 10
18.3428163081
 20
30.420069076
 10
18.3482479501
 20
30.4347217486
 10
18.3509219961
 20
30.4493270591
 10
18.3512478786
 20
30.4576366629
  0
LWPOLYLINE
  5
2B0
100
AcDbEntity
  8
TRASH
100
AcDbPolyline
 62
7
  6
CONTINUOUS
 90
7
 70
0
 10
10.5025601641
 20
27.7206563604
 10
10.5027060522
 20
27.7207486937
 10
10.5215825671
 20
27.7316551431
 10
10.5413349097
 20
27.7420731208
 10
10.5619276393
 20
27.7519804976
 10
10.5833128957
 20
27.7613522741
 10
10.6054459151
 20
27.7701666024
  0
LINE
  5
2B1
100
AcDbEntity
  8
0
100
AcDbLine
 62
7
  6
CONTINUOUS
 10
10.549117217
 20
27.3684839253
 11
10.525049929
 21
27.3535121351
  0
LWPOLYLINE
  5
2B2
100
AcDbEntity
  8
0
100
AcDbPolyline
 62
250
  6
CONTINUOUS
 90
17
 70
0
 10
11.9183075278
 20
26.3743672217
 10
11.9687610738
 20
26.4050303116
 10
12.0163636117
 20
26.4371067565
 10
12.0609846659
 20
26.4705086375
 10
12.1025019333
 20
26.5051444033
 10
12.1408016168
 20
26.5409191195
 10
12.1757787376
 20
26.5777347288
 10
12.2073374221
 20
26.6154903175
 10
12.2353911744
 20
26.654082405
 10
12.2598631084
 20
26.6934052257
 10
12.2806861492
 20
26.7333510094
 10
12.297803212
 20
26.7738102582
 10
12.3111673714
 20
26.8146720592
 10
12.3207419969
 20
26.8558244061
 10
12.3265008485
 20
26.8971545096
 10
12.3284281426
 20
26.9385490894
 10
12.3283489681
 20
26.9470515181
  0
LWPOLYLINE
  5
2B3
100
AcDbEntity
  8
0
100
AcDbPolyline
 62
250
  6
CONTINUOUS
 90
38
 70
0
 10
11.8765539354
 20
26.8886269507
 10
11.9252384223
 20
26.9182109052
 10
11.97118102
 20
26.9491568119
 10
12.0142560492
 20
26.9813804243
 10
12.0543299414
 20
27.0147802565
 10
12.0913111722
 20
27.0492781739
 10
12.1251378097
 20
27.0848239161
 10
12.1557295747
 20
27.1213549902
 10
12.1829599167
 20
27.1587448886
 10
12.2067120625
 20
27.1968433356
 10
12.2269125614
 20
27.2355271363
 10
12.2435185289
 20
27.274707584
 10
12.2564860855
 20
27.3142808266
 10
12.2657795869
 20
27.3541404641
 10
12.2713721512
 20
27.3941746942
 10
12.2732479275
 20
27.4342704662
 10
12.2714008798
 20
27.4743310643
 10
12.2658352071
 20
27.5142327918
 10
12.2565786738
 20
27.5538230195
 10
12.243681204
 20
27.5929621101
 10
12.2271842163
 20
27.6315772237
 10
12.2071146086
 20
27.6696170274
 10
12.1835105144
 20
27.7069975085
 10
12.1564437773
 20
27.7435949017
 10
12.1259941561
 20
27.7792992774
 10
12.0922453395
 20
27.814012636
 10
12.0552893206
 20
27.8476404735
 10
12.0152366593
 20
27.8800835967
 10
11.9722224309
 20
27.9112380763
 10
11.9263457194
 20
27.9410372474
 10
11.8776658242
 20
27.9694382855
 10
11.8262637337
 20
27.9963799646
 10
11.7723106462
 20
28.0217592742
 10
11.716009833
 20
28.0454758524
 10
11.6575363226
 20
28.0674571401
 10
11.5970318788
 20
28.0876509735
 10
11.5346673182
 20
28.1060004386
 10
11.4706177306
 20
28.1224545639
  0
LWPOLYLINE
  5
2B4
100
AcDbEntity
  8
0
100
AcDbPolyline
 62
250
  6
CONTINUOUS
 90
17
 70
0
 10
11.9102621848
 20
26.8013717509
 10
11.9605943207
 20
26.8319571585
 10
12.0080918214
 20
26.8639505357
 10
12.0526247632
 20
26.8972647905
 10
12.094055113
 20
26.9317949646
 10
12.132288211
 20
26.967460332
 10
12.1672598823
 20
27.0042090598
 10
12.1988870357
 20
27.041976599
 10
12.2270389154
 20
27.0806320831
 10
12.2515949016
 20
27.1200200708
 10
12.2724791112
 20
27.1600131688
 10
12.2896471605
 20
27.2005197049
 10
12.3030536432
 20
27.241432338
 10
12.3126616899
 20
27.282641075
 10
12.3184435269
 20
27.3240303185
 10
12.3203827789
 20
27.365483185
 10
12.3203036251
 20
27.3740560464
  0
LWPOLYLINE
  5
2B5
100
AcDbEntity
  8
0
100
AcDbPolyline
 62
7
  6
CONTINUOUS
 90
10
 70
0
 10
11.3913058757
 20
27.4062266397
 10
11.4002239976
 20
27.411471807
 10
11.408969015
 20
27.416808903
 10
11.4175378113
 20
27.4222360254
 10
11.4259273328
 20
27.4277512403
 10
11.4341345897
 20
27.4333525821
 10
11.4421566571
 20
27.4390380546
 10
11.4499906761
 20
27.4448056316
 10
11.4576338549
 20
27.4506532578
 10
11.4650834696
 20
27.4565788492
  0
LINE
  5
2B6
100
AcDbEntity
  8
RACCORDO
100
AcDbLine
 62
250
  6
CONTINUOUS
 10
14.784009678
 20
28.3489531319
 11
18.2775257214
 21
30.3660655113
  0
LINE
  5
2B7
100
AcDbEntity
  8
RACCORDO
100
AcDbLine
 62
7
  6
CONTINUOUS
 10
18.2780264708
 20
30.3552527559
 11
14.793839759
 21
28.3435270156
  0
LINE
  5
2B8
100
AcDbEntity
  8
RACCORDO
100
AcDbLine
 62
250
  6
CONTINUOUS
 10
14.9011153255
 20
28.0401386359
 11
11.0213657592
 21
25.800019861
  0
LINE
  5
2B9
100
AcDbEntity
  8
RACCORDO
100
AcDbLine
 62
250
  6
CONTINUOUS
 10
15.0816417276
 20
27.7398859552
 11
11.1988603646
 21
25.4980166588
  0
LINE
  5
2BA
100
AcDbEntity
  8
RACCORDO
100
AcDbLine
 62
7
  6
CONTINUOUS
 10
11.206701119
 20
25.0747610073
 11
15.4493687301
 21
27.5244241128
  0
LWPOLYLINE
  5
2BB
100
AcDbEntity
  8
0
100
AcDbPolyline
 62
7
  6
CONTINUOUS
 90
43
 70
0
 10
11.8976163632
 20
26.3267882965
 10
11.8395179453
 20
26.2950630961
 10
11.7786852345
 20
26.2653712902
 10
11.7153107782
 20
26.2377767969
 10
11.6495744936
 20
26.2123330321
 10
11.5816882896
 20
26.1891009594
 10
11.5119090143
 20
26.1681466345
 10
11.4404756147
 20
26.1495183906
 10
11.3675836425
 20
26.1332464525
 10
11.2934432331
 20
26.1193612335
 10
11.2182878039
 20
26.1078920613
 10
11.1423335486
 20
26.0988593498
 10
11.0657712393
 20
26.0922771342
 10
10.9888254821
 20
26.0881594811
 10
10.9117271671
 20
26.0865149129
 10
10.8346781379
 20
26.0873464061
 10
10.7579066007
 20
26.0906527825
 10
10.6816393793
 20
26.0964269381
 10
10.606074177
 20
26.1046594107
 10
10.5314324583
 20
26.1153346852
 10
10.457939744
 20
26.1284307996
 10
10.3857934612
 20
26.1439257589
 10
10.3151956299
 20
26.1617935839
 10
10.2463760143
 20
26.1819959585
 10
10.1795592486
 20
26.204487608
 10
10.1149315005
 20
26.229229819
 10
10.0527084424
 20
26.2561676316
 10
9.993130536
 20
26.285223483
 10
9.9363324937
 20
26.3163628426
 10
9.8825363931
 20
26.3495007672
 10
9.8320554165
 20
26.3844659063
 10
9.7849825572
 20
26.4212085223
 10
9.7414876705
 20
26.4596171414
 10
9.7018940745
 20
26.4993901123
 10
9.6662906979
 20
26.5403765173
 10
9.6346893963
 20
26.5825003143
 10
9.6072026583
 20
26.6255317401
 10
9.5838639028
 20
26.6692935447
 10
9.5646517825
 20
26.7136826446
 10
9.5495640696
 20
26.7585470034
 10
9.5385889058
 20
26.8037193153
 10
9.531697822
 20
26.8490297231
 10
9.528845831
 20
26.8943050919
  0
LWPOLYLINE
  5
2BC
100
AcDbEntity
  8
0
100
AcDbPolyline
 62
7
  6
CONTINUOUS
 90
31
 70
0
 10
11.3780116954
 20
23.4897476163
 10
11.3517433654
 20
23.4755207991
 10
11.3239225562
 20
23.4622739487
 10
11.2946684008
 20
23.4500637899
 10
11.26410617
 20
23.4389426086
 10
11.2323667359
 20
23.4289580274
 10
11.1995860116
 20
23.4201528019
 10
11.1659043694
 20
23.4125646372
 10
11.131466039
 20
23.4062260272
 10
11.0964184908
 20
23.4011641148
 10
11.0609118038
 20
23.3974005757
 10
11.0250980229
 20
23.3949515261
 10
10.9891305084
 20
23.3938274532
 10
10.9531632786
 20
23.3940331704
 10
10.9173503507
 20
23.3955677968
 10
10.8818450812
 20
23.3984247609
 10
10.8467995091
 20
23.4025918287
 10
10.812363705
 20
23.4080511563
 10
10.7786851282
 20
23.4147793659
 10
10.7459079955
 20
23.4227476463
 10
10.7141726637
 20
23.4319218762
 10
10.6836150284
 20
23.44226277
 10
10.654365942
 20
23.4537260464
 10
10.6265506536
 20
23.466262618
 10
10.6002882725
 20
23.4798188013
 10
10.5756912583
 20
23.4943365465
 10
10.5528649392
 20
23.5097536864
 10
10.531907061
 20
23.5260042026
 10
10.5129073685
 20
23.5430185077
 10
10.4959472213
 20
23.560723744
 10
10.4862969262
 20
23.5722564696
  0
LWPOLYLINE
  5
2BD
100
AcDbEntity
  8
0
100
AcDbPolyline
 62
7
  6
CONTINUOUS
 90
16
 70
0
 10
34.8022959051
 20
-12.0910169068
 10
34.8226610079
 20
-12.0879016069
 10
34.843058707
 20
-12.0849898596
 10
34.8635266113
 20
-12.0822637183
 10
34.8841481819
 20
-12.0796856265
 10
34.9049105251
 20
-12.0772695478
 10
34.9256716833
 20
-12.0750648996
 10
34.9463810022
 20
-12.0730385041
 10
34.9670741781
 20
-12.0711740679
 10
34.9876860342
 20
-12.0695271758
 10
35.0081694994
 20
-12.0680615693
 10
35.0285103789
 20
-12.0667506018
 10
35.0486575259
 20
-12.0656549708
 10
35.0685593484
 20
-12.0647690008
 10
35.0881801446
 20
-12.0640235375
 10
35.1074804625
 20
-12.0633800028
  0
LWPOLYLINE
  5
2BE
100
AcDbEntity
  8
0
100
AcDbPolyline
 62
250
  6
CONTINUOUS
 90
6
 70
0
 10
34.5260155885
 20
-11.8776956402
 10
34.4570173692
 20
-11.8879488434
 10
34.3889780029
 20
-11.9002191623
 10
34.3220523411
 20
-11.9144807678
 10
34.2564581798
 20
-11.9306893777
 10
34.1924594284
 20
-11.9487757984
  0
LWPOLYLINE
  5
2BF
100
AcDbEntity
  8
0
100
AcDbPolyline
 62
7
  6
CONTINUOUS
 90
7
 70
0
 10
35.1926112755
 20
-12.0536279113
 10
35.1804073248
 20
-12.0551004695
 10
35.1682019261
 20
-12.0566524202
 10
35.1559950792
 20
-12.0582837633
 10
35.1437867841
 20
-12.0599944988
 10
35.1315770409
 20
-12.0617846268
 10
35.1193658495
 20
-12.0636541473
  0
LINE
  5
2C0
100
AcDbEntity
  8
0
100
AcDbLine
 62
250
  6
CONTINUOUS
 10
34.5957933065
 20
-11.8694861975
 11
34.5916986458
 21
-11.8698553636
  0
LINE
  5
2C1
100
AcDbEntity
  8
RACCORDO
100
AcDbLine
 62
7
  6
CONTINUOUS
 10
-41.5158818893
 20
3.0523371854
 11
30.238129328
 21
-36.5552312124
  0
LINE
  5
2C2
100
AcDbEntity
  8
0
100
AcDbLine
 62
7
  6
CONTINUOUS
 10
-28.2953141132
 20
22.7198837518
 11
-28.2897044122
 21
22.7092076672
  0
LINE
  5
2C3
100
AcDbEntity
  8
0
100
AcDbLine
 62
7
  6
CONTINUOUS
 10
-28.2897044122
 20
22.7092076672
 11
-28.2841446186
 21
22.6984480734
  0
LINE
  5
2C4
100
AcDbEntity
  8
0
100
AcDbLine
 62
7
  6
CONTINUOUS
 10
-28.2841446186
 20
22.6984480734
 11
-28.2786385192
 21
22.6875983295
  0
LINE
  5
2C5
100
AcDbEntity
  8
0
100
AcDbLine
 62
7
  6
CONTINUOUS
 10
-28.2786385192
 20
22.6875983295
 11
-28.2730751129
 21
22.6764607618
  0
LINE
  5
2C6
100
AcDbEntity
  8
0
100
AcDbLine
 62
7
  6
CONTINUOUS
 10
-28.2730751129
 20
22.6764607618
 11
-28.2673976738
 21
22.6649037223
  0
LINE
  5
2C7
100
AcDbEntity
  8
0
100
AcDbLine
 62
7
  6
CONTINUOUS
 10
-28.2673976738
 20
22.6649037223
 11
-28.261522169
 21
22.6527184047
  0
LINE
  5
2C8
100
AcDbEntity
  8
0
100
AcDbLine
 62
7
  6
CONTINUOUS
 10
-28.261522169
 20
22.6527184047
 11
-28.2553437419
 21
22.6397168089
  0
LWPOLYLINE
  5
2C9
100
AcDbEntity
  8
0
100
AcDbPolyline
 62
7
  6
CONTINUOUS
 90
3
 70
0
 10
-28.2553437419
 20
22.6397168089
 10
-28.2488338047
 20
22.6257436215
 10
-28.2454188187
 20
22.6183213419
  0
LWPOLYLINE
  5
2CA
100
AcDbEntity
  8
0
100
AcDbPolyline
 62
7
  6
CONTINUOUS
 90
3
 70
0
 10
-28.2454188187
 20
22.6183213419
 10
-28.2382585623
 20
22.6025065274
 10
-28.2344751069
 20
22.5940422126
  0
LWPOLYLINE
  5
2CB
100
AcDbEntity
  8
0
100
AcDbPolyline
 62
7
  6
CONTINUOUS
 90
4
 70
0
 10
-28.2344751069
 20
22.5940422126
 10
-28.2222376472
 20
22.5661129626
 10
-28.2178414366
 20
22.5558539721
 10
-28.213347308
 20
22.5450943347
  0
LINE
  5
2CC
100
AcDbEntity
  8
0
100
AcDbLine
 62
7
  6
CONTINUOUS
 10
0.8143519193
 20
33.7251311001
 11
0.8121902135
 21
33.7199396996
  0
LINE
  5
2CD
100
AcDbEntity
  8
0
100
AcDbLine
 62
7
  6
CONTINUOUS
 10
-0.1919915538
 20
33.3631087609
 11
-0.1744236975
 21
33.4051331365
  0
LINE
  5
2CE
100
AcDbEntity
  8
0
100
AcDbLine
 62
7
  6
CONTINUOUS
 10
-0.1744236975
 20
33.4051331365
 11
-0.168381936
 21
33.4191718172
  0
LWPOLYLINE
  5
2CF
100
AcDbEntity
  8
0
100
AcDbPolyline
 62
7
  6
CONTINUOUS
 90
11
 70
0
 10
-0.168381936
 20
33.4191718172
 10
-0.1559429239
 20
33.4471314848
 10
-0.1496413705
 20
33.4610024776
 10
-0.1431939175
 20
33.4747820102
 10
-0.1367369136
 20
33.4884148341
 10
-0.1302273456
 20
33.501930036
 10
-0.1235936872
 20
33.5153070718
 10
-0.1169546446
 20
33.5284482279
 10
-0.1103341146
 20
33.5413463476
 10
-0.1036373127
 20
33.554064896
 10
-0.0968204878
 20
33.5666321496
  0
LINE
  5
2D0
100
AcDbEntity
  8
0
100
AcDbLine
 62
7
  6
CONTINUOUS
 10
11.5286563638
 20
25.176926982
 11
11.4996358151
 21
25.1522364041
  0
LINE
  5
2D1
100
AcDbEntity
  8
0
100
AcDbLine
 62
7
  6
CONTINUOUS
 10
11.5372064953
 20
24.7230378981
 11
11.5081857958
 21
24.6983473727
  0
LINE
  5
2D2
100
AcDbEntity
  8
0
100
AcDbLine
 62
7
  6
CONTINUOUS
 10
11.5457588664
 20
24.269150466
 11
11.5167382383
 21
24.2444599425
  0
LWPOLYLINE
  5
2D3
100
AcDbEntity
  8
TRASH
100
AcDbPolyline
 62
7
  6
CONTINUOUS
 90
7
 70
0
 10
10.5124996268
 20
27.3695863048
 10
10.5194902001
 20
27.375454598
 10
10.5262284398
 20
27.3814741746
 10
10.5328284635
 20
27.3876447377
 10
10.539326835
 20
27.3939840345
 10
10.5456777444
 20
27.4005382073
 10
10.5518840022
 20
27.4073440176
  0
LWPOLYLINE
  5
2D4
100
AcDbEntity
  8
RACCORDO
100
AcDbPolyline
 62
250
  6
CONTINUOUS
 90
3
 70
0
 10
15.4663337217
 20
27.546780865
 10
15.4816992918
 20
27.559242025
 10
15.4947705494
 20
27.5724689593
  0
LINE
  5
2D5
100
AcDbEntity
  8
0
100
AcDbLine
 62
7
  6
CONTINUOUS
 10
11.446583141
 20
23.4903667698
 11
11.4235935326
 21
23.4722418553
  0
LWPOLYLINE
  5
2D6
100
AcDbEntity
  8
0
100
AcDbPolyline
 62
7
  6
CONTINUOUS
 90
40
 70
0
 10
11.4996358151
 20
25.1522364041
 10
11.4684734744
 20
25.1285893818
 10
11.4352926628
 20
25.106061326
 10
11.4002246671
 20
25.0847232321
 10
11.3634082223
 20
25.0646413987
 10
11.3249889633
 20
25.045877167
 10
11.2851188508
 20
25.028486678
 10
11.2439555716
 20
25.0125206512
 10
11.2016619156
 20
24.9980241843
 10
11.1584051341
 20
24.9850365755
 10
11.1143562794
 20
24.9735911681
 10
11.0696895296
 20
24.9637152192
 10
11.0245815016
 20
24.9554297918
 10
10.9792105536
 20
24.9487496718
 10
10.9337560815
 20
24.94368331
 10
10.8883978111
 20
24.940232788
 10
10.8433150881
 20
24.9383938107
 10
10.7986861712
 20
24.9381557229
 10
10.7546875279
 20
24.9395015515
 10
10.7114931383
 20
24.9424080722
 10
10.6692738085
 20
24.9468459015
 10
10.6281964967
 20
24.9527796125
 10
10.5884236538
 20
24.9601678748
 10
10.5501125827
 20
24.9689636174
 10
10.5134148175
 20
24.9791142146
 10
10.4784755251
 20
24.990561694
 10
10.4454329326
 20
25.0032429646
 10
10.4144177818
 20
25.0170900664
 10
10.3855528129
 20
25.0320304383
 10
10.3589522806
 20
25.0479872047
 10
10.3347215027
 20
25.0648794786
 10
10.3129564447
 20
25.0826226809
 10
10.293743341
 20
25.1011288746
 10
10.2771583548
 20
25.1203071111
 10
10.2632672771
 20
25.1400637898
 10
10.2521252674
 20
25.1603030271
 10
10.2437766358
 20
25.1809270351
 10
10.2382546681
 20
25.2018365073
 10
10.2355814949
 20
25.2229310106
 10
10.2353387777
 20
25.2291833568
  0
LWPOLYLINE
  5
2D7
100
AcDbEntity
  8
0
100
AcDbPolyline
 62
7
  6
CONTINUOUS
 90
40
 70
0
 10
11.5081857958
 20
24.6983473727
 10
11.4770233108
 20
24.6747004091
 10
11.4438423621
 20
24.6521724184
 10
11.4087742374
 20
24.6308343953
 10
11.3719576723
 20
24.6107526384
 10
11.3335383026
 20
24.5919884882
 10
11.2936680899
 20
24.5745980855
 10
11.2525047211
 20
24.5586321492
 10
11.2102109871
 20
24.5441357766
 10
11.1669541396
 20
24.5311482655
 10
11.1229052311
 20
24.5197029587
 10
11.0782384403
 20
24.5098271125
 10
11.0331303841
 20
24.5015417895
 10
10.9877594211
 20
24.4948617752
 10
10.9423049474
 20
24.4897955196
 10
10.8969466884
 20
24.4863451039
 10
10.8518639902
 20
24.4845062323
 10
10.8072351111
 20
24.4842682491
 10
10.7632365184
 20
24.4856141806
 10
10.7200421919
 20
24.4885208019
 10
10.6778229375
 20
24.4929587291
 10
10.6367457128
 20
24.4988925348
 10
10.5969729682
 20
24.5062808878
 10
10.5586620061
 20
24.515076717
 10
10.5219643599
 20
24.5252273961
 10
10.4870251957
 20
24.5366749521
 10
10.4539827399
 20
24.5493562939
 10
10.4229677335
 20
24.563203461
 10
10.394102916
 20
24.5781438921
 10
10.3675025409
 20
24.5941007112
 10
10.3432719253
 20
24.6109930311
 10
10.3215070336
 20
24.6287362726
 10
10.3022940994
 20
24.6472424984
 10
10.2857092847
 20
24.6664207599
 10
10.2718183796
 20
24.6861774565
 10
10.2606765426
 20
24.7064167045
 10
10.2523280828
 20
24.7270407161
 10
10.246806285
 20
24.7479501848
 10
10.2441332788
 20
24.7690446776
 10
10.2438906331
 20
24.7752958077
  0
LWPOLYLINE
  5
2D8
100
AcDbEntity
  8
0
100
AcDbPolyline
 62
7
  6
CONTINUOUS
 90
40
 70
0
 10
11.5167382383
 20
24.2444599425
 10
11.4855758263
 20
24.2208129771
 10
11.4523949515
 20
24.1982849804
 10
11.4173269012
 20
24.1769469472
 10
11.3805104101
 20
24.156865176
 10
11.3420911135
 20
24.1381010075
 10
11.3022209721
 20
24.1207105822
 10
11.2610576725
 20
24.1047446194
 10
11.2187640048
 20
24.0902482163
 10
11.17550722
 20
24.0772606709
 10
11.1314583702
 20
24.065815326
 10
11.0867916333
 20
24.0559394383
 10
11.0416836259
 20
24.0476540705
 10
10.9963127059
 20
24.0409740082
 10
10.950858269
 20
24.0359077018
 10
10.9055000402
 20
24.0324572327
 10
10.8604173652
 20
24.0306183055
 10
10.8157885018
 20
24.0303802648
 10
10.7717899171
 20
24.031726137
 10
10.7285955908
 20
24.0346326979
 10
10.6863763284
 20
24.0390705637
 10
10.6452990872
 20
24.0450043073
 10
10.6055263179
 20
24.0523925982
 10
10.5672153225
 20
24.0611883654
 10
10.5305176345
 20
24.0713389831
 10
10.4955784201
 20
24.0827864786
 10
10.4625359059
 20
24.0954677613
 10
10.4315208328
 20
24.109314871
 10
10.4026559407
 20
24.1242552467
 10
10.3760554833
 20
24.1402120128
 10
10.351824778
 20
24.1571042826
 10
10.3300597897
 20
24.1748474771
 10
10.3108467523
 20
24.1933536592
 10
10.2942618282
 20
24.2125318809
 10
10.280370808
 20
24.2322885416
 10
10.2692288508
 20
24.252527758
 10
10.2608802662
 20
24.2731517425
 10
10.2553583398
 20
24.2940611889
 10
10.2526852015
 20
24.3151556643
 10
10.2524424975
 20
24.3214077855
  0
LWPOLYLINE
  5
2D9
100
AcDbEntity
  8
0
100
AcDbPolyline
 62
7
  6
CONTINUOUS
 90
37
 70
0
 10
11.3605877921
 20
24.4145168451
 10
11.3346917563
 20
24.3957561078
 10
11.3072673534
 20
24.3779498829
 10
11.2784288832
 20
24.3611539835
 10
11.2482856051
 20
24.34541455
 10
11.21697382
 20
24.3307851342
 10
11.1846603134
 20
24.3173223851
 10
11.1515101199
 20
24.3050694843
 10
11.1176391151
 20
24.2940439977
 10
11.0831458292
 20
24.2842575343
 10
11.0481721116
 20
24.275732765
 10
11.0128660797
 20
24.2684881506
 10
10.9773357103
 20
24.2625302678
 10
10.9417416696
 20
24.2578719358
 10
10.9062231068
 20
24.2545170898
 10
10.8708584406
 20
24.2524633429
 10
10.8357048976
 20
24.2517134304
 10
10.8010201582
 20
24.2522720329
 10
10.7671740285
 20
24.2541144536
 10
10.7343592899
 20
24.2571958866
 10
10.7026533893
 20
24.2614748463
 10
10.6722265237
 20
24.2668945787
 10
10.6432875013
 20
24.2733744585
 10
10.6158368104
 20
24.2808707147
 10
10.5897518035
 20
24.2893979459
 10
10.5651134977
 20
24.2989343147
 10
10.5421027337
 20
24.3094155812
 10
10.5207909893
 20
24.3208175092
 10
10.5012554288
 20
24.3331239397
 10
10.483688527
 20
24.3462427857
 10
10.4683007709
 20
24.3600201144
 10
10.4551629398
 20
24.3743749731
 10
10.4443382481
 20
24.3892213442
 10
10.4359254339
 20
24.4043720627
 10
10.4299363591
 20
24.4196766839
 10
10.4263195361
 20
24.4350975793
 10
10.4250630048
 20
24.4493472262
  0
LWPOLYLINE
  5
2DA
100
AcDbEntity
  8
0
100
AcDbPolyline
 62
7
  6
CONTINUOUS
 90
37
 70
0
 10
11.3691396561
 20
23.9606288437
 10
11.3433172169
 20
23.9419185806
 10
11.3158095459
 20
23.9240559402
 10
11.2867062061
 20
23.9071146517
 10
11.2560567938
 20
23.891141401
 10
11.2240179406
 20
23.876233431
 10
11.1908713274
 20
23.8625191074
 10
11.1567451526
 20
23.8500370699
 10
11.1218012377
 20
23.838831775
 10
11.0864083631
 20
23.8289917947
 10
11.050827831
 20
23.8205413206
 10
11.015123776
 20
23.8134483938
 10
10.9793766643
 20
23.807692817
 10
10.9437479388
 20
23.8032687352
 10
10.9083791754
 20
23.8001622761
 10
10.8733177287
 20
23.7983523681
 10
10.8387138419
 20
23.7978269494
 10
10.8047105115
 20
23.7985683888
 10
10.7713495846
 20
23.8005619454
 10
10.7386980519
 20
23.8038005668
 10
10.7069911844
 20
23.8082579221
 10
10.6765124152
 20
23.81387705
 10
10.6474459235
 20
23.8205933244
 10
10.6198453205
 20
23.8283635416
 10
10.5937801165
 20
23.8371451371
 10
10.5693623515
 20
23.8468809392
 10
10.5466959235
 20
23.8575101372
 10
10.5258441926
 20
23.8689880609
 10
10.5068659922
 20
23.881278638
 10
10.4899035175
 20
23.8942875226
 10
10.4751114463
 20
23.9078709685
 10
10.4625636105
 20
23.9219057803
 10
10.4522486585
 20
23.9363439416
 10
10.4441667371
 20
23.9511471772
 10
10.4383508566
 20
23.966232172
 10
10.4348233592
 20
23.98151694
 10
10.433614866
 20
23.995459371
  0
LWPOLYLINE
  5
2DB
100
AcDbEntity
  8
0
100
AcDbPolyline
 62
7
  6
CONTINUOUS
 90
37
 70
0
 10
11.3520359301
 20
24.8684047458
 10
11.3260117509
 20
24.8495561709
 10
11.2983141942
 20
24.8315912269
 10
11.2690403354
 20
24.81458116
 10
11.2382287548
 20
24.7985609287
 10
11.2060588075
 20
24.7836343852
 10
11.1728749897
 20
24.769948059
 10
11.1388489806
 20
24.7575416865
 10
11.104115633
 20
24.7464339106
 10
11.068999938
 20
24.7366893158
 10
11.0338439375
 20
24.7283433501
 10
10.9986280516
 20
24.7213337468
 10
10.9631318248
 20
24.7155914795
 10
10.9274089585
 20
24.7111259547
 10
10.8917070815
 20
24.7079683778
 10
10.8560966586
 20
24.7061243689
 10
10.8206352277
 20
24.7056065399
 10
10.7855971891
 20
24.7064282475
 10
10.7513715636
 20
24.7085705872
 10
10.7181134901
 20
24.7120006689
 10
10.6859674625
 20
24.7166804322
 10
10.6552638753
 20
24.7225259461
 10
10.6261974754
 20
24.7294448212
 10
10.5987728892
 20
24.7373803268
 10
10.5730093703
 20
24.7462831754
 10
10.5490527806
 20
24.7560593262
 10
10.5269185402
 20
24.7666579497
 10
10.5064817553
 20
24.7781243152
 10
10.4877799888
 20
24.790463215
 10
10.4710283861
 20
24.8035627731
 10
10.4563895017
 20
24.8173023359
 10
10.4439304397
 20
24.8316168109
 10
10.4337316317
 20
24.8464147635
 10
10.4258936984
 20
24.8615156378
 10
10.4204320034
 20
24.8767855419
 10
10.4173138092
 20
24.892177561
 10
10.4165111404
 20
24.9032352483
  0
LWPOLYLINE
  5
2DC
100
AcDbEntity
  8
0
100
AcDbPolyline
 62
7
  6
CONTINUOUS
 90
14
 70
0
 10
11.4235935326
 20
23.4722418553
 10
11.3994047822
 20
23.4550536548
 10
11.3741355691
 20
23.4388358159
 10
11.3479070137
 20
23.4236174252
 10
11.3208421314
 20
23.4094229533
 10
11.293065286
 20
23.3962722212
 10
11.264701643
 20
23.384180386
 10
11.2358766275
 20
23.3731579476
 10
11.2067153882
 20
23.3632107743
 10
11.1773422685
 20
23.3543401492
 10
11.1478802887
 20
23.3465428346
 10
11.118450641
 20
23.3398111556
 10
11.0891721979
 20
23.3341331016
 10
11.0601610379
 20
23.3294924459
  0
LINE
  5
2DD
100
AcDbEntity
  8
DRAFT
100
AcDbLine
 62
7
  6
CONTINUOUS
 10
14.8744220033
 20
24.0249872703
 11
14.9172335712
 21
24.049706133
  0
LINE
  5
2DE
100
AcDbEntity
  8
RACCORDO
100
AcDbLine
 62
250
  6
CONTINUOUS
 10
14.409591142
 20
23.23275154
 11
14.8811086288
 21
23.5049998274
  0
LINE
  5
2DF
100
AcDbEntity
  8
RACCORDO
100
AcDbLine
 62
7
  6
CONTINUOUS
 10
14.3069976322
 20
22.9968083707
 11
14.7767405242
 21
23.2680320293
  0
LINE
  5
2E0
100
AcDbEntity
  8
0
100
AcDbLine
 62
250
  6
CONTINUOUS
 10
34.6680043585
 20
-11.8631672728
 11
34.6661650637
 21
-11.8633430788
  0
LINE
  5
2E1
100
AcDbEntity
  8
0
100
AcDbLine
 62
7
  6
CONTINUOUS
 10
34.4862665803
 20
-12.0717437167
 11
34.498276225
 21
-12.0711574164
  0
LWPOLYLINE
  5
2E2
100
AcDbEntity
  8
0
100
AcDbPolyline
 62
7
  6
CONTINUOUS
 90
7
 70
0
 10
34.498276225
 20
-12.0711574164
 10
34.5208909439
 20
-12.0712936779
 10
34.5322211466
 20
-12.0714343825
 10
34.5435615985
 20
-12.0716325808
 10
34.5549057024
 20
-12.0718885263
 10
34.5662446596
 20
-12.0721946735
 10
34.5775582099
 20
-12.0725542045
  0
LINE
  5
2E3
100
AcDbEntity
  8
0
100
AcDbLine
 62
7
  6
CONTINUOUS
 10
35.1193658495
 20
-12.0636541473
 11
35.1074804625
 21
-12.0633800028
  0
LWPOLYLINE
  5
2E4
100
AcDbEntity
  8
0
100
AcDbPolyline
 62
7
  6
CONTINUOUS
 90
3
 70
0
 10
34.5775582099
 20
-12.0725542045
 10
34.6001887021
 20
-12.0734359747
 10
34.6115030604
 20
-12.0739584884
  0
LINE
  5
2E5
100
AcDbEntity
  8
0
100
AcDbLine
 62
7
  6
CONTINUOUS
 10
-29.2004545476
 20
22.8525632372
 11
-29.2044633654
 21
22.8582311609
  0
LINE
  5
2E6
100
AcDbEntity
  8
0
100
AcDbLine
 62
7
  6
CONTINUOUS
 10
-29.189298141
 20
22.8365261066
 11
-29.2004545476
 21
22.8525632372
  0
LINE
  5
2E7
100
AcDbEntity
  8
0
100
AcDbLine
 62
7
  6
CONTINUOUS
 10
-29.1699498849
 20
22.80809583
 11
-29.1760534068
 21
22.8171218561
  0
LWPOLYLINE
  5
2E8
100
AcDbEntity
  8
0
100
AcDbPolyline
 62
7
  6
CONTINUOUS
 90
3
 70
0
 10
-29.1760534068
 20
22.8171218561
 10
-29.1792061452
 20
22.8217860854
 10
-29.189298141
 20
22.8365261066
  0
LINE
  5
2E9
100
AcDbEntity
  8
0
100
AcDbLine
 62
7
  6
CONTINUOUS
 10
-29.1557603822
 20
22.7868300013
 11
-29.1699498849
 21
22.80809583
  0
LINE
  5
2EA
100
AcDbEntity
  8
0
100
AcDbLine
 62
7
  6
CONTINUOUS
 10
-29.1420394694
 20
22.766033756
 11
-29.1557603822
 21
22.7868300013
  0
LINE
  5
2EB
100
AcDbEntity
  8
0
100
AcDbLine
 62
7
  6
CONTINUOUS
 10
-29.1364707622
 20
22.7575334087
 11
-29.1420394694
 21
22.766033756
  0
LWPOLYLINE
  5
2EC
100
AcDbEntity
  8
0
100
AcDbPolyline
 62
7
  6
CONTINUOUS
 90
3
 70
0
 10
-29.122284364
 20
22.7357988014
 10
-29.1280015135
 20
22.7445680806
 10
-29.1364707622
 20
22.7575334087
  0
LINE
  5
2ED
100
AcDbEntity
  8
TRASH
100
AcDbLine
 62
7
  6
CONTINUOUS
 10
-29.0362387218
 20
22.811727482
 11
-29.0240575957
 21
22.7926677849
  0
LINE
  5
2EE
100
AcDbEntity
  8
0
100
AcDbLine
 62
7
  6
CONTINUOUS
 10
-28.3095863482
 20
22.7461741217
 11
-28.3067021811
 21
22.7409657596
  0
LINE
  5
2EF
100
AcDbEntity
  8
0
100
AcDbLine
 62
7
  6
CONTINUOUS
 10
-28.3067021811
 20
22.7409657596
 11
-28.3009890525
 21
22.7304813389
  0
LINE
  5
2F0
100
AcDbEntity
  8
0
100
AcDbLine
 62
7
  6
CONTINUOUS
 10
-28.3009890525
 20
22.7304813389
 11
-28.2953141132
 21
22.7198837518
  0
LINE
  5
2F1
100
AcDbEntity
  8
0
100
AcDbLine
 62
7
  6
CONTINUOUS
 10
-0.1919915538
 20
33.3631087609
 11
-0.1940916472
 21
33.3546472377
  0
LINE
  5
2F2
100
AcDbEntity
  8
0
100
AcDbLine
 62
7
  6
CONTINUOUS
 10
0.637399596
 20
33.6508767174
 11
0.6998929912
 21
33.8386703187
  0
LWPOLYLINE
  5
2F3
100
AcDbEntity
  8
RACCORDO
100
AcDbPolyline
 62
7
  6
CONTINUOUS
 90
7
 70
0
 10
3.776466003
 20
34.4249537406
 10
3.7761924458
 20
34.4243197219
 10
3.7757135843
 20
34.4202747494
 10
3.7752421937
 20
34.412312929
 10
3.7747653445
 20
34.400238773
 10
3.7744163224
 20
34.3838730914
 10
3.77367498
 20
34.3372417437
  0
LWPOLYLINE
  5
2F4
100
AcDbEntity
  8
0
100
AcDbPolyline
 62
7
  6
CONTINUOUS
 90
3
 70
0
 10
11.4162273021
 20
27.8666066642
 10
11.4102460881
 20
27.858516994
 10
11.4043076047
 20
27.8501452099
  0
LWPOLYLINE
  5
2F5
100
AcDbEntity
  8
0
100
AcDbPolyline
 62
7
  6
CONTINUOUS
 90
6
 70
0
 10
10.3637963652
 20
27.442524058
 10
10.3790586179
 20
27.4623213852
 10
10.386735026
 20
27.4721448214
 10
10.394441629
 20
27.4819181039
 10
10.4021784323
 20
27.4916412314
 10
10.4099454413
 20
27.5013142023
  0
LINE
  5
2F6
100
AcDbEntity
  8
DRAFT
100
AcDbLine
 62
7
  6
CONTINUOUS
 10
4.8687267313
 20
13.6713704741
 11
7.8289544226
 21
15.3805688427
  0
LWPOLYLINE
  5
2F7
100
AcDbEntity
  8
0
100
AcDbPolyline
 62
7
  6
CONTINUOUS
 90
3
 70
0
 10
34.6115030604
 20
-12.0739584884
 10
34.6343413085
 20
-12.0751738486
 10
34.6459775722
 20
-12.0758799718
  0
LWPOLYLINE
  5
2F8
100
AcDbEntity
  8
0
100
AcDbPolyline
 62
7
  6
CONTINUOUS
 90
3
 70
0
 10
34.6459775722
 20
-12.0758799718
 10
34.6699115915
 20
-12.0775090481
 10
34.6823862768
 20
-12.0784562298
  0
LWPOLYLINE
  5
2F9
100
AcDbEntity
  8
0
100
AcDbPolyline
 62
7
  6
CONTINUOUS
 90
3
 70
0
 10
34.6823862768
 20
-12.0784562298
 10
34.7085544847
 20
-12.0806595275
 10
34.7224516405
 20
-12.0819489573
  0
LWPOLYLINE
  5
2FA
100
AcDbEntity
  8
0
100
AcDbPolyline
 62
7
  6
CONTINUOUS
 90
7
 70
0
 10
34.4138727904
 20
-12.0635662885
 10
34.4258660794
 20
-12.0647238177
 10
34.4378883104
 20
-12.0659634937
 10
34.4499394796
 20
-12.0672853191
 10
34.4620195835
 20
-12.0686892963
 10
34.4741286183
 20
-12.070175428
 10
34.4862665803
 20
-12.0717437167
  0
LWPOLYLINE
  5
2FB
100
AcDbEntity
  8
0
100
AcDbPolyline
 62
7
  6
CONTINUOUS
 90
5
 70
0
 10
34.7224516405
 20
-12.0819489573
 10
34.7520530875
 20
-12.0849815536
 10
34.7681158038
 20
-12.0867229289
 10
34.7848817614
 20
-12.0887140429
 10
34.8022959051
 20
-12.0910169068
  0
LWPOLYLINE
  5
2FC
100
AcDbEntity
  8
0
100
AcDbPolyline
 62
7
  6
CONTINUOUS
 90
3
 70
0
 10
-28.2112218035
 20
22.5368173719
 10
-28.2037438069
 20
22.5278031332
 10
-28.1961367217
 20
22.5185453343
  0
LINE
  5
2FD
100
AcDbEntity
  8
0
100
AcDbLine
 62
7
  6
CONTINUOUS
 10
-28.1961367217
 20
22.5185453343
 11
-28.1805352856
 21
22.4992990559
  0
LINE
  5
2FE
100
AcDbEntity
  8
0
100
AcDbLine
 62
7
  6
CONTINUOUS
 10
-28.1805352856
 20
22.4992990559
 11
-28.1644174952
 21
22.4790785364
  0
LWPOLYLINE
  5
2FF
100
AcDbEntity
  8
0
100
AcDbPolyline
 62
7
  6
CONTINUOUS
 90
3
 70
0
 10
-29.2044633654
 20
22.8582311609
 10
-29.2129735755
 20
22.8700879376
 10
-29.2173817845
 20
22.8762874141
  0
LWPOLYLINE
  5
300
100
AcDbEntity
  8
0
100
AcDbPolyline
 62
7
  6
CONTINUOUS
 90
47
 70
0
 10
1.0899111001
 20
30.4187008411
 10
1.084188648
 20
30.3885814288
 10
1.075641524
 20
30.3586820265
 10
1.0643037973
 20
30.3291027206
 10
1.0502205501
 20
30.2999423341
 10
1.0334477
 20
30.2712980367
 10
1.0140517793
 20
30.2432649613
 10
0.9921096722
 20
30.2159358288
 10
0.9677083116
 20
30.1894005816
 10
0.9409443359
 20
30.1637460294
 10
0.9119237079
 20
30.139055506
 10
0.8807612959
 20
30.1154085405
 10
0.8475804211
 20
30.0928805438
 10
0.8125123707
 20
30.0715425106
 10
0.7756958797
 20
30.0514607394
 10
0.7372765831
 20
30.0326965709
 10
0.6974064417
 20
30.0153061456
 10
0.6562431421
 20
29.9993401828
 10
0.6139494744
 20
29.9848437798
 10
0.5706926896
 20
29.9718562343
 10
0.5266438397
 20
29.9604108894
 10
0.4819771029
 20
29.9505350017
 10
0.4368690955
 20
29.9422496339
 10
0.3914981755
 20
29.9355695716
 10
0.3460437386
 20
29.9305032652
 10
0.3006855098
 20
29.9270527961
 10
0.2556028348
 20
29.925213869
 10
0.2109739714
 20
29.9249758282
 10
0.1669753867
 20
29.9263217004
 10
0.1237810604
 20
29.9292282613
 10
0.081561798
 20
29.9336661271
 10
0.0404845568
 20
29.9395998708
 10
0.0007117875
 20
29.9469881617
 10
-0.0375992079
 20
29.9557839288
 10
-0.0742968959
 20
29.9659345465
 10
-0.1092361103
 20
29.9773820421
 10
-0.1422786245
 20
29.9900633247
 10
-0.1732936976
 20
30.0039104344
 10
-0.2021585897
 20
30.0188508101
 10
-0.2287590471
 20
30.0348075763
 10
-0.2529897524
 20
30.051699846
 10
-0.2747547407
 20
30.0694430405
 10
-0.2939677782
 20
30.0879492227
 10
-0.3105527022
 20
30.1071274443
 10
-0.3244437224
 20
30.126884105
 10
-0.3355856796
 20
30.1471233214
 10
-0.3439342642
 20
30.1677473059
  0
LWPOLYLINE
  5
301
100
AcDbEntity
  8
0
100
AcDbPolyline
 62
7
  6
CONTINUOUS
 90
37
 70
0
 10
1.0984631697
 20
29.9648142562
 10
1.0927408501
 20
29.9346948255
 10
1.0841938548
 20
29.9047953999
 10
1.0728562524
 20
29.8752160659
 10
1.0587731245
 20
29.8460556467
 10
1.0420003882
 20
29.8174113122
 10
1.0226045752
 20
29.7893781958
 10
1.0006625693
 20
29.7620490183
 10
0.976261303
 20
29.7355137228
 10
0.9494974144
 20
29.709859119
 10
0.9204768656
 20
29.6851685411
 10
0.889314525
 20
29.6615215188
 10
0.8561337133
 20
29.638993463
 10
0.8210657177
 20
29.6176553691
 10
0.7842492728
 20
29.5975735357
 10
0.7458300138
 20
29.578809304
 10
0.7059599014
 20
29.561418815
 10
0.6647966221
 20
29.5454527881
 10
0.6225029662
 20
29.5309563213
 10
0.5792461847
 20
29.5179687125
 10
0.5351973299
 20
29.5065233051
 10
0.4905305802
 20
29.4966473562
 10
0.4454225521
 20
29.4883619288
 10
0.4000516041
 20
29.4816818088
 10
0.3545971321
 20
29.476615447
 10
0.3092388616
 20
29.473164925
 10
0.2641561387
 20
29.4713259477
 10
0.2195272218
 20
29.4710878599
 10
0.1755285784
 20
29.4724336885
 10
0.1323341888
 20
29.4753402092
 10
0.0901148591
 20
29.4797780385
 10
0.0490375472
 20
29.4857117495
 10
0.0092647043
 20
29.4931000118
 10
-0.0290463667
 20
29.5018957544
 10
-0.0657441319
 20
29.5120463516
 10
-0.1006834243
 20
29.523493831
 10
-0.1337260168
 20
29.5361751016
  0
LWPOLYLINE
  5
302
100
AcDbEntity
  8
0
100
AcDbPolyline
 62
7
  6
CONTINUOUS
 90
11
 70
0
 10
0.9831864661
 20
29.5660143326
 10
0.9778020137
 20
29.5412972181
 10
0.9702805588
 20
29.516955749
 10
0.9606882512
 20
29.4930618256
 10
0.9490985674
 20
29.4696844066
 10
0.9355919037
 20
29.4468892665
 10
0.9202551447
 20
29.424738768
 10
0.9031812106
 20
29.4032916527
 10
0.8844685849
 20
29.3826028493
 10
0.8642208241
 20
29.3627232998
 10
0.8425460525
 20
29.3436998052
  0
LWPOLYLINE
  5
303
100
AcDbEntity
  8
0
100
AcDbPolyline
 62
7
  6
CONTINUOUS
 90
6
 70
0
 10
0.9319191952
 20
29.5314030041
 10
0.9277147505
 20
29.5139665471
 10
0.9217786728
 20
29.4966696802
 10
0.9141299076
 20
29.4795676084
 10
0.9047928672
 20
29.4627149153
 10
0.8926796827
 20
29.4446271817
  0
LINE
  5
304
100
AcDbEntity
  8
TRASH
100
AcDbLine
 62
7
  6
CONTINUOUS
 10
11.2299439038
 20
27.7781407938
 11
11.2414940446
 21
27.7975034564
  0
LINE
  5
305
100
AcDbEntity
  8
0
100
AcDbLine
 62
7
  6
CONTINUOUS
 10
11.340178429
 20
27.7549769204
 11
11.3199146166
 21
27.7236744345
  0
LINE
  5
306
100
AcDbEntity
  8
0
100
AcDbLine
 62
7
  6
CONTINUOUS
 10
11.3601423934
 20
27.7853668781
 11
11.340178429
 21
27.7549769204
  0
LWPOLYLINE
  5
307
100
AcDbEntity
  8
0
100
AcDbPolyline
 62
7
  6
CONTINUOUS
 90
3
 70
0
 10
11.3795805929
 20
27.814326845
 10
11.3666711826
 20
27.7951897164
 10
11.3601423934
 20
27.7853668781
  0
LWPOLYLINE
  5
308
100
AcDbEntity
  8
0
100
AcDbPolyline
 62
7
  6
CONTINUOUS
 90
13
 70
0
 10
11.606410039
 20
25.3055479281
 10
11.6009860828
 20
25.2977085868
 10
11.5790440769
 20
25.2703794094
 10
11.5546428106
 20
25.2438441138
 10
11.527878922
 20
25.2181895101
 10
11.4988583732
 20
25.1934989322
 10
11.4676960326
 20
25.1698519098
 10
11.4345152209
 20
25.1473238541
 10
11.3994472253
 20
25.1259857601
 10
11.3626307804
 20
25.1059039268
 10
11.3242115214
 20
25.0871396951
 10
11.284341409
 20
25.0697492061
 10
11.2431781297
 20
25.0537831792
  0
LWPOLYLINE
  5
309
100
AcDbEntity
  8
0
100
AcDbPolyline
 62
7
  6
CONTINUOUS
 90
3
 70
0
 10
11.4043076047
 20
27.8501452099
 10
11.3858961155
 20
27.8236035359
 10
11.3795805929
 20
27.814326845
  0
LINE
  5
30A
100
AcDbEntity
  8
0
100
AcDbLine
 62
7
  6
CONTINUOUS
 10
11.4813011455
 20
23.5702350686
 11
11.4967167713
 21
23.5912941463
  0
LINE
  5
30B
100
AcDbEntity
  8
0
100
AcDbLine
 62
7
  6
CONTINUOUS
 10
11.0040092587
 20
22.9182130818
 11
11.3407223433
 21
23.3781922695
  0
LWPOLYLINE
  5
30C
100
AcDbEntity
  8
0
100
AcDbPolyline
 62
7
  6
CONTINUOUS
 90
18
 70
0
 10
11.4813011455
 20
23.5702350686
 10
11.4757074073
 20
23.5627692407
 10
11.4582211607
 20
23.5413934126
 10
11.4391047159
 20
23.520722363
 10
11.4184496095
 20
23.5008121196
 10
11.3963525828
 20
23.4817145886
 10
11.3729165278
 20
23.4634786641
 10
11.3482493498
 20
23.4461492831
 10
11.322462734
 20
23.4297668097
 10
11.2956737153
 20
23.4143682351
 10
11.2680023711
 20
23.3999857762
 10
11.2395701831
 20
23.3866464119
 10
11.2105028868
 20
23.3743735068
 10
11.180928994
 20
23.3631859777
 10
11.1509771113
 20
23.353097403
 10
11.1207775692
 20
23.344116865
 10
11.0904618865
 20
23.3362487684
 10
11.0601610379
 20
23.3294924459
  0
LINE
  5
30D
100
AcDbEntity
  8
RACCORDO
100
AcDbLine
 62
250
  6
CONTINUOUS
 10
15.4947705494
 20
27.5724689593
 11
15.5054043252
 21
27.586316816
  0
LWPOLYLINE
  5
30E
100
AcDbEntity
  8
RACCORDO
100
AcDbPolyline
 62
250
  6
CONTINUOUS
 90
5
 70
0
 10
18.3340883261
 20
30.4171609834
 10
18.3234545726
 20
30.4033130026
 10
18.3103832616
 20
30.3900859202
 10
18.2950175496
 20
30.3776245977
 10
18.2775257214
 20
30.3660655113
  0
LWPOLYLINE
  5
30F
100
AcDbEntity
  8
0
100
AcDbPolyline
 62
7
  6
CONTINUOUS
 90
8
 70
0
 10
11.4967167713
 20
23.5912941463
 10
11.4852155434
 20
23.5766388122
 10
11.47101354
 20
23.5608529412
 10
11.4552737576
 20
23.5455251228
 10
11.4380464316
 20
23.5307042775
 10
11.4193865452
 20
23.516437708
 10
11.399353654
 20
23.5027709478
 10
11.3780116954
 20
23.4897476163
  0
LWPOLYLINE
  5
310
100
AcDbEntity
  8
0
100
AcDbPolyline
 62
250
  6
CONTINUOUS
 90
10
 70
0
 10
35.3592989263
 20
-11.9165106307
 10
35.2937373508
 20
-11.901995768
 10
35.2268384786
 20
-11.8894587909
 10
35.1587820637
 20
-11.8789338085
 10
35.08975889
 20
-11.8704507415
 10
35.0199648612
 20
-11.8640336002
 10
34.9495962021
 20
-11.8596998799
 10
34.8788421448
 20
-11.8574606932
 10
34.8078905591
 20
-11.8573219315
 10
34.7369315846
 20
-11.8592844185
  0
LINE
  5
311
100
AcDbEntity
  8
0
100
AcDbLine
 62
7
  6
CONTINUOUS
 10
35.1073590033
 20
-12.6303905831
 11
35.1194302571
 21
-12.6330744016
  0
LWPOLYLINE
  5
312
100
AcDbEntity
  8
0
100
AcDbPolyline
 62
7
  6
CONTINUOUS
 90
3
 70
0
 10
34.8525437394
 20
-12.561453561
 10
34.8196448649
 20
-12.5539951899
 10
34.8021977035
 20
-12.5499399212
  0
LINE
  5
313
100
AcDbEntity
  8
0
100
AcDbLine
 62
7
  6
CONTINUOUS
 10
34.8677805709
 20
-12.5650219085
 11
34.8525437394
 21
-12.561453561
  0
LINE
  5
314
100
AcDbEntity
  8
0
100
AcDbLine
 62
7
  6
CONTINUOUS
 10
34.9095718145
 20
-12.5752507351
 11
34.8677805709
 21
-12.5650219085
  0
LWPOLYLINE
  5
315
100
AcDbEntity
  8
0
100
AcDbPolyline
 62
7
  6
CONTINUOUS
 90
3
 70
0
 10
34.9589472076
 20
-12.5879611578
 10
34.94711903
 20
-12.5848440618
 10
34.9095718145
 20
-12.5752507351
  0
LWPOLYLINE
  5
316
100
AcDbEntity
  8
RACCORDO
100
AcDbPolyline
 62
250
  6
CONTINUOUS
 90
25
 70
0
 10
29.9465487744
 20
-20.9474949411
 10
29.9704190342
 20
-20.9595889181
 10
29.9957011437
 20
-20.9707725002
 10
30.0222868517
 20
-20.9809978024
 10
30.050062325
 20
-20.9902210424
 10
30.0789086364
 20
-20.9984027288
 10
30.1087022734
 20
-21.0055078298
 10
30.1393156676
 20
-21.0115059232
 10
30.1706177404
 20
-21.0163713267
 10
30.2024744645
 20
-21.0200832079
 10
30.2347494377
 20
-21.0226256736
 10
30.267304467
 20
-21.0239878375
 10
30.3000001603
 20
-21.0241638672
 10
30.3326965233
 20
-21.023153009
 10
30.3652535586
 20
-21.0209595912
 10
30.3975318655
 20
-21.0175930054
 10
30.4293932367
 20
-21.0130676663
 10
30.4607012503
 20
-21.0074029505
 10
30.4913218534
 20
-21.0006231125
 10
30.5211239366
 20
-20.9927571821
 10
30.5499798953
 20
-20.983838839
 10
30.5777661757
 20
-20.9739062692
 10
30.6043638043
 20
-20.9630020014
 10
30.629658897
 20
-20.9511727248
 10
30.6535431468
 20
-20.9384690893
  0
LINE
  5
317
100
AcDbEntity
  8
RACCORDO
100
AcDbLine
 62
250
  6
CONTINUOUS
 10
29.9465487744
 20
-20.9474949411
 11
-41.5760585316
 21
18.5323405803
  0
LWPOLYLINE
  5
318
100
AcDbEntity
  8
TRASH
100
AcDbPolyline
 62
7
  6
CONTINUOUS
 90
6
 70
0
 10
-28.342705823
 20
22.4392259563
 10
-28.3366107511
 20
22.4325764014
 10
-28.3303864765
 20
22.4261821589
 10
-28.3240301169
 20
22.4200065812
 10
-28.3175867139
 20
22.4140025189
 10
-28.3110202808
 20
22.4081530886
  0
LINE
  5
319
100
AcDbEntity
  8
0
100
AcDbLine
 62
7
  6
CONTINUOUS
 10
-1.0832366005
 20
33.1746426565
 11
-1.0751912576
 21
32.7476381273
  0
LINE
  5
31A
100
AcDbEntity
  8
0
100
AcDbLine
 62
7
  6
CONTINUOUS
 10
-0.3694757527
 20
31.1237789202
 11
-0.3686983109
 21
31.0825163922
  0
LINE
  5
31B
100
AcDbEntity
  8
0
100
AcDbLine
 62
7
  6
CONTINUOUS
 10
-0.3609238973
 20
30.6698913712
 11
-0.3601464554
 21
30.6286288431
  0
LINE
  5
31C
100
AcDbEntity
  8
0
100
AcDbLine
 62
7
  6
CONTINUOUS
 10
-0.3523720329
 20
30.216003349
 11
-0.3515945911
 21
30.1747408209
  0
LINE
  5
31D
100
AcDbEntity
  8
0
100
AcDbLine
 62
7
  6
CONTINUOUS
 10
-0.3438201717
 20
29.7621154938
 11
-0.3430427299
 21
29.7208529657
  0
LINE
  5
31E
100
AcDbEntity
  8
0
100
AcDbLine
 62
7
  6
CONTINUOUS
 10
-0.198223499
 20
31.324338073
 11
-0.1960778035
 21
31.2104558328
  0
LINE
  5
31F
100
AcDbEntity
  8
0
100
AcDbLine
 62
7
  6
CONTINUOUS
 10
-0.1896716372
 20
30.8704501878
 11
-0.1875259481
 21
30.7565682837
  0
LINE
  5
320
100
AcDbEntity
  8
0
100
AcDbLine
 62
7
  6
CONTINUOUS
 10
-0.172567918
 20
29.9626746466
 11
-0.1704222226
 21
29.8487924063
  0
LINE
  5
321
100
AcDbEntity
  8
0
100
AcDbLine
 62
7
  6
CONTINUOUS
 10
-0.181119781
 20
30.4165625969
 11
-0.1789740838
 21
30.3026802615
  0
LINE
  5
322
100
AcDbEntity
  8
RACCORDO
100
AcDbLine
 62
7
  6
CONTINUOUS
 10
-1.6902708048
 20
32.6127010607
 11
-1.6948773387
 21
32.1963162003
  0
LWPOLYLINE
  5
323
100
AcDbEntity
  8
0
100
AcDbPolyline
 62
7
  6
CONTINUOUS
 90
3
 70
0
 10
0.9348087007
 20
29.5815243094
 10
0.9342903631
 20
29.5559115408
 10
0.9319191952
 20
29.5314030041
  0
LINE
  5
324
100
AcDbEntity
  8
0
100
AcDbLine
 62
7
  6
CONTINUOUS
 10
0.0014062806
 20
33.6235011331
 11
0.0055579407
 21
33.8211408136
  0
LINE
  5
325
100
AcDbEntity
  8
0
100
AcDbLine
 62
7
  6
CONTINUOUS
 10
-0.0107748455
 20
33.6425608301
 11
-0.0064517039
 21
33.8205545133
  0
LWPOLYLINE
  5
326
100
AcDbEntity
  8
0
100
AcDbPolyline
 62
7
  6
CONTINUOUS
 90
13
 70
0
 10
-0.3694757527
 20
31.1237789202
 10
-0.3690465269
 20
31.138704945
 10
-0.3660007348
 20
31.1598656893
 10
-0.3601073419
 20
31.1809073822
 10
-0.3513892691
 20
31.2017290688
 10
-0.3398805851
 20
31.2222306622
 10
-0.3256263717
 20
31.242313339
 10
-0.3086825462
 20
31.2618799291
 10
-0.2891156406
 20
31.280835299
 10
-0.2670025389
 20
31.2990867274
 10
-0.2424301741
 20
31.3165442713
 10
-0.2154951843
 20
31.3331211207
 10
-0.2153462713
 20
31.3332007651
  0
LWPOLYLINE
  5
327
100
AcDbEntity
  8
0
100
AcDbPolyline
 62
7
  6
CONTINUOUS
 90
13
 70
0
 10
-0.3609238973
 20
30.6698913712
 10
-0.3604945797
 20
30.6848185948
 10
-0.3574486291
 20
30.7059793155
 10
-0.3515550833
 20
30.7270209783
 10
-0.3428368641
 20
30.7478426289
 10
-0.3313280408
 20
30.7683441806
 10
-0.3170736961
 20
30.7884268105
 10
-0.300129748
 20
30.8079933488
 10
-0.2805627289
 20
30.8269486624
 10
-0.2584495237
 20
30.8452000307
 10
-0.2338770654
 20
30.8626575109
 10
-0.206941993
 20
30.8792342935
 10
-0.2067947632
 20
30.8793130371
  0
LWPOLYLINE
  5
328
100
AcDbEntity
  8
0
100
AcDbPolyline
 62
7
  6
CONTINUOUS
 90
13
 70
0
 10
-0.3523720329
 20
30.216003349
 10
-0.3519427918
 20
30.2309295692
 10
-0.3488969781
 20
30.2520902827
 10
-0.3430035704
 20
30.2731319438
 10
-0.33428549
 20
30.293953598
 10
-0.3227768055
 20
30.3144551588
 10
-0.3085225989
 20
30.3345378033
 10
-0.2915787873
 20
30.3541043616
 10
-0.2720119026
 20
30.3730597007
 10
-0.2498988288
 20
30.3913110997
 10
-0.2253264985
 20
30.4087686158
 10
-0.1983915498
 20
30.4253454396
 10
-0.198242348
 20
30.4254252385
  0
LWPOLYLINE
  5
329
100
AcDbEntity
  8
0
100
AcDbPolyline
 62
7
  6
CONTINUOUS
 90
13
 70
0
 10
-0.3438201717
 20
29.7621154938
 10
-0.3433909459
 20
29.7770415185
 10
-0.3403451538
 20
29.7982022629
 10
-0.3344517609
 20
29.8192439558
 10
-0.3257336882
 20
29.8400656423
 10
-0.3142250041
 20
29.8605672357
 10
-0.2999707907
 20
29.8806499126
 10
-0.2830269652
 20
29.9002165026
 10
-0.2634600596
 20
29.9191718725
 10
-0.241346958
 20
29.937423301
 10
-0.2167745931
 20
29.9548808449
 10
-0.1898396034
 20
29.9714576942
 10
-0.1896906903
 20
29.9715373387
  0
LWPOLYLINE
  5
32A
100
AcDbEntity
  8
0
100
AcDbPolyline
 62
7
  6
CONTINUOUS
 90
13
 70
0
 10
0.9251066519
 20
30.0964580785
 10
0.924363274
 20
30.0709089768
 10
0.9212641504
 20
30.0459240145
 10
0.9157872836
 20
30.0209014542
 10
0.9078819721
 20
29.9958582634
 10
0.8975489576
 20
29.9709650107
 10
0.8848713177
 20
29.9464650747
 10
0.8698991808
 20
29.922443216
 10
0.8526980599
 20
29.8989909038
 10
0.833475215
 20
29.8763398659
 10
0.8124024185
 20
29.8546040751
 10
0.7895674447
 20
29.8337933041
 10
0.7651025675
 20
29.813961879
  0
LINE
  5
32B
100
AcDbEntity
  8
0
100
AcDbLine
 62
7
  6
CONTINUOUS
 10
0.8142420727
 20
33.36765072
 11
0.8054014819
 21
33.2704393354
  0
LINE
  5
32C
100
AcDbEntity
  8
0
100
AcDbLine
 62
7
  6
CONTINUOUS
 10
0.8121165682
 20
33.3759276829
 11
0.8022651302
 21
33.268514389
  0
LINE
  5
32D
100
AcDbEntity
  8
0
100
AcDbLine
 62
7
  6
CONTINUOUS
 10
0.6827580535
 20
33.2700593046
 11
0.7158775281
 21
33.5770074698
  0
LINE
  5
32E
100
AcDbEntity
  8
0
100
AcDbLine
 62
7
  6
CONTINUOUS
 10
11.4183890079
 20
27.8717980647
 11
11.4162273021
 21
27.8666066642
  0
LINE
  5
32F
100
AcDbEntity
  8
0
100
AcDbLine
 62
7
  6
CONTINUOUS
 10
10.4120455347
 20
27.5097757255
 11
10.4296133911
 21
27.5518001012
  0
LINE
  5
330
100
AcDbEntity
  8
0
100
AcDbLine
 62
7
  6
CONTINUOUS
 10
10.4296133911
 20
27.5518001012
 11
10.4356551526
 21
27.5658387819
  0
LWPOLYLINE
  5
331
100
AcDbEntity
  8
0
100
AcDbPolyline
 62
7
  6
CONTINUOUS
 90
11
 70
0
 10
10.4356551526
 20
27.5658387819
 10
10.4480941647
 20
27.5937984494
 10
10.4543957181
 20
27.6076694423
 10
10.4608431711
 20
27.6214489748
 10
10.4673001749
 20
27.6350817987
 10
10.4738097429
 20
27.6485970006
 10
10.4804434014
 20
27.6619740364
 10
10.487082444
 20
27.6751151926
 10
10.4937029739
 20
27.6880133122
 10
10.5003997759
 20
27.7007318606
 10
10.5072166008
 20
27.7132991142
  0
LWPOLYLINE
  5
332
100
AcDbEntity
  8
0
100
AcDbPolyline
 62
7
  6
CONTINUOUS
 90
7
 70
0
 10
11.6450475376
 20
25.3278567356
 10
11.6379320739
 20
25.3131235097
 10
11.6211593376
 20
25.2844791752
 10
11.6017635246
 20
25.2564460588
 10
11.5798215188
 20
25.2291168813
 10
11.5554202525
 20
25.2025815858
 10
11.5286563638
 20
25.176926982
  0
LWPOLYLINE
  5
333
100
AcDbEntity
  8
RACCORDO
100
AcDbPolyline
 62
250
  6
CONTINUOUS
 90
4
 70
0
 10
15.5054043252
 20
27.586316816
 10
15.5134841414
 20
27.6006339389
 10
15.5189214895
 20
27.6152635283
 10
15.5216568034
 20
27.6300453647
  0
LINE
  5
334
100
AcDbEntity
  8
0
100
AcDbLine
 62
7
  6
CONTINUOUS
 10
34.9821793448
 20
-12.59416032
 11
34.9589472076
 21
-12.5879611578
  0
LINE
  5
335
100
AcDbEntity
  8
0
100
AcDbLine
 62
7
  6
CONTINUOUS
 10
35.0049244017
 20
-12.6004004027
 11
34.9821793448
 21
-12.59416032
  0
LINE
  5
336
100
AcDbEntity
  8
0
100
AcDbLine
 62
7
  6
CONTINUOUS
 10
35.0276585008
 20
-12.6067810864
 11
35.0049244017
 21
-12.6004004027
  0
LINE
  5
337
100
AcDbEntity
  8
0
100
AcDbLine
 62
7
  6
CONTINUOUS
 10
35.0504217101
 20
-12.6133222343
 11
35.0276585008
 21
-12.6067810864
  0
LINE
  5
338
100
AcDbEntity
  8
0
100
AcDbLine
 62
7
  6
CONTINUOUS
 10
35.0732242436
 20
-12.6200380105
 11
35.0504217101
 21
-12.6133222343
  0
LWPOLYLINE
  5
339
100
AcDbEntity
  8
0
100
AcDbPolyline
 62
7
  6
CONTINUOUS
 90
3
 70
0
 10
35.1073590033
 20
-12.6303905831
 10
35.0959958046
 20
-12.6268916929
 10
35.0732242436
 20
-12.6200380105
  0
LWPOLYLINE
  5
33A
100
AcDbEntity
  8
RACCORDO
100
AcDbPolyline
 62
250
  6
CONTINUOUS
 90
13
 70
0
 10
-41.230225178
 20
19.1454945956
 10
-41.2530975535
 20
19.157262936
 10
-41.275867947
 20
19.1672605437
 10
-41.2984399295
 20
19.1754389859
 10
-41.3207259646
 20
19.1817593572
 10
-41.3426216049
 20
19.1861847342
 10
-41.3640077113
 20
19.1886878388
 10
-41.3847851463
 20
19.1892582072
 10
-41.4048748124
 20
19.1878948406
 10
-41.4241929028
 20
19.1846032056
 10
-41.4426582422
 20
19.1793965405
 10
-41.4601914231
 20
19.1722966152
 10
-41.4724628396
 20
19.1658750421
  0
LINE
  5
33B
100
AcDbEntity
  8
RACCORDO
100
AcDbLine
 62
250
  6
CONTINUOUS
 10
30.292382128
 20
-20.3343409258
 11
-41.230225178
 21
19.1454945956
  0
LWPOLYLINE
  5
33C
100
AcDbEntity
  8
0
100
AcDbPolyline
 62
7
  6
CONTINUOUS
 90
10
 70
0
 10
-29.2657045996
 20
22.4650237453
 10
-29.2506163789
 20
22.4536351833
 10
-29.2347646464
 20
22.4425863053
 10
-29.2181719992
 20
22.4318928616
 10
-29.2008620901
 20
22.4215700959
 10
-29.1828595946
 20
22.4116327233
 10
-29.1641901754
 20
22.4020949097
 10
-29.1448804462
 20
22.3929702514
 10
-29.1249579331
 20
22.3842717557
 10
-29.1044510358
 20
22.3760118224
  0
LWPOLYLINE
  5
33D
100
AcDbEntity
  8
TRASH
100
AcDbPolyline
 62
7
  6
CONTINUOUS
 90
3
 70
0
 10
-28.3110202808
 20
22.4081530886
 10
-28.3042187512
 20
22.4024611527
 10
-28.2983931619
 20
22.3978207012
  0
LWPOLYLINE
  5
33E
100
AcDbEntity
  8
0
100
AcDbPolyline
 62
7
  6
CONTINUOUS
 90
43
 70
0
 10
1.7162665366
 20
33.2273890791
 10
1.7134213098
 20
33.2726013452
 10
1.7065362113
 20
33.3179101754
 10
1.6955500744
 20
33.3631410287
 10
1.6804143341
 20
33.408131919
 10
1.6611036021
 20
33.4527006846
 10
1.6376181461
 20
33.4966600897
 10
1.6099298947
 20
33.5399038126
 10
1.5780663592
 20
33.5822503991
 10
1.5421609173
 20
33.6234378116
 10
1.5022316361
 20
33.663385307
 10
1.4583672044
 20
33.7019446064
 10
1.4109156706
 20
33.7387979546
 10
1.3600612252
 20
33.7738311031
 10
1.3058980742
 20
33.8070008616
 10
1.2487499817
 20
33.8381365961
 10
1.1888485519
 20
33.8671550985
 10
1.126332724
 20
33.8940260082
 10
1.061445441
 20
33.9186764447
 10
0.9944090613
 20
33.941054159
 10
0.9254125888
 20
33.9611244326
 10
0.8546755566
 20
33.9788476951
 10
0.7824279194
 20
33.9941890217
 10
0.7088759793
 20
34.007124796
 10
0.6342166816
 20
34.0176363185
 10
0.5586762033
 20
34.0257046327
 10
0.4824765969
 20
34.0313171974
 10
0.4058141244
 20
34.0344675584
 10
0.3289150464
 20
34.0351515165
 10
0.2520062055
 20
34.0333707736
 10
0.1752860743
 20
34.0291309572
 10
0.0989803615
 20
34.0224428664
 10
0.0233140746
 20
34.0133231668
 10
-0.0515178157
 20
34.0017894532
 10
-0.1252980389
 20
33.9878660788
 10
-0.1978026869
 20
33.9715844433
 10
-0.2688337238
 20
33.9529754897
 10
-0.3381850224
 20
33.9320760463
 10
-0.4056391579
 20
33.9089319695
 10
-0.4709944967
 20
33.8835901561
 10
-0.5340549895
 20
33.8561004598
 10
-0.5946228092
 20
33.8265188949
 10
-0.6525039957
 20
33.7949058781
  0
LWPOLYLINE
  5
33F
100
AcDbEntity
  8
0
100
AcDbPolyline
 62
7
  6
CONTINUOUS
 90
3
 70
0
 10
0.6266475653
 20
33.8286440827
 10
0.6283755026
 20
33.7989944157
 10
0.6374569561
 20
33.6508364918
  0
LINE
  5
340
100
AcDbEntity
  8
0
100
AcDbLine
 62
7
  6
CONTINUOUS
 10
0.6147621783
 20
33.8289182272
 11
0.6259068152
 21
33.6314738292
  0
LINE
  5
341
100
AcDbEntity
  8
0
100
AcDbLine
 62
250
  6
CONTINUOUS
 10
-1.0751912576
 20
32.7476381273
 11
-1.0733608864
 21
32.7147949614
  0
LWPOLYLINE
  5
342
100
AcDbEntity
  8
0
100
AcDbPolyline
 62
250
  6
CONTINUOUS
 90
46
 70
0
 10
-1.0832366005
 20
33.1746426557
 10
-1.0814061861
 20
33.1417990251
 10
-1.0756521338
 20
33.1005467751
 10
-1.0660823001
 20
33.0596165685
 10
-1.0527482983
 20
33.0191527686
 10
-1.0356929494
 20
32.9792306806
 10
-1.0149440606
 20
32.9399033745
 10
-0.9905410559
 20
32.9012577063
 10
-0.9625582107
 20
32.8634216306
 10
-0.9310779841
 20
32.8265087977
 10
-0.8961868973
 20
32.7906205243
 10
-0.8579800571
 20
32.7558545129
 10
-0.8165717655
 20
32.7223133141
 10
-0.77210167
 20
32.6901043749
 10
-0.7246722078
 20
32.6592966162
 10
-0.6743446849
 20
32.6299343121
 10
-0.6212028304
 20
32.6020807604
 10
-0.5654236375
 20
32.5758424586
 10
-0.5072172576
 20
32.5513231653
 10
-0.4467646436
 20
32.5285978954
 10
-0.3842123571
 20
32.5077205785
 10
-0.319736996
 20
32.4887500545
 10
-0.2535195763
 20
32.4717390204
 10
-0.1857389937
 20
32.4567328855
 10
-0.1165758522
 20
32.44377158
 10
-0.0462159897
 20
32.4328903675
 10
0.0251433527
 20
32.4241201813
 10
0.097299641
 20
32.4174858444
 10
0.1700500088
 20
32.4130054444
 10
0.2431988192
 20
32.4106904699
 10
0.3165518434
 20
32.4105470117
 10
0.3899125069
 20
32.4125759216
 10
0.463074204
 20
32.4167719524
 10
0.535827776
 20
32.4231229923
 10
0.6079671998
 20
32.4316102924
 10
0.6793007387
 20
32.4422105259
 10
0.7496429751
 20
32.4548961479
 10
0.8188338317
 20
32.4696404579
 10
0.8866481355
 20
32.4863976741
 10
0.9528130133
 20
32.5050962545
 10
1.01709939
 20
32.525659468
 10
1.0793950425
 20
32.5480391272
 10
1.1396099859
 20
32.5721981089
 10
1.1976034098
 20
32.5980813505
 10
1.2531922684
 20
32.6256086391
 10
1.3062250963
 20
32.6547047863
  0
LINE
  5
343
100
AcDbEntity
  8
RACCORDO
100
AcDbLine
 62
7
  6
CONTINUOUS
 10
1.9891089353
 20
30.1627889333
 11
1.9909725462
 21
30.0877172359
  0
LINE
  5
344
100
AcDbEntity
  8
0
100
AcDbLine
 62
7
  6
CONTINUOUS
 10
0.9163343117
 20
30.5620478004
 11
0.9165547875
 21
30.5503461068
  0
LINE
  5
345
100
AcDbEntity
  8
0
100
AcDbLine
 62
7
  6
CONTINUOUS
 10
0.9248861737
 20
30.1081599011
 11
0.9251066519
 21
30.0964580786
  0
LINE
  5
346
100
AcDbEntity
  8
0
100
AcDbLine
 62
7
  6
CONTINUOUS
 10
0.9334380379
 20
29.6542718868
 11
0.9348087007
 21
29.5815243094
  0
LINE
  5
347
100
AcDbEntity
  8
0
100
AcDbLine
 62
7
  6
CONTINUOUS
 10
0.9880545832
 20
29.5781433057
 11
0.9872771413
 21
29.6194058338
  0
LINE
  5
348
100
AcDbEntity
  8
0
100
AcDbLine
 62
7
  6
CONTINUOUS
 10
1.1024240367
 20
29.9751119412
 11
1.1016465949
 21
30.0163744693
  0
LINE
  5
349
100
AcDbEntity
  8
0
100
AcDbLine
 62
7
  6
CONTINUOUS
 10
1.0938721723
 20
30.4289999695
 11
1.0930947304
 21
30.4702624976
  0
LINE
  5
34A
100
AcDbEntity
  8
0
100
AcDbLine
 62
7
  6
CONTINUOUS
 10
1.7162665365
 20
33.2273890827
 11
1.7243118795
 21
32.8003845535
  0
LINE
  5
34B
100
AcDbEntity
  8
DRAFT
100
AcDbLine
 62
7
  6
CONTINUOUS
 10
3.2739375844
 20
29.4535750826
 11
3.2830997771
 21
28.9689550582
  0
LINE
  5
34C
100
AcDbEntity
  8
0
100
AcDbLine
 62
7
  6
CONTINUOUS
 10
0.3153469134
 20
33.4728669472
 11
0.3095776208
 21
33.8012813232
  0
LWPOLYLINE
  5
34D
100
AcDbEntity
  8
0
100
AcDbPolyline
 62
7
  6
CONTINUOUS
 90
4
 70
0
 10
0.9872771413
 20
29.6194058338
 10
0.9873186567
 20
29.6162747559
 10
0.986375474
 20
29.5910325093
 10
0.9831864661
 20
29.5660143326
  0
LWPOLYLINE
  5
34E
100
AcDbEntity
  8
0
100
AcDbPolyline
 62
7
  6
CONTINUOUS
 90
14
 70
0
 10
0.9165547875
 20
30.5503461068
 10
0.9166011573
 20
30.5446352297
 10
0.9153937115
 20
30.5199475817
 10
0.9119281166
 20
30.4954430206
 10
0.9061903316
 20
30.4709785043
 10
0.8981456548
 20
30.446556345
 10
0.8878163558
 20
30.4223467081
 10
0.8752337136
 20
30.3984616091
 10
0.8604043249
 20
30.3749464888
 10
0.8433931588
 20
30.3519291823
 10
0.8243809532
 20
30.3296318951
 10
0.803515529
 20
30.3081679228
 10
0.7808674096
 20
30.2875541062
 10
0.7565507036
 20
30.2678498804
  0
LWPOLYLINE
  5
34F
100
AcDbEntity
  8
0
100
AcDbPolyline
 62
7
  6
CONTINUOUS
 90
42
 70
0
 10
0.9880545832
 20
29.5781433057
 10
0.9880765206
 20
29.568907787
 10
0.9866725373
 20
29.5445402121
 10
0.9831776016
 20
29.5203973391
 10
0.9776386938
 20
29.4965483929
 10
0.9701097909
 20
29.4730604486
 10
0.9606515646
 20
29.4499982026
 10
0.9493310552
 20
29.4274237548
 10
0.9362213263
 20
29.405396405
 10
0.9214010981
 20
29.3839724614
 10
0.9049543651
 20
29.3632050638
 10
0.8869699956
 20
29.3431440212
 10
0.8675413186
 20
29.3238356646
 10
0.8467656968
 20
29.305322715
 10
0.8247440902
 20
29.287644168
 10
0.8015806094
 20
29.2708351935
 10
0.7773820632
 20
29.2549270525
 10
0.7522575002
 20
29.2399470305
 10
0.7263177476
 20
29.225918387
 10
0.6996749483
 20
29.2128603223
 10
0.6724420989
 20
29.2007879601
 10
0.6447325898
 20
29.1897123478
 10
0.6166597495
 20
29.1796404719
 10
0.5883363947
 20
29.17057529
 10
0.5598743888
 20
29.1625157794
 10
0.5313842085
 20
29.1554569994
 10
0.5029745232
 20
29.1493901704
 10
0.4747517851
 20
29.1443027662
 10
0.4468198355
 20
29.1401786214
 10
0.419279525
 20
29.1369980512
 10
0.3922283516
 20
29.134737985
 10
0.3657601173
 20
29.1333721112
 10
0.3399646034
 20
29.1328710341
 10
0.3149272669
 20
29.133202441
 10
0.2907289589
 20
29.1343312795
 10
0.2674456651
 20
29.1362199433
 10
0.2451482696
 20
29.1388284669
 10
0.2239023436
 20
29.1421147266
 10
0.2037679578
 20
29.1460346487
 10
0.1847995213
 20
29.1505424227
 10
0.167045645
 20
29.155590719
 10
0.1505490317
 20
29.1611309102
  0
LWPOLYLINE
  5
350
100
AcDbEntity
  8
RACCORDO
100
AcDbPolyline
 62
7
  6
CONTINUOUS
 90
3
 70
0
 10
3.7735141185
 20
34.3066113514
 10
3.773525158
 20
34.2295590254
 10
3.7731538739
 20
34.1826732043
  0
LINE
  5
351
100
AcDbEntity
  8
RACCORDO
100
AcDbLine
 62
7
  6
CONTINUOUS
 10
3.77367498
 20
34.3372417437
 11
3.7735141185
 21
34.3066113514
  0
LWPOLYLINE
  5
352
100
AcDbEntity
  8
0
100
AcDbPolyline
 62
7
  6
CONTINUOUS
 90
3
 70
0
 10
1.0930947304
 20
30.4702624976
 10
1.0927859588
 20
30.4489393089
 10
1.0899111001
 20
30.4187008411
  0
LWPOLYLINE
  5
353
100
AcDbEntity
  8
0
100
AcDbPolyline
 62
7
  6
CONTINUOUS
 90
12
 70
0
 10
1.0938721723
 20
30.4289999695
 10
1.0935634007
 20
30.4076767808
 10
1.0906885419
 20
30.377438313
 10
1.0849660898
 20
30.3473189007
 10
1.0764189659
 20
30.3174194984
 10
1.0650812392
 20
30.2878401925
 10
1.0509979919
 20
30.258679806
 10
1.0342251418
 20
30.2300355086
 10
1.0148292211
 20
30.2020024332
 10
0.992887114
 20
30.1746733007
 10
0.9684857534
 20
30.1481380536
 10
0.9417217778
 20
30.1224835014
  0
LWPOLYLINE
  5
354
100
AcDbEntity
  8
0
100
AcDbPolyline
 62
7
  6
CONTINUOUS
 90
3
 70
0
 10
1.1016465949
 20
30.0163744693
 10
1.1013378928
 20
29.9950527372
 10
1.0984631697
 20
29.9648142562
  0
LWPOLYLINE
  5
355
100
AcDbEntity
  8
0
100
AcDbPolyline
 62
7
  6
CONTINUOUS
 90
52
 70
0
 10
1.1024240367
 20
29.9751119412
 10
1.1021153347
 20
29.9537902091
 10
1.0992406115
 20
29.9235517281
 10
1.0935182919
 20
29.8934322974
 10
1.0849712967
 20
29.8635328718
 10
1.0736336942
 20
29.8339535378
 10
1.0595505663
 20
29.8047931186
 10
1.04277783
 20
29.7761487842
 10
1.023382017
 20
29.7481156677
 10
1.0014400112
 20
29.7207864902
 10
0.9770387449
 20
29.6942511947
 10
0.9502748562
 20
29.6685965909
 10
0.9212543075
 20
29.6439060131
 10
0.8900919668
 20
29.6202589907
 10
0.8569111552
 20
29.597730935
 10
0.8218431595
 20
29.576392841
 10
0.7850267147
 20
29.5563110077
 10
0.7466074557
 20
29.537546776
 10
0.7067373432
 20
29.5201562869
 10
0.665574064
 20
29.5041902601
 10
0.623280408
 20
29.4896937932
 10
0.5800236265
 20
29.4767061844
 10
0.5359747718
 20
29.465260777
 10
0.491308022
 20
29.4553848281
 10
0.446199994
 20
29.4470994007
 10
0.400829046
 20
29.4404192807
 10
0.3553745739
 20
29.4353529189
 10
0.3100163035
 20
29.4319023969
 10
0.2649335805
 20
29.4300634196
 10
0.2203046636
 20
29.4298253319
 10
0.1763060203
 20
29.4311711604
 10
0.1331116307
 20
29.4340776811
 10
0.0908923009
 20
29.4385155104
 10
0.0498149891
 20
29.4444492215
 10
0.0100421462
 20
29.4518374837
 10
-0.0282689249
 20
29.4606332263
 10
-0.0649666901
 20
29.4707838236
 10
-0.0999059825
 20
29.4822313029
 10
-0.132948575
 20
29.4949125735
 10
-0.1639637258
 20
29.5087596753
 10
-0.1928286947
 20
29.5237000472
 10
-0.219429227
 20
29.5396568136
 10
-0.2436600049
 20
29.5565490875
 10
-0.2654250629
 20
29.5742922899
 10
-0.2846381666
 20
29.5927984835
 10
-0.3012231528
 20
29.61197672
 10
-0.3151142305
 20
29.6317333987
 10
-0.3262562402
 20
29.651972636
 10
-0.3346048718
 20
29.672596644
 10
-0.3401268395
 20
29.6935061162
 10
-0.3428000127
 20
29.7146006195
 10
-0.3430427299
 20
29.7208529657
  0
LWPOLYLINE
  5
356
100
AcDbEntity
  8
0
100
AcDbPolyline
 62
7
  6
CONTINUOUS
 90
16
 70
0
 10
1.7243118795
 20
32.8003845535
 10
1.7232255752
 20
32.7558831425
 10
1.7182470045
 20
32.7111487496
 10
1.709314127
 20
32.6663444838
 10
1.6963863228
 20
32.6216494233
 10
1.6794303427
 20
32.577206987
 10
1.6583991943
 20
32.5331147651
 10
1.6332129918
 20
32.4894290359
 10
1.6038936529
 20
32.4463795028
 10
1.5705917109
 20
32.4042901336
 10
1.5333373496
 20
32.363257053
 10
1.4921944607
 20
32.3234078938
 10
1.4474874534
 20
32.2850683689
 10
1.3994380864
 20
32.2483917711
 10
1.3480919125
 20
32.2133834847
 10
1.2935792747
 20
32.1801213319
  0
LINE
  5
357
100
AcDbEntity
  8
0
100
AcDbLine
 62
7
  6
CONTINUOUS
 10
10.4120455347
 20
27.5097757255
 11
10.4099454413
 21
27.5013142023
  0
LINE
  5
358
100
AcDbEntity
  8
0
100
AcDbLine
 62
7
  6
CONTINUOUS
 10
11.2414366846
 20
27.7975436821
 11
11.3039300798
 21
27.9853372833
  0
LINE
  5
359
100
AcDbEntity
  8
RACCORDO
100
AcDbLine
 62
7
  6
CONTINUOUS
 10
18.5406951795
 20
9.9287417382
 11
15.1723161023
 21
7.9838818747
  0
LWPOLYLINE
  5
35A
100
AcDbEntity
  8
TRASH
100
AcDbPolyline
 62
7
  6
CONTINUOUS
 90
5
 70
0
 10
35.1186226134
 20
-12.2608259632
 10
35.1406550381
 20
-12.2690372158
 10
35.1619710103
 20
-12.2778306755
 10
35.1825235578
 20
-12.2871878651
 10
35.2022640739
 20
-12.2970880436
  0
LWPOLYLINE
  5
35B
100
AcDbEntity
  8
0
100
AcDbPolyline
 62
250
  6
CONTINUOUS
 90
27
 70
0
 10
33.9548606127
 20
-13.2266187681
 10
34.011161426
 20
-13.2503353473
 10
34.0696349363
 20
-13.2723166355
 10
34.1301393801
 20
-13.2925104688
 10
34.1925039407
 20
-13.3108599338
 10
34.2565535284
 20
-13.3273140589
 10
34.3221151039
 20
-13.3418289212
 10
34.389013976
 20
-13.3543658976
 10
34.4570703909
 20
-13.3648908788
 10
34.5260935645
 20
-13.3733739443
 10
34.5958875933
 20
-13.3797910844
 10
34.6662562524
 20
-13.3841248045
 10
34.7370103098
 20
-13.3863639915
 10
34.8079618954
 20
-13.3865027514
 10
34.8789208698
 20
-13.384540257
 10
34.9496873905
 20
-13.3804815874
 10
35.0200591476
 20
-13.3743384657
 10
35.0898368659
 20
-13.3661290387
 10
35.1588350857
 20
-13.3558758575
 10
35.226874452
 20
-13.3436055391
 10
35.2938001127
 20
-13.3293438769
 10
35.3593942726
 20
-13.3131351887
 10
35.4233930236
 20
-13.2950487468
 10
35.4855748295
 20
-13.2751588276
 10
35.5458311224
 20
-13.253511977
 10
35.6040748018
 20
-13.2301439954
 10
35.6601696352
 20
-13.2051081115
  0
LINE
  5
35C
100
AcDbEntity
  8
0
100
AcDbLine
 62
250
  6
CONTINUOUS
 10
33.9009075252
 20
-13.2012394572
 11
33.9548606127
 21
-13.2266187681
  0
LWPOLYLINE
  5
35D
100
AcDbEntity
  8
0
100
AcDbPolyline
 62
7
  6
CONTINUOUS
 90
7
 70
0
 10
34.2525777349
 20
-12.1566946254
 10
34.2606089538
 20
-12.1606029454
 10
34.2685048707
 20
-12.1645095864
 10
34.2762654857
 20
-12.1684145484
 10
34.2838907988
 20
-12.1723178314
 10
34.2913808099
 20
-12.1762194354
 10
34.2987355191
 20
-12.1801193603
  0
LWPOLYLINE
  5
35E
100
AcDbEntity
  8
0
100
AcDbPolyline
 62
7
  6
CONTINUOUS
 90
10
 70
0
 10
-28.1643173197
 20
22.9188250464
 10
-28.1794055405
 20
22.9302136086
 10
-28.195257273
 20
22.9412624868
 10
-28.2118499204
 20
22.9519559306
 10
-28.2291598297
 20
22.9622786965
 10
-28.2471623254
 20
22.9722160692
 10
-28.2658317447
 20
22.9817538829
 10
-28.2851414742
 20
22.9908785413
 10
-28.3050639875
 20
22.9995770371
 10
-28.325570885
 20
23.0078369706
  0
LWPOLYLINE
  5
35F
100
AcDbEntity
  8
0
100
AcDbPolyline
 62
250
  6
CONTINUOUS
 90
45
 70
0
 10
-1.0733608864
 20
32.7147949614
 10
-1.0676197353
 20
32.6736116757
 10
-1.0580627131
 20
32.6327035717
 10
-1.0447160079
 20
32.592182763
 10
-1.0276162029
 20
32.552160328
 10
-1.0068101836
 20
32.5127459967
 10
-0.9823550036
 20
32.4740478273
 10
-0.954317686
 20
32.4361718587
 10
-0.9227750403
 20
32.3992218551
 10
-0.8878134897
 20
32.363299071
 10
-0.8495288748
 20
32.3285019969
 10
-0.8080261556
 20
32.294926036
 10
-0.7634190997
 20
32.2626632253
 10
-0.7158299624
 20
32.231801987
 10
-0.6653891825
 20
32.2024269096
 10
-0.6122350149
 20
32.1746185083
 10
-0.5565131517
 20
32.1484530042
 10
-0.4983763226
 20
32.124002115
 10
-0.4379838619
 20
32.1013328539
 10
-0.3755013155
 20
32.0805073619
 10
-0.3110999918
 20
32.0615827337
 10
-0.2449564611
 20
32.0446108473
 10
-0.1772519774
 20
32.0296382033
 10
-0.1081720221
 20
32.0167058198
 10
-0.0379058849
 20
32.0058491406
 10
0.0333537925
 20
31.9970979368
 10
0.1054116359
 20
31.9904762035
 10
0.1780701152
 20
31.9860020904
 10
0.2511301017
 20
31.983687857
 10
0.3243913573
 20
31.9835398457
 10
0.3976530811
 20
31.9855584624
 10
0.4707144644
 20
31.9897381744
 10
0.5433752552
 20
31.9960675261
 10
0.6154363063
 20
32.0045291712
 10
0.6867000915
 20
32.0150999164
 10
0.7569712519
 20
32.027750783
 10
0.8260571635
 20
32.0424470897
 10
0.8937684853
 20
32.0591485559
 10
0.9599196478
 20
32.0778094082
 10
1.0243293432
 20
32.0983785011
 10
1.0868210214
 20
32.120799454
 10
1.1472233944
 20
32.1450108113
 10
1.2053709034
 20
32.1709462107
 10
1.2611041717
 20
32.1985345653
 10
1.3142704392
 20
32.2277002571
  0
LINE
  5
360
100
AcDbEntity
  8
0
100
AcDbLine
 62
7
  6
CONTINUOUS
 10
-0.1779219502
 20
33.2539084744
 11
-0.1919915538
 21
33.3631087609
  0
LINE
  5
361
100
AcDbEntity
  8
0
100
AcDbLine
 62
7
  6
CONTINUOUS
 10
-0.1814667032
 20
33.2560223882
 11
-0.1940916472
 21
33.3546472377
  0
LWPOLYLINE
  5
362
100
AcDbEntity
  8
0
100
AcDbPolyline
 62
7
  6
CONTINUOUS
 90
3
 70
0
 10
-0.3409042813
 20
29.7347686443
 10
-0.3435774546
 20
29.7558631476
 10
-0.3438201717
 20
29.7621154938
  0
LWPOLYLINE
  5
363
100
AcDbEntity
  8
0
100
AcDbPolyline
 62
7
  6
CONTINUOUS
 90
3
 70
0
 10
-0.3494561906
 20
30.1886567523
 10
-0.3521293289
 20
30.2097512277
 10
-0.3523720329
 20
30.216003349
  0
LWPOLYLINE
  5
364
100
AcDbEntity
  8
0
100
AcDbPolyline
 62
7
  6
CONTINUOUS
 90
3
 70
0
 10
-0.3580082454
 20
30.6425457482
 10
-0.3606812516
 20
30.6636402411
 10
-0.3609238973
 20
30.6698913712
  0
LWPOLYLINE
  5
365
100
AcDbEntity
  8
0
100
AcDbPolyline
 62
7
  6
CONTINUOUS
 90
3
 70
0
 10
-0.3665598623
 20
31.0964320707
 10
-0.3692330355
 20
31.117526574
 10
-0.3694757527
 20
31.1237789202
  0
LINE
  5
366
100
AcDbEntity
  8
DRAFT
100
AcDbLine
 62
7
  6
CONTINUOUS
 10
4.5136952968
 20
13.8673446306
 11
4.184944376
 21
28.9507075328
  0
LINE
  5
367
100
AcDbEntity
  8
0
100
AcDbLine
 62
7
  6
CONTINUOUS
 10
6.6011963238
 20
34.0192450124
 11
6.6027512074
 21
33.9367199563
  0
LINE
  5
368
100
AcDbEntity
  8
DRAFT
100
AcDbLine
 62
7
  6
CONTINUOUS
 10
4.8687267313
 20
13.6713704741
 11
4.6300323404
 21
28.7050229823
  0
LWPOLYLINE
  5
369
100
AcDbEntity
  8
0
100
AcDbPolyline
 62
7
  6
CONTINUOUS
 90
47
 70
0
 10
11.6853962922
 20
25.0192554035
 10
11.6796738083
 20
24.9891359626
 10
11.6711266463
 20
24.9592365336
 10
11.6597888757
 20
24.9296572032
 10
11.6457055791
 20
24.9004967946
 10
11.6289326746
 20
24.8718524779
 10
11.609536695
 20
24.8438193863
 10
11.587594525
 20
24.8164902408
 10
11.5631930982
 20
24.7899549842
 10
11.5364290534
 20
24.7643004262
 10
11.507408354
 20
24.7396099007
 10
11.4762458689
 20
24.7159629372
 10
11.4430649202
 20
24.6934349465
 10
11.4079967955
 20
24.6720969234
 10
11.3711802304
 20
24.6520151665
 10
11.3327608608
 20
24.6332510163
 10
11.292890648
 20
24.6158606136
 10
11.2517272793
 20
24.5998946772
 10
11.2094335453
 20
24.5853983047
 10
11.1661766977
 20
24.5724107936
 10
11.1221277893
 20
24.5609654867
 10
11.0774609984
 20
24.5510896406
 10
11.0323529423
 20
24.5428043176
 10
10.9869819793
 20
24.5361243033
 10
10.9415275055
 20
24.5310580477
 10
10.8961692466
 20
24.5276076319
 10
10.8510865484
 20
24.5257687604
 10
10.8064576692
 20
24.5255307772
 10
10.7624590765
 20
24.5268767086
 10
10.7192647501
 20
24.52978333
 10
10.6770454957
 20
24.5342212572
 10
10.6359682709
 20
24.5401550628
 10
10.5961955264
 20
24.5475434159
 10
10.5578845643
 20
24.556339245
 10
10.521186918
 20
24.5664899241
 10
10.4862477538
 20
24.5779374802
 10
10.4532052981
 20
24.590618822
 10
10.4221902917
 20
24.6044659891
 10
10.3933254741
 20
24.6194064202
 10
10.3667250991
 20
24.6353632393
 10
10.3424944834
 20
24.6522555592
 10
10.3207295917
 20
24.6699988007
 10
10.3015166575
 20
24.6885050265
 10
10.2849318429
 20
24.707683288
 10
10.2710409378
 20
24.7274399846
 10
10.2598991008
 20
24.7476792326
 10
10.2515506409
 20
24.7683032442
  0
LWPOLYLINE
  5
36A
100
AcDbEntity
  8
0
100
AcDbPolyline
 62
7
  6
CONTINUOUS
 90
47
 70
0
 10
11.6939481886
 20
24.5653678057
 10
11.6882257366
 20
24.5352483934
 10
11.6796786126
 20
24.5053489911
 10
11.6683408859
 20
24.4757696853
 10
11.6542576387
 20
24.4466092987
 10
11.6374847886
 20
24.4179650013
 10
11.6180888678
 20
24.389931926
 10
11.5961467607
 20
24.3626027934
 10
11.5717454001
 20
24.3360675463
 10
11.5449814245
 20
24.3104129941
 10
11.5159607964
 20
24.2857224706
 10
11.4847983844
 20
24.2620755051
 10
11.4516175097
 20
24.2395475084
 10
11.4165494593
 20
24.2182094752
 10
11.3797329682
 20
24.1981277041
 10
11.3413136716
 20
24.1793635355
 10
11.3014435303
 20
24.1619731103
 10
11.2602802307
 20
24.1460071474
 10
11.217986563
 20
24.1315107444
 10
11.1747297781
 20
24.1185231989
 10
11.1306809283
 20
24.107077854
 10
11.0860141914
 20
24.0972019663
 10
11.040906184
 20
24.0889165985
 10
10.9955352641
 20
24.0822365363
 10
10.9500808271
 20
24.0771702299
 10
10.9047225984
 20
24.0737197608
 10
10.8596399233
 20
24.0718808336
 10
10.8150110599
 20
24.0716427928
 10
10.7710124753
 20
24.0729886651
 10
10.727818149
 20
24.075895226
 10
10.6855988865
 20
24.0803330918
 10
10.6445216454
 20
24.0862668354
 10
10.604748876
 20
24.0936551263
 10
10.5664378807
 20
24.1024508935
 10
10.5297401926
 20
24.1126015111
 10
10.4948009783
 20
24.1240490067
 10
10.461758464
 20
24.1367302894
 10
10.430743391
 20
24.150577399
 10
10.4018784988
 20
24.1655177748
 10
10.3752780415
 20
24.1814745409
 10
10.3510473362
 20
24.1983668107
 10
10.3292823479
 20
24.2161100051
 10
10.3100693104
 20
24.2346161873
 10
10.2934843863
 20
24.2537944089
 10
10.2795933662
 20
24.2735510696
 10
10.268451409
 20
24.2937902861
 10
10.2601028244
 20
24.3144142706
  0
LWPOLYLINE
  5
36B
100
AcDbEntity
  8
0
100
AcDbPolyline
 62
7
  6
CONTINUOUS
 90
37
 70
0
 10
11.7025002582
 20
24.1114812208
 10
11.6967779386
 20
24.0813617901
 10
11.6882309434
 20
24.0514623646
 10
11.6768933409
 20
24.0218830305
 10
11.662810213
 20
23.9927226113
 10
11.6460374767
 20
23.9640782769
 10
11.6266416637
 20
23.9360451604
 10
11.6046996579
 20
23.9087159829
 10
11.5802983916
 20
23.8821806874
 10
11.553534503
 20
23.8565260836
 10
11.5245139542
 20
23.8318355058
 10
11.4933516135
 20
23.8081884834
 10
11.4601708019
 20
23.7856604277
 10
11.4251028063
 20
23.7643223337
 10
11.3882863614
 20
23.7442405004
 10
11.3498671024
 20
23.7254762687
 10
11.30999699
 20
23.7080857796
 10
11.2688337107
 20
23.6921197528
 10
11.2265400547
 20
23.6776232859
 10
11.1832832732
 20
23.6646356771
 10
11.1392344185
 20
23.6531902697
 10
11.0945676687
 20
23.6433143208
 10
11.0494596407
 20
23.6350288934
 10
11.0040886927
 20
23.6283487735
 10
10.9586342206
 20
23.6232824116
 10
10.9132759502
 20
23.6198318896
 10
10.8681932273
 20
23.6179929123
 10
10.8235643103
 20
23.6177548246
 10
10.779565667
 20
23.6191006531
 10
10.7363712774
 20
23.6220071738
 10
10.6941519476
 20
23.6264450031
 10
10.6530746358
 20
23.6323787142
 10
10.6133017929
 20
23.6397669764
 10
10.5749907219
 20
23.648562719
 10
10.5382929566
 20
23.6587133163
 10
10.5033536642
 20
23.6701607956
 10
10.4703110718
 20
23.6828420662
  0
LWPOLYLINE
  5
36C
100
AcDbEntity
  8
0
100
AcDbPolyline
 62
7
  6
CONTINUOUS
 90
11
 70
0
 10
11.5872235547
 20
23.7126812972
 10
11.5818391023
 20
23.6879641828
 10
11.5743176474
 20
23.6636227137
 10
11.5647253397
 20
23.6397287902
 10
11.553135656
 20
23.6163513713
 10
11.5396289923
 20
23.5935562311
 10
11.5242922332
 20
23.5714057326
 10
11.5072182991
 20
23.5499586174
 10
11.4885056735
 20
23.529269814
 10
11.4682579127
 20
23.5093902644
 10
11.446583141
 20
23.4903667698
  0
LWPOLYLINE
  5
36D
100
AcDbEntity
  8
0
100
AcDbPolyline
 62
7
  6
CONTINUOUS
 90
6
 70
0
 10
11.5359562838
 20
23.6780699688
 10
11.5317518391
 20
23.6606335118
 10
11.5258157613
 20
23.6433366448
 10
11.5181669962
 20
23.6262345731
 10
11.5088299557
 20
23.60938188
 10
11.4967167713
 20
23.5912941463
  0
LWPOLYLINE
  5
36E
100
AcDbEntity
  8
RACCORDO
100
AcDbPolyline
 62
250
  6
CONTINUOUS
 90
3
 70
0
 10
18.3476052903
 20
30.4461078448
 10
18.3421680617
 20
30.4314781989
 10
18.3340883261
 20
30.4171609834
  0
LINE
  5
36F
100
AcDbEntity
  8
0
100
AcDbLine
 62
250
  6
CONTINUOUS
 10
-29.6172746353
 20
21.8602254247
 11
-29.5633215478
 21
21.8348461137
  0
LWPOLYLINE
  5
370
100
AcDbEntity
  8
0
100
AcDbPolyline
 62
7
  6
CONTINUOUS
 90
7
 70
0
 10
-29.2656044256
 20
22.9047702565
 10
-29.2575732067
 20
22.9008619364
 10
-29.2496772898
 20
22.8969552954
 10
-29.2419166748
 20
22.8930503334
 10
-29.2342913617
 20
22.8891470504
 10
-29.2268013506
 20
22.8852454465
 10
-29.2194466414
 20
22.8813455216
  0
LINE
  5
371
100
AcDbEntity
  8
TRASH
100
AcDbLine
 62
7
  6
CONTINUOUS
 10
35.2022640739
 20
-12.2970880436
 11
35.2156274826
 21
-12.3044623567
  0
LINE
  5
372
100
AcDbEntity
  8
TRASH
100
AcDbLine
 62
7
  6
CONTINUOUS
 10
-28.3159180866
 20
22.7643768383
 11
-28.3025546779
 21
22.7570025252
  0
LINE
  5
373
100
AcDbEntity
  8
RACCORDO
100
AcDbLine
 62
250
  6
CONTINUOUS
 10
41.2670556816
 20
-13.9977019609
 11
-30.2555516244
 21
25.4821335605
  0
LINE
  5
374
100
AcDbEntity
  8
RACCORDO
100
AcDbLine
 62
7
  6
CONTINUOUS
 10
41.3917570018
 20
-13.9851448898
 11
-30.1308503038
 21
25.4946906314
  0
LWPOLYLINE
  5
375
100
AcDbEntity
  8
TRASH
100
AcDbPolyline
 62
7
  6
CONTINUOUS
 90
16
 70
0
 10
-29.0240550497
 20
22.7926662897
 10
-28.9973293956
 20
22.7778276379
 10
-28.9716397484
 20
22.7637272273
 10
-28.9469555447
 20
22.7503784718
 10
-28.9232316538
 20
22.7378410407
 10
-28.9004274981
 20
22.7260865186
 10
-28.87851497
 20
22.7150014603
 10
-28.8574670504
 20
22.7046198532
 10
-28.8371926476
 20
22.6949499858
 10
-28.817582707
 20
22.6858389584
 10
-28.7985857885
 20
22.6772858527
 10
-28.780134715
 20
22.6693189708
 10
-28.762123428
 20
22.6618198801
 10
-28.7444848232
 20
22.6547501284
 10
-28.7271722021
 20
22.6481546381
 10
-28.7101202593
 20
22.6420325809
  0
LWPOLYLINE
  5
376
100
AcDbEntity
  8
TRASH
100
AcDbPolyline
 62
7
  6
CONTINUOUS
 90
16
 70
0
 10
34.4941271108
 20
-12.2687985922
 10
34.5208527649
 20
-12.283637244
 10
34.5465424121
 20
-12.2977376545
 10
34.5712266158
 20
-12.3110864101
 10
34.5949505067
 20
-12.3236238412
 10
34.6177546624
 20
-12.3353783632
 10
34.6396671905
 20
-12.3464634215
 10
34.6607151101
 20
-12.3568450286
 10
34.6809895129
 20
-12.3665148961
 10
34.7005994535
 20
-12.3756259234
 10
34.719596372
 20
-12.3841790292
 10
34.7380474455
 20
-12.392145911
 10
34.7560587325
 20
-12.3996450017
 10
34.7736973373
 20
-12.4067147534
 10
34.7910099584
 20
-12.4133102438
 10
34.8080619012
 20
-12.419432301
  0
LINE
  5
377
100
AcDbEntity
  8
0
100
AcDbLine
 62
7
  6
CONTINUOUS
 10
-28.3742996907
 20
22.4144443909
 11
-28.3987519034
 21
22.4283904802
  0
LINE
  5
378
100
AcDbEntity
  8
0
100
AcDbLine
 62
7
  6
CONTINUOUS
 10
35.1438824698
 20
-12.647020491
 11
35.1194302571
 21
-12.6330744016
  0
LINE
  5
379
100
AcDbEntity
  8
0
100
AcDbLine
 62
7
  6
CONTINUOUS
 10
-28.3499532305
 20
22.4002976401
 11
-28.3742996907
 21
22.4144443909
  0
LINE
  5
37A
100
AcDbEntity
  8
0
100
AcDbLine
 62
7
  6
CONTINUOUS
 10
35.16822893
 20
-12.6611672418
 11
35.1438824698
 21
-12.647020491
  0
LINE
  5
37B
100
AcDbEntity
  8
0
100
AcDbLine
 62
7
  6
CONTINUOUS
 10
-28.3257125522
 20
22.385950199
 11
-28.3499532305
 21
22.4002976401
  0
LINE
  5
37C
100
AcDbEntity
  8
0
100
AcDbLine
 62
7
  6
CONTINUOUS
 10
35.1924696083
 20
-12.6755146829
 11
35.16822893
 21
-12.6611672418
  0
LINE
  5
37D
100
AcDbEntity
  8
0
100
AcDbLine
 62
7
  6
CONTINUOUS
 10
-0.3353823137
 20
29.7138591721
 11
-0.3409042813
 21
29.7347686443
  0
LINE
  5
37E
100
AcDbEntity
  8
0
100
AcDbLine
 62
7
  6
CONTINUOUS
 10
-0.3439342642
 20
30.1677473059
 11
-0.3494561906
 21
30.1886567523
  0
LINE
  5
37F
100
AcDbEntity
  8
0
100
AcDbLine
 62
7
  6
CONTINUOUS
 10
-0.3524864477
 20
30.6216362795
 11
-0.3580082454
 21
30.6425457482
  0
LINE
  5
380
100
AcDbEntity
  8
0
100
AcDbLine
 62
7
  6
CONTINUOUS
 10
-0.3610378947
 20
31.0755225986
 11
-0.3665598623
 21
31.0964320707
  0
LINE
  5
381
100
AcDbEntity
  8
0
100
AcDbLine
 62
7
  6
CONTINUOUS
 10
-0.0968204878
 20
33.5666321496
 11
-0.0521530866
 21
33.260677053
  0
LINE
  5
382
100
AcDbEntity
  8
0
100
AcDbLine
 62
250
  6
CONTINUOUS
 10
9.528845831
 20
26.8943050919
 11
9.5306762021
 21
26.861461926
  0
LWPOLYLINE
  5
383
100
AcDbEntity
  8
0
100
AcDbPolyline
 62
250
  6
CONTINUOUS
 90
46
 70
0
 10
9.520800488
 20
27.3213096203
 10
9.5226309025
 20
27.2884659897
 10
9.5283849548
 20
27.2472137398
 10
9.5379547885
 20
27.2062835332
 10
9.5512887902
 20
27.1658197332
 10
9.5683441392
 20
27.1258976452
 10
9.5890930279
 20
27.0865703392
 10
9.6134960327
 20
27.0479246709
 10
9.6414788779
 20
27.0100885952
 10
9.6729591045
 20
26.9731757623
 10
9.7078501913
 20
26.937287489
 10
9.7460570315
 20
26.9025214775
 10
9.7874653231
 20
26.8689802787
 10
9.8319354186
 20
26.8367713395
 10
9.8793648807
 20
26.8059635809
 10
9.9296924037
 20
26.7766012767
 10
9.9828342582
 20
26.7487477251
 10
10.0386134511
 20
26.7225094232
 10
10.096819831
 20
26.6979901299
 10
10.157272445
 20
26.6752648601
 10
10.2198247315
 20
26.6543875432
 10
10.2843000925
 20
26.6354170192
 10
10.3505175123
 20
26.618405985
 10
10.4182980949
 20
26.6033998501
 10
10.4874612364
 20
26.5904385446
 10
10.5578210988
 20
26.5795573321
 10
10.6291804413
 20
26.5707871459
 10
10.7013367295
 20
26.5641528091
 10
10.7740870974
 20
26.5596724091
 10
10.8472359077
 20
26.5573574345
 10
10.9205889319
 20
26.5572139763
 10
10.9939495955
 20
26.5592428862
 10
11.0671112925
 20
26.563438917
 10
11.1398648646
 20
26.5697899569
 10
11.2120042883
 20
26.578277257
 10
11.2833378273
 20
26.5888774906
 10
11.3536800637
 20
26.6015631125
 10
11.4228709203
 20
26.6163074225
 10
11.490685224
 20
26.6330646388
 10
11.5568501018
 20
26.6517632191
 10
11.6211364785
 20
26.6723264327
 10
11.6834321311
 20
26.6947060918
 10
11.7436470745
 20
26.7188650735
 10
11.8016404984
 20
26.7447483151
 10
11.8572293569
 20
26.7722756037
 10
11.9102621848
 20
26.8013717509
  0
LINE
  5
384
100
AcDbEntity
  8
DRAFT
100
AcDbLine
 62
7
  6
CONTINUOUS
 10
7.608122273
 20
27.0611441426
 11
7.8289544226
 21
15.3805688427
  0
LINE
  5
385
100
AcDbEntity
  8
0
100
AcDbLine
 62
7
  6
CONTINUOUS
 10
7.7754511047
 20
32.3818905836
 11
7.7770059884
 21
32.2993655275
  0
LINE
  5
386
100
AcDbEntity
  8
0
100
AcDbLine
 62
7
  6
CONTINUOUS
 10
7.8772146731
 20
31.5624097082
 11
7.8787695568
 21
31.4798846521
  0
LINE
  5
387
100
AcDbEntity
  8
0
100
AcDbLine
 62
7
  6
CONTINUOUS
 10
9.1668757783
 20
30.5518994954
 11
9.168430662
 21
30.4693744393
  0
LINE
  5
388
100
AcDbEntity
  8
0
100
AcDbLine
 62
7
  6
CONTINUOUS
 10
9.520800488
 20
27.3213096211
 11
9.528845831
 21
26.8943050919
  0
LINE
  5
389
100
AcDbEntity
  8
0
100
AcDbLine
 62
7
  6
CONTINUOUS
 10
9.5970803727
 20
30.9042745148
 11
9.5986352564
 21
30.8217494587
  0
LINE
  5
38A
100
AcDbEntity
  8
0
100
AcDbLine
 62
7
  6
CONTINUOUS
 10
10.2345613359
 20
25.2704458849
 11
10.2353387777
 21
25.2291833568
  0
LINE
  5
38B
100
AcDbEntity
  8
0
100
AcDbLine
 62
7
  6
CONTINUOUS
 10
10.2431131913
 20
24.8165583358
 11
10.2438906331
 21
24.7752958077
  0
LINE
  5
38C
100
AcDbEntity
  8
0
100
AcDbLine
 62
7
  6
CONTINUOUS
 10
10.2516650556
 20
24.3626703136
 11
10.2524424975
 21
24.3214077855
  0
LINE
  5
38D
100
AcDbEntity
  8
0
100
AcDbLine
 62
7
  6
CONTINUOUS
 10
10.2602169168
 20
23.9087824584
 11
10.2609943587
 21
23.8675199303
  0
LINE
  5
38E
100
AcDbEntity
  8
0
100
AcDbLine
 62
7
  6
CONTINUOUS
 10
10.4058135896
 20
25.4710050377
 11
10.407959285
 21
25.3571227974
  0
LINE
  5
38F
100
AcDbEntity
  8
0
100
AcDbLine
 62
7
  6
CONTINUOUS
 10
10.4229173075
 20
24.5632295615
 11
10.4250630048
 21
24.4493472262
  0
LINE
  5
390
100
AcDbEntity
  8
0
100
AcDbLine
 62
7
  6
CONTINUOUS
 10
10.4143654513
 20
25.0171171524
 11
10.4165111404
 21
24.9032352483
  0
LINE
  5
391
100
AcDbEntity
  8
0
100
AcDbLine
 62
7
  6
CONTINUOUS
 10
10.4314691705
 20
24.1093416112
 11
10.433614866
 21
23.995459371
  0
LINE
  5
392
100
AcDbEntity
  8
0
100
AcDbLine
 62
7
  6
CONTINUOUS
 10
10.342248609
 20
31.5146321797
 11
10.3438034927
 21
31.4321071236
  0
LINE
  5
393
100
AcDbEntity
  8
0
100
AcDbLine
 62
7
  6
CONTINUOUS
 10
10.9193840019
 20
27.6195339118
 11
10.9136147094
 21
27.9479482878
  0
LWPOLYLINE
  5
394
100
AcDbEntity
  8
0
100
AcDbPolyline
 62
7
  6
CONTINUOUS
 90
14
 70
0
 10
11.5120400152
 20
25.1509009083
 10
11.5117891553
 20
25.1332755658
 10
11.5095794885
 20
25.1093262667
 10
11.50521927
 20
25.0854431758
 10
11.4987220383
 20
25.0617118277
 10
11.4900994592
 20
25.0381841985
 10
11.4793872061
 20
25.0149602405
 10
11.4666712951
 20
24.9921926281
 10
11.4520520876
 20
24.9699963616
 10
11.435578111
 20
24.9483872671
 10
11.4172727139
 20
24.9273660476
 10
11.3971858859
 20
24.9069773039
 10
11.375412236
 20
24.8873038169
 10
11.3520359301
 20
24.8684047458
  0
LWPOLYLINE
  5
395
100
AcDbEntity
  8
0
100
AcDbPolyline
 62
7
  6
CONTINUOUS
 90
3
 70
0
 10
11.6885799581
 20
25.0708172991
 10
11.6882711763
 20
25.0494939014
 10
11.6853962922
 20
25.0192554035
  0
LWPOLYLINE
  5
396
100
AcDbEntity
  8
0
100
AcDbPolyline
 62
7
  6
CONTINUOUS
 90
12
 70
0
 10
11.6893574
 20
25.029554771
 10
11.6890486182
 20
25.0082313734
 10
11.6861737341
 20
24.9779928754
 10
11.6804512502
 20
24.9478734345
 10
11.6719040882
 20
24.9179740056
 10
11.6605663175
 20
24.8883946751
 10
11.6464830209
 20
24.8592342666
 10
11.6297101165
 20
24.8305899499
 10
11.6103141369
 20
24.8025568583
 10
11.5883719669
 20
24.7752277127
 10
11.56397054
 20
24.7486924561
 10
11.5372064953
 20
24.7230378981
  0
LWPOLYLINE
  5
397
100
AcDbEntity
  8
0
100
AcDbPolyline
 62
7
  6
CONTINUOUS
 90
3
 70
0
 10
11.697131819
 20
24.6169294622
 10
11.6968230474
 20
24.5956062735
 10
11.6939481886
 20
24.5653678057
  0
LWPOLYLINE
  5
398
100
AcDbEntity
  8
0
100
AcDbPolyline
 62
7
  6
CONTINUOUS
 90
12
 70
0
 10
11.6979092608
 20
24.5756669341
 10
11.6976004893
 20
24.5543437455
 10
11.6947256305
 20
24.5241052776
 10
11.6890031784
 20
24.4939858653
 10
11.6804560545
 20
24.4640864631
 10
11.6691183277
 20
24.4345071572
 10
11.6550350805
 20
24.4053467707
 10
11.6382622304
 20
24.3767024732
 10
11.6188663097
 20
24.3486693979
 10
11.5969242026
 20
24.3213402653
 10
11.572522842
 20
24.2948050182
 10
11.5457588664
 20
24.269150466
  0
LWPOLYLINE
  5
399
100
AcDbEntity
  8
0
100
AcDbPolyline
 62
7
  6
CONTINUOUS
 90
3
 70
0
 10
11.7056836835
 20
24.1630414339
 10
11.7053749814
 20
24.1417197018
 10
11.7025002582
 20
24.1114812208
  0
LWPOLYLINE
  5
39A
100
AcDbEntity
  8
0
100
AcDbPolyline
 62
7
  6
CONTINUOUS
 90
52
 70
0
 10
11.7064611253
 20
24.1217789058
 10
11.7061524232
 20
24.1004571738
 10
11.7032777001
 20
24.0702186927
 10
11.6975553805
 20
24.0400992621
 10
11.6890083852
 20
24.0101998365
 10
11.6776707828
 20
23.9806205025
 10
11.6635876549
 20
23.9514600832
 10
11.6468149186
 20
23.9228157488
 10
11.6274191056
 20
23.8947826323
 10
11.6054770997
 20
23.8674534549
 10
11.5810758335
 20
23.8409181593
 10
11.5543119448
 20
23.8152635555
 10
11.525291396
 20
23.7905729777
 10
11.4941290554
 20
23.7669259553
 10
11.4609482438
 20
23.7443978996
 10
11.4258802481
 20
23.7230598056
 10
11.3890638032
 20
23.7029779723
 10
11.3506445442
 20
23.6842137406
 10
11.3107744318
 20
23.6668232516
 10
11.2696111525
 20
23.6508572247
 10
11.2273174966
 20
23.6363607578
 10
11.1840607151
 20
23.623373149
 10
11.1400118604
 20
23.6119277417
 10
11.0953451106
 20
23.6020517927
 10
11.0502370825
 20
23.5937663653
 10
11.0048661345
 20
23.5870862454
 10
10.9594116625
 20
23.5820198835
 10
10.914053392
 20
23.5785693615
 10
10.8689706691
 20
23.5767303843
 10
10.8243417522
 20
23.5764922965
 10
10.7803431088
 20
23.577838125
 10
10.7371487192
 20
23.5807446457
 10
10.6949293895
 20
23.5851824751
 10
10.6538520776
 20
23.5911161861
 10
10.6140792347
 20
23.5985044484
 10
10.5757681637
 20
23.6073001909
 10
10.5390703985
 20
23.6174507882
 10
10.5041311061
 20
23.6288982675
 10
10.4710885136
 20
23.6415795381
 10
10.4400733628
 20
23.6554266399
 10
10.4112083939
 20
23.6703670119
 10
10.3846078616
 20
23.6863237783
 10
10.3603770837
 20
23.7032160521
 10
10.3386120256
 20
23.7209592545
 10
10.319398922
 20
23.7394654481
 10
10.3028139358
 20
23.7586436846
 10
10.2889228581
 20
23.7784003633
 10
10.2777808484
 20
23.7986396006
 10
10.2694322167
 20
23.8192636087
 10
10.2639102491
 20
23.8401730809
 10
10.2612370759
 20
23.8612675841
 10
10.2609943587
 20
23.8675199303
  0
LWPOLYLINE
  5
39B
100
AcDbEntity
  8
0
100
AcDbPolyline
 62
7
  6
CONTINUOUS
 90
3
 70
0
 10
11.5388457893
 20
23.728191274
 10
11.5383274517
 20
23.7025785054
 10
11.5359562838
 20
23.6780699688
  0
LINE
  5
39C
100
AcDbEntity
  8
0
100
AcDbLine
 62
7
  6
CONTINUOUS
 10
10.6054433691
 20
27.7701680977
 11
10.6095950293
 21
27.9678077782
  0
LINE
  5
39D
100
AcDbEntity
  8
0
100
AcDbLine
 62
7
  6
CONTINUOUS
 10
10.593262243
 20
27.7892277948
 11
10.5975853846
 21
27.9672214779
  0
LWPOLYLINE
  5
39E
100
AcDbEntity
  8
0
100
AcDbPolyline
 62
7
  6
CONTINUOUS
 90
13
 70
0
 10
10.2345613359
 20
25.2704458849
 10
10.2349905617
 20
25.2853719096
 10
10.2380363538
 20
25.306532654
 10
10.2439297467
 20
25.3275743469
 10
10.2526478194
 20
25.3483960334
 10
10.2641565035
 20
25.3688976268
 10
10.2784107169
 20
25.3889803036
 10
10.2953545424
 20
25.4085468937
 10
10.314921448
 20
25.4275022636
 10
10.3370345496
 20
25.4457536921
 10
10.3616069145
 20
25.463211236
 10
10.3885419042
 20
25.4797880853
 10
10.3886908173
 20
25.4798677298
  0
LWPOLYLINE
  5
39F
100
AcDbEntity
  8
0
100
AcDbPolyline
 62
7
  6
CONTINUOUS
 90
13
 70
0
 10
10.2431131913
 20
24.8165583358
 10
10.2435425088
 20
24.8314855595
 10
10.2465884595
 20
24.8526462801
 10
10.2524820052
 20
24.873687943
 10
10.2612002245
 20
24.8945095935
 10
10.2727090478
 20
24.9150111452
 10
10.2869633925
 20
24.9350937751
 10
10.3039073406
 20
24.9546603134
 10
10.3234743596
 20
24.9736156271
 10
10.3455875649
 20
24.9918669953
 10
10.3701600231
 20
25.0093244755
 10
10.3970950956
 20
25.0259012581
 10
10.3972423253
 20
25.0259800018
  0
LWPOLYLINE
  5
3A0
100
AcDbEntity
  8
0
100
AcDbPolyline
 62
7
  6
CONTINUOUS
 90
13
 70
0
 10
10.2516650556
 20
24.3626703136
 10
10.2520942967
 20
24.3775965338
 10
10.2551401105
 20
24.3987572474
 10
10.2610335181
 20
24.4197989085
 10
10.2697515985
 20
24.4406205626
 10
10.281260283
 20
24.4611221235
 10
10.2955144897
 20
24.4812047679
 10
10.3124583013
 20
24.5007713262
 10
10.332025186
 20
24.5197266653
 10
10.3541382597
 20
24.5379780643
 10
10.3787105901
 20
24.5554355805
 10
10.4056455388
 20
24.5720124042
 10
10.4057947406
 20
24.5720922031
  0
LWPOLYLINE
  5
3A1
100
AcDbEntity
  8
0
100
AcDbPolyline
 62
7
  6
CONTINUOUS
 90
13
 70
0
 10
10.2602169168
 20
23.9087824584
 10
10.2606461426
 20
23.9237084832
 10
10.2636919347
 20
23.9448692275
 10
10.2695853276
 20
23.9659109204
 10
10.2783034004
 20
23.9867326069
 10
10.2898120844
 20
24.0072342003
 10
10.3040662979
 20
24.0273168772
 10
10.3210101233
 20
24.0468834673
 10
10.3405770289
 20
24.0658388372
 10
10.3626901306
 20
24.0840902656
 10
10.3872624955
 20
24.1015478095
 10
10.4141974852
 20
24.1181246589
 10
10.4143463982
 20
24.1182043033
  0
LWPOLYLINE
  5
3A2
100
AcDbEntity
  8
0
100
AcDbPolyline
 62
7
  6
CONTINUOUS
 90
13
 70
0
 10
11.5291437405
 20
24.2431250432
 10
11.5284003626
 20
24.2175759415
 10
11.5253012389
 20
24.1925909792
 10
11.5198243722
 20
24.1675684189
 10
11.5119190607
 20
24.142525228
 10
11.5015860462
 20
24.1176319753
 10
11.4889084063
 20
24.0931320394
 10
11.4739362693
 20
24.0691101806
 10
11.4567351484
 20
24.0456578684
 10
11.4375123036
 20
24.0230068306
 10
11.4164395071
 20
24.0012710397
 10
11.3936045332
 20
23.9804602687
 10
11.3691396561
 20
23.9606288437
  0
LINE
  5
3A3
100
AcDbEntity
  8
0
100
AcDbLine
 62
7
  6
CONTINUOUS
 10
11.4182791613
 20
27.5143176847
 11
11.4094385705
 21
27.4171063001
  0
LINE
  5
3A4
100
AcDbEntity
  8
0
100
AcDbLine
 62
7
  6
CONTINUOUS
 10
11.4161536568
 20
27.5225946475
 11
11.4063022187
 21
27.4151813536
  0
LINE
  5
3A5
100
AcDbEntity
  8
0
100
AcDbLine
 62
7
  6
CONTINUOUS
 10
11.2867951421
 20
27.4167262692
 11
11.3199146166
 21
27.7236744345
  0
LWPOLYLINE
  5
3A6
100
AcDbEntity
  8
TRASH
100
AcDbPolyline
 62
7
  6
CONTINUOUS
 90
5
 70
0
 10
-28.3995595471
 20
22.8006389187
 10
-28.3775271224
 20
22.7924276661
 10
-28.3562111502
 20
22.7836342064
 10
-28.3356586027
 20
22.7742770168
 10
-28.3159180866
 20
22.7643768383
  0
LWPOLYLINE
  5
3A7
100
AcDbEntity
  8
0
100
AcDbPolyline
 62
250
  6
CONTINUOUS
 90
27
 70
0
 10
-29.5633215478
 20
21.8348461137
 10
-29.5070207345
 20
21.8111295345
 10
-29.4485472242
 20
21.7891482464
 10
-29.3880427804
 20
21.768954413
 10
-29.3256782198
 20
21.750604948
 10
-29.2616286321
 20
21.7341508229
 10
-29.1960670566
 20
21.7196359607
 10
-29.1291681845
 20
21.7070989843
 10
-29.0611117696
 20
21.6965740031
 10
-28.992088596
 20
21.6880909376
 10
-28.9222945672
 20
21.6816737975
 10
-28.8519259081
 20
21.6773400773
 10
-28.7811718507
 20
21.6751008904
 10
-28.7102202651
 20
21.6749621305
 10
-28.6392612907
 20
21.6769246248
 10
-28.56849477
 20
21.6809832945
 10
-28.4981230129
 20
21.6871264161
 10
-28.4283452946
 20
21.6953358432
 10
-28.3593470748
 20
21.7055890243
 10
-28.2913077085
 20
21.7178593428
 10
-28.2243820478
 20
21.732121005
 10
-28.1587878879
 20
21.7483296932
 10
-28.0947891369
 20
21.766416135
 10
-28.032607331
 20
21.7863060543
 10
-27.9723510381
 20
21.8079529048
 10
-27.9141073587
 20
21.8313208864
 10
-27.8580125253
 20
21.8563567704
  0
LWPOLYLINE
  5
3A8
100
AcDbEntity
  8
RACCORDO
100
AcDbPolyline
 62
7
  6
CONTINUOUS
 90
16
 70
0
 10
-30.1308528458
 20
25.4946920345
 10
-30.1562496166
 20
25.5077230357
 10
-30.182463542
 20
25.5191645915
 10
-30.2088754581
 20
25.5286997858
 10
-30.2354411029
 20
25.5363232175
 10
-30.2620745864
 20
25.5420220892
 10
-30.2886087217
 20
25.5457786158
 10
-30.3149237103
 20
25.5476065081
 10
-30.3409317302
 20
25.5475345694
 10
-30.3664660536
 20
25.5456023246
 10
-30.3913985335
 20
25.5418689064
 10
-30.4156255458
 20
25.5364079994
 10
-30.4390003112
 20
25.5293188616
 10
-30.4614091459
 20
25.5207125827
 10
-30.4827800173
 20
25.5106998162
 10
-30.497426375
 20
25.5027221113
  0
LWPOLYLINE
  5
3A9
100
AcDbEntity
  8
RACCORDO
100
AcDbPolyline
 62
250
  6
CONTINUOUS
 90
14
 70
0
 10
-30.2555516244
 20
25.4821335605
 10
-30.276125358
 20
25.4927998976
 10
-30.2965035232
 20
25.5019923022
 10
-30.3166193304
 20
25.5096999029
 10
-30.3363733533
 20
25.5159076692
 10
-30.3557400497
 20
25.5206306266
 10
-30.3747621647
 20
25.5238874531
 10
-30.3934143895
 20
25.5256667759
 10
-30.4115951979
 20
25.5259516998
 10
-30.429230695
 20
25.5247397335
 10
-30.4462576504
 20
25.5220365917
 10
-30.4626259784
 20
25.517851591
 10
-30.4782853016
 20
25.5121976452
 10
-30.4922991386
 20
25.5055148588
  0
LWPOLYLINE
  5
3AA
100
AcDbEntity
  8
0
100
AcDbPolyline
 62
7
  6
CONTINUOUS
 90
10
 70
0
 10
34.2524775609
 20
-12.5964411366
 10
34.2675657816
 20
-12.6078296986
 10
34.2834175141
 20
-12.6188785766
 10
34.3000101613
 20
-12.6295720203
 10
34.3173200704
 20
-12.639894786
 10
34.3353225659
 20
-12.6498321586
 10
34.3539919851
 20
-12.6593699721
 10
34.3733017143
 20
-12.6684946304
 10
34.3932242274
 20
-12.6771931261
 10
34.4137311247
 20
-12.6854530595
  0
LINE
  5
3AB
100
AcDbEntity
  8
0
100
AcDbLine
 62
7
  6
CONTINUOUS
 10
-0.0788454938
 20
33.8287319415
 11
-0.0107628353
 21
33.6425701448
  0
LWPOLYLINE
  5
3AC
100
AcDbEntity
  8
0
100
AcDbPolyline
 62
7
  6
CONTINUOUS
 90
5
 70
0
 10
0.9760474162
 20
29.6933009537
 10
0.9762969487
 20
29.6925459594
 10
0.982308243
 20
29.6671131755
 10
0.9859740189
 20
29.6416619574
 10
0.9872771413
 20
29.6194058338
  0
LINE
  5
3AD
100
AcDbEntity
  8
0
100
AcDbLine
 62
7
  6
CONTINUOUS
 10
0.8121165682
 20
33.3759276829
 11
0.8142420727
 21
33.36765072
  0
LWPOLYLINE
  5
3AE
100
AcDbEntity
  8
0
100
AcDbPolyline
 62
7
  6
CONTINUOUS
 90
43
 70
0
 10
12.3203036252
 20
27.3740560437
 10
12.3174583984
 20
27.4192683099
 10
12.3105732998
 20
27.46457714
 10
12.299587163
 20
27.5098079933
 10
12.2844514227
 20
27.5547988836
 10
12.2651406906
 20
27.5993676492
 10
12.2416552347
 20
27.6433270544
 10
12.2139669833
 20
27.6865707772
 10
12.1821034478
 20
27.7289173637
 10
12.1461980059
 20
27.7701047762
 10
12.1062687247
 20
27.8100522716
 10
12.0624042929
 20
27.848611571
 10
12.0149527592
 20
27.8854649192
 10
11.9640983137
 20
27.9204980678
 10
11.9099351627
 20
27.9536678262
 10
11.8527870702
 20
27.9848035608
 10
11.7928856404
 20
28.0138220631
 10
11.7303698126
 20
28.0406929728
 10
11.6654825296
 20
28.0653434093
 10
11.5984461499
 20
28.0877211236
 10
11.5294496773
 20
28.1077913972
 10
11.4587126451
 20
28.1255146597
 10
11.386465008
 20
28.1408559863
 10
11.3129130679
 20
28.1537917606
 10
11.2382537701
 20
28.1643032832
 10
11.1627132918
 20
28.1723715973
 10
11.0865136855
 20
28.1779841621
 10
11.0098512129
 20
28.181134523
 10
10.932952135
 20
28.1818184812
 10
10.856043294
 20
28.1800377382
 10
10.7793231628
 20
28.1757979219
 10
10.7030174501
 20
28.169109831
 10
10.6273511632
 20
28.1599901314
 10
10.5525192729
 20
28.1484564179
 10
10.4787390497
 20
28.1345330434
 10
10.4062344017
 20
28.118251408
 10
10.3352033648
 20
28.0996424543
 10
10.2658520661
 20
28.078743011
 10
10.1983979307
 20
28.0555989341
 10
10.1330425919
 20
28.0302571207
 10
10.069982099
 20
28.0027674244
 10
10.0094142793
 20
27.9731858595
 10
9.9515330928
 20
27.9415728427
  0
LWPOLYLINE
  5
3AF
100
AcDbEntity
  8
0
100
AcDbPolyline
 62
7
  6
CONTINUOUS
 90
3
 70
0
 10
11.2306846538
 20
27.9753110473
 10
11.2324125912
 20
27.9456613803
 10
11.2414940446
 20
27.7975034564
  0
LINE
  5
3B0
100
AcDbEntity
  8
0
100
AcDbLine
 62
7
  6
CONTINUOUS
 10
11.2187992668
 20
27.9755851918
 11
11.2299439038
 21
27.7781407938
  0
LINE
  5
3B1
100
AcDbEntity
  8
DRAFT
100
AcDbLine
 62
7
  6
CONTINUOUS
 10
13.0703717895
 20
26.1508210951
 11
13.1354181349
 21
23.5305639966
  0
LINE
  5
3B2
100
AcDbEntity
  8
DRAFT
100
AcDbLine
 62
7
  6
CONTINUOUS
 10
14.8172846678
 20
8.1798560312
 11
14.4920120103
 21
23.1036333538
  0
LINE
  5
3B3
100
AcDbEntity
  8
0
100
AcDbLine
 62
7
  6
CONTINUOUS
 10
11.5118195455
 20
25.1626022779
 11
11.5120400152
 21
25.1509009083
  0
LINE
  5
3B4
100
AcDbEntity
  8
0
100
AcDbLine
 62
7
  6
CONTINUOUS
 10
11.5203714003
 20
24.708714765
 11
11.520591876
 21
24.6970130715
  0
LINE
  5
3B5
100
AcDbEntity
  8
0
100
AcDbLine
 62
7
  6
CONTINUOUS
 10
11.5289232623
 20
24.2548268657
 11
11.5291437405
 21
24.2431250432
  0
LINE
  5
3B6
100
AcDbEntity
  8
0
100
AcDbLine
 62
7
  6
CONTINUOUS
 10
11.5374751265
 20
23.8009388515
 11
11.5388457893
 21
23.728191274
  0
LINE
  5
3B7
100
AcDbEntity
  8
0
100
AcDbLine
 62
7
  6
CONTINUOUS
 10
11.5920916717
 20
23.7248102703
 11
11.5913142299
 21
23.7660727984
  0
LINE
  5
3B8
100
AcDbEntity
  8
0
100
AcDbLine
 62
7
  6
CONTINUOUS
 10
11.7064611253
 20
24.1217789058
 11
11.7056836835
 21
24.1630414339
  0
LINE
  5
3B9
100
AcDbEntity
  8
0
100
AcDbLine
 62
7
  6
CONTINUOUS
 10
11.6979092608
 20
24.5756669341
 11
11.697131819
 21
24.6169294622
  0
LINE
  5
3BA
100
AcDbEntity
  8
0
100
AcDbLine
 62
7
  6
CONTINUOUS
 10
11.6893574
 20
25.029554771
 11
11.6885799581
 21
25.0708172991
  0
LINE
  5
3BB
100
AcDbEntity
  8
0
100
AcDbLine
 62
7
  6
CONTINUOUS
 10
12.3203036251
 20
27.3740560473
 11
12.3283489681
 21
26.9470515181
  0
LINE
  5
3BC
100
AcDbEntity
  8
RACCORDO
100
AcDbLine
 62
7
  6
CONTINUOUS
 10
14.409591142
 20
23.23275154
 11
14.3405569193
 21
26.8842100699
  0
LINE
  5
3BD
100
AcDbEntity
  8
RACCORDO
100
AcDbLine
 62
7
  6
CONTINUOUS
 10
11.1988603646
 20
25.4980166588
 11
11.206701119
 21
25.0747610073
  0
LINE
  5
3BE
100
AcDbEntity
  8
DRAFT
100
AcDbLine
 62
7
  6
CONTINUOUS
 10
15.1723161023
 20
7.9838818747
 11
14.9172335712
 21
24.049706133
  0
LWPOLYLINE
  5
3BF
100
AcDbEntity
  8
0
100
AcDbPolyline
 62
7
  6
CONTINUOUS
 90
4
 70
0
 10
11.5913142299
 20
23.7660727984
 10
11.5913557453
 20
23.7629417205
 10
11.5904125625
 20
23.7376994739
 10
11.5872235547
 20
23.7126812972
  0
LINE
  5
3C0
100
AcDbEntity
  8
RACCORDO
100
AcDbLine
 62
7
  6
CONTINUOUS
 10
14.8811086288
 20
23.5049998274
 11
14.8339910467
 21
27.1691127509
  0
LWPOLYLINE
  5
3C1
100
AcDbEntity
  8
0
100
AcDbPolyline
 62
7
  6
CONTINUOUS
 90
14
 70
0
 10
11.520591876
 20
24.6970130715
 10
11.5206382459
 20
24.6913021943
 10
11.5194308
 20
24.6666145463
 10
11.5159652051
 20
24.6421099852
 10
11.5102274201
 20
24.6176454689
 10
11.5021827434
 20
24.5932233096
 10
11.4918534444
 20
24.5690136728
 10
11.4792708021
 20
24.5451285737
 10
11.4644414134
 20
24.5216134535
 10
11.4474302474
 20
24.4985961469
 10
11.4284180417
 20
24.4762988597
 10
11.4075526176
 20
24.4548348874
 10
11.3849044982
 20
24.4342210708
 10
11.3605877921
 20
24.4145168451
  0
LWPOLYLINE
  5
3C2
100
AcDbEntity
  8
0
100
AcDbPolyline
 62
7
  6
CONTINUOUS
 90
42
 70
0
 10
11.5920916717
 20
23.7248102703
 10
11.5921136092
 20
23.7155747516
 10
11.5907096259
 20
23.6912071767
 10
11.5872146902
 20
23.6670643037
 10
11.5816757823
 20
23.6432153575
 10
11.5741468795
 20
23.6197274133
 10
11.5646886531
 20
23.5966651672
 10
11.5533681438
 20
23.5740907194
 10
11.5402584148
 20
23.5520633697
 10
11.5254381867
 20
23.5306394261
 10
11.5089914537
 20
23.5098720285
 10
11.4910070842
 20
23.4898109859
 10
11.4715784071
 20
23.4705026292
 10
11.4508027854
 20
23.4519896797
 10
11.4287811787
 20
23.4343111327
 10
11.405617698
 20
23.4175021581
 10
11.3814191518
 20
23.4015940171
 10
11.3562945888
 20
23.3866139951
 10
11.3303548361
 20
23.3725853517
 10
11.3037120368
 20
23.3595272869
 10
11.2764791874
 20
23.3474549248
 10
11.2487696784
 20
23.3363793125
 10
11.220696838
 20
23.3263074365
 10
11.1923734833
 20
23.3172422547
 10
11.1639114774
 20
23.309182744
 10
11.1354212971
 20
23.3021239641
 10
11.1070116117
 20
23.296057135
 10
11.0787888737
 20
23.2909697308
 10
11.0508569241
 20
23.286845586
 10
11.0233166135
 20
23.2836650159
 10
10.9962654402
 20
23.2814049497
 10
10.9697972059
 20
23.2800390759
 10
10.9440016919
 20
23.2795379987
 10
10.9189643554
 20
23.2798694057
 10
10.8947660475
 20
23.2809982441
 10
10.8714827537
 20
23.282886908
 10
10.8491853582
 20
23.2854954315
 10
10.8279394322
 20
23.2887816912
 10
10.8078050464
 20
23.2927016133
 10
10.7888366099
 20
23.2972093873
 10
10.7710827335
 20
23.3022576836
 10
10.7545861203
 20
23.3077978748
  0
LINE
  5
3C3
100
AcDbEntity
  8
RACCORDO
100
AcDbLine
 62
250
  6
CONTINUOUS
 10
15.5216568034
 20
27.6300453647
 11
15.5219063059
 21
27.6413369374
  0
LWPOLYLINE
  5
3C4
100
AcDbEntity
  8
0
100
AcDbPolyline
 62
7
  6
CONTINUOUS
 90
16
 70
0
 10
12.3283489681
 20
26.9470515181
 10
12.3272626638
 20
26.9025501072
 10
12.3222840931
 20
26.8578157143
 10
12.3133512155
 20
26.8130114484
 10
12.3004234113
 20
26.7683163879
 10
12.2834674313
 20
26.7238739516
 10
12.2624362829
 20
26.6797817297
 10
12.2372500803
 20
26.6360960006
 10
12.2079307414
 20
26.5930464674
 10
12.1746287995
 20
26.5509570983
 10
12.1373744381
 20
26.5099240177
 10
12.0962315493
 20
26.4700748585
 10
12.051524542
 20
26.4317353336
 10
12.0034751749
 20
26.3950587357
 10
11.9521290011
 20
26.3600504494
 10
11.8976163632
 20
26.3267882965
  0
LINE
  5
3C5
100
AcDbEntity
  8
0
100
AcDbLine
 62
7
  6
CONTINUOUS
 10
-28.608610346
 20
22.4862141468
 11
-28.6504015896
 21
22.4964429733
  0
LINE
  5
3C6
100
AcDbEntity
  8
0
100
AcDbLine
 62
7
  6
CONTINUOUS
 10
-28.5710631305
 20
22.4766208201
 11
-28.608610346
 21
22.4862141468
  0
LINE
  5
3C7
100
AcDbEntity
  8
0
100
AcDbLine
 62
7
  6
CONTINUOUS
 10
-28.5360028157
 20
22.4673045618
 11
-28.5710631305
 21
22.4766208201
  0
LINE
  5
3C8
100
AcDbEntity
  8
0
100
AcDbLine
 62
7
  6
CONTINUOUS
 10
-28.5132577588
 20
22.4610644791
 11
-28.5360028157
 21
22.4673045618
  0
LINE
  5
3C9
100
AcDbEntity
  8
0
100
AcDbLine
 62
7
  6
CONTINUOUS
 10
-28.4905236597
 20
22.4546837955
 11
-28.5132577588
 21
22.4610644791
  0
LINE
  5
3CA
100
AcDbEntity
  8
0
100
AcDbLine
 62
7
  6
CONTINUOUS
 10
-28.4677604504
 20
22.4481426476
 11
-28.4905236597
 21
22.4546837955
  0
LINE
  5
3CB
100
AcDbEntity
  8
0
100
AcDbLine
 62
7
  6
CONTINUOUS
 10
-28.4449579169
 20
22.4414268714
 11
-28.4677604504
 21
22.4481426476
  0
LWPOLYLINE
  5
3CC
100
AcDbEntity
  8
0
100
AcDbPolyline
 62
7
  6
CONTINUOUS
 90
3
 70
0
 10
-28.4108231572
 20
22.4310742988
 10
-28.4221863559
 20
22.4345731889
 10
-28.4449579169
 20
22.4414268714
  0
LINE
  5
3CD
100
AcDbEntity
  8
DRAFT
100
AcDbLine
 62
7
  6
CONTINUOUS
 10
15.1723161023
 20
7.9838818747
 11
14.8172846678
 21
8.1798560312
  0
LINE
  5
3CE
100
AcDbEntity
  8
DRAFT
100
AcDbLine
 62
7
  6
CONTINUOUS
 10
4.8687267313
 20
13.6713704741
 11
4.5136952968
 21
13.8673446306
  0
LWPOLYLINE
  5
3CF
100
AcDbEntity
  8
0
100
AcDbPolyline
 62
7
  6
CONTINUOUS
 90
10
 70
0
 10
35.3538648408
 20
-12.1426398354
 10
35.33877662
 20
-12.1312512732
 10
35.3229248875
 20
-12.1202023951
 10
35.3063322401
 20
-12.1095089513
 10
35.2890223308
 20
-12.0991861854
 10
35.2710198351
 20
-12.0892488127
 10
35.2523504158
 20
-12.079710999
 10
35.2330406863
 20
-12.0705863406
 10
35.213118173
 20
-12.0618878447
 10
35.1926112755
 20
-12.0536279113
  0
LWPOLYLINE
  5
3D0
100
AcDbEntity
  8
TRASH
100
AcDbPolyline
 62
7
  6
CONTINUOUS
 90
3
 70
0
 10
35.2071618797
 20
-12.6533117933
 10
35.2139634093
 20
-12.6590037292
 10
35.2197889986
 20
-12.6636441806
  0
LINE
  5
3D1
100
AcDbEntity
  8
0
100
AcDbLine
 62
7
  6
CONTINUOUS
 10
0.7580662024
 20
33.4957370704
 11
0.7639417073
 21
33.4835517528
  0
LINE
  5
3D2
100
AcDbEntity
  8
0
100
AcDbLine
 62
7
  6
CONTINUOUS
 10
0.7639417073
 20
33.4835517528
 11
0.7701201343
 21
33.4705501571
  0
LWPOLYLINE
  5
3D3
100
AcDbEntity
  8
0
100
AcDbPolyline
 62
7
  6
CONTINUOUS
 90
3
 70
0
 10
0.7701201343
 20
33.4705501571
 10
0.7766300716
 20
33.4565769696
 10
0.7800450575
 20
33.44915469
  0
LWPOLYLINE
  5
3D4
100
AcDbEntity
  8
0
100
AcDbPolyline
 62
7
  6
CONTINUOUS
 90
3
 70
0
 10
0.7800450575
 20
33.44915469
 10
0.7872053139
 20
33.4333398755
 10
0.7909887694
 20
33.4248755607
  0
LWPOLYLINE
  5
3D5
100
AcDbEntity
  8
0
100
AcDbPolyline
 62
7
  6
CONTINUOUS
 90
4
 70
0
 10
0.7909887694
 20
33.4248755607
 10
0.8032262291
 20
33.3969463108
 10
0.8076224397
 20
33.3866873202
 10
0.8121165682
 20
33.3759276829
  0
LINE
  5
3D6
100
AcDbEntity
  8
0
100
AcDbLine
 62
7
  6
CONTINUOUS
 10
-0.1939827651
 20
33.7121788697
 11
-0.1919179082
 21
33.7071207622
  0
LINE
  5
3D7
100
AcDbEntity
  8
0
100
AcDbLine
 62
7
  6
CONTINUOUS
 10
10.5072166008
 20
27.7132991142
 11
10.5518840019
 21
27.4073440177
  0
LWPOLYLINE
  5
3D8
100
AcDbEntity
  8
0
100
AcDbPolyline
 62
250
  6
CONTINUOUS
 90
45
 70
0
 10
9.5306762021
 20
26.861461926
 10
9.5364173532
 20
26.8202786403
 10
9.5459743755
 20
26.7793705364
 10
9.5593210807
 20
26.7388497277
 10
9.5764208857
 20
26.6988272926
 10
9.5972269049
 20
26.6594129613
 10
9.6216820849
 20
26.620714792
 10
9.6497194026
 20
26.5828388234
 10
9.6812620483
 20
26.5458888197
 10
9.7162235988
 20
26.5099660357
 10
9.7545082137
 20
26.4751689616
 10
9.7960109329
 20
26.4415930006
 10
9.8406179888
 20
26.40933019
 10
9.8882071261
 20
26.3784689516
 10
9.9386479061
 20
26.3490938742
 10
9.9918020737
 20
26.321285473
 10
10.0475239369
 20
26.2951199688
 10
10.1056607659
 20
26.2706690797
 10
10.1660532266
 20
26.2479998185
 10
10.2285357731
 20
26.2271743265
 10
10.2929370968
 20
26.2082496983
 10
10.3590806275
 20
26.1912778119
 10
10.4267851112
 20
26.1763051679
 10
10.4958650665
 20
26.1633727845
 10
10.5661312037
 20
26.1525161052
 10
10.637390881
 20
26.1437649015
 10
10.7094487245
 20
26.1371431681
 10
10.7821072037
 20
26.132669055
 10
10.8551671903
 20
26.1303548216
 10
10.9284284458
 20
26.1302068103
 10
11.0016901696
 20
26.132225427
 10
11.074751553
 20
26.1364051391
 10
11.1474123437
 20
26.1427344908
 10
11.2194733948
 20
26.1511961358
 10
11.29073718
 20
26.1617668811
 10
11.3610083405
 20
26.1744177476
 10
11.4300942521
 20
26.1891140543
 10
11.4978055739
 20
26.2058155205
 10
11.5639567364
 20
26.2244763728
 10
11.6283664318
 20
26.2450454657
 10
11.6908581099
 20
26.2674664186
 10
11.751260483
 20
26.2916777759
 10
11.809407992
 20
26.3176131754
 10
11.8651412603
 20
26.34520153
 10
11.9183075278
 20
26.3743672217
  0
LINE
  5
3D9
100
AcDbEntity
  8
0
100
AcDbLine
 62
7
  6
CONTINUOUS
 10
10.4261151384
 20
27.400575439
 11
10.4120455347
 21
27.5097757255
  0
LINE
  5
3DA
100
AcDbEntity
  8
0
100
AcDbLine
 62
7
  6
CONTINUOUS
 10
10.4225703853
 20
27.4026893528
 11
10.4099454413
 21
27.5013142023
  0
LWPOLYLINE
  5
3DB
100
AcDbEntity
  8
0
100
AcDbPolyline
 62
7
  6
CONTINUOUS
 90
3
 70
0
 10
10.2631328072
 20
23.8814356089
 10
10.260459634
 20
23.9025301122
 10
10.2602169168
 20
23.9087824584
  0
LWPOLYLINE
  5
3DC
100
AcDbEntity
  8
0
100
AcDbPolyline
 62
7
  6
CONTINUOUS
 90
3
 70
0
 10
10.2545808979
 20
24.3353237169
 10
10.2519077596
 20
24.3564181924
 10
10.2516650556
 20
24.3626703136
  0
LWPOLYLINE
  5
3DD
100
AcDbEntity
  8
0
100
AcDbPolyline
 62
7
  6
CONTINUOUS
 90
3
 70
0
 10
10.2460288432
 20
24.7892127129
 10
10.243355837
 20
24.8103072057
 10
10.2431131913
 20
24.8165583358
  0
LWPOLYLINE
  5
3DE
100
AcDbEntity
  8
0
100
AcDbPolyline
 62
7
  6
CONTINUOUS
 90
3
 70
0
 10
10.2374772263
 20
25.2430990354
 10
10.234804053
 20
25.2641935386
 10
10.2345613359
 20
25.2704458849
  0
LINE
  5
3DF
100
AcDbEntity
  8
RACCORDO
100
AcDbLine
 62
250
  6
CONTINUOUS
 10
15.4488421337
 20
27.5352219444
 11
15.4466704735
 21
27.5616736515
  0
LWPOLYLINE
  5
3E0
100
AcDbEntity
  8
RACCORDO
100
AcDbPolyline
 62
250
  6
CONTINUOUS
 90
16
 70
0
 10
15.0816417276
 20
27.7398859552
 10
15.0799748385
 20
27.761888744
 10
15.0764332423
 20
27.7846622906
 10
15.0710548849
 20
27.8079625922
 10
15.0638973917
 20
27.8315400022
 10
15.0550374502
 20
27.8551419051
 10
15.0445699885
 20
27.8785154228
 10
15.0326071583
 20
27.9014101243
 10
15.019277133
 20
27.9235807086
 10
15.0047227345
 20
27.9447896334
 10
14.9890999032
 20
27.9648096597
 10
14.9725760269
 20
27.9834262868
 10
14.9553281475
 20
28.0004400505
 10
14.937541064
 20
28.0156686601
 10
14.9194053529
 20
28.0289489516
 10
14.9011153255
 20
28.0401386359
  0
LWPOLYLINE
  5
3E1
100
AcDbEntity
  8
RACCORDO
100
AcDbPolyline
 62
7
  6
CONTINUOUS
 90
14
 70
0
 10
15.5219063059
 20
27.6413369374
 10
15.5198854881
 20
27.6704259802
 10
15.5140615374
 20
27.7168168599
 10
15.5051507971
 20
27.7615627708
 10
15.4931772478
 20
27.8045494768
 10
15.4781871729
 20
27.845630277
 10
15.4602742614
 20
27.8845735666
 10
15.4395214929
 20
27.9212322163
 10
15.4160473813
 20
27.955438217
 10
15.3900998881
 20
27.9868964382
 10
15.3618911954
 20
28.0154519911
 10
15.3316549924
 20
28.040988237
 10
15.2997897646
 20
28.0633129992
 10
15.2767296825
 20
28.0769754397
  0
LINE
  5
3E2
100
AcDbEntity
  8
RACCORDO
100
AcDbLine
 62
250
  6
CONTINUOUS
 10
15.4493687301
 20
27.5244241128
 11
15.4488421337
 21
27.5352219444
  0
LINE
  5
3E3
100
AcDbEntity
  8
RACCORDO
100
AcDbLine
 62
7
  6
CONTINUOUS
 10
15.5225053433
 20
27.6290537066
 11
15.5219061717
 21
27.6413396905
  0
LINE
  5
3E4
100
AcDbEntity
  8
RACCORDO
100
AcDbLine
 62
250
  6
CONTINUOUS
 10
18.2780264708
 20
30.3552527559
 11
18.5406951795
 21
9.9287417382
  0
LINE
  5
3E5
100
AcDbEntity
  8
RACCORDO
100
AcDbLine
 62
7
  6
CONTINUOUS
 10
18.351247854
 20
30.457637167
 11
18.6139242328
 21
10.0305296868
  0
LWPOLYLINE
  5
3E6
100
AcDbEntity
  8
RACCORDO
100
AcDbPolyline
 62
250
  6
CONTINUOUS
 90
3
 70
0
 10
18.3505897599
 20
30.4721832463
 10
18.3503404638
 20
30.4608896969
 10
18.3476052903
 20
30.4461078448
  0
LWPOLYLINE
  5
3E7
100
AcDbEntity
  8
0
100
AcDbPolyline
 62
250
  6
CONTINUOUS
 90
10
 70
0
 10
-28.1588832342
 20
23.1449542512
 10
-28.2244448097
 20
23.1594691138
 10
-28.2913436819
 20
23.1720060909
 10
-28.3594000968
 20
23.1825310733
 10
-28.4284232705
 20
23.1910141403
 10
-28.4982172993
 20
23.1974312817
 10
-28.5685859584
 20
23.2017650019
 10
-28.6393400157
 20
23.2040041886
 10
-28.7102916014
 20
23.2041429503
 10
-28.7812505759
 20
23.2021804634
  0
LINE
  5
3E8
100
AcDbEntity
  8
0
100
AcDbLine
 62
7
  6
CONTINUOUS
 10
-28.4108231572
 20
22.4310742988
 11
-28.3987519034
 21
22.4283904802
  0
LWPOLYLINE
  5
3E9
100
AcDbEntity
  8
0
100
AcDbPolyline
 62
7
  6
CONTINUOUS
 90
3
 70
0
 10
-28.6656384211
 20
22.5000113208
 10
-28.6985372956
 20
22.507469692
 10
-28.715984457
 20
22.5115249606
  0
LINE
  5
3EA
100
AcDbEntity
  8
0
100
AcDbLine
 62
7
  6
CONTINUOUS
 10
-28.6504015896
 20
22.4964429733
 11
-28.6656384211
 21
22.5000113208
  0
LINE
  5
3EB
100
AcDbEntity
  8
DRAFT
100
AcDbLine
 62
7
  6
CONTINUOUS
 10
7.8289544226
 20
15.3805688427
 11
14.743529902
 21
11.5637854101
  0
LWPOLYLINE
  5
3EC
100
AcDbEntity
  8
TRASH
100
AcDbPolyline
 62
7
  6
CONTINUOUS
 90
6
 70
0
 10
35.1754763375
 20
-12.6222389255
 10
35.1815714094
 20
-12.6288884805
 10
35.187795684
 20
-12.6352827229
 10
35.1941520436
 20
-12.6414583006
 10
35.2005954466
 20
-12.647462363
 10
35.2071618797
 20
-12.6533117933
  0
LINE
  5
3ED
100
AcDbEntity
  8
0
100
AcDbLine
 62
7
  6
CONTINUOUS
 10
0.3999721702
 20
28.7715461172
 11
-0.1177401624
 21
29.4255895049
  0
LWPOLYLINE
  5
3EE
100
AcDbEntity
  8
0
100
AcDbPolyline
 62
7
  6
CONTINUOUS
 90
6
 70
0
 10
-0.1177401624
 20
29.4255895049
 10
-0.1229378431
 20
29.4323771302
 10
-0.1356100664
 20
29.4512341451
 10
-0.1460522727
 20
29.4705470754
 10
-0.1542197468
 20
29.4902332201
 10
-0.1590032445
 20
29.5065450064
  0
LWPOLYLINE
  5
3EF
100
AcDbEntity
  8
0
100
AcDbPolyline
 62
7
  6
CONTINUOUS
 90
9
 70
0
 10
1.028242798
 20
30.2213891805
 10
1.0421651964
 20
30.2015773909
 10
1.0589212209
 20
30.1733214186
 10
1.0729833411
 20
30.1444870047
 10
1.0842963976
 20
30.1151700325
 10
1.0928160804
 20
30.0854682897
 10
1.0985091036
 20
30.0554810826
 10
1.1013533369
 20
30.0253088441
 10
1.1016465949
 20
30.0163744693
  0
LWPOLYLINE
  5
3F0
100
AcDbEntity
  8
0
100
AcDbPolyline
 62
7
  6
CONTINUOUS
 90
9
 70
0
 10
1.0196910132
 20
30.675277154
 10
1.0336142423
 20
30.6554640215
 10
1.0503701285
 20
30.6272080244
 10
1.0644321086
 20
30.5983735911
 10
1.075745024
 20
30.569056605
 10
1.0842645654
 20
30.5393548538
 10
1.0899574477
 20
30.5093676438
 10
1.0928015411
 20
30.4791954078
 10
1.0930947304
 20
30.4702624976
  0
LINE
  5
3F1
100
AcDbEntity
  8
0
100
AcDbLine
 62
7
  6
CONTINUOUS
 10
-0.1444860086
 20
33.6389291782
 11
-0.1505895306
 21
33.6479552042
  0
LWPOLYLINE
  5
3F2
100
AcDbEntity
  8
0
100
AcDbPolyline
 62
7
  6
CONTINUOUS
 90
3
 70
0
 10
-0.1505895306
 20
33.6479552042
 10
-0.1537422689
 20
33.6526194335
 10
-0.1638342648
 20
33.6673594547
  0
LINE
  5
3F3
100
AcDbEntity
  8
0
100
AcDbLine
 62
7
  6
CONTINUOUS
 10
-0.130296506
 20
33.6176633494
 11
-0.1444860086
 21
33.6389291782
  0
LINE
  5
3F4
100
AcDbEntity
  8
0
100
AcDbLine
 62
7
  6
CONTINUOUS
 10
-0.1165755932
 20
33.5968671042
 11
-0.130296506
 21
33.6176633494
  0
LINE
  5
3F5
100
AcDbEntity
  8
0
100
AcDbLine
 62
7
  6
CONTINUOUS
 10
-0.111006886
 20
33.5883667569
 11
-0.1165755932
 21
33.5968671042
  0
LWPOLYLINE
  5
3F6
100
AcDbEntity
  8
0
100
AcDbPolyline
 62
7
  6
CONTINUOUS
 90
3
 70
0
 10
-0.0968204878
 20
33.5666321496
 10
-0.1025376373
 20
33.5754014288
 10
-0.111006886
 20
33.5883667569
  0
LINE
  5
3F7
100
AcDbEntity
  8
TRASH
100
AcDbLine
 62
7
  6
CONTINUOUS
 10
-0.0107748455
 20
33.6425608301
 11
0.0014062806
 21
33.6235011331
  0
LINE
  5
3F8
100
AcDbEntity
  8
0
100
AcDbLine
 62
7
  6
CONTINUOUS
 10
0.7158775281
 20
33.5770074698
 11
0.7187616952
 21
33.5717991077
  0
LINE
  5
3F9
100
AcDbEntity
  8
0
100
AcDbLine
 62
7
  6
CONTINUOUS
 10
0.7187616952
 20
33.5717991077
 11
0.7244748237
 21
33.5613146871
  0
LINE
  5
3FA
100
AcDbEntity
  8
0
100
AcDbLine
 62
7
  6
CONTINUOUS
 10
0.7244748237
 20
33.5613146871
 11
0.730149763
 21
33.5507170999
  0
LINE
  5
3FB
100
AcDbEntity
  8
0
100
AcDbLine
 62
7
  6
CONTINUOUS
 10
0.730149763
 20
33.5507170999
 11
0.7357594641
 21
33.5400410153
  0
LINE
  5
3FC
100
AcDbEntity
  8
0
100
AcDbLine
 62
7
  6
CONTINUOUS
 10
0.7357594641
 20
33.5400410153
 11
0.7413192576
 21
33.5292814215
  0
LINE
  5
3FD
100
AcDbEntity
  8
0
100
AcDbLine
 62
7
  6
CONTINUOUS
 10
0.7413192576
 20
33.5292814215
 11
0.7468253571
 21
33.5184316776
  0
LINE
  5
3FE
100
AcDbEntity
  8
0
100
AcDbLine
 62
7
  6
CONTINUOUS
 10
0.7468253571
 20
33.5184316776
 11
0.7523887634
 21
33.5072941099
  0
LINE
  5
3FF
100
AcDbEntity
  8
0
100
AcDbLine
 62
7
  6
CONTINUOUS
 10
0.7523887634
 20
33.5072941099
 11
0.7580662024
 21
33.4957370704
  0
LWPOLYLINE
  5
400
100
AcDbEntity
  8
0
100
AcDbPolyline
 62
7
  6
CONTINUOUS
 90
5
 70
0
 10
11.5800845048
 20
23.8399679183
 10
11.5803340373
 20
23.839212924
 10
11.5863453316
 20
23.8137801401
 10
11.5900111075
 20
23.788328922
 10
11.5913142299
 20
23.7660727984
  0
LINE
  5
401
100
AcDbEntity
  8
0
100
AcDbLine
 62
7
  6
CONTINUOUS
 10
10.2686547749
 20
23.8605261367
 11
10.2631328072
 21
23.8814356089
  0
LINE
  5
402
100
AcDbEntity
  8
0
100
AcDbLine
 62
7
  6
CONTINUOUS
 10
10.2601028244
 20
24.3144142706
 11
10.2545808979
 21
24.3353237169
  0
LINE
  5
403
100
AcDbEntity
  8
0
100
AcDbLine
 62
7
  6
CONTINUOUS
 10
10.2515506409
 20
24.7683032442
 11
10.2460288432
 21
24.7892127129
  0
LINE
  5
404
100
AcDbEntity
  8
0
100
AcDbLine
 62
7
  6
CONTINUOUS
 10
10.2429991939
 20
25.2221895632
 11
10.2374772263
 21
25.2430990354
  0
LINE
  5
405
100
AcDbEntity
  8
0
100
AcDbLine
 62
7
  6
CONTINUOUS
 10
11.4161536568
 20
27.5225946475
 11
11.4182791613
 21
27.5143176847
  0
LINE
  5
406
100
AcDbEntity
  8
RACCORDO
100
AcDbLine
 62
7
  6
CONTINUOUS
 10
18.3505879751
 20
30.4722196725
 11
18.3493206685
 21
30.4908245846
  0
LINE
  5
407
100
AcDbEntity
  8
RACCORDO
100
AcDbLine
 62
250
  6
CONTINUOUS
 10
18.2775257214
 20
30.3660655113
 11
18.2780523178
 21
30.3552676796
  0
LINE
  5
408
100
AcDbEntity
  8
RACCORDO
100
AcDbLine
 62
7
  6
CONTINUOUS
 10
18.3505897599
 20
30.4721832463
 11
18.3511598908
 21
30.4604927411
  0
LINE
  5
409
100
AcDbEntity
  8
RACCORDO
100
AcDbLine
 62
7
  6
CONTINUOUS
 10
18.3512478786
 20
30.4576366629
 11
18.3511599142
 21
30.4604922616
  0
LWPOLYLINE
  5
40A
100
AcDbEntity
  8
0
100
AcDbPolyline
 62
7
  6
CONTINUOUS
 90
3
 70
0
 10
34.5368600234
 20
-12.6253224752
 10
34.5173449249
 20
-12.6316778184
 10
34.498154766
 20
-12.6381680121
  0
LWPOLYLINE
  5
40B
100
AcDbEntity
  8
0
100
AcDbPolyline
 62
250
  6
CONTINUOUS
 90
7
 70
0
 10
34.1924594284
 20
-11.9487757984
 10
34.1302776243
 20
-11.96866582
 10
34.0700213345
 20
-11.99031283
 10
34.0117776568
 20
-12.0136809076
 10
33.9556828233
 20
-12.038716784
 10
33.9019138744
 20
-12.0653428736
 10
33.8506173235
 20
-12.0934864459
  0
LWPOLYLINE
  5
40C
100
AcDbEntity
  8
0
100
AcDbPolyline
 62
7
  6
CONTINUOUS
 90
4
 70
0
 10
34.6173526797
 20
-12.6003609785
 10
34.59695734
 20
-12.6065038203
 10
34.5767099875
 20
-12.6127787104
 10
34.5368600234
 20
-12.6253224752
  0
LWPOLYLINE
  5
40D
100
AcDbEntity
  8
0
100
AcDbPolyline
 62
7
  6
CONTINUOUS
 90
13
 70
0
 10
11.0601610379
 20
23.3294924459
 10
11.0300950267
 20
23.3223436221
 10
11.0004214575
 20
23.3162642028
 10
10.9712742645
 20
23.311238067
 10
10.942771499
 20
23.3072417776
 10
10.9150577907
 20
23.3042508401
 10
10.8882985984
 20
23.3022347373
 10
10.862589253
 20
23.3011506136
 10
10.8380645004
 20
23.3009533607
 10
10.8149197291
 20
23.301586967
 10
10.7932627425
 20
23.3029839491
 10
10.773131393
 20
23.3050773457
 10
10.7545861203
 20
23.3077978748
  0
LWPOLYLINE
  5
40E
100
AcDbEntity
  8
0
100
AcDbPolyline
 62
7
  6
CONTINUOUS
 90
27
 70
0
 10
11.0155253583
 20
25.1802883066
 10
10.9894681951
 20
25.1751118203
 10
10.9537210833
 20
25.1693562435
 10
10.9180923579
 20
25.1649321616
 10
10.8827235944
 20
25.1618257025
 10
10.8476621477
 20
25.1600157945
 10
10.8130582609
 20
25.1594903758
 10
10.7790549305
 20
25.1602318152
 10
10.7456940036
 20
25.1622253718
 10
10.7130424709
 20
25.1654639932
 10
10.6813356034
 20
25.1699213486
 10
10.6508568343
 20
25.1755404765
 10
10.6217903425
 20
25.1822567509
 10
10.5941897395
 20
25.190026968
 10
10.5681245355
 20
25.1988085636
 10
10.5437067705
 20
25.2085443656
 10
10.5210403426
 20
25.2191735637
 10
10.5001886116
 20
25.2306514873
 10
10.4812104113
 20
25.2429420645
 10
10.4642479366
 20
25.255950949
 10
10.4494558653
 20
25.269534395
 10
10.4369080295
 20
25.2835692067
 10
10.4265930775
 20
25.298007368
 10
10.4185111561
 20
25.3128106036
 10
10.4126952757
 20
25.3278955985
 10
10.4091677783
 20
25.3431803664
 10
10.407959285
 20
25.3571227974
  0
LINE
  5
40F
100
AcDbEntity
  8
0
100
AcDbLine
 62
7
  6
CONTINUOUS
 10
-28.398816311
 20
22.9978107346
 11
-28.410701698
 21
22.9980848791
  0
LWPOLYLINE
  5
410
100
AcDbEntity
  8
0
100
AcDbPolyline
 62
7
  6
CONTINUOUS
 90
3
 70
0
 10
-28.9406239506
 20
22.9889106773
 10
-28.9179934584
 20
22.9880289072
 10
-28.9066791001
 20
22.9875063934
  0
LWPOLYLINE
  5
411
100
AcDbEntity
  8
0
100
AcDbPolyline
 62
7
  6
CONTINUOUS
 90
3
 70
0
 10
-28.9066791001
 20
22.9875063934
 10
-28.883840852
 20
22.9862910332
 10
-28.8722045883
 20
22.9855849101
  0
LWPOLYLINE
  5
412
100
AcDbEntity
  8
0
100
AcDbPolyline
 62
7
  6
CONTINUOUS
 90
3
 70
0
 10
-28.8722045883
 20
22.9855849101
 10
-28.848270569
 20
22.9839558338
 10
-28.8357958837
 20
22.9830086521
  0
LWPOLYLINE
  5
413
100
AcDbEntity
  8
0
100
AcDbPolyline
 62
7
  6
CONTINUOUS
 90
3
 70
0
 10
-28.8357958837
 20
22.9830086521
 10
-28.8096276758
 20
22.9808053543
 10
-28.79573052
 20
22.9795159246
  0
LWPOLYLINE
  5
414
100
AcDbEntity
  8
0
100
AcDbPolyline
 62
7
  6
CONTINUOUS
 90
7
 70
0
 10
-29.1043093701
 20
22.9978985933
 10
-29.0923160811
 20
22.9967410641
 10
-29.0802938501
 20
22.9955013881
 10
-29.0682426809
 20
22.9941795628
 10
-29.056162577
 20
22.9927755856
 10
-29.0440535422
 20
22.9912894539
 10
-29.0319155802
 20
22.9897211651
  0
LWPOLYLINE
  5
415
100
AcDbEntity
  8
0
100
AcDbPolyline
 62
7
  6
CONTINUOUS
 90
5
 70
0
 10
-28.79573052
 20
22.9795159246
 10
-28.766129073
 20
22.9764833282
 10
-28.7500663567
 20
22.9747419529
 10
-28.7333003991
 20
22.972750839
 10
-28.7158862554
 20
22.9704479751
  0
LWPOLYLINE
  5
416
100
AcDbEntity
  8
0
100
AcDbPolyline
 62
7
  6
CONTINUOUS
 90
3
 70
0
 10
35.306960357
 20
-12.52464751
 10
35.3144383536
 20
-12.5336617486
 10
35.3220454388
 20
-12.5429195475
  0
LWPOLYLINE
  5
417
100
AcDbEntity
  8
0
100
AcDbPolyline
 62
7
  6
CONTINUOUS
 90
3
 70
0
 10
0.8142420727
 20
33.36765072
 10
0.8217200694
 20
33.3586364814
 10
0.8293271546
 20
33.3493786825
  0
LINE
  5
418
100
AcDbEntity
  8
0
100
AcDbLine
 62
7
  6
CONTINUOUS
 10
35.3220454388
 20
-12.5429195475
 11
35.3376468749
 21
-12.562165826
  0
LINE
  5
419
100
AcDbEntity
  8
0
100
AcDbLine
 62
7
  6
CONTINUOUS
 10
0.8293271546
 20
33.3493786825
 11
0.8449285907
 21
33.330132404
  0
LINE
  5
41A
100
AcDbEntity
  8
0
100
AcDbLine
 62
7
  6
CONTINUOUS
 10
35.3376468749
 20
-12.562165826
 11
35.3537646653
 21
-12.5823863454
  0
LINE
  5
41B
100
AcDbEntity
  8
0
100
AcDbLine
 62
7
  6
CONTINUOUS
 10
0.8449285907
 20
33.330132404
 11
0.861046381
 21
33.3099118846
  0
LWPOLYLINE
  5
41C
100
AcDbEntity
  8
0
100
AcDbPolyline
 62
7
  6
CONTINUOUS
 90
6
 70
0
 10
10.4862969262
 20
23.5722564696
 10
10.4810992454
 20
23.5790440949
 10
10.4684270222
 20
23.5979011097
 10
10.4579848159
 20
23.61721404
 10
10.4498173418
 20
23.6369001847
 10
10.4450338441
 20
23.653211971
  0
LWPOLYLINE
  5
41D
100
AcDbEntity
  8
0
100
AcDbPolyline
 62
7
  6
CONTINUOUS
 90
3
 70
0
 10
-0.1789994892
 20
33.6890645091
 10
-0.1875096993
 20
33.7009212858
 10
-0.1919179082
 20
33.7071207622
  0
LWPOLYLINE
  5
41E
100
AcDbEntity
  8
0
100
AcDbPolyline
 62
7
  6
CONTINUOUS
 90
3
 70
0
 10
34.3137187951
 20
-12.2032337209
 10
34.305208585
 20
-12.1913769442
 10
34.300800376
 20
-12.1851774678
  0
LINE
  5
41F
100
AcDbEntity
  8
0
100
AcDbLine
 62
7
  6
CONTINUOUS
 10
-0.1749906714
 20
33.6833965853
 11
-0.1789994892
 21
33.6890645091
  0
LINE
  5
420
100
AcDbEntity
  8
0
100
AcDbLine
 62
7
  6
CONTINUOUS
 10
34.3177276129
 20
-12.2089016447
 11
34.3137187951
 21
-12.2032337209
  0
LINE
  5
421
100
AcDbEntity
  8
0
100
AcDbLine
 62
7
  6
CONTINUOUS
 10
-0.1638342648
 20
33.6673594547
 11
-0.1749906714
 21
33.6833965853
  0
LINE
  5
422
100
AcDbEntity
  8
0
100
AcDbLine
 62
7
  6
CONTINUOUS
 10
34.3288840195
 20
-12.2249387753
 11
34.3177276129
 21
-12.2089016447
  0
LWPOLYLINE
  5
423
100
AcDbEntity
  8
0
100
AcDbPolyline
 62
7
  6
CONTINUOUS
 90
3
 70
0
 10
34.3452164846
 20
-12.2489062189
 10
34.3389760153
 20
-12.2396787964
 10
34.3288840195
 20
-12.2249387753
  0
LINE
  5
424
100
AcDbEntity
  8
0
100
AcDbLine
 62
7
  6
CONTINUOUS
 10
34.3511586643
 20
-12.2577402706
 11
34.3452164846
 21
-12.2489062189
  0
LINE
  5
425
100
AcDbEntity
  8
0
100
AcDbLine
 62
7
  6
CONTINUOUS
 10
34.3678964784
 20
-12.2829016704
 11
34.3511586643
 21
-12.2577402706
  0
LWPOLYLINE
  5
426
100
AcDbEntity
  8
0
100
AcDbPolyline
 62
7
  6
CONTINUOUS
 90
4
 70
0
 10
34.3958977965
 20
-12.3256660804
 10
34.390180647
 20
-12.3168968012
 10
34.3873490883
 20
-12.3125520642
 10
34.3678964784
 20
-12.2829016704
  0
LINE
  5
427
100
AcDbEntity
  8
TRASH
100
AcDbLine
 62
7
  6
CONTINUOUS
 10
34.4819434387
 20
-12.2497373998
 11
34.4941245648
 21
-12.2687970969
  0
LINE
  5
428
100
AcDbEntity
  8
0
100
AcDbLine
 62
7
  6
CONTINUOUS
 10
11.3453563462
 20
27.6759483862
 11
11.3508624456
 21
27.6650986422
  0
LINE
  5
429
100
AcDbEntity
  8
0
100
AcDbLine
 62
7
  6
CONTINUOUS
 10
11.3508624456
 20
27.6650986422
 11
11.3564258519
 21
27.6539610745
  0
LINE
  5
42A
100
AcDbEntity
  8
0
100
AcDbLine
 62
7
  6
CONTINUOUS
 10
11.3564258519
 20
27.6539610745
 11
11.362103291
 21
27.642404035
  0
LINE
  5
42B
100
AcDbEntity
  8
0
100
AcDbLine
 62
7
  6
CONTINUOUS
 10
11.362103291
 20
27.642404035
 11
11.3679787958
 21
27.6302187174
  0
LINE
  5
42C
100
AcDbEntity
  8
0
100
AcDbLine
 62
7
  6
CONTINUOUS
 10
11.3679787958
 20
27.6302187174
 11
11.3741572229
 21
27.6172171217
  0
LWPOLYLINE
  5
42D
100
AcDbEntity
  8
0
100
AcDbPolyline
 62
7
  6
CONTINUOUS
 90
3
 70
0
 10
11.3741572229
 20
27.6172171217
 10
11.3806671601
 20
27.6032439342
 10
11.3840821461
 20
27.5958216547
  0
LWPOLYLINE
  5
42E
100
AcDbEntity
  8
0
100
AcDbPolyline
 62
7
  6
CONTINUOUS
 90
3
 70
0
 10
11.3840821461
 20
27.5958216547
 10
11.3912424025
 20
27.5800068401
 10
11.3950258579
 20
27.5715425253
  0
LWPOLYLINE
  5
42F
100
AcDbEntity
  8
0
100
AcDbPolyline
 62
7
  6
CONTINUOUS
 90
4
 70
0
 10
11.3950258579
 20
27.5715425253
 10
11.4072633176
 20
27.5436132754
 10
11.4116595282
 20
27.5333542848
 10
11.4161536568
 20
27.5225946475
  0
LINE
  5
430
100
AcDbEntity
  8
0
100
AcDbLine
 62
7
  6
CONTINUOUS
 10
10.4100543234
 20
27.8588458343
 11
10.4121191803
 21
27.8537877269
  0
LINE
  5
431
100
AcDbEntity
  8
0
100
AcDbLine
 62
7
  6
CONTINUOUS
 10
10.5251915947
 20
27.9753989061
 11
10.5932742533
 21
27.7892371095
  0
LWPOLYLINE
  5
432
100
AcDbEntity
  8
RACCORDO
100
AcDbPolyline
 62
250
  6
CONTINUOUS
 90
24
 70
0
 10
15.4466704735
 20
27.5616736515
 10
15.443203815
 20
27.5867095944
 10
15.4384421582
 20
27.610329773
 10
15.4323698408
 20
27.6324991819
 10
15.4250025251
 20
27.6532528264
 10
15.4163871981
 20
27.6726957233
 10
15.4064927021
 20
27.690940875
 10
15.3953501948
 20
27.707875279
 10
15.3831001366
 20
27.7232649442
 10
15.3697252424
 20
27.7370800543
 10
15.3552427973
 20
27.7493504257
 10
15.3398451164
 20
27.7599315165
 10
15.323652021
 20
27.7688003904
 10
15.3065436898
 20
27.7759799837
 10
15.2883529746
 20
27.7813945638
 10
15.2689927368
 20
27.7851275158
 10
15.248550115
 20
27.7870954545
 10
15.2271193768
 20
27.7869724923
 10
15.2045960674
 20
27.7847162244
 10
15.1810846417
 20
27.7803690556
 10
15.1569927316
 20
27.7737323116
 10
15.1324562146
 20
27.7647397679
 10
15.1073392132
 20
27.7534576491
 10
15.0816417276
 20
27.7398859552
  0
LWPOLYLINE
  5
433
100
AcDbEntity
  8
RACCORDO
100
AcDbPolyline
 62
7
  6
CONTINUOUS
 90
15
 70
0
 10
18.3493206685
 20
30.4908245846
 10
18.3441398795
 20
30.5310093958
 10
18.3354945279
 20
30.5715266098
 10
18.3233309294
 20
30.6119171989
 10
18.3076089169
 20
30.6518571138
 10
18.2882918586
 20
30.6911898777
 10
18.2654481214
 20
30.7296256112
 10
18.2392031193
 20
30.7668557826
 10
18.2096108343
 20
30.8027551224
 10
18.1767569695
 20
30.8371895365
 10
18.1408339533
 20
30.8699366928
 10
18.1020397743
 20
30.9008386361
 10
18.0605288011
 20
30.9298149862
 10
18.0164086429
 20
30.9568176109
 10
18.003795842
 20
30.9639110509
  0
LWPOLYLINE
  5
434
100
AcDbEntity
  8
0
100
AcDbPolyline
 62
7
  6
CONTINUOUS
 90
10
 70
0
 10
34.4138727904
 20
-12.0635662885
 10
34.4035457192
 20
-12.0679044387
 10
34.3933610913
 20
-12.0723501046
 10
34.3833225369
 20
-12.0769017017
 10
34.3734336343
 20
-12.0815576075
 10
34.3636979082
 20
-12.0863161626
 10
34.3541188289
 20
-12.0911756707
 10
34.3446998107
 20
-12.0961343997
 10
34.3354442109
 20
-12.1011905822
 10
34.3263553288
 20
-12.1063424158
  0
LWPOLYLINE
  5
435
100
AcDbEntity
  8
0
100
AcDbPolyline
 62
7
  6
CONTINUOUS
 90
10
 70
0
 10
35.1924696083
 20
-12.6755146829
 10
35.2027966797
 20
-12.6711765327
 10
35.2129813078
 20
-12.6667308667
 10
35.2230198623
 20
-12.6621792695
 10
35.2329087651
 20
-12.6575233636
 10
35.2426444913
 20
-12.6527648085
 10
35.2522235709
 20
-12.6479053003
 10
35.2616425892
 20
-12.6429465712
 10
35.2708981891
 20
-12.6378903887
 10
35.2799870714
 20
-12.632738555
  0
LWPOLYLINE
  5
436
100
AcDbEntity
  8
TRASH
100
AcDbPolyline
 62
7
  6
CONTINUOUS
 90
16
 70
0
 10
34.8080685099
 20
-12.4194322166
 10
34.8250172557
 20
-12.4128745133
 10
34.8422109554
 20
-12.4058374318
 10
34.8597148137
 20
-12.3983184072
 10
34.8775757564
 20
-12.3903611798
 10
34.895860434
 20
-12.3819254006
 10
34.9146738796
 20
-12.3728896505
 10
34.9340841189
 20
-12.363280299
 10
34.9541417753
 20
-12.3530953709
 10
34.9749523931
 20
-12.3421796576
 10
34.9966059678
 20
-12.3305394859
 10
35.0191303843
 20
-12.3182076526
 10
35.0425532616
 20
-12.3050692314
 10
35.0669151387
 20
-12.2910946094
 10
35.0922613762
 20
-12.2763426183
 10
35.1186226134
 20
-12.2608259632
  0
LWPOLYLINE
  5
437
100
AcDbEntity
  8
0
100
AcDbPolyline
 62
7
  6
CONTINUOUS
 90
3
 70
0
 10
10.7904528797
 20
27.456505978
 10
10.769815601
 20
27.4506560694
 10
10.728671484
 20
27.4386042162
  0
LWPOLYLINE
  5
438
100
AcDbEntity
  8
0
100
AcDbPolyline
 62
7
  6
CONTINUOUS
 90
3
 70
0
 10
10.8524156952
 20
27.4733780137
 10
10.8318489999
 20
27.4678874326
 10
10.7904528797
 20
27.456505978
  0
LWPOLYLINE
  5
439
100
AcDbEntity
  8
0
100
AcDbPolyline
 62
7
  6
CONTINUOUS
 90
3
 70
0
 10
10.9135165078
 20
27.4890252734
 10
10.8931893732
 20
27.4838948202
 10
10.8524156952
 20
27.4733780137
  0
LINE
  5
43A
100
AcDbEntity
  8
0
100
AcDbLine
 62
7
  6
CONTINUOUS
 10
10.6094735703
 20
27.4007971825
 11
10.5976488309
 21
27.3978524717
  0
LWPOLYLINE
  5
43B
100
AcDbEntity
  8
0
100
AcDbPolyline
 62
7
  6
CONTINUOUS
 90
16
 70
0
 10
10.9136147094
 20
27.9479482878
 10
10.9339798122
 20
27.9510635877
 10
10.9543775113
 20
27.953975335
 10
10.9748454156
 20
27.9567014763
 10
10.9954669862
 20
27.9592795681
 10
11.0162293294
 20
27.9616956468
 10
11.0369904877
 20
27.963900295
 10
11.0576998065
 20
27.9659266905
 10
11.0783929824
 20
27.9677911267
 10
11.0990048385
 20
27.9694380189
 10
11.1194883037
 20
27.9709036253
 10
11.1398291832
 20
27.9722145929
 10
11.1599763302
 20
27.9733102238
 10
11.1798781527
 20
27.9741961939
 10
11.1994989489
 20
27.9749416571
 10
11.2187992668
 20
27.9755851918
  0
LWPOLYLINE
  5
43C
100
AcDbEntity
  8
0
100
AcDbPolyline
 62
250
  6
CONTINUOUS
 90
6
 70
0
 10
10.6373343928
 20
28.1612695545
 10
10.5683361735
 20
28.1510163512
 10
10.5002968072
 20
28.1387460323
 10
10.4333711454
 20
28.1244844268
 10
10.3677769841
 20
28.1082758169
 10
10.3037782327
 20
28.0901893962
  0
LWPOLYLINE
  5
43D
100
AcDbEntity
  8
0
100
AcDbPolyline
 62
7
  6
CONTINUOUS
 90
7
 70
0
 10
-28.325570885
 20
23.0078369706
 10
-28.3377748357
 20
23.0063644123
 10
-28.3499802344
 20
23.0048124617
 10
-28.3621870813
 20
23.0031811186
 10
-28.3743953764
 20
23.001470383
 10
-28.3866051196
 20
22.999680255
 10
-28.398816311
 20
22.9978107346
  0
LINE
  5
43E
100
AcDbEntity
  8
0
100
AcDbLine
 62
250
  6
CONTINUOUS
 10
-28.850177802
 20
23.1982976091
 11
-28.8520170968
 21
23.1981218031
  0
LINE
  5
43F
100
AcDbEntity
  8
0
100
AcDbLine
 62
7
  6
CONTINUOUS
 10
-29.0319155802
 20
22.9897211651
 11
-29.0199059355
 21
22.9903074655
  0
LWPOLYLINE
  5
440
100
AcDbEntity
  8
0
100
AcDbPolyline
 62
7
  6
CONTINUOUS
 90
7
 70
0
 10
-29.0199059355
 20
22.9903074655
 10
-28.9972912166
 20
22.9901712039
 10
-28.9859610139
 20
22.9900304994
 10
-28.974620562
 20
22.9898323011
 10
-28.9632764581
 20
22.9895763556
 10
-28.9519375009
 20
22.9892702083
 10
-28.9406239506
 20
22.9889106773
  0
LINE
  5
441
100
AcDbEntity
  8
0
100
AcDbLine
 62
7
  6
CONTINUOUS
 10
10.4703110718
 20
23.6828420662
 11
10.4392959209
 21
23.696689168
  0
LWPOLYLINE
  5
442
100
AcDbEntity
  8
0
100
AcDbPolyline
 62
7
  6
CONTINUOUS
 90
10
 70
0
 10
10.4392959209
 20
23.696689168
 10
10.4104309521
 20
23.7116295399
 10
10.3838304197
 20
23.7275863063
 10
10.3595996418
 20
23.7444785802
 10
10.3378345838
 20
23.7622217826
 10
10.3186214802
 20
23.7807279762
 10
10.302036494
 20
23.7999062127
 10
10.2881454163
 20
23.8196628914
 10
10.2770034065
 20
23.8399021287
 10
10.2686547749
 20
23.8605261367
  0
LWPOLYLINE
  5
443
100
AcDbEntity
  8
0
100
AcDbPolyline
 62
7
  6
CONTINUOUS
 90
10
 70
0
 10
-0.1647411676
 20
29.5500222034
 10
-0.1936061365
 20
29.5649625753
 10
-0.2202066688
 20
29.5809193417
 10
-0.2444374468
 20
29.5978116156
 10
-0.2662025048
 20
29.6155548179
 10
-0.2854156084
 20
29.6340610116
 10
-0.3020005946
 20
29.6532392481
 10
-0.3158916723
 20
29.6729959267
 10
-0.327033682
 20
29.6932351641
 10
-0.3353823137
 20
29.7138591721
  0
LWPOLYLINE
  5
444
100
AcDbEntity
  8
TRASH
100
AcDbPolyline
 62
7
  6
CONTINUOUS
 90
3
 70
0
 10
0.7144435954
 20
33.2389864367
 10
0.721245125
 20
33.2332945008
 10
0.7270707143
 20
33.2286540494
  0
LWPOLYLINE
  5
445
100
AcDbEntity
  8
TRASH
100
AcDbPolyline
 62
7
  6
CONTINUOUS
 90
6
 70
0
 10
0.6827580533
 20
33.2700593045
 10
0.6888531251
 20
33.2634097495
 10
0.6950773998
 20
33.257015507
 10
0.7014337594
 20
33.2508399294
 10
0.7078771624
 20
33.244835867
 10
0.7144435954
 20
33.2389864367
  0
LWPOLYLINE
  5
446
100
AcDbEntity
  8
0
100
AcDbPolyline
 62
7
  6
CONTINUOUS
 90
3
 70
0
 10
11.4182791613
 20
27.5143176847
 10
11.4257571579
 20
27.505303446
 10
11.4333642431
 20
27.4960456471
  0
LINE
  5
447
100
AcDbEntity
  8
0
100
AcDbLine
 62
7
  6
CONTINUOUS
 10
11.4333642431
 20
27.4960456471
 11
11.4489656792
 21
27.4767993686
  0
LINE
  5
448
100
AcDbEntity
  8
0
100
AcDbLine
 62
7
  6
CONTINUOUS
 10
11.4489656792
 20
27.4767993686
 11
11.4650834696
 21
27.4565788492
  0
LINE
  5
449
100
AcDbEntity
  8
0
100
AcDbLine
 62
7
  6
CONTINUOUS
 10
11.0040092587
 20
22.9182130818
 11
10.4862969262
 21
23.5722564696
  0
LWPOLYLINE
  5
44A
100
AcDbEntity
  8
0
100
AcDbPolyline
 62
7
  6
CONTINUOUS
 90
3
 70
0
 10
10.4250375994
 20
27.8357314737
 10
10.4165273893
 20
27.8475882504
 10
10.4121191803
 20
27.8537877269
  0
LINE
  5
44B
100
AcDbEntity
  8
0
100
AcDbLine
 62
7
  6
CONTINUOUS
 10
10.4290464172
 20
27.83006355
 11
10.4250375994
 21
27.8357314737
  0
LWPOLYLINE
  5
44C
100
AcDbEntity
  8
0
100
AcDbPolyline
 62
7
  6
CONTINUOUS
 90
9
 70
0
 10
11.6322798866
 20
24.3680561451
 10
11.646202285
 20
24.3482443555
 10
11.6629583095
 20
24.3199883833
 10
11.6770204297
 20
24.2911539694
 10
11.6883334862
 20
24.2618369972
 10
11.696853169
 20
24.2321352543
 10
11.7025461922
 20
24.2021480472
 10
11.7053904255
 20
24.1719758087
 10
11.7056836835
 20
24.1630414339
  0
LWPOLYLINE
  5
44D
100
AcDbEntity
  8
0
100
AcDbPolyline
 62
7
  6
CONTINUOUS
 90
9
 70
0
 10
11.6237281017
 20
24.8219441186
 10
11.6376513309
 20
24.8021309862
 10
11.6544072171
 20
24.7738749891
 10
11.6684691972
 20
24.7450405558
 10
11.6797821126
 20
24.7157235696
 10
11.688301654
 20
24.6860218184
 10
11.6939945362
 20
24.6560346084
 10
11.6968386296
 20
24.6258623724
 10
11.697131819
 20
24.6169294622
  0
LWPOLYLINE
  5
44E
100
AcDbEntity
  8
0
100
AcDbPolyline
 62
7
  6
CONTINUOUS
 90
9
 70
0
 10
11.6151763156
 20
25.2758318062
 10
11.6290994389
 20
25.256018836
 10
11.6458553498
 20
25.2277628088
 10
11.6599173474
 20
25.1989283441
 10
11.671230273
 20
25.1696113258
 10
11.6797498173
 20
25.1399095421
 10
11.6854426952
 20
25.1099222997
 10
11.688286777
 20
25.0797500316
 10
11.6885799581
 20
25.0708172991
  0
LINE
  5
44F
100
AcDbEntity
  8
0
100
AcDbLine
 62
7
  6
CONTINUOUS
 10
10.4402028238
 20
27.8140264194
 11
10.4290464172
 21
27.83006355
  0
LINE
  5
450
100
AcDbEntity
  8
0
100
AcDbLine
 62
7
  6
CONTINUOUS
 10
10.4595510799
 20
27.7855961428
 11
10.453447558
 21
27.7946221689
  0
LWPOLYLINE
  5
451
100
AcDbEntity
  8
0
100
AcDbPolyline
 62
7
  6
CONTINUOUS
 90
3
 70
0
 10
10.453447558
 20
27.7946221689
 10
10.4502948196
 20
27.7992863982
 10
10.4402028238
 20
27.8140264194
  0
LINE
  5
452
100
AcDbEntity
  8
0
100
AcDbLine
 62
7
  6
CONTINUOUS
 10
10.4737405826
 20
27.7643303141
 11
10.4595510799
 21
27.7855961428
  0
LINE
  5
453
100
AcDbEntity
  8
0
100
AcDbLine
 62
7
  6
CONTINUOUS
 10
10.4874614954
 20
27.7435340688
 11
10.4737405826
 21
27.7643303141
  0
LINE
  5
454
100
AcDbEntity
  8
0
100
AcDbLine
 62
7
  6
CONTINUOUS
 10
10.4930302026
 20
27.7350337215
 11
10.4874614954
 21
27.7435340688
  0
LWPOLYLINE
  5
455
100
AcDbEntity
  8
0
100
AcDbPolyline
 62
7
  6
CONTINUOUS
 90
3
 70
0
 10
10.5072166008
 20
27.7132991142
 10
10.5014994513
 20
27.7220683934
 10
10.4930302026
 20
27.7350337215
  0
LINE
  5
456
100
AcDbEntity
  8
TRASH
100
AcDbLine
 62
7
  6
CONTINUOUS
 10
10.593262243
 20
27.7892277948
 11
10.6054433691
 21
27.7701680977
  0
LINE
  5
457
100
AcDbEntity
  8
0
100
AcDbLine
 62
7
  6
CONTINUOUS
 10
11.1248597232
 20
30.0426971516
 11
10.3438034927
 21
31.4321071236
  0
LINE
  5
458
100
AcDbEntity
  8
0
100
AcDbLine
 62
7
  6
CONTINUOUS
 10
11.1687725011
 20
30.0443404224
 11
10.342248609
 21
31.5146321797
  0
LINE
  5
459
100
AcDbEntity
  8
0
100
AcDbLine
 62
7
  6
CONTINUOUS
 10
11.3199146166
 20
27.7236744345
 11
11.3227987837
 21
27.7184660724
  0
LINE
  5
45A
100
AcDbEntity
  8
0
100
AcDbLine
 62
7
  6
CONTINUOUS
 10
35.2085958123
 20
-12.3152907602
 11
35.2114799794
 21
-12.3204991222
  0
LINE
  5
45B
100
AcDbEntity
  8
0
100
AcDbLine
 62
7
  6
CONTINUOUS
 10
11.3227987837
 20
27.7184660724
 11
11.3285119123
 21
27.7079816517
  0
LINE
  5
45C
100
AcDbEntity
  8
0
100
AcDbLine
 62
7
  6
CONTINUOUS
 10
35.2114799794
 20
-12.3204991222
 11
35.217193108
 21
-12.3309835429
  0
LINE
  5
45D
100
AcDbEntity
  8
0
100
AcDbLine
 62
7
  6
CONTINUOUS
 10
11.3285119123
 20
27.7079816517
 11
11.3341868516
 21
27.6973840646
  0
LINE
  5
45E
100
AcDbEntity
  8
0
100
AcDbLine
 62
7
  6
CONTINUOUS
 10
35.217193108
 20
-12.3309835429
 11
35.2228680473
 21
-12.3415811301
  0
LINE
  5
45F
100
AcDbEntity
  8
0
100
AcDbLine
 62
7
  6
CONTINUOUS
 10
11.3341868516
 20
27.6973840646
 11
11.3397965526
 21
27.68670798
  0
LINE
  5
460
100
AcDbEntity
  8
0
100
AcDbLine
 62
7
  6
CONTINUOUS
 10
35.2228680473
 20
-12.3415811301
 11
35.2284777483
 21
-12.3522572147
  0
LINE
  5
461
100
AcDbEntity
  8
0
100
AcDbLine
 62
7
  6
CONTINUOUS
 10
11.3397965526
 20
27.68670798
 11
11.3453563462
 21
27.6759483862
  0
LINE
  5
462
100
AcDbEntity
  8
0
100
AcDbLine
 62
7
  6
CONTINUOUS
 10
35.2284777483
 20
-12.3522572147
 11
35.2340375419
 21
-12.3630168085
  0
LINE
  5
463
100
AcDbEntity
  8
0
100
AcDbLine
 62
7
  6
CONTINUOUS
 10
35.2340375419
 20
-12.3630168085
 11
35.2395436413
 21
-12.3738665524
  0
LINE
  5
464
100
AcDbEntity
  8
0
100
AcDbLine
 62
7
  6
CONTINUOUS
 10
35.2395436413
 20
-12.3738665524
 11
35.2451070476
 21
-12.3850041201
  0
LWPOLYLINE
  5
465
100
AcDbEntity
  8
0
100
AcDbPolyline
 62
7
  6
CONTINUOUS
 90
3
 70
0
 10
35.2451070476
 20
-12.3850041201
 10
35.2507844867
 20
-12.3965611596
 10
35.2536996503
 20
-12.4025732361
  0
LWPOLYLINE
  5
466
100
AcDbEntity
  8
RACCORDO
100
AcDbPolyline
 62
250
  6
CONTINUOUS
 90
25
 70
0
 10
30.6535431468
 20
-20.9384690893
 10
30.6520986251
 20
-20.9112424425
 10
30.6491727826
 20
-20.8832921761
 10
30.6447725691
 20
-20.8547335673
 10
30.6389085841
 20
-20.8256734178
 10
30.6316018725
 20
-20.7962446236
 10
30.6228896013
 20
-20.7666067684
 10
30.6128132844
 20
-20.7368981977
 10
30.6014121881
 20
-20.7072321957
 10
30.5887336244
 20
-20.6777322883
 10
30.5748302929
 20
-20.6485220592
 10
30.5597614672
 20
-20.6197269195
 10
30.543592094
 20
-20.5914712718
 10
30.5263912731
 20
-20.5638757362
 10
30.5082314489
 20
-20.5370564134
 10
30.4891893612
 20
-20.5111266633
 10
30.469345569
 20
-20.4861962706
 10
30.4487843015
 20
-20.4623711387
 10
30.4275928738
 20
-20.439752481
 10
30.4058611212
 20
-20.4184361982
 10
30.3836811727
 20
-20.3985126727
 10
30.361147238
 20
-20.380066523
 10
30.3383549148
 20
-20.3631759699
 10
30.3154007738
 20
-20.3479125437
 10
30.292382128
 20
-20.3343409258
  0
LINE
  5
467
100
AcDbEntity
  8
RACCORDO
100
AcDbLine
 62
250
  6
CONTINUOUS
 10
29.9465487744
 20
-20.9474949411
 11
30.238129328
 21
-36.5552312124
  0
LWPOLYLINE
  5
468
100
AcDbEntity
  8
TRASH
100
AcDbPolyline
 62
7
  6
CONTINUOUS
 90
7
 70
0
 10
34.3912413598
 20
-12.3183088342
 10
34.3913872479
 20
-12.3182165009
 10
34.4102637628
 20
-12.3073100515
 10
34.4300161054
 20
-12.2968920738
 10
34.450608835
 20
-12.286984697
 10
34.4719940914
 20
-12.2776129205
 10
34.4941271108
 20
-12.2687985922
  0
LINE
  5
469
100
AcDbEntity
  8
0
100
AcDbLine
 62
7
  6
CONTINUOUS
 10
34.4377984127
 20
-12.6704812693
 11
34.4137311247
 21
-12.6854530595
  0
LWPOLYLINE
  5
46A
100
AcDbEntity
  8
0
100
AcDbPolyline
 62
7
  6
CONTINUOUS
 90
16
 70
0
 10
33.8402142885
 20
-12.0973923519
 10
33.7856680427
 20
-12.1306761789
 10
33.7343067979
 20
-12.1656978983
 10
33.6862582949
 20
-12.2023780535
 10
33.6415684319
 20
-12.2407068453
 10
33.6004519877
 20
-12.280532434
 10
33.5632219404
 20
-12.321537483
 10
33.5299414433
 20
-12.3635940488
 10
33.5006395193
 20
-12.4066062115
 10
33.4754600158
 20
-12.4502610296
 10
33.4544270713
 20
-12.4943291286
 10
33.4374625825
 20
-12.5387553121
 10
33.4245185241
 20
-12.5834554018
 10
33.4155665452
 20
-12.6282909897
 10
33.4105730856
 20
-12.6730788996
 10
33.4094816838
 20
-12.717655577
  0
LINE
  5
46B
100
AcDbEntity
  8
0
100
AcDbLine
 62
7
  6
CONTINUOUS
 10
34.4619980467
 20
-12.6557011572
 11
34.4377984127
 21
-12.6704812693
  0
LWPOLYLINE
  5
46C
100
AcDbEntity
  8
0
100
AcDbPolyline
 62
250
  6
CONTINUOUS
 90
32
 70
0
 10
33.8506173235
 20
-12.0934864459
 10
33.8019328401
 20
-12.1230705832
 10
33.7559902442
 20
-12.1540165831
 10
33.712915215
 20
-12.1862401993
 10
33.6728413201
 20
-12.2196398875
 10
33.6358600849
 20
-12.2541375715
 10
33.6020334446
 20
-12.2896831652
 10
33.5714416803
 20
-12.3262142733
 10
33.5442113405
 20
-12.3636042907
 10
33.5204591963
 20
-12.4017028234
 10
33.5002586974
 20
-12.4403866225
 10
33.4836527292
 20
-12.4795670353
 10
33.4706851721
 20
-12.5191402534
 10
33.4613916709
 20
-12.5589998953
 10
33.4557991068
 20
-12.5990341402
 10
33.4539233307
 20
-12.6391299246
 10
33.4557703786
 20
-12.679190528
 10
33.4613360513
 20
-12.7190922583
 10
33.4705925846
 20
-12.7586824884
 10
33.4834900545
 20
-12.797821581
 10
33.4999870422
 20
-12.836436696
 10
33.52005665
 20
-12.8744765014
 10
33.5436607442
 20
-12.9118569853
 10
33.5707274814
 20
-12.9484543815
 10
33.6011771026
 20
-12.9841587601
 10
33.6349259193
 20
-13.0188721212
 10
33.6718819382
 20
-13.0524999612
 10
33.7119345996
 20
-13.0849430862
 10
33.754948828
 20
-13.1160975667
 10
33.8008255395
 20
-13.1458967382
 10
33.8495054347
 20
-13.1742977768
 10
33.9009075252
 20
-13.2012394572
  0
LWPOLYLINE
  5
46D
100
AcDbEntity
  8
0
100
AcDbPolyline
 62
250
  6
CONTINUOUS
 90
38
 70
0
 10
35.7652351311
 20
-13.150338244
 10
35.8139196179
 20
-13.1207542894
 10
35.8598622157
 20
-13.0898083828
 10
35.9029372449
 20
-13.0575847703
 10
35.9430111371
 20
-13.0241849381
 10
35.9799923679
 20
-12.9896870207
 10
36.0138190054
 20
-12.9541412786
 10
36.0444107704
 20
-12.9176102044
 10
36.0716411124
 20
-12.8802203061
 10
36.0953932582
 20
-12.8421218591
 10
36.1155937571
 20
-12.8034380583
 10
36.1321997246
 20
-12.7642576107
 10
36.1451672812
 20
-12.724684368
 10
36.1544607826
 20
-12.6848247305
 10
36.1600533469
 20
-12.6447905004
 10
36.1619291232
 20
-12.6046947284
 10
36.1600820755
 20
-12.5646341303
 10
36.1545164028
 20
-12.5247324028
 10
36.1452598695
 20
-12.4851421751
 10
36.1323623997
 20
-12.4460030845
 10
36.115865412
 20
-12.4073879709
 10
36.0957958043
 20
-12.3693481672
 10
36.0721917101
 20
-12.3319676861
 10
36.045124973
 20
-12.2953702929
 10
36.0146753518
 20
-12.2596659172
 10
35.9809265352
 20
-12.2249525586
 10
35.9439705163
 20
-12.1913247211
 10
35.903917855
 20
-12.1588815979
 10
35.8609036266
 20
-12.1277271183
 10
35.8150269151
 20
-12.0979279472
 10
35.7663470199
 20
-12.0695269092
 10
35.7149449294
 20
-12.04258523
 10
35.6609918419
 20
-12.0172059204
 10
35.6046910287
 20
-11.9934893423
 10
35.5462175183
 20
-11.9715080545
 10
35.4857130745
 20
-11.9513142212
 10
35.4233485139
 20
-11.932964756
 10
35.3592989263
 20
-11.9165106307
  0
LWPOLYLINE
  5
46E
100
AcDbEntity
  8
0
100
AcDbPolyline
 62
250
  6
CONTINUOUS
 90
17
 70
0
 10
35.7989433805
 20
-13.2375934437
 10
35.8492755164
 20
-13.2070080361
 10
35.8967730171
 20
-13.1750146589
 10
35.9413059589
 20
-13.1417004042
 10
35.9827363087
 20
-13.10717023
 10
36.0209694067
 20
-13.0715048627
 10
36.055941078
 20
-13.0347561349
 10
36.0875682314
 20
-12.9969885956
 10
36.1157201111
 20
-12.9583331115
 10
36.1402760973
 20
-12.9189451238
 10
36.1611603069
 20
-12.8789520258
 10
36.1783283561
 20
-12.8384454897
 10
36.1917348389
 20
-12.7975328567
 10
36.2013428856
 20
-12.7563241196
 10
36.2071247226
 20
-12.7149348761
 10
36.2090639746
 20
-12.6734820096
 10
36.2089848208
 20
-12.6649091483
  0
LINE
  5
46F
100
AcDbEntity
  8
0
100
AcDbLine
 62
7
  6
CONTINUOUS
 10
34.4863300266
 20
-12.641112723
 11
34.4619980467
 21
-12.6557011572
  0
LWPOLYLINE
  5
470
100
AcDbEntity
  8
0
100
AcDbPolyline
 62
7
  6
CONTINUOUS
 90
10
 70
0
 10
34.3263553288
 20
-12.1063424158
 10
34.3174372069
 20
-12.1115875832
 10
34.3086921895
 20
-12.1169246791
 10
34.3001233932
 20
-12.1223518016
 10
34.2917338717
 20
-12.1278670164
 10
34.2835266148
 20
-12.1334683582
 10
34.2755045474
 20
-12.1391538307
 10
34.2676705283
 20
-12.1449214078
 10
34.2600273496
 20
-12.150769034
 10
34.2525777349
 20
-12.1566946254
  0
LWPOLYLINE
  5
471
100
AcDbEntity
  8
0
100
AcDbPolyline
 62
7
  6
CONTINUOUS
 90
10
 70
0
 10
35.2799870714
 20
-12.632738555
 10
35.2889051933
 20
-12.6274933876
 10
35.2976502107
 20
-12.6221562917
 10
35.306219007
 20
-12.6167291692
 10
35.3146085285
 20
-12.6112139544
 10
35.3228157854
 20
-12.6056126126
 10
35.3308378528
 20
-12.5999271401
 10
35.3386718718
 20
-12.594159563
 10
35.3463150506
 20
-12.5883119368
 10
35.3537646653
 20
-12.5823863454
  0
LINE
  5
472
100
AcDbEntity
  8
0
100
AcDbLine
 62
250
  6
CONTINUOUS
 10
35.7139385828
 20
-13.1784819507
 11
35.7652351312
 21
-13.150338244
  0
LWPOLYLINE
  5
473
100
AcDbEntity
  8
0
100
AcDbPolyline
 62
7
  6
CONTINUOUS
 90
43
 70
0
 10
35.7862975589
 20
-13.7121768981
 10
35.728199141
 20
-13.7439020985
 10
35.6673664302
 20
-13.7735939045
 10
35.6039919739
 20
-13.8011883977
 10
35.5382556893
 20
-13.8266321625
 10
35.4703694853
 20
-13.8498642352
 10
35.40059021
 20
-13.8708185601
 10
35.3291568104
 20
-13.8894468041
 10
35.2562648382
 20
-13.9057187421
 10
35.1821244288
 20
-13.9196039612
 10
35.1069689996
 20
-13.9310731334
 10
35.0310147443
 20
-13.9401058448
 10
34.954452435
 20
-13.9466880604
 10
34.8775066778
 20
-13.9508057135
 10
34.8004083628
 20
-13.9524502817
 10
34.7233593336
 20
-13.9516187886
 10
34.6465877964
 20
-13.9483124121
 10
34.570320575
 20
-13.9425382565
 10
34.4947553727
 20
-13.9343057839
 10
34.420113654
 20
-13.9236305094
 10
34.3466209397
 20
-13.910534395
 10
34.2744746569
 20
-13.8950394357
 10
34.2038768256
 20
-13.8771716107
 10
34.13505721
 20
-13.8569692362
 10
34.0682404443
 20
-13.8344775867
 10
34.0036126962
 20
-13.8097353756
 10
33.9413896381
 20
-13.782797563
 10
33.8818117317
 20
-13.7537417116
 10
33.8250136893
 20
-13.722602352
 10
33.7712175888
 20
-13.6894644274
 10
33.7207366122
 20
-13.6544992883
 10
33.6736637529
 20
-13.6177566724
 10
33.6301688662
 20
-13.5793480532
 10
33.5905752702
 20
-13.5395750824
 10
33.5549718936
 20
-13.4985886773
 10
33.523370592
 20
-13.4564648803
 10
33.495883854
 20
-13.4134334545
 10
33.4725450985
 20
-13.3696716499
 10
33.4533329782
 20
-13.32528255
 10
33.4382452653
 20
-13.2804181912
 10
33.4272701015
 20
-13.2352458794
 10
33.4203790177
 20
-13.1899354716
 10
33.4175270267
 20
-13.1446601027
  0
LWPOLYLINE
  5
474
100
AcDbEntity
  8
0
100
AcDbPolyline
 62
7
  6
CONTINUOUS
 90
7
 70
0
 10
35.3538648408
 20
-12.1426398354
 10
35.3461349802
 20
-12.1465222953
 10
35.3383774286
 20
-12.1504869276
 10
35.3305921805
 20
-12.1545337297
 10
35.3227792306
 20
-12.1586626992
 10
35.3149385734
 20
-12.1628738334
 10
35.3070702036
 20
-12.1671671299
  0
LINE
  5
475
100
AcDbEntity
  8
0
100
AcDbLine
 62
250
  6
CONTINUOUS
 10
35.6601696352
 20
-13.2051081115
 11
35.7139385828
 21
-13.1784819507
  0
LWPOLYLINE
  5
476
100
AcDbEntity
  8
0
100
AcDbPolyline
 62
7
  6
CONTINUOUS
 90
3
 70
0
 10
-28.8390480851
 20
22.4790056653
 10
-28.8596853638
 20
22.4731557566
 10
-28.9008294808
 20
22.4611039034
  0
LWPOLYLINE
  5
477
100
AcDbEntity
  8
0
100
AcDbPolyline
 62
7
  6
CONTINUOUS
 90
3
 70
0
 10
-28.7770852696
 20
22.495877701
 10
-28.7976519649
 20
22.4903871198
 10
-28.8390480851
 20
22.4790056653
  0
LWPOLYLINE
  5
478
100
AcDbEntity
  8
0
100
AcDbPolyline
 62
7
  6
CONTINUOUS
 90
3
 70
0
 10
-28.715984457
 20
22.5115249606
 10
-28.7363115916
 20
22.5063945074
 10
-28.7770852696
 20
22.495877701
  0
LINE
  5
479
100
AcDbEntity
  8
0
100
AcDbLine
 62
7
  6
CONTINUOUS
 10
-29.0200273945
 20
22.4232968697
 11
-29.0318521339
 21
22.4203521589
  0
LWPOLYLINE
  5
47A
100
AcDbEntity
  8
0
100
AcDbPolyline
 62
7
  6
CONTINUOUS
 90
13
 70
0
 10
0.4561239493
 20
29.1828254813
 10
0.4260579382
 20
29.1756766575
 10
0.3963843689
 20
29.1695972382
 10
0.3672371759
 20
29.1645711023
 10
0.3387344105
 20
29.1605748129
 10
0.3110207021
 20
29.1575838755
 10
0.2842615099
 20
29.1555677727
 10
0.2585521644
 20
29.1544836489
 10
0.2340274118
 20
29.1542863961
 10
0.2108826405
 20
29.1549200024
 10
0.1892256539
 20
29.1563169845
 10
0.1690943044
 20
29.1584103811
 10
0.1505490317
 20
29.1611309102
  0
LWPOLYLINE
  5
47B
100
AcDbEntity
  8
0
100
AcDbPolyline
 62
7
  6
CONTINUOUS
 90
16
 70
0
 10
-28.7158862554
 20
22.9704479751
 10
-28.6955211526
 20
22.9735632749
 10
-28.6751234535
 20
22.9764750223
 10
-28.6546555492
 20
22.9792011635
 10
-28.6340339786
 20
22.9817792553
 10
-28.6132716354
 20
22.984195334
 10
-28.5925104771
 20
22.9863999823
 10
-28.5718011583
 20
22.9884263777
 10
-28.5511079824
 20
22.9902908139
 10
-28.5304961263
 20
22.9919377061
 10
-28.5100126611
 20
22.9934033125
 10
-28.4896717816
 20
22.9947142801
 10
-28.4695246346
 20
22.995809911
 10
-28.4496228121
 20
22.9966958811
 10
-28.4300020159
 20
22.9974413444
 10
-28.410701698
 20
22.9980848791
  0
LWPOLYLINE
  5
47C
100
AcDbEntity
  8
0
100
AcDbPolyline
 62
250
  6
CONTINUOUS
 90
6
 70
0
 10
-28.992166572
 20
23.1837692417
 10
-29.0611647913
 20
23.1735160385
 10
-29.1292041576
 20
23.1612457195
 10
-29.1961298194
 20
23.146984114
 10
-29.2617239807
 20
23.1307755041
 10
-29.3257227321
 20
23.1126890835
  0
LWPOLYLINE
  5
47D
100
AcDbEntity
  8
0
100
AcDbPolyline
 62
7
  6
CONTINUOUS
 90
7
 70
0
 10
11.3039300798
 20
27.9853372833
 10
11.2917261291
 20
27.9838647251
 10
11.2795207304
 20
27.9823127744
 10
11.2673138835
 20
27.9806814313
 10
11.2551055884
 20
27.9789706958
 10
11.2428958452
 20
27.9771805678
 10
11.2306846538
 20
27.9753110473
  0
LINE
  5
47E
100
AcDbEntity
  8
0
100
AcDbLine
 62
250
  6
CONTINUOUS
 10
-28.922388854
 20
23.1919786844
 11
-28.9264835147
 21
23.1916095182
  0
LINE
  5
47F
100
AcDbEntity
  8
0
100
AcDbLine
 62
250
  6
CONTINUOUS
 10
10.7071121109
 20
28.1694789971
 11
10.7030174501
 21
28.169109831
  0
LWPOLYLINE
  5
480
100
AcDbEntity
  8
RACCORDO
100
AcDbPolyline
 62
250
  6
CONTINUOUS
 90
12
 70
0
 10
17.3824150037
 20
31.0627349943
 10
17.450886548
 20
31.0693371788
 10
17.5177532751
 20
31.0723368638
 10
17.582795313
 20
31.0718008611
 10
17.6459234658
 20
31.0677681033
 10
17.7068545722
 20
31.0604100125
 10
17.7651127858
 20
31.0500336355
 10
17.8205547287
 20
31.0368185633
 10
17.8730867867
 20
31.020920346
 10
17.9223507997
 20
31.0026615086
 10
17.9683014063
 20
30.9822620478
 10
18.0036572057
 20
30.9639881221
  0
LINE
  5
481
100
AcDbEntity
  8
0
100
AcDbLine
 62
250
  6
CONTINUOUS
 10
10.7793231628
 20
28.1757979219
 11
10.777483868
 21
28.1756221159
  0
LINE
  5
482
100
AcDbEntity
  8
0
100
AcDbLine
 62
7
  6
CONTINUOUS
 10
10.5975853846
 20
27.9672214779
 11
10.6095950293
 21
27.9678077782
  0
LINE
  5
483
100
AcDbEntity
  8
0
100
AcDbLine
 62
7
  6
CONTINUOUS
 10
8.4217075421
 20
29.9415418305
 11
11.1687725011
 21
30.0443404224
  0
LWPOLYLINE
  5
484
100
AcDbEntity
  8
0
100
AcDbPolyline
 62
7
  6
CONTINUOUS
 90
7
 70
0
 10
10.6095950293
 20
27.9678077782
 10
10.6322097482
 20
27.9676715167
 10
10.6435399509
 20
27.9675308122
 10
10.6548804028
 20
27.9673326138
 10
10.6662245067
 20
27.9670766683
 10
10.6775634639
 20
27.9667705211
 10
10.6888770142
 20
27.9664109901
  0
LINE
  5
485
100
AcDbEntity
  8
0
100
AcDbLine
 62
7
  6
CONTINUOUS
 10
11.2306846538
 20
27.9753110473
 11
11.2187992668
 21
27.9755851918
  0
LWPOLYLINE
  5
486
100
AcDbEntity
  8
0
100
AcDbPolyline
 62
7
  6
CONTINUOUS
 90
3
 70
0
 10
10.6888770142
 20
27.9664109901
 10
10.7115075064
 20
27.9655292199
 10
10.7228218647
 20
27.9650067062
  0
LWPOLYLINE
  5
487
100
AcDbEntity
  8
0
100
AcDbPolyline
 62
7
  6
CONTINUOUS
 90
3
 70
0
 10
10.7228218647
 20
27.9650067062
 10
10.7456601128
 20
27.963791346
 10
10.7572963765
 20
27.9630852228
  0
LWPOLYLINE
  5
488
100
AcDbEntity
  8
0
100
AcDbPolyline
 62
7
  6
CONTINUOUS
 90
3
 70
0
 10
10.7572963765
 20
27.9630852228
 10
10.7812303958
 20
27.9614561465
 10
10.7937050811
 20
27.9605089648
  0
LWPOLYLINE
  5
489
100
AcDbEntity
  8
0
100
AcDbPolyline
 62
7
  6
CONTINUOUS
 90
3
 70
0
 10
10.7937050811
 20
27.9605089648
 10
10.819873289
 20
27.9583056671
 10
10.8337704448
 20
27.9570162373
  0
LWPOLYLINE
  5
48A
100
AcDbEntity
  8
0
100
AcDbPolyline
 62
7
  6
CONTINUOUS
 90
7
 70
0
 10
10.5251915947
 20
27.9753989061
 10
10.5371848837
 20
27.9742413769
 10
10.5492071147
 20
27.9730017009
 10
10.5612582839
 20
27.9716798756
 10
10.5733383878
 20
27.9702758983
 10
10.5854474226
 20
27.9687897666
 10
10.5975853846
 20
27.9672214779
  0
LWPOLYLINE
  5
48B
100
AcDbEntity
  8
0
100
AcDbPolyline
 62
7
  6
CONTINUOUS
 90
5
 70
0
 10
10.8337704448
 20
27.9570162373
 10
10.8633718918
 20
27.953983641
 10
10.8794346081
 20
27.9522422657
 10
10.8962005657
 20
27.9502511518
 10
10.9136147094
 20
27.9479482878
  0
LWPOLYLINE
  5
48C
100
AcDbEntity
  8
0
100
AcDbPolyline
 62
7
  6
CONTINUOUS
 90
15
 70
0
 10
10.5981918474
 20
25.4106526486
 10
10.5798707369
 20
25.4140560247
 10
10.5415597415
 20
25.4228517918
 10
10.5048620535
 20
25.4330024095
 10
10.4699228391
 20
25.4444499051
 10
10.4368803249
 20
25.4571311877
 10
10.4058652519
 20
25.4709782974
 10
10.3770003597
 20
25.4859186731
 10
10.3503999024
 20
25.5018754393
 10
10.3261691971
 20
25.518767709
 10
10.3044042087
 20
25.5365109035
 10
10.2851911713
 20
25.5550170857
 10
10.2686062472
 20
25.5741953073
 10
10.2547152271
 20
25.593951968
 10
10.2497356262
 20
25.6029973465
  0
LWPOLYLINE
  5
48D
100
AcDbEntity
  8
0
100
AcDbPolyline
 62
250
  6
CONTINUOUS
 90
10
 70
0
 10
11.4706177306
 20
28.1224545639
 10
11.4050561551
 20
28.1369694266
 10
11.3381572829
 20
28.1495064037
 10
11.270100868
 20
28.1600313861
 10
11.2010776943
 20
28.1685144531
 10
11.1312836655
 20
28.1749315945
 10
11.0609150064
 20
28.1792653147
 10
10.9901609491
 20
28.1815045014
 10
10.9192093634
 20
28.1816432631
 10
10.8482503889
 20
28.1796807761
  0
LINE
  5
48E
100
AcDbEntity
  8
0
100
AcDbLine
 62
7
  6
CONTINUOUS
 10
11.2186778076
 20
27.4085746115
 11
11.2307490614
 21
27.405890793
  0
LWPOLYLINE
  5
48F
100
AcDbEntity
  8
0
100
AcDbPolyline
 62
7
  6
CONTINUOUS
 90
3
 70
0
 10
10.9638625437
 20
27.4775116336
 10
10.9309636692
 20
27.4849700048
 10
10.9135165078
 20
27.4890252734
  0
LINE
  5
490
100
AcDbEntity
  8
0
100
AcDbLine
 62
7
  6
CONTINUOUS
 10
10.9790993752
 20
27.4739432861
 11
10.9638625437
 21
27.4775116336
  0
LINE
  5
491
100
AcDbEntity
  8
0
100
AcDbLine
 62
7
  6
CONTINUOUS
 10
11.0208906188
 20
27.4637144595
 11
10.9790993752
 21
27.4739432861
  0
LINE
  5
492
100
AcDbEntity
  8
0
100
AcDbLine
 62
7
  6
CONTINUOUS
 10
11.0584378343
 20
27.4541211329
 11
11.0208906188
 21
27.4637144595
  0
LINE
  5
493
100
AcDbEntity
  8
0
100
AcDbLine
 62
7
  6
CONTINUOUS
 10
11.0934981492
 20
27.4448048746
 11
11.0584378343
 21
27.4541211329
  0
LINE
  5
494
100
AcDbEntity
  8
0
100
AcDbLine
 62
7
  6
CONTINUOUS
 10
11.116243206
 20
27.4385647919
 11
11.0934981492
 21
27.4448048746
  0
LINE
  5
495
100
AcDbEntity
  8
0
100
AcDbLine
 62
7
  6
CONTINUOUS
 10
11.1389773051
 20
27.4321841083
 11
11.116243206
 21
27.4385647919
  0
LINE
  5
496
100
AcDbEntity
  8
0
100
AcDbLine
 62
7
  6
CONTINUOUS
 10
11.1617405144
 20
27.4256429604
 11
11.1389773051
 21
27.4321841083
  0
LINE
  5
497
100
AcDbEntity
  8
0
100
AcDbLine
 62
7
  6
CONTINUOUS
 10
11.1845430479
 20
27.4189271842
 11
11.1617405144
 21
27.4256429604
  0
LWPOLYLINE
  5
498
100
AcDbEntity
  8
0
100
AcDbPolyline
 62
7
  6
CONTINUOUS
 90
3
 70
0
 10
11.2186778076
 20
27.4085746115
 10
11.2073146089
 20
27.4120735017
 10
11.1845430479
 20
27.4189271842
  0
LWPOLYLINE
  5
499
100
AcDbEntity
  8
TRASH
100
AcDbPolyline
 62
7
  6
CONTINUOUS
 90
5
 70
0
 10
11.2299414177
 20
27.7781392315
 10
11.2519738424
 20
27.7699279789
 10
11.2732898146
 20
27.7611345191
 10
11.2938423621
 20
27.7517773295
 10
11.3135828782
 20
27.741877151
  0
LWPOLYLINE
  5
49A
100
AcDbEntity
  8
0
100
AcDbPolyline
 62
7
  6
CONTINUOUS
 90
7
 70
0
 10
10.4463914657
 20
25.494445093
 10
10.4361028831
 20
25.4983937158
 10
10.40508781
 20
25.5122408255
 10
10.3762229179
 20
25.5271812012
 10
10.3496224605
 20
25.5431379674
 10
10.3253917552
 20
25.5600302371
 10
10.3208116384
 20
25.5637640275
  0
LWPOLYLINE
  5
49B
100
AcDbEntity
  8
0
100
AcDbPolyline
 62
7
  6
CONTINUOUS
 90
7
 70
0
 10
-0.1576456229
 20
31.3477781284
 10
-0.1679342055
 20
31.3517267512
 10
-0.1989492785
 20
31.3655738609
 10
-0.2278141707
 20
31.3805142366
 10
-0.2544146281
 20
31.3964710027
 10
-0.2786453333
 20
31.4133632725
 10
-0.2832254502
 20
31.4170970628
  0
LINE
  5
49C
100
AcDbEntity
  8
0
100
AcDbLine
 62
7
  6
CONTINUOUS
 10
-0.1337260168
 20
29.5361751016
 11
-0.1647411676
 21
29.5500222034
  0
LWPOLYLINE
  5
49D
100
AcDbEntity
  8
0
100
AcDbPolyline
 62
7
  6
CONTINUOUS
 90
7
 70
0
 10
10.3638965392
 20
27.8822705693
 10
10.3719277581
 20
27.8783622492
 10
10.379823675
 20
27.8744556082
 10
10.38758429
 20
27.8705506462
 10
10.3952096031
 20
27.8666473632
 10
10.4026996142
 20
27.8627457593
 10
10.4100543234
 20
27.8588458343
  0
LINE
  5
49E
100
AcDbEntity
  8
TRASH
100
AcDbLine
 62
7
  6
CONTINUOUS
 10
11.3135828782
 20
27.741877151
 11
11.3269462869
 21
27.7345028379
  0
LINE
  5
49F
100
AcDbEntity
  8
TRASH
100
AcDbLine
 62
7
  6
CONTINUOUS
 10
0.7095457897
 20
33.5952101864
 11
0.7229091983
 21
33.5878358733
  0
LINE
  5
4A0
100
AcDbEntity
  8
RACCORDO
100
AcDbLine
 62
7
  6
CONTINUOUS
 10
2.3534154076
 20
29.4821324628
 11
3.2830997771
 21
28.9689550582
  0
LINE
  5
4A1
100
AcDbEntity
  8
RACCORDO
100
AcDbLine
 62
7
  6
CONTINUOUS
 10
13.1354181349
 20
23.5305639966
 11
14.0651025044
 21
23.0173865919
  0
LINE
  5
4A2
100
AcDbEntity
  8
DRAFT
100
AcDbLine
 62
7
  6
CONTINUOUS
 10
-1.6948773387
 20
32.1963162003
 11
11.206701119
 21
25.0747610073
  0
LINE
  5
4A3
100
AcDbEntity
  8
RACCORDO
100
AcDbLine
 62
7
  6
CONTINUOUS
 10
-1.5143513421
 20
32.7196228781
 11
-0.9475194022
 21
32.4067367488
  0
LINE
  5
4A4
100
AcDbEntity
  8
RACCORDO
100
AcDbLine
 62
7
  6
CONTINUOUS
 10
-0.1977101511
 20
31.9928487905
 11
9.6565176863
 21
26.5534037134
  0
LINE
  5
4A5
100
AcDbEntity
  8
RACCORDO
100
AcDbLine
 62
7
  6
CONTINUOUS
 10
10.4063269374
 20
26.1395157552
 11
11.0213657592
 21
25.800019861
  0
LWPOLYLINE
  5
4A6
100
AcDbEntity
  8
TRASH
100
AcDbPolyline
 62
7
  6
CONTINUOUS
 90
16
 70
0
 10
0.0014088266
 20
33.6234996378
 10
0.0281344807
 20
33.608660986
 10
0.0538241278
 20
33.5945605755
 10
0.0785083316
 20
33.5812118199
 10
0.1022322224
 20
33.5686743888
 10
0.1250363782
 20
33.5569198667
 10
0.1469489062
 20
33.5458348085
 10
0.1679968259
 20
33.5354532014
 10
0.1882712286
 20
33.5257833339
 10
0.2078811692
 20
33.5166723066
 10
0.2268780877
 20
33.5081192008
 10
0.2453291613
 20
33.500152319
 10
0.2633404482
 20
33.4926532283
 10
0.2809790531
 20
33.4855834766
 10
0.2982916741
 20
33.4789879862
 10
0.3153436169
 20
33.472865929
  0
LWPOLYLINE
  5
4A7
100
AcDbEntity
  8
TRASH
100
AcDbPolyline
 62
7
  6
CONTINUOUS
 90
16
 70
0
 10
10.6054459151
 20
27.7701666024
 10
10.6321715692
 20
27.7553279507
 10
10.6578612164
 20
27.7412275401
 10
10.6825454201
 20
27.7278787846
 10
10.706269311
 20
27.7153413534
 10
10.7290734667
 20
27.7035868314
 10
10.7509859948
 20
27.6925017731
 10
10.7720339144
 20
27.682120166
 10
10.7923083172
 20
27.6724502985
 10
10.8119182578
 20
27.6633392712
 10
10.8309151763
 20
27.6547861655
 10
10.8493662498
 20
27.6468192836
 10
10.8673775368
 20
27.6393201929
 10
10.8850161416
 20
27.6322504412
 10
10.9023287627
 20
27.6256549509
 10
10.9193807055
 20
27.6195328936
  0
LINE
  5
4A8
100
AcDbEntity
  8
0
100
AcDbLine
 62
7
  6
CONTINUOUS
 10
0.6511641855
 20
33.245277739
 11
0.6267119728
 21
33.2592238284
  0
LINE
  5
4A9
100
AcDbEntity
  8
0
100
AcDbLine
 62
7
  6
CONTINUOUS
 10
11.2552012741
 20
27.3919447037
 11
11.2307490614
 21
27.405890793
  0
LINE
  5
4AA
100
AcDbEntity
  8
0
100
AcDbLine
 62
7
  6
CONTINUOUS
 10
0.6755106457
 20
33.2311309882
 11
0.6511641855
 21
33.245277739
  0
LINE
  5
4AB
100
AcDbEntity
  8
0
100
AcDbLine
 62
7
  6
CONTINUOUS
 10
11.2795477343
 20
27.3777979529
 11
11.2552012741
 21
27.3919447037
  0
LINE
  5
4AC
100
AcDbEntity
  8
0
100
AcDbLine
 62
7
  6
CONTINUOUS
 10
0.699751324
 20
33.2167835471
 11
0.6755106457
 21
33.2311309882
  0
LINE
  5
4AD
100
AcDbEntity
  8
0
100
AcDbLine
 62
7
  6
CONTINUOUS
 10
11.3037884126
 20
27.3634505117
 11
11.2795477343
 21
27.3777979529
  0
LWPOLYLINE
  5
4AE
100
AcDbEntity
  8
0
100
AcDbPolyline
 62
7
  6
CONTINUOUS
 90
10
 70
0
 10
-0.2402407233
 20
33.2958570934
 10
-0.2251525026
 20
33.2844685314
 10
-0.2093007702
 20
33.2734196534
 10
-0.1927081229
 20
33.2627262097
 10
-0.1753982138
 20
33.252403444
 10
-0.1573957183
 20
33.2424660714
 10
-0.1387262992
 20
33.2329282579
 10
-0.11941657
 20
33.2238035996
 10
-0.0994940568
 20
33.2151051038
 10
-0.0789871596
 20
33.2068451705
  0
LWPOLYLINE
  5
4AF
100
AcDbEntity
  8
0
100
AcDbPolyline
 62
7
  6
CONTINUOUS
 90
10
 70
0
 10
0.8611465566
 20
33.7496583946
 10
0.8460583357
 20
33.7610469567
 10
0.8302066032
 20
33.7720958349
 10
0.8136139558
 20
33.7827892787
 10
0.7963040465
 20
33.7931120446
 10
0.7783015508
 20
33.8030494173
 10
0.7596321315
 20
33.812587231
 10
0.7403224021
 20
33.8217118894
 10
0.7203998887
 20
33.8304103852
 10
0.6998929912
 20
33.8386703187
  0
LWPOLYLINE
  5
4B0
100
AcDbEntity
  8
0
100
AcDbPolyline
 62
7
  6
CONTINUOUS
 90
10
 70
0
 10
10.3637963652
 20
27.442524058
 10
10.3788845859
 20
27.431135496
 10
10.3947363184
 20
27.420086618
 10
10.4113289656
 20
27.4093931744
 10
10.4286388748
 20
27.3990704086
 10
10.4466413702
 20
27.3891330361
 10
10.4653107894
 20
27.3795952225
 10
10.4846205186
 20
27.3704705642
 10
10.5045430317
 20
27.3617720685
 10
10.525049929
 20
27.3535121351
  0
LWPOLYLINE
  5
4B1
100
AcDbEntity
  8
0
100
AcDbPolyline
 62
7
  6
CONTINUOUS
 90
10
 70
0
 10
11.4651836451
 20
27.8963253592
 10
11.4500954243
 20
27.9077139214
 10
11.4342436918
 20
27.9187627995
 10
11.4176510444
 20
27.9294562434
 10
11.4003411351
 20
27.9397790092
 10
11.3823386394
 20
27.9497163819
 10
11.3636692201
 20
27.9592541956
 10
11.3443594906
 20
27.968378854
 10
11.3244369773
 20
27.9770773499
 10
11.3039300798
 20
27.9853372833
  0
LWPOLYLINE
  5
4B2
100
AcDbEntity
  8
TRASH
100
AcDbPolyline
 62
7
  6
CONTINUOUS
 90
3
 70
0
 10
11.318480684
 20
27.3856534014
 10
11.3252822136
 20
27.3799614654
 10
11.3311078029
 20
27.375321014
  0
LWPOLYLINE
  5
4B3
100
AcDbEntity
  8
TRASH
100
AcDbPolyline
 62
7
  6
CONTINUOUS
 90
6
 70
0
 10
11.2867951418
 20
27.4167262691
 10
11.2928902137
 20
27.4100767141
 10
11.2991144883
 20
27.4036824717
 10
11.3054708479
 20
27.397506894
 10
11.3119142509
 20
27.3915028316
 10
11.318480684
 20
27.3856534014
  0
LWPOLYLINE
  5
4B4
100
AcDbEntity
  8
0
100
AcDbPolyline
 62
7
  6
CONTINUOUS
 90
3
 70
0
 10
35.2536996503
 20
-12.4025732361
 10
35.259712052
 20
-12.4151342973
 10
35.2628384186
 20
-12.4217480729
  0
LWPOLYLINE
  5
4B5
100
AcDbEntity
  8
0
100
AcDbPolyline
 62
7
  6
CONTINUOUS
 90
3
 70
0
 10
35.2628384186
 20
-12.4217480729
 10
35.2693483558
 20
-12.4357212604
 10
35.2727633418
 20
-12.4431435399
  0
LWPOLYLINE
  5
4B6
100
AcDbEntity
  8
0
100
AcDbPolyline
 62
7
  6
CONTINUOUS
 90
3
 70
0
 10
35.2727633418
 20
-12.4431435399
 10
35.2799235982
 20
-12.4589583545
 10
35.2837070536
 20
-12.4674226693
  0
LWPOLYLINE
  5
4B7
100
AcDbEntity
  8
0
100
AcDbPolyline
 62
7
  6
CONTINUOUS
 90
4
 70
0
 10
35.2837070536
 20
-12.4674226693
 10
35.2959445133
 20
-12.4953519192
 10
35.3003407239
 20
-12.5056109098
 10
35.3048348525
 20
-12.5163705471
  0
LINE
  5
4B8
100
AcDbEntity
  8
0
100
AcDbLine
 62
7
  6
CONTINUOUS
 10
34.2987355191
 20
-12.1801193603
 11
34.300800376
 21
-12.1851774678
  0
LINE
  5
4B9
100
AcDbEntity
  8
0
100
AcDbLine
 62
7
  6
CONTINUOUS
 10
34.4138727904
 20
-12.0635662885
 11
34.481955449
 21
-12.2497280852
  0
LINE
  5
4BA
100
AcDbEntity
  8
0
100
AcDbLine
 62
250
  6
CONTINUOUS
 10
33.4175270267
 20
-13.1446601027
 11
33.4193573978
 21
-13.1775032686
  0
LWPOLYLINE
  5
4BB
100
AcDbEntity
  8
0
100
AcDbPolyline
 62
250
  6
CONTINUOUS
 90
46
 70
0
 10
33.4094816837
 20
-12.7176555743
 10
33.4113120982
 20
-12.7504992049
 10
33.4170661504
 20
-12.7917514549
 10
33.4266359842
 20
-12.8326816615
 10
33.4399699859
 20
-12.8731454614
 10
33.4570253349
 20
-12.9130675494
 10
33.4777742236
 20
-12.9523948554
 10
33.5021772284
 20
-12.9910405237
 10
33.5301600736
 20
-13.0288765994
 10
33.5616403002
 20
-13.0657894323
 10
33.596531387
 20
-13.1016777056
 10
33.6347382272
 20
-13.1364437171
 10
33.6761465188
 20
-13.1699849159
 10
33.7206166143
 20
-13.2021938551
 10
33.7680460764
 20
-13.2330016137
 10
33.8183735994
 20
-13.2623639179
 10
33.8715154539
 20
-13.2902174696
 10
33.9272946468
 20
-13.3164557714
 10
33.9855010267
 20
-13.3409750647
 10
34.0459536407
 20
-13.3637003345
 10
34.1085059272
 20
-13.3845776515
 10
34.1729812882
 20
-13.4035481754
 10
34.239198708
 20
-13.4205592096
 10
34.3069792905
 20
-13.4355653445
 10
34.3761424321
 20
-13.44852665
 10
34.4465022945
 20
-13.4594078625
 10
34.517861637
 20
-13.4681780487
 10
34.5900179252
 20
-13.4748123855
 10
34.6627682931
 20
-13.4792927856
 10
34.7359171034
 20
-13.4816077601
 10
34.8092701276
 20
-13.4817512183
 10
34.8826307912
 20
-13.4797223084
 10
34.9557924882
 20
-13.4755262776
 10
35.0285460603
 20
-13.4691752377
 10
35.100685484
 20
-13.4606879376
 10
35.172019023
 20
-13.4500877041
 10
35.2423612594
 20
-13.4374020821
 10
35.311552116
 20
-13.4226577721
 10
35.3793664197
 20
-13.4059005559
 10
35.4455312975
 20
-13.3872019755
 10
35.5098176742
 20
-13.3666387619
 10
35.5721133268
 20
-13.3442591028
 10
35.6323282702
 20
-13.3201001211
 10
35.690321694
 20
-13.2942168795
 10
35.7459105526
 20
-13.2666895909
 10
35.7989433805
 20
-13.2375934437
  0
LINE
  5
4BC
100
AcDbEntity
  8
0
100
AcDbLine
 62
7
  6
CONTINUOUS
 10
33.4094816837
 20
-12.7176555735
 11
33.4175270267
 21
-13.1446601027
  0
LINE
  5
4BD
100
AcDbEntity
  8
RACCORDO
100
AcDbLine
 62
250
  6
CONTINUOUS
 10
30.6535431468
 20
-20.9384690893
 11
30.9451237003
 21
-36.5462053606
  0
LWPOLYLINE
  5
4BE
100
AcDbEntity
  8
TRASH
100
AcDbPolyline
 62
7
  6
CONTINUOUS
 90
7
 70
0
 10
34.4011808225
 20
-12.6693788898
 10
34.4081713958
 20
-12.6635105966
 10
34.4149096355
 20
-12.65749102
 10
34.4215096592
 20
-12.6513204569
 10
34.4280080307
 20
-12.6449811602
 10
34.4343589401
 20
-12.6384269874
 10
34.4405651979
 20
-12.6316211771
  0
LINE
  5
4BF
100
AcDbEntity
  8
TRASH
100
AcDbLine
 62
7
  6
CONTINUOUS
 10
34.3939740326
 20
-12.6751369752
 11
34.4011808225
 21
-12.6693788898
  0
LINE
  5
4C0
100
AcDbEntity
  8
TRASH
100
AcDbLine
 62
7
  6
CONTINUOUS
 10
34.3919904685
 20
-12.6766544468
 11
34.3939740326
 21
-12.6751369752
  0
LWPOLYLINE
  5
4C1
100
AcDbEntity
  8
RACCORDO
100
AcDbPolyline
 62
250
  6
CONTINUOUS
 90
25
 70
0
 10
30.292382128
 20
-20.3343409258
 10
30.2693908775
 20
-20.3484999296
 10
30.246529933
 20
-20.3643482546
 10
30.2238962136
 20
-20.3818187398
 10
30.2015856192
 20
-20.4008373977
 10
30.1796928015
 20
-20.4213235786
 10
30.1583107506
 20
-20.4431902744
 10
30.1375301127
 20
-20.4663447689
 10
30.117438981
 20
-20.4906888901
 10
30.0981226726
 20
-20.5161192207
 10
30.0796631747
 20
-20.5425277352
 10
30.0621385781
 20
-20.5698026236
 10
30.0456229374
 20
-20.5978286008
 10
30.030185816
 20
-20.6264877531
 10
30.0158931891
 20
-20.6556577362
 10
30.002806647
 20
-20.6852125319
 10
29.9909819475
 20
-20.7150252604
 10
29.9804682042
 20
-20.7449710385
 10
29.9713090309
 20
-20.7749251792
 10
29.9635402147
 20
-20.8047734405
 10
29.9571988835
 20
-20.8343764726
 10
29.9523169171
 20
-20.8635738103
 10
29.9489107468
 20
-20.8922320794
 10
29.9469871301
 20
-20.9202442565
 10
29.9465487744
 20
-20.9474949411
  0
LWPOLYLINE
  5
4C2
100
AcDbEntity
  8
0
100
AcDbPolyline
 62
250
  6
CONTINUOUS
 90
17
 70
0
 10
35.8069887235
 20
-13.6645979729
 10
35.8574422695
 20
-13.633934883
 10
35.9050448074
 20
-13.6018584381
 10
35.9496658616
 20
-13.5684565571
 10
35.991183129
 20
-13.5338207913
 10
36.0294828125
 20
-13.4980460751
 10
36.0644599333
 20
-13.4612304659
 10
36.0960186178
 20
-13.4234748771
 10
36.1240723701
 20
-13.3848827897
 10
36.1485443041
 20
-13.3455599689
 10
36.1693673449
 20
-13.3056141852
 10
36.1864844077
 20
-13.2651549364
 10
36.1998485671
 20
-13.2242931354
 10
36.2094231926
 20
-13.1831407886
 10
36.2151820442
 20
-13.141810685
 10
36.2171093383
 20
-13.1004161052
 10
36.2170301638
 20
-13.0919136765
  0
LINE
  5
4C3
100
AcDbEntity
  8
RACCORDO
100
AcDbLine
 62
250
  6
CONTINUOUS
 10
41.2670556816
 20
-13.9977019609
 11
30.292382128
 21
-20.3343409258
  0
LINE
  5
4C4
100
AcDbEntity
  8
RACCORDO
100
AcDbLine
 62
250
  6
CONTINUOUS
 10
41.6297459447
 20
-14.6009471579
 11
30.6535431468
 21
-20.9384690893
  0
LWPOLYLINE
  5
4C5
100
AcDbEntity
  8
RACCORDO
100
AcDbPolyline
 62
250
  6
CONTINUOUS
 90
12
 70
0
 10
41.2670556816
 20
-13.9977019609
 10
41.2802037136
 20
-13.9906871613
 10
41.2933005288
 20
-13.9848521624
 10
41.3062736958
 20
-13.9802292346
 10
41.3190514669
 20
-13.9768439448
 10
41.331563175
 20
-13.9747150153
 10
41.3437396245
 20
-13.97385422
 10
41.355513474
 20
-13.9742663196
 10
41.3668196084
 20
-13.975949035
 10
41.3775954997
 20
-13.9788930598
 10
41.3877815519
 20
-13.9830821124
 10
41.3916737122
 20
-13.9850989741
  0
LWPOLYLINE
  5
4C6
100
AcDbEntity
  8
0
100
AcDbPolyline
 62
7
  6
CONTINUOUS
 90
3
 70
0
 10
0.1864157911
 20
33.3098390134
 10
0.1657785125
 20
33.3039891047
 10
0.1246343954
 20
33.2919372515
  0
LWPOLYLINE
  5
4C7
100
AcDbEntity
  8
0
100
AcDbPolyline
 62
7
  6
CONTINUOUS
 90
3
 70
0
 10
0.2483786066
 20
33.3267110491
 10
0.2278119113
 20
33.3212204679
 10
0.1864157911
 20
33.3098390134
  0
LWPOLYLINE
  5
4C8
100
AcDbEntity
  8
0
100
AcDbPolyline
 62
7
  6
CONTINUOUS
 90
3
 70
0
 10
0.3094794192
 20
33.3423583087
 10
0.2891522846
 20
33.3372278556
 10
0.2483786066
 20
33.3267110491
  0
LINE
  5
4C9
100
AcDbEntity
  8
0
100
AcDbLine
 62
7
  6
CONTINUOUS
 10
0.0054364817
 20
33.2541302179
 11
-0.0063882577
 21
33.251185507
  0
LWPOLYLINE
  5
4CA
100
AcDbEntity
  8
0
100
AcDbPolyline
 62
7
  6
CONTINUOUS
 90
27
 70
0
 10
0.4114882698
 20
31.0336213419
 10
0.3854311065
 20
31.0284448556
 10
0.3496839947
 20
31.0226892788
 10
0.3140552693
 20
31.018265197
 10
0.2786865059
 20
31.0151587379
 10
0.2436250592
 20
31.0133488299
 10
0.2090211724
 20
31.0128234112
 10
0.175017842
 20
31.0135648506
 10
0.141656915
 20
31.0155584072
 10
0.1090053824
 20
31.0187970286
 10
0.0772985149
 20
31.023254384
 10
0.0468197457
 20
31.0288735118
 10
0.0177532539
 20
31.0355897862
 10
-0.0098473491
 20
31.0433600034
 10
-0.035912553
 20
31.0521415989
 10
-0.0603303181
 20
31.061877401
 10
-0.082996746
 20
31.072506599
 10
-0.103848477
 20
31.0839845227
 10
-0.1228266773
 20
31.0962750998
 10
-0.139789152
 20
31.1092839844
 10
-0.1545812233
 20
31.1228674304
 10
-0.1671290591
 20
31.1369022421
 10
-0.1774440111
 20
31.1513404034
 10
-0.1855259325
 20
31.166143639
 10
-0.1913418129
 20
31.1812286338
 10
-0.1948693103
 20
31.1965134018
 10
-0.1960778035
 20
31.2104558328
  0
LWPOLYLINE
  5
4CB
100
AcDbEntity
  8
0
100
AcDbPolyline
 62
7
  6
CONTINUOUS
 90
16
 70
0
 10
0.3095776208
 20
33.8012813232
 10
0.3299427237
 20
33.804396623
 10
0.3503404227
 20
33.8073083704
 10
0.3708083271
 20
33.8100345117
 10
0.3914298976
 20
33.8126126035
 10
0.4121922408
 20
33.8150286822
 10
0.4329533991
 20
33.8172333304
 10
0.4536627179
 20
33.8192597259
 10
0.4743558939
 20
33.8211241621
 10
0.49496775
 20
33.8227710542
 10
0.5154512151
 20
33.8242366607
 10
0.5357920946
 20
33.8255476282
 10
0.5559392417
 20
33.8266432592
 10
0.5758410641
 20
33.8275292292
 10
0.5954618604
 20
33.8282746925
 10
0.6147621783
 20
33.8289182272
  0
LWPOLYLINE
  5
4CC
100
AcDbEntity
  8
0
100
AcDbPolyline
 62
250
  6
CONTINUOUS
 90
6
 70
0
 10
0.0332973043
 20
34.0146025898
 10
-0.0357009151
 20
34.0043493866
 10
-0.1037402814
 20
33.9920790676
 10
-0.1706659431
 20
33.9778174622
 10
-0.2362601045
 20
33.9616088523
 10
-0.3002588559
 20
33.9435224316
  0
LWPOLYLINE
  5
4CD
100
AcDbEntity
  8
0
100
AcDbPolyline
 62
7
  6
CONTINUOUS
 90
7
 70
0
 10
0.6998929912
 20
33.8386703187
 10
0.6876890406
 20
33.8371977605
 10
0.6754836418
 20
33.8356458098
 10
0.6632767949
 20
33.8340144667
 10
0.6510684998
 20
33.8323037312
 10
0.6388587566
 20
33.8305136032
 10
0.6266475653
 20
33.8286440827
  0
LINE
  5
4CE
100
AcDbEntity
  8
0
100
AcDbLine
 62
250
  6
CONTINUOUS
 10
0.1030750223
 20
34.0228120325
 11
0.0989803615
 21
34.0224428664
  0
LINE
  5
4CF
100
AcDbEntity
  8
0
100
AcDbLine
 62
7
  6
CONTINUOUS
 10
-0.0064517039
 20
33.8205545133
 11
0.0055579407
 21
33.8211408136
  0
LWPOLYLINE
  5
4D0
100
AcDbEntity
  8
0
100
AcDbPolyline
 62
7
  6
CONTINUOUS
 90
3
 70
0
 10
0.0848399257
 20
33.8197440255
 10
0.1074704178
 20
33.8188622553
 10
0.1187847761
 20
33.8183397416
  0
LWPOLYLINE
  5
4D1
100
AcDbEntity
  8
0
100
AcDbPolyline
 62
7
  6
CONTINUOUS
 90
3
 70
0
 10
0.1187847761
 20
33.8183397416
 10
0.1416230242
 20
33.8171243813
 10
0.153259288
 20
33.8164182582
  0
LWPOLYLINE
  5
4D2
100
AcDbEntity
  8
0
100
AcDbPolyline
 62
7
  6
CONTINUOUS
 90
3
 70
0
 10
0.153259288
 20
33.8164182582
 10
0.1771933073
 20
33.8147891819
 10
0.1896679926
 20
33.8138420002
  0
LWPOLYLINE
  5
4D3
100
AcDbEntity
  8
0
100
AcDbPolyline
 62
7
  6
CONTINUOUS
 90
3
 70
0
 10
0.1896679926
 20
33.8138420002
 10
0.2158362004
 20
33.8116387025
 10
0.2297333563
 20
33.8103492727
  0
LWPOLYLINE
  5
4D4
100
AcDbEntity
  8
0
100
AcDbPolyline
 62
7
  6
CONTINUOUS
 90
7
 70
0
 10
-0.0788454938
 20
33.8287319415
 10
-0.0668522048
 20
33.8275744123
 10
-0.0548299739
 20
33.8263347363
 10
-0.0427788046
 20
33.8250129109
 10
-0.0306987007
 20
33.8236089337
 10
-0.0185896659
 20
33.822122802
 10
-0.0064517039
 20
33.8205545133
  0
LWPOLYLINE
  5
4D5
100
AcDbEntity
  8
0
100
AcDbPolyline
 62
7
  6
CONTINUOUS
 90
5
 70
0
 10
0.2297333563
 20
33.8103492727
 10
0.2593348032
 20
33.8073166763
 10
0.2753975195
 20
33.8055753011
 10
0.2921634771
 20
33.8035841871
 10
0.3095776208
 20
33.8012813232
  0
LWPOLYLINE
  5
4D6
100
AcDbEntity
  8
RACCORDO
100
AcDbPolyline
 62
250
  6
CONTINUOUS
 90
25
 70
0
 10
17.3824150351
 20
31.0626989077
 10
17.4508833077
 20
31.0541519574
 10
17.5177467846
 20
31.0420198889
 10
17.5827856463
 20
31.0266137302
 10
17.64591078
 20
31.0082988761
 10
17.7068390331
 20
30.9873318266
 10
17.7650944897
 20
30.9638618133
 10
17.820533783
 20
30.9381472953
 10
17.8730633375
 20
30.9105226295
 10
17.9223249492
 20
30.881253261
 10
17.9682732347
 20
30.85053778
 10
18.0108588362
 20
30.8187127939
 10
18.0497888655
 20
30.7862603664
 10
18.084893031
 20
30.7535634624
 10
18.1164447039
 20
30.7206942203
 10
18.1448400415
 20
30.6876409069
 10
18.169963412
 20
30.6548973821
 10
18.1920576608
 20
30.62226179
 10
18.2118807879
 20
30.588637744
 10
18.2295639938
 20
30.5539494781
 10
18.244772267
 20
30.5185266676
 10
18.2573434881
 20
30.481902988
 10
18.2670888079
 20
30.4440511131
 10
18.2738681398
 20
30.4053678933
 10
18.2775257214
 20
30.3660655113
  0
LWPOLYLINE
  5
4D7
100
AcDbEntity
  8
0
100
AcDbPolyline
 62
7
  6
CONTINUOUS
 90
15
 70
0
 10
-0.0058452412
 20
31.2639856839
 10
-0.0241663517
 20
31.2673890601
 10
-0.062477347
 20
31.2761848272
 10
-0.0991750351
 20
31.2863354449
 10
-0.1341142494
 20
31.2977829405
 10
-0.1671567637
 20
31.3104642231
 10
-0.1981718367
 20
31.3243113328
 10
-0.2270367289
 20
31.3392517085
 10
-0.2536371862
 20
31.3552084747
 10
-0.2778678915
 20
31.3721007444
 10
-0.2996328798
 20
31.3898439389
 10
-0.3188459173
 20
31.408350121
 10
-0.3354308414
 20
31.4275283427
 10
-0.3493218615
 20
31.4472850034
 10
-0.3543014624
 20
31.4563303819
  0
LWPOLYLINE
  5
4D8
100
AcDbEntity
  8
0
100
AcDbPolyline
 62
250
  6
CONTINUOUS
 90
10
 70
0
 10
0.866580642
 20
33.9757875993
 10
0.8010190665
 20
33.990302462
 10
0.7341201943
 20
34.0028394391
 10
0.6660637795
 20
34.0133644215
 10
0.5970406058
 20
34.0218474885
 10
0.527246577
 20
34.0282646298
 10
0.4568779179
 20
34.0325983501
 10
0.3861238605
 20
34.0348375368
 10
0.3151722748
 20
34.0349762985
 10
0.2442133003
 20
34.0330138115
  0
LINE
  5
4D9
100
AcDbEntity
  8
0
100
AcDbLine
 62
7
  6
CONTINUOUS
 10
0.614640719
 20
33.2619076469
 11
0.6267119728
 21
33.2592238284
  0
LWPOLYLINE
  5
4DA
100
AcDbEntity
  8
0
100
AcDbPolyline
 62
7
  6
CONTINUOUS
 90
3
 70
0
 10
0.3598254552
 20
33.330844669
 10
0.3269265806
 20
33.3383030401
 10
0.3094794192
 20
33.3423583087
  0
LINE
  5
4DB
100
AcDbEntity
  8
0
100
AcDbLine
 62
7
  6
CONTINUOUS
 10
0.3750622866
 20
33.3272763215
 11
0.3598254552
 21
33.330844669
  0
LINE
  5
4DC
100
AcDbEntity
  8
0
100
AcDbLine
 62
7
  6
CONTINUOUS
 10
0.4168535302
 20
33.3170474949
 11
0.3750622866
 21
33.3272763215
  0
LINE
  5
4DD
100
AcDbEntity
  8
0
100
AcDbLine
 62
7
  6
CONTINUOUS
 10
0.4544007457
 20
33.3074541682
 11
0.4168535302
 21
33.3170474949
  0
LINE
  5
4DE
100
AcDbEntity
  8
0
100
AcDbLine
 62
7
  6
CONTINUOUS
 10
0.4894610606
 20
33.29813791
 11
0.4544007457
 21
33.3074541682
  0
LINE
  5
4DF
100
AcDbEntity
  8
0
100
AcDbLine
 62
7
  6
CONTINUOUS
 10
0.5122061174
 20
33.2918978273
 11
0.4894610606
 21
33.29813791
  0
LINE
  5
4E0
100
AcDbEntity
  8
0
100
AcDbLine
 62
7
  6
CONTINUOUS
 10
0.5349402166
 20
33.2855171436
 11
0.5122061174
 21
33.2918978273
  0
LINE
  5
4E1
100
AcDbEntity
  8
0
100
AcDbLine
 62
7
  6
CONTINUOUS
 10
0.5577034259
 20
33.2789759957
 11
0.5349402166
 21
33.2855171436
  0
LINE
  5
4E2
100
AcDbEntity
  8
0
100
AcDbLine
 62
7
  6
CONTINUOUS
 10
0.5805059593
 20
33.2722602195
 11
0.5577034259
 21
33.2789759957
  0
LWPOLYLINE
  5
4E3
100
AcDbEntity
  8
0
100
AcDbPolyline
 62
7
  6
CONTINUOUS
 90
3
 70
0
 10
0.614640719
 20
33.2619076469
 10
0.6032775203
 20
33.2654065371
 10
0.5805059593
 20
33.2722602195
  0
LWPOLYLINE
  5
4E4
100
AcDbEntity
  8
TRASH
100
AcDbPolyline
 62
7
  6
CONTINUOUS
 90
5
 70
0
 10
0.6259043292
 20
33.6314722668
 10
0.6479367538
 20
33.6232610142
 10
0.6692527261
 20
33.6144675545
 10
0.6898052735
 20
33.6051103649
 10
0.7095457897
 20
33.5952101864
  0
LINE
  5
4E5
100
AcDbEntity
  8
0
100
AcDbLine
 62
7
  6
CONTINUOUS
 10
6.4239238001
 20
31.6015356566
 11
9.1668757783
 21
30.5518994954
  0
LINE
  5
4E6
100
AcDbEntity
  8
0
100
AcDbLine
 62
7
  6
CONTINUOUS
 10
9.5986352564
 20
30.8217494587
 11
7.8787695568
 21
31.4798846521
  0
LINE
  5
4E7
100
AcDbEntity
  8
0
100
AcDbLine
 62
7
  6
CONTINUOUS
 10
9.5970803727
 20
30.9042745148
 11
7.8772146731
 21
31.5624097082
  0
LINE
  5
4E8
100
AcDbEntity
  8
0
100
AcDbLine
 62
7
  6
CONTINUOUS
 10
5.3637594567
 20
33.3047644741
 11
7.7754511047
 21
32.3818905836
  0
LWPOLYLINE
  5
4E9
100
AcDbEntity
  8
0
100
AcDbPolyline
 62
7
  6
CONTINUOUS
 90
7
 70
0
 10
-0.2401405494
 20
33.7356036046
 10
-0.2321093305
 20
33.7316952846
 10
-0.2242134136
 20
33.7277886435
 10
-0.2164527986
 20
33.7238836815
 10
-0.2088274855
 20
33.7199803986
 10
-0.2013374743
 20
33.7160787946
 10
-0.1939827651
 20
33.7121788697
  0
LWPOLYLINE
  5
4EA
100
AcDbEntity
  8
RACCORDO
100
AcDbPolyline
 62
250
  6
CONTINUOUS
 90
8
 70
0
 10
2.3653982242
 20
34.959741653
 10
2.347149845
 20
34.96872084
 10
2.3291386334
 20
34.9753933243
 10
2.3115575671
 20
34.9796876149
 10
2.2945950151
 20
34.9815577015
 10
2.2784327192
 20
34.9809835473
 10
2.2632438472
 20
34.977971304
 10
2.2491911373
 20
34.9725532456
  0
LWPOLYLINE
  5
4EB
100
AcDbEntity
  8
RACCORDO
100
AcDbPolyline
 62
250
  6
CONTINUOUS
 90
12
 70
0
 10
2.7377419149
 20
34.9983845194
 10
2.7180337228
 20
35.0081811134
 10
2.6873768068
 20
35.0195634993
 10
2.6560785301
 20
35.0270405152
 10
2.6240107814
 20
35.0309626251
 10
2.5907145739
 20
35.0315029018
 10
2.5563888365
 20
35.0286669169
 10
2.5211741874
 20
35.0224770683
 10
2.4843943433
 20
35.0127100124
 10
2.4459082582
 20
34.9990707771
 10
2.4061734598
 20
34.9814592658
 10
2.3653982242
 20
34.959741653
  0
LWPOLYLINE
  5
4EC
100
AcDbEntity
  8
RACCORDO
100
AcDbPolyline
 62
250
  6
CONTINUOUS
 90
13
 70
0
 10
15.276715045
 20
28.0769840106
 10
15.2632635984
 20
28.0839000819
 10
15.2377756993
 20
28.0945313825
 10
15.2106159499
 20
28.1027141116
 10
15.1816810303
 20
28.1083040865
 10
15.1511671502
 20
28.1110918843
 10
15.1190632866
 20
28.1109166582
 10
15.0853525715
 20
28.1075944448
 10
15.0502380048
 20
28.1009633301
 10
15.0140715799
 20
28.0909469488
 10
14.9770843017
 20
28.0775072872
 10
14.9393710892
 20
28.0605803935
 10
14.9011153255
 20
28.0401386359
  0
LWPOLYLINE
  5
4ED
100
AcDbEntity
  8
RACCORDO
100
AcDbPolyline
 62
7
  6
CONTINUOUS
 90
14
 70
0
 10
2.7379778307
 20
34.9982487421
 10
2.7181375779
 20
35.0085352515
 10
2.6837898421
 20
35.0233466333
 10
2.6480762289
 20
35.0351149473
 10
2.611041455
 20
35.0437851033
 10
2.5728940865
 20
35.0492617767
 10
2.5338592702
 20
35.0514715204
 10
2.4939443827
 20
35.0503502235
 10
2.453315278
 20
35.0458202002
 10
2.4121427958
 20
35.0378253911
 10
2.3703551075
 20
35.0262422939
 10
2.3279962539
 20
35.0109302773
 10
2.285296964
 20
34.991829417
 10
2.2442850637
 20
34.9699351499
  0
LWPOLYLINE
  5
4EE
100
AcDbEntity
  8
RACCORDO
100
AcDbPolyline
 62
7
  6
CONTINUOUS
 90
12
 70
0
 10
14.2381509593
 20
28.6502622317
 10
14.2037834056
 20
28.6684070289
 10
14.149757649
 20
28.6938957932
 10
14.0917886584
 20
28.7176750657
 10
14.0299476652
 20
28.7395224746
 10
13.9641857029
 20
28.7592121025
 10
13.8945414281
 20
28.7765297614
 10
13.8211649078
 20
28.7912169011
 10
13.7441816523
 20
28.8028926098
 10
13.6637457216
 20
28.8112397392
 10
13.580058441
 20
28.8160770994
 10
13.4933596758
 20
28.8172070846
  0
LINE
  5
4EF
100
AcDbEntity
  8
RACCORDO
100
AcDbLine
 62
250
  6
CONTINUOUS
 10
14.9011153255
 20
28.0401386359
 11
13.4933596758
 21
28.8172070846
  0
LINE
  5
4F0
100
AcDbEntity
  8
RACCORDO
100
AcDbLine
 62
250
  6
CONTINUOUS
 10
3.7731538739
 20
34.1826732043
 11
2.3653982242
 21
34.959741653
  0
LINE
  5
4F1
100
AcDbEntity
  8
RACCORDO
100
AcDbLine
 62
7
  6
CONTINUOUS
 10
15.2769780777
 20
28.076839012
 11
14.2381540921
 21
28.6502605025
  0
LINE
  5
4F2
100
AcDbEntity
  8
RACCORDO
100
AcDbLine
 62
7
  6
CONTINUOUS
 10
3.7765673784
 20
34.424962213
 11
2.7377435225
 21
34.998383632
  0
LINE
  5
4F3
100
AcDbEntity
  8
0
100
AcDbLine
 62
7
  6
CONTINUOUS
 10
9.3566282923
 20
32.4166045906
 11
6.6027512074
 21
33.9367199563
  0
LINE
  5
4F4
100
AcDbEntity
  8
0
100
AcDbLine
 62
7
  6
CONTINUOUS
 10
9.4289395474
 20
32.458356203
 11
6.6011963238
 21
34.0192450124
  0
LINE
  5
4F5
100
AcDbEntity
  8
0
100
AcDbLine
 62
7
  6
CONTINUOUS
 10
35.3048348525
 20
-12.5163705471
 11
35.306960357
 21
-12.52464751
  0
LINE
  5
4F6
100
AcDbEntity
  8
0
100
AcDbLine
 62
7
  6
CONTINUOUS
 10
34.3958977965
 20
-12.3256660804
 11
34.4405651976
 21
-12.631621177
  0
LWPOLYLINE
  5
4F7
100
AcDbEntity
  8
0
100
AcDbPolyline
 62
250
  6
CONTINUOUS
 90
45
 70
0
 10
33.4193573978
 20
-13.1775032686
 10
33.4250985489
 20
-13.2186865543
 10
33.4346555712
 20
-13.2595946582
 10
33.4480022764
 20
-13.300115467
 10
33.4651020814
 20
-13.340137902
 10
33.4859081006
 20
-13.3795522333
 10
33.5103632806
 20
-13.4182504027
 10
33.5384005983
 20
-13.4561263712
 10
33.569943244
 20
-13.4930763749
 10
33.6049047945
 20
-13.5289991589
 10
33.6431894094
 20
-13.563796233
 10
33.6846921286
 20
-13.597372194
 10
33.7292991845
 20
-13.6296350047
 10
33.7768883218
 20
-13.660496243
 10
33.8273291018
 20
-13.6898713204
 10
33.8804832694
 20
-13.7176797217
 10
33.9362051326
 20
-13.7438452258
 10
33.9943419616
 20
-13.7682961149
 10
34.0547344223
 20
-13.7909653761
 10
34.1172169688
 20
-13.8117908681
 10
34.1816182925
 20
-13.8307154963
 10
34.2477618232
 20
-13.8476873827
 10
34.3154663069
 20
-13.8626600267
 10
34.3845462622
 20
-13.8755924102
 10
34.4548123994
 20
-13.8864490894
 10
34.5260720767
 20
-13.8952002931
 10
34.5981299202
 20
-13.9018220265
 10
34.6707883994
 20
-13.9062961396
 10
34.743848386
 20
-13.908610373
 10
34.8171096415
 20
-13.9087583843
 10
34.8903713653
 20
-13.9067397676
 10
34.9634327487
 20
-13.9025600556
 10
35.0360935394
 20
-13.8962307039
 10
35.1081545905
 20
-13.8877690588
 10
35.1794183757
 20
-13.8771983136
 10
35.2496895362
 20
-13.864547447
 10
35.3187754478
 20
-13.8498511403
 10
35.3864867696
 20
-13.8331496741
 10
35.4526379321
 20
-13.8144888218
 10
35.5170476275
 20
-13.7939197289
 10
35.5795393056
 20
-13.771498776
 10
35.6399416787
 20
-13.7472874187
 10
35.6980891876
 20
-13.7213520192
 10
35.753822456
 20
-13.6937636647
 10
35.8069887235
 20
-13.6645979729
  0
LINE
  5
4F8
100
AcDbEntity
  8
0
100
AcDbLine
 62
7
  6
CONTINUOUS
 10
34.3147963341
 20
-12.6383897556
 11
34.3007267304
 21
-12.5291894691
  0
LINE
  5
4F9
100
AcDbEntity
  8
0
100
AcDbLine
 62
7
  6
CONTINUOUS
 10
34.311251581
 20
-12.6362758418
 11
34.298626637
 21
-12.5376509923
  0
LWPOLYLINE
  5
4FA
100
AcDbEntity
  8
0
100
AcDbPolyline
 62
7
  6
CONTINUOUS
 90
43
 70
0
 10
36.2089848209
 20
-12.6649091509
 10
36.2061395941
 20
-12.6196968848
 10
36.1992544955
 20
-12.5743880546
 10
36.1882683587
 20
-12.5291572013
 10
36.1731326184
 20
-12.484166311
 10
36.1538218863
 20
-12.4395975454
 10
36.1303364304
 20
-12.3956381403
 10
36.102648179
 20
-12.3523944174
 10
36.0707846435
 20
-12.3100478309
 10
36.0348792016
 20
-12.2688604184
 10
35.9949499204
 20
-12.228912923
 10
35.9510854886
 20
-12.1903536236
 10
35.9036339549
 20
-12.1535002754
 10
35.8527795094
 20
-12.1184671269
 10
35.7986163584
 20
-12.0852973684
 10
35.7414682659
 20
-12.0541616339
 10
35.6815668361
 20
-12.0251431315
 10
35.6190510083
 20
-11.9982722218
 10
35.5541637253
 20
-11.9736217853
 10
35.4871273456
 20
-11.951244071
 10
35.418130873
 20
-11.9311737974
 10
35.3473938408
 20
-11.9134505349
 10
35.2751462037
 20
-11.8981092083
 10
35.2015942636
 20
-11.885173434
 10
35.1269349658
 20
-11.8746619115
 10
35.0513944875
 20
-11.8665935973
 10
34.9751948812
 20
-11.8609810326
 10
34.8985324086
 20
-11.8578306716
 10
34.8216333307
 20
-11.8571467135
 10
34.7447244897
 20
-11.8589274564
 10
34.6680043585
 20
-11.8631672728
 10
34.5916986458
 20
-11.8698553636
 10
34.5160323589
 20
-11.8789750632
 10
34.4412004686
 20
-11.8905087768
 10
34.3674202454
 20
-11.9044321512
 10
34.2949155974
 20
-11.9207137866
 10
34.2238845605
 20
-11.9393227403
 10
34.1545332618
 20
-11.9602221836
 10
34.0870791264
 20
-11.9833662605
 10
34.0217237876
 20
-12.0087080739
 10
33.9586632947
 20
-12.0361977702
 10
33.898095475
 20
-12.0657793351
 10
33.8402142885
 20
-12.0973923519
  0
LWPOLYLINE
  5
4FB
100
AcDbEntity
  8
0
100
AcDbPolyline
 62
7
  6
CONTINUOUS
 90
3
 70
0
 10
35.1193658495
 20
-12.0636541473
 10
35.1210937869
 20
-12.0933038143
 10
35.1301752403
 20
-12.2414617382
  0
LINE
  5
4FC
100
AcDbEntity
  8
0
100
AcDbLine
 62
7
  6
CONTINUOUS
 10
35.1074804625
 20
-12.0633800028
 11
35.1186250995
 21
-12.2608244008
  0
LINE
  5
4FD
100
AcDbEntity
  8
DRAFT
100
AcDbLine
 62
7
  6
CONTINUOUS
 10
38.5465350603
 20
-32.1572457094
 11
38.0445330665
 21
-17.3055713376
  0
LINE
  5
4FE
100
AcDbEntity
  8
0
100
AcDbLine
 62
7
  6
CONTINUOUS
 10
36.2089848208
 20
-12.6649091473
 11
36.2170301638
 21
-13.0919136765
  0
LINE
  5
4FF
100
AcDbEntity
  8
0
100
AcDbLine
 62
7
  6
CONTINUOUS
 10
34.8080651976
 20
-12.4194312828
 11
34.8022959051
 21
-12.0910169068
  0
LINE
  5
500
100
AcDbEntity
  8
0
100
AcDbLine
 62
7
  6
CONTINUOUS
 10
34.4941245648
 20
-12.2687970969
 11
34.498276225
 21
-12.0711574164
  0
LINE
  5
501
100
AcDbEntity
  8
0
100
AcDbLine
 62
7
  6
CONTINUOUS
 10
34.4819434387
 20
-12.2497373998
 11
34.4862665803
 21
-12.0717437167
  0
LWPOLYLINE
  5
502
100
AcDbEntity
  8
0
100
AcDbPolyline
 62
7
  6
CONTINUOUS
 90
16
 70
0
 10
36.2170301638
 20
-13.0919136765
 10
36.2159438595
 20
-13.1364150875
 10
36.2109652888
 20
-13.1811494804
 10
36.2020324112
 20
-13.2259537462
 10
36.189104607
 20
-13.2706488067
 10
36.172148627
 20
-13.315091243
 10
36.1511174786
 20
-13.3591834649
 10
36.125931276
 20
-13.402869194
 10
36.0966119371
 20
-13.4459187272
 10
36.0633099952
 20
-13.4880080964
 10
36.0260556338
 20
-13.5290411769
 10
35.984912745
 20
-13.5688903362
 10
35.9402057377
 20
-13.607229861
 10
35.8921563706
 20
-13.6439064589
 10
35.8408101968
 20
-13.6789147453
 10
35.7862975589
 20
-13.7121768981
  0
LINE
  5
503
100
AcDbEntity
  8
0
100
AcDbLine
 62
7
  6
CONTINUOUS
 10
35.306960357
 20
-12.52464751
 11
35.2981197661
 21
-12.6218588946
  0
LINE
  5
504
100
AcDbEntity
  8
0
100
AcDbLine
 62
7
  6
CONTINUOUS
 10
35.3048348525
 20
-12.5163705471
 11
35.2949834144
 21
-12.623783841
  0
LINE
  5
505
100
AcDbEntity
  8
0
100
AcDbLine
 62
7
  6
CONTINUOUS
 10
35.1754763378
 20
-12.6222389254
 11
35.2085958123
 21
-12.3152907602
  0
LINE
  5
506
100
AcDbEntity
  8
0
100
AcDbLine
 62
7
  6
CONTINUOUS
 10
34.3007267304
 20
-12.5291894691
 11
34.298626637
 21
-12.5376509923
  0
LINE
  5
507
100
AcDbEntity
  8
0
100
AcDbLine
 62
7
  6
CONTINUOUS
 10
35.1301178803
 20
-12.2414215126
 11
35.1926112755
 21
-12.0536279113
  0
LINE
  5
508
100
AcDbEntity
  8
0
100
AcDbLine
 62
7
  6
CONTINUOUS
 10
35.3070702036
 20
-12.1671671299
 11
35.3049084978
 21
-12.1723585304
  0
LINE
  5
509
100
AcDbEntity
  8
0
100
AcDbLine
 62
7
  6
CONTINUOUS
 10
34.3007267304
 20
-12.5291894691
 11
34.3182945868
 21
-12.4871650935
  0
LINE
  5
50A
100
AcDbEntity
  8
0
100
AcDbLine
 62
7
  6
CONTINUOUS
 10
34.3182945868
 20
-12.4871650935
 11
34.3243363482
 21
-12.4731264128
  0
LWPOLYLINE
  5
50B
100
AcDbEntity
  8
0
100
AcDbPolyline
 62
7
  6
CONTINUOUS
 90
11
 70
0
 10
34.3243363482
 20
-12.4731264128
 10
34.3367753604
 20
-12.4451667452
 10
34.3430769138
 20
-12.4312957524
 10
34.3495243668
 20
-12.4175162198
 10
34.3559813706
 20
-12.4038833959
 10
34.3624909386
 20
-12.390368194
 10
34.3691245971
 20
-12.3769911582
 10
34.3757636397
 20
-12.3638500021
 10
34.3823841696
 20
-12.3509518824
 10
34.3890809716
 20
-12.338233334
 10
34.3958977965
 20
-12.3256660804
  0
LINE
  5
50C
100
AcDbEntity
  8
TRASH
100
AcDbLine
 62
7
  6
CONTINUOUS
 10
35.1186250995
 20
-12.2608244008
 11
35.1301752403
 21
-12.2414617382
  0
LINE
  5
50D
100
AcDbEntity
  8
0
100
AcDbLine
 62
7
  6
CONTINUOUS
 10
35.2288596247
 20
-12.2839882742
 11
35.2085958123
 21
-12.3152907602
  0
LINE
  5
50E
100
AcDbEntity
  8
0
100
AcDbLine
 62
7
  6
CONTINUOUS
 10
35.2488235891
 20
-12.2535983165
 11
35.2288596247
 21
-12.2839882742
  0
LWPOLYLINE
  5
50F
100
AcDbEntity
  8
0
100
AcDbPolyline
 62
7
  6
CONTINUOUS
 90
3
 70
0
 10
35.2682617886
 20
-12.2246383497
 10
35.2553523783
 20
-12.2437754782
 10
35.2488235891
 20
-12.2535983165
  0
LWPOLYLINE
  5
510
100
AcDbEntity
  8
0
100
AcDbPolyline
 62
7
  6
CONTINUOUS
 90
3
 70
0
 10
35.2929888004
 20
-12.1888199847
 10
35.2745773112
 20
-12.2153616588
 10
35.2682617886
 20
-12.2246383497
  0
LWPOLYLINE
  5
511
100
AcDbEntity
  8
0
100
AcDbPolyline
 62
7
  6
CONTINUOUS
 90
3
 70
0
 10
35.3049084978
 20
-12.1723585304
 10
35.2989272838
 20
-12.1804482006
 10
35.2929888004
 20
-12.1888199847
  0
LWPOLYLINE
  5
512
100
AcDbEntity
  8
0
100
AcDbPolyline
 62
7
  6
CONTINUOUS
 90
6
 70
0
 10
34.2524775609
 20
-12.5964411366
 10
34.2677398136
 20
-12.5766438094
 10
34.2754162217
 20
-12.5668203732
 10
34.2831228247
 20
-12.5570470907
 10
34.290859628
 20
-12.5473239632
 10
34.298626637
 20
-12.5376509923
  0
LWPOLYLINE
  5
513
100
AcDbEntity
  8
RACCORDO
100
AcDbPolyline
 62
250
  6
CONTINUOUS
 90
12
 70
0
 10
41.6297459447
 20
-14.6009471579
 10
41.6424578467
 20
-14.5929173754
 10
41.6541106045
 20
-14.5843970631
 10
41.6646390583
 20
-14.5754338665
 10
41.6739843354
 20
-14.5660779071
 10
41.6820941787
 20
-14.5563815034
 10
41.6889232391
 20
-14.5463988788
 10
41.6944333314
 20
-14.5361858555
 10
41.6985936457
 20
-14.5257995441
 10
41.70138092
 20
-14.5152980251
 10
41.7027795707
 20
-14.5047400222
 10
41.7029113154
 20
-14.4967908909
  0
LINE
  5
514
100
AcDbEntity
  8
RACCORDO
100
AcDbLine
 62
7
  6
CONTINUOUS
 10
41.6507843816
 20
-15.2233670252
 11
38.0445330665
 21
-17.3055713376
  0
LINE
  5
515
100
AcDbEntity
  8
0
100
AcDbLine
 62
250
  6
CONTINUOUS
 10
0.1752860743
 20
34.0291309572
 11
0.1734467794
 21
34.0289551512
  0
LWPOLYLINE
  5
516
100
AcDbEntity
  8
0
100
AcDbPolyline
 62
7
  6
CONTINUOUS
 90
7
 70
0
 10
0.0055579407
 20
33.8211408136
 10
0.0281726596
 20
33.8210045521
 10
0.0395028623
 20
33.8208638475
 10
0.0508433142
 20
33.8206656492
 10
0.0621874181
 20
33.8204097037
 10
0.0735263753
 20
33.8201035564
 10
0.0848399257
 20
33.8197440255
  0
LINE
  5
517
100
AcDbEntity
  8
0
100
AcDbLine
 62
7
  6
CONTINUOUS
 10
0.6266475653
 20
33.8286440827
 11
0.6147621783
 21
33.8289182272
  0
LWPOLYLINE
  5
518
100
AcDbEntity
  8
RACCORDO
100
AcDbPolyline
 62
250
  6
CONTINUOUS
 90
11
 70
0
 10
7.7892573504
 20
36.6022449116
 10
7.7817530624
 20
36.6051269591
 10
7.7707339887
 20
36.6051874605
 10
7.7590118347
 20
36.6004905891
 10
7.7464982815
 20
36.5909612436
 10
7.7334059015
 20
36.5763592812
 10
7.7198715767
 20
36.5565651541
 10
7.7057640263
 20
36.5318210635
 10
7.6912220133
 20
36.502227078
 10
7.6766324086
 20
36.4676633737
 10
7.6622801617
 20
36.4281619448
  0
LWPOLYLINE
  5
519
100
AcDbEntity
  8
RACCORDO
100
AcDbPolyline
 62
7
  6
CONTINUOUS
 90
13
 70
0
 10
7.7892229633
 20
36.6022615026
 10
7.78422308
 20
36.6049479783
 10
7.763285536
 20
36.614690397
 10
7.7415884866
 20
36.6224446076
 10
7.719321392
 20
36.628158176
 10
7.6966775572
 20
36.6317966209
 10
7.6738542815
 20
36.6333438885
 10
7.6510391458
 20
36.6328027159
 10
7.6284100611
 20
36.6301904752
 10
7.6061554827
 20
36.6255407849
 10
7.5844549259
 20
36.618903172
 10
7.5634672213
 20
36.610335633
 10
7.5433141666
 20
36.5998867961
  0
LINE
  5
51A
100
AcDbEntity
  8
RACCORDO
100
AcDbLine
 62
250
  6
CONTINUOUS
 10
17.3824469723
 20
31.0627173479
 11
7.6622411704
 21
36.4281834676
  0
LINE
  5
51B
100
AcDbEntity
  8
RACCORDO
100
AcDbLine
 62
7
  6
CONTINUOUS
 10
18.003681167
 20
30.9639748961
 11
7.7892201469
 21
36.6022654479
  0
LWPOLYLINE
  5
51C
100
AcDbEntity
  8
RACCORDO
100
AcDbPolyline
 62
7
  6
CONTINUOUS
 90
21
 70
0
 10
41.7029113154
 20
-14.496790891
 10
41.7016955071
 20
-14.4749305336
 10
41.6982891831
 20
-14.4433212238
 10
41.6930182386
 20
-14.411847272
 10
41.6859426856
 20
-14.3804938727
 10
41.6771241032
 20
-14.3493298024
 10
41.6666639882
 20
-14.3185583849
 10
41.6546168579
 20
-14.2882182377
 10
41.6410204314
 20
-14.2583530901
 10
41.6260100123
 20
-14.229207583
 10
41.6096292547
 20
-14.2008269966
 10
41.5919138388
 20
-14.1732623825
 10
41.5730238258
 20
-14.1467583932
 10
41.5530032489
 20
-14.1213636597
 10
41.5318706154
 20
-14.0971209704
 10
41.5097733401
 20
-14.0742146504
 10
41.486733005
 20
-14.0526907346
 10
41.46275161
 20
-14.0325918885
 10
41.4379344489
 20
-14.0140575469
 10
41.4123199134
 20
-13.9971625023
 10
41.3916737122
 20
-13.9850989741
  0
LWPOLYLINE
  5
51D
100
AcDbEntity
  8
RACCORDO
100
AcDbPolyline
 62
250
  6
CONTINUOUS
 90
28
 70
0
 10
41.6297459447
 20
-14.6009471579
 10
41.6284244748
 20
-14.5765586923
 10
41.6259237161
 20
-14.5517161544
 10
41.6222676907
 20
-14.5265102181
 10
41.6174930814
 20
-14.5010758648
 10
41.6116256483
 20
-14.4754579229
 10
41.6046605607
 20
-14.4496062506
 10
41.5966004873
 20
-14.4235519244
 10
41.5874824452
 20
-14.3974329666
 10
41.577343679
 20
-14.3713567748
 10
41.5662215998
 20
-14.3454178443
 10
41.5541495706
 20
-14.3196925933
 10
41.54116573
 20
-14.2942607171
 10
41.527309672
 20
-14.2692011067
 10
41.512628924
 20
-14.2446010959
 10
41.4971783025
 20
-14.2205507382
 10
41.4810385822
 20
-14.1971696052
 10
41.4642361997
 20
-14.1744900877
 10
41.4467392152
 20
-14.1524784875
 10
41.4285700148
 20
-14.1311881647
 10
41.4098069192
 20
-14.1107353523
 10
41.390496704
 20
-14.0911918841
 10
41.3706810659
 20
-14.0726243812
 10
41.3504393287
 20
-14.0551313924
 10
41.3298807818
 20
-14.0388241054
 10
41.3090898322
 20
-14.0237803916
 10
41.2881237128
 20
-14.0100528711
 10
41.2670556816
 20
-13.9977019609
  0
LINE
  5
51E
100
AcDbEntity
  8
RACCORDO
100
AcDbLine
 62
250
  6
CONTINUOUS
 10
41.6507843816
 20
-15.2233670252
 11
41.6297459447
 21
-14.6009471579
  0
LINE
  5
51F
100
AcDbEntity
  8
RACCORDO
100
AcDbLine
 62
7
  6
CONTINUOUS
 10
41.7239735731
 20
-15.1199151873
 11
41.7029099531
 21
-14.4967502817
  0
LINE
  5
520
100
AcDbEntity
  8
RACCORDO
100
AcDbLine
 62
7
  6
CONTINUOUS
 10
30.9451237003
 20
-36.5462053606
 11
38.5465350603
 21
-32.1572457094
  0
ARC
  5
521
100
AcDbEntity
  8
RACCORDO
100
AcDbCircle
 62
7
  6
CONTINUOUS
 10
-41.2224507595
 20
18.7328693149
 40
0.5
100
AcDbArc
 50
120.0020308826
 51
180.223183045
  0
ELLIPSE
  5
522
100
AcDbEntity
  8
RACCORDO
100
AcDbEllipse
 62
7
  6
CONTINUOUS
 10
15.2725540051
 20
27.6219634303
 30
0.0
 11
0.2500317987
 21
0.00470958
 31
0.0
 40
0.5643808049
 41
-0.7959969793
 42
0.0168763703
  0
ELLIPSE
  5
523
100
AcDbEntity
  8
RACCORDO
100
AcDbEllipse
 62
7
  6
CONTINUOUS
 10
18.3639579973
 20
10.0262966395
 30
0.0
 11
0.2499586835
 21
0.0047095054
 31
0.0
 40
0.5645458169
 41
-0.7961492651
 42
-0.003376243
  0
ELLIPSE
  5
524
100
AcDbEntity
  8
RACCORDO
100
AcDbEllipse
 62
7
  6
CONTINUOUS
 10
2.34440685
 20
29.8940451671
 30
0.0
 11
-0.2513445054
 21
0.4322354961
 31
0.0
 40
0.575357354
 41
0.8090606639
 42
2.3763663322
  0
ELLIPSE
  5
525
100
AcDbEntity
  8
RACCORDO
100
AcDbEllipse
 62
7
  6
CONTINUOUS
 10
14.5276200495
 20
23.7015525583
 30
0.0
 11
-0.2486697307
 21
0.4337798525
 31
0.0
 40
0.5792986412
 41
-3.1397973163
 42
-2.3359469915
  0
ELLIPSE
  5
526
100
AcDbEntity
  8
RACCORDO
100
AcDbEllipse
 62
7
  6
CONTINUOUS
 10
14.0560939467
 20
23.4292992962
 30
0.0
 11
-0.2513445054
 21
0.4322354961
 31
0.0
 40
0.575357354
 41
2.3763663322
 42
3.9436720005
  0
ELLIPSE
  5
527
100
AcDbEntity
  8
RACCORDO
100
AcDbEllipse
 62
7
  6
CONTINUOUS
 10
-1.5135497816
 20
32.5115286228
 30
0.0
 11
-0.1215988542
 21
0.2184578467
 31
0.0
 40
0.5870909852
 41
-0.7542303605
 42
0.7991126737
  0
ELLIPSE
  5
528
100
AcDbEntity
  8
RACCORDO
100
AcDbEllipse
 62
7
  6
CONTINUOUS
 10
11.0221673197
 20
25.5919256057
 30
0.0
 11
-0.1215988542
 21
0.2184578467
 31
0.0
 40
0.5870909852
 41
-2.3075733948
 42
-0.7542303605
  0
ELLIPSE
  5
529
100
AcDbEntity
  8
RACCORDO
100
AcDbEllipse
 62
7
  6
CONTINUOUS
 10
30.5916692628
 20
-36.3510712838
 30
0.0
 11
0.4999112661
 21
0.0094196835
 31
0.0
 40
0.5645956779
 41
-2.3669154475
 42
-0.7961952731
  0
ELLIPSE
  5
52A
100
AcDbEntity
  8
RACCORDO
100
AcDbEllipse
 62
7
  6
CONTINUOUS
 10
41.4740302379
 20
-15.1258155329
 30
0.0
 11
0.2499746769
 21
0.0047095216
 31
0.0
 40
0.5645097137
 41
-0.7961159495
 42
0.0084400977
  0
ELLIPSE
  5
52B
100
AcDbEntity
  8
RACCORDO
100
AcDbEllipse
 62
7
  6
CONTINUOUS
 10
-41.1622881175
 20
3.2564673965
 30
0.0
 11
0.4999493538
 21
0.0094190433
 31
0.0
 40
0.5645097137
 41
3.1331525753
 42
3.9161968784
  0
ENDSEC
  0
SECTION
  2
OBJECTS
  0
DICTIONARY
  5
C
100
AcDbDictionary
280
0
281
1
  3
ACAD_GROUP
350
D
  3
ACAD_MLINESTYLE
350
17
  3
ACAD_LAYOUT
350
1A
  3
ACAD_PLOTSETTINGS
350
19
  3
ACAD_PLOTSTYLENAME
350
E
  0
DICTIONARY
  5
D
102
{ACAD_REACTORS
330
C
102
}
100
AcDbDictionary
280
0
281
1
  0
ACDBDICTIONARYWDFLT
  5
E
102
{ACAD_REACTORS
330
C
102
}
100
AcDbDictionary
281
1
  3
Normal
350
F
100
AcDbDictionaryWithDefault
340
F
  0
DICTIONARY
  5
17
102
{ACAD_REACTORS
330
C
102
}
100
AcDbDictionary
280
0
281
1
  3
Standard
350
18
  0
DICTIONARY
  5
19
102
{ACAD_REACTORS
330
C
102
}
100
AcDbDictionary
281
1
  0
DICTIONARY
  5
1A
102
{ACAD_REACTORS
330
C
102
}
100
AcDbDictionary
281
1
  3
Model
350
52C
  3
Layout1
350
52D
  0
ACDBPLACEHOLDER
  5
F
102
{ACAD_REACTORS
330
E
102
}
  0
MLINESTYLE
  5
18
102
{ACAD_REACTORS
330
17
102
}
100
AcDbMlineStyle
  2
STANDARD
 70
0
  3

 62
256
 51
90.0
 52
90.0
 71
2
 49
0.5
 62
256
  6
BYLAYER
 49
-0.5
 62
256
  6
BYLAYER
  0
LAYOUT
  5
52C
102
{ACAD_REACTORS
330
1A
102
}
100
AcDbPlotSettings
  1

  2
none_device
  4
ANSI_C_(22.00_x_17.00_Inches)
  6

 40
0.0
 41
0.0
 42
0.0
 43
0.0
 44
558.8
 45
431.8
 46
0.0
 47
0.0
 48
0.0
 49
0.0
140
0.0
141
0.0
142
1.0
143
1.0
 70
1024
 72
1
 73
0
 74
0
  7

 75
0
147
1.0
148
0.0
149
0.0
100
AcDbLayout
  1
Model
 70
0
 71
0
 10
0.0
 20
0.0
 11
558.8
 21
431.8
 12
0.0
 22
0.0
 32
0.0
 14
0.0
 24
0.0
 34
0.0
 15
0.0
 25
0.0
 35
0.0
146
0.0
 13
0.0
 23
0.0
 33
0.0
 16
1.0
 26
0.0
 36
0.0
 17
0.0
 27
1.0
 37
0.0
 76
0
330
212
345
0
346
0
  0
LAYOUT
  5
52D
102
{ACAD_REACTORS
330
1A
102
}
100
AcDbPlotSettings
  1

  2
none_device
  4
ANSI_C_(22.00_x_17.00_Inches)
  6

 40
0.0
 41
0.0
 42
0.0
 43
0.0
 44
558.8
 45
431.8
 46
0.0
 47
0.0
 48
0.0
 49
0.0
140
0.0
141
0.0
142
1.0
143
1.0
 70
0
 72
1
 73
0
 74
0
  7

 75
0
147
1.0
148
0.0
149
0.0
100
AcDbLayout
  1
Layout1
 70
0
 71
1
 10
0.0
 20
0.0
 11
558.8
 21
431.8
 12
0.0
 22
0.0
 32
0.0
 14
0.0
 24
0.0
 34
0.0
 15
0.0
 25
0.0
 35
0.0
146
0.0
 13
0.0
 23
0.0
 33
0.0
 16
1.0
 26
0.0
 36
0.0
 17
0.0
 27
1.0
 37
0.0
 76
0
330
213
345
0
346
0
  0
ENDSEC
  0
EOF
