  0
SECTION
  2
HEADER
  9
$ACADVER
  1
AC1021
  9
$DWGCODEPAGE
  3
ANSI_1252
  9
$EXTMAX
 10
297.0
 20
210.0
 30
0.0
  9
$EXTMIN
 10
0.0
 20
0.0
 30
0.0
  9
$LIMMIN
 10
0.0
 20
0.0
  9
$LIMMAX
 10
297.0
 20
210.0
  9
$VIEWCTR
 10
148.5
 20
105.0
  9
$VIEWSIZE
 40
210.0
  9
$CLAYER
  8
0
  9
$LTSCALE
 40
16.335
  9
$CELTYPE
  6
BYLAYER
  9
$DIMSCALE
 40
1.0
  9
$DIMASZ
 40
3.0
  9
$DIMEXO
 40
0.5
  9
$DIMDLI
 40
11.286
  9
$DIMEXE
 40
1.5
  9
$DIMCEN
 40
2.673
  9
$DIMLFAC
 40
1.0
  9
$DIMBLK
  1
_FILLED
  9
$DIMALT
 70
0
  9
$DIMALTF
 40
0.0393700787
  9
$DIMTXT
 40
3.0
  9
$DIMTOL
 70
1
  9
$DIMLIM
 70
0
  9
$DIMTFAC
 40
1.0
  9
$DIMTP
 40
0.01
  9
$DIMTM
 40
0.01
  9
$DIMGAP
 40
0.625
  9
$DIMDSEP
 70
44
  9
$AUNITS
 70
0
  9
$PDMODE
 70
3
  9
$PDSIZE
 40
3.0
  9
$HANDSEED
  5
4B5
  9
$TILEMODE
 70
1
  9
$MEASUREMENT
 70
1
  9
$INSUNITS
 70
4
  0
ENDSEC
  0
SECTION
  2
CLASSES
  0
CLASS
  1
ACDBDICTIONARYWDFLT
  2
AcDbDictionaryWithDefault
  3
AutoCAD 2000
 90
0
 91
1
280
0
281
0
  0
CLASS
  1
ACDBPLACEHOLDER
  2
AcDbPlaceHolder
  3
AutoCAD 2000
 90
0
 91
1
280
0
281
0
  0
CLASS
  1
LAYOUT
  2
AcDbLayout
  3
AutoCAD 2000
 90
0
 91
0
280
0
281
0
  0
ENDSEC
  0
SECTION
  2
TABLES
  0
TABLE
  2
VPORT
  5
8
100
AcDbSymbolTable
 70
2
  0
VPORT
  5
1F4
100
AcDbSymbolTableRecord
100
AcDbViewportTableRecord
  2
*ACTIVE
 70
0
 10
0.0
 20
0.0
 11
1.0
 21
1.0
 12
148.5
 22
105.0
 13
0.0
 23
0.0
 14
1.0
 24
1.0
 15
0.0
 25
0.0
 16
0.0
 26
0.0
 36
1.0
 17
0.0
 27
0.0
 37
0.0
 40
210.0
 41
1.4142857143
 42
50.0
 43
0.0
 44
0.0
 50
0.0
 51
0.0
 71
0
 72
100
 73
1
 74
1
 75
0
 76
0
 77
0
 78
0
  0
ENDTAB
  0
TABLE
  2
LTYPE
  5
5
100
AcDbSymbolTable
 70
6
  0
LTYPE
  5
14
100
AcDbSymbolTableRecord
100
AcDbLinetypeTableRecord
  2
BYBLOCK
 70
0
  3

 72
65
 73
0
 40
0.0
  0
LTYPE
  5
15
100
AcDbSymbolTableRecord
100
AcDbLinetypeTableRecord
  2
BYLAYER
 70
0
  3

 72
65
 73
0
 40
0.0
  0
LTYPE
  5
16
100
AcDbSymbolTableRecord
100
AcDbLinetypeTableRecord
  2
CONTINUOUS
 70
64
  3
Solid line
 72
65
 73
0
 40
0.0
  0
LTYPE
  5
1F5
100
AcDbSymbolTableRecord
100
AcDbLinetypeTableRecord
  2
CENTER
 70
64
  3
____ _ ____ _ ____ _ ____ _ ____ _ ____ _ ____
 72
65
 73
4
 40
0.6
 49
0.375
 74
0
 49
-0.075
 74
0
 49
0.075
 74
0
 49
-0.075
 74
0
  0
LTYPE
  5
1F6
100
AcDbSymbolTableRecord
100
AcDbLinetypeTableRecord
  2
HIDDEN
 70
64
  3
- - - - - - - - - - - - - - - - - - - -
 72
65
 73
2
 40
0.2
 49
0.1
 74
0
 49
-0.1
 74
0
  0
LTYPE
  5
1F7
100
AcDbSymbolTableRecord
100
AcDbLinetypeTableRecord
  2
PHANTOM
 70
64
  3
_____ _ _ _____ _ _ _____ _ _ _____
 72
65
 73
6
 40
0.8
 49
0.45
 74
0
 49
-0.05
 74
0
 49
0.1
 74
0
 49
-0.05
 74
0
 49
0.1
 74
0
 49
-0.05
 74
0
  0
LTYPE
  5
1F8
100
AcDbSymbolTableRecord
100
AcDbLinetypeTableRecord
  2
DOT
 70
64
  3
. . . . . . . . . . . . . . . . . . . .
 72
65
 73
2
 40
0.2
 49
0.1
 74
0
 49
-0.1
 74
0
  0
LTYPE
  5
1F9
100
AcDbSymbolTableRecord
100
AcDbLinetypeTableRecord
  2
DASHED
 70
64
  3
- - - - - - - - - - - - - - - - - - - -
 72
65
 73
2
 40
0.2
 49
0.1
 74
0
 49
-0.1
 74
0
  0
ENDTAB
  0
TABLE
  2
LAYER
  5
2
100
AcDbSymbolTable
 70
36
  0
LAYER
  5
10
100
AcDbSymbolTableRecord
100
AcDbLayerTableRecord
  2
0
 70
0
 62
7
  6
CONTINUOUS
370
-3
390
F
  0
LAYER
  5
1FA
100
AcDbSymbolTableRecord
100
AcDbLayerTableRecord
  2
DEFAULT_1
 70
0
 62
7
  6
CENTER
370
-3
390
F
  0
LAYER
  5
1FB
100
AcDbSymbolTableRecord
100
AcDbLayerTableRecord
  2
DEFAULT_2
 70
0
 62
7
  6
HIDDEN
370
-3
390
F
  0
LAYER
  5
1FC
100
AcDbSymbolTableRecord
100
AcDbLayerTableRecord
  2
DEFAULT_3
 70
0
 62
7
  6
PHANTOM
370
-3
390
F
  0
LAYER
  5
1FD
100
AcDbSymbolTableRecord
100
AcDbLayerTableRecord
  2
ASSI
 70
0
 62
7
  6
CONTINUOUS
370
-3
390
F
  0
LAYER
  5
1FE
100
AcDbSymbolTableRecord
100
AcDbLayerTableRecord
  2
COLOR5
 70
0
 62
7
  6
CONTINUOUS
370
-3
390
F
  0
LAYER
  5
1FF
100
AcDbSymbolTableRecord
100
AcDbLayerTableRecord
  2
COLOR7
 70
0
 62
7
  6
CONTINUOUS
370
-3
390
F
  0
LAYER
  5
200
100
AcDbSymbolTableRecord
100
AcDbLayerTableRecord
  2
COORDINATE
 70
0
 62
7
  6
CONTINUOUS
370
-3
390
F
  0
LAYER
  5
201
100
AcDbSymbolTableRecord
100
AcDbLayerTableRecord
  2
COPY_PUBLISH
 70
0
 62
7
  6
CONTINUOUS
370
-3
390
F
  0
LAYER
  5
202
100
AcDbSymbolTableRecord
100
AcDbLayerTableRecord
  2
COSMETIC
 70
0
 62
7
  6
CONTINUOUS
370
-3
390
F
  0
LAYER
  5
203
100
AcDbSymbolTableRecord
100
AcDbLayerTableRecord
  2
COSMETICI
 70
0
 62
7
  6
CONTINUOUS
370
-3
390
F
  0
LAYER
  5
204
100
AcDbSymbolTableRecord
100
AcDbLayerTableRecord
  2
CURVE
 70
0
 62
7
  6
CONTINUOUS
370
-3
390
F
  0
LAYER
  5
205
100
AcDbSymbolTableRecord
100
AcDbLayerTableRecord
  2
DRAFT
 70
0
 62
7
  6
CONTINUOUS
370
-3
390
F
  0
LAYER
  5
206
100
AcDbSymbolTableRecord
100
AcDbLayerTableRecord
  2
IMPORT_IGES
 70
0
 62
7
  6
CONTINUOUS
370
-3
390
F
  0
LAYER
  5
207
100
AcDbSymbolTableRecord
100
AcDbLayerTableRecord
  2
NOTE
 70
0
 62
7
  6
CONTINUOUS
370
-3
390
F
  0
LAYER
  5
208
100
AcDbSymbolTableRecord
100
AcDbLayerTableRecord
  2
PIANI
 70
0
 62
7
  6
CONTINUOUS
370
-3
390
F
  0
LAYER
  5
209
100
AcDbSymbolTableRecord
100
AcDbLayerTableRecord
  2
PUNTI
 70
0
 62
7
  6
CONTINUOUS
370
-3
390
F
  0
LAYER
  5
20A
100
AcDbSymbolTableRecord
100
AcDbLayerTableRecord
  2
RACCORDO
 70
0
 62
7
  6
CONTINUOUS
370
-3
390
F
  0
LAYER
  5
20B
100
AcDbSymbolTableRecord
100
AcDbLayerTableRecord
  2
SIMBOLI
 70
0
 62
7
  6
CONTINUOUS
370
-3
390
F
  0
LAYER
  5
20C
100
AcDbSymbolTableRecord
100
AcDbLayerTableRecord
  2
SMUSSO
 70
0
 62
7
  6
CONTINUOUS
370
-3
390
F
  0
LAYER
  5
20D
100
AcDbSymbolTableRecord
100
AcDbLayerTableRecord
  2
SNAPLINE
 70
0
 62
7
  6
CONTINUOUS
370
-3
390
F
  0
LAYER
  5
20E
100
AcDbSymbolTableRecord
100
AcDbLayerTableRecord
  2
SUPERFICI
 70
0
 62
7
  6
CONTINUOUS
370
-3
390
F
  0
LAYER
  5
20F
100
AcDbSymbolTableRecord
100
AcDbLayerTableRecord
  2
TRASH
 70
0
 62
7
  6
CONTINUOUS
370
-3
390
F
  0
ENDTAB
  0
TABLE
  2
STYLE
  5
3
100
AcDbSymbolTable
 70
1
  0
STYLE
  5
11
100
AcDbSymbolTableRecord
100
AcDbTextStyleTableRecord
  2
STANDARD
 70
0
 40
0.0
 41
0.8
 50
0.0
 71
0
 42
0.2
  3
txt
  4

  0
STYLE
  5
210
100
AcDbSymbolTableRecord
100
AcDbTextStyleTableRecord
  2
TEXTSTYLE_1
 70
0
 40
0.0
 41
0.8
 50
0.0
 71
0
 42
0.2
  3
gdt
  4

  0
ENDTAB
  0
TABLE
  2
VIEW
  5
6
100
AcDbSymbolTable
 70
0
  0
ENDTAB
  0
TABLE
  2
UCS
  5
7
100
AcDbSymbolTable
 70
0
  0
ENDTAB
  0
TABLE
  2
APPID
  5
9
100
AcDbSymbolTable
 70
1
  0
APPID
  5
211
100
AcDbSymbolTableRecord
100
AcDbRegAppTableRecord
  2
ACAD
 70
0
  0
ENDTAB
  0
TABLE
  2
BLOCK_RECORD
  5
1
100
AcDbSymbolTable
 70
0
  0
BLOCK_RECORD
  5
212
100
AcDbSymbolTableRecord
100
AcDbBlockTableRecord
  2
*Model_Space
  0
BLOCK_RECORD
  5
213
100
AcDbSymbolTableRecord
100
AcDbBlockTableRecord
  2
*Paper_Space
  0
ENDTAB
  0
TABLE
  2
DIMSTYLE
  5
A
100
AcDbSymbolTable
 70
1
100
AcDbDimStyleTable
 71
0
  0
DIMSTYLE
105
214
100
AcDbSymbolTableRecord
100
AcDbDimStyleTableRecord
  2
STANDARD
 70
0
  3

  4

 40
1.0
 41
3.0
 42
0.5
 43
0.38
 44
1.5
 45
0.0
 46
0.0
 47
0.01
 48
0.01
140
3.0
141
0.09
142
0.0
143
25.4
144
1.0
145
0.0
146
1.0
147
0.625
 71
1.0
 72
0.0
 73
0
 74
0
 75
0
 76
0
 77
1
 78
8
170
0
171
2
172
0
173
0
174
0
175
0
176
0
177
0
178
0
270
2
271
2
272
2
273
2
274
2
275
0
280
0
281
0
282
0
283
1
284
8
285
0
286
0
287
3
288
0
340
11
278
44
  0
ENDTAB
  0
ENDSEC
  0
SECTION
  2
BLOCKS
  0
BLOCK
  5
20
100
AcDbEntity
  8
0
100
AcDbBlockBegin
  2
*Model_Space
 70
0
 10
0.0
 20
0.0
 30
0.0
  3
*Model_Space
  1

  0
ENDBLK
  5
21
100
AcDbEntity
  8
0
100
AcDbBlockEnd
  0
BLOCK
  5
1C
100
AcDbEntity
  8
0
100
AcDbBlockBegin
  2
*Paper_Space
 70
0
 10
0.0
 20
0.0
 30
0.0
  3
*Paper_Space
  1

  0
ENDBLK
  5
1D
100
AcDbEntity
  8
0
100
AcDbBlockEnd
  0
ENDSEC
  0
SECTION
  2
ENTITIES
  0
LINE
  5
215
100
AcDbEntity
  8
0
100
AcDbLine
 62
7
  6
CONTINUOUS
 10
-35.8549385878
 20
72.4325190165
 11
-34.5821463816
 21
73.0689151196
  0
LINE
  5
216
100
AcDbEntity
  8
0
100
AcDbLine
 62
7
  6
CONTINUOUS
 10
-25.7433116168
 20
77.488332502
 11
-24.4705194107
 21
78.1247286051
  0
LINE
  5
217
100
AcDbEntity
  8
0
100
AcDbLine
 62
7
  6
CONTINUOUS
 10
-15.6316846458
 20
82.5441459875
 11
-14.3588924397
 21
83.1805420906
  0
LINE
  5
218
100
AcDbEntity
  8
0
100
AcDbLine
 62
7
  6
CONTINUOUS
 10
-11.9094191771
 20
84.1406697076
 11
-13.8893181644
 21
83.150720214
  0
LINE
  5
219
100
AcDbEntity
  8
0
100
AcDbLine
 62
7
  6
CONTINUOUS
 10
-15.1621103706
 20
82.5143241109
 11
-24.0009451354
 21
78.0949067285
  0
LINE
  5
21A
100
AcDbEntity
  8
0
100
AcDbLine
 62
7
  6
CONTINUOUS
 10
-25.2737373415
 20
77.4585106254
 11
-34.1125721064
 21
73.039093243
  0
LINE
  5
21B
100
AcDbEntity
  8
0
100
AcDbLine
 62
7
  6
CONTINUOUS
 10
-45.8505446741
 20
67.1701069592
 11
-35.3853643125
 21
72.4026971399
  0
LINE
  5
21C
100
AcDbEntity
  8
0
100
AcDbLine
 62
253
  6
CONTINUOUS
 10
-35.3853643125
 20
72.4026971399
 11
-34.1125721064
 21
73.039093243
  0
LINE
  5
21D
100
AcDbEntity
  8
0
100
AcDbLine
 62
253
  6
CONTINUOUS
 10
-25.2737373415
 20
77.4585106254
 11
-24.0009451354
 21
78.0949067285
  0
LINE
  5
21E
100
AcDbEntity
  8
0
100
AcDbLine
 62
253
  6
CONTINUOUS
 10
-15.1621103706
 20
82.5143241109
 11
-13.8893181644
 21
83.150720214
  0
LINE
  5
21F
100
AcDbEntity
  8
0
100
AcDbLine
 62
7
  6
CONTINUOUS
 10
-10.5305609538
 20
84.1229920381
 11
-11.2023123959
 21
83.787116317
  0
LINE
  5
220
100
AcDbEntity
  8
0
100
AcDbLine
 62
7
  6
CONTINUOUS
 10
-45.8859000131
 20
66.2784579547
 11
-45.8473663016
 21
66.2977248105
  0
LWPOLYLINE
  5
221
100
AcDbEntity
  8
0
100
AcDbPolyline
 62
7
  6
CONTINUOUS
 90
12
 70
0
 10
-14.3588761544
 20
83.1805095217
 10
-14.3412328429
 20
83.1888003429
 10
-14.3018080176
 20
83.2037159636
 10
-14.2605993243
 20
83.2144698913
 10
-14.217629325
 20
83.2211147623
 10
-14.173446117
 20
83.2235658187
 10
-14.1280341594
 20
83.2217693388
 10
-14.0814089932
 20
83.2157790445
 10
-14.0341653385
 20
83.205671344
 10
-13.9865014356
 20
83.1914717068
 10
-13.9382190442
 20
83.1731546634
 10
-13.8893181644
 20
83.150720214
  0
LWPOLYLINE
  5
222
100
AcDbEntity
  8
0
100
AcDbPolyline
 62
7
  6
CONTINUOUS
 90
12
 70
0
 10
-15.6316683605
 20
82.5441134186
 10
-15.6140250491
 20
82.5524042398
 10
-15.5746002237
 20
82.5673198606
 10
-15.5333915304
 20
82.5780737883
 10
-15.4904215311
 20
82.5847186592
 10
-15.4462383231
 20
82.5871697157
 10
-15.4008263656
 20
82.5853732357
 10
-15.3542011993
 20
82.5793829414
 10
-15.3069575447
 20
82.5692752409
 10
-15.2592936417
 20
82.5550756037
 10
-15.2110112503
 20
82.5367585604
 10
-15.1621103706
 20
82.5143241109
  0
LWPOLYLINE
  5
223
100
AcDbEntity
  8
0
100
AcDbPolyline
 62
7
  6
CONTINUOUS
 90
12
 70
0
 10
-24.4705031253
 20
78.1246960362
 10
-24.4528598139
 20
78.1329868574
 10
-24.4134349885
 20
78.1479024782
 10
-24.3722262952
 20
78.1586564059
 10
-24.3292562959
 20
78.1653012768
 10
-24.285073088
 20
78.1677523333
 10
-24.2396611304
 20
78.1659558533
 10
-24.1930359642
 20
78.159965559
 10
-24.1457923095
 20
78.1498578585
 10
-24.0981284066
 20
78.1356582213
 10
-24.0498460152
 20
78.117341178
 10
-24.0009451354
 20
78.0949067285
  0
LWPOLYLINE
  5
224
100
AcDbEntity
  8
0
100
AcDbPolyline
 62
7
  6
CONTINUOUS
 90
12
 70
0
 10
-25.7432953315
 20
77.4882999331
 10
-25.72565202
 20
77.4965907544
 10
-25.6862271947
 20
77.5115063751
 10
-25.6450185014
 20
77.5222603028
 10
-25.6020485021
 20
77.5289051737
 10
-25.5578652941
 20
77.5313562302
 10
-25.5124533365
 20
77.5295597503
 10
-25.4658281703
 20
77.5235694559
 10
-25.4185845157
 20
77.5134617554
 10
-25.3709206127
 20
77.4992621182
 10
-25.3226382213
 20
77.4809450749
 10
-25.2737373415
 20
77.4585106254
  0
LWPOLYLINE
  5
225
100
AcDbEntity
  8
0
100
AcDbPolyline
 62
7
  6
CONTINUOUS
 90
12
 70
0
 10
-34.5821300963
 20
73.0688825507
 10
-34.5644867849
 20
73.0771733719
 10
-34.5250619595
 20
73.0920889927
 10
-34.4838532662
 20
73.1028429204
 10
-34.4408832669
 20
73.1094877913
 10
-34.3967000589
 20
73.1119388478
 10
-34.3512881014
 20
73.1101423678
 10
-34.3046629351
 20
73.1041520735
 10
-34.2574192805
 20
73.094044373
 10
-34.2097553775
 20
73.0798447358
 10
-34.1614729861
 20
73.0615276925
 10
-34.1125721064
 20
73.039093243
  0
LWPOLYLINE
  5
226
100
AcDbEntity
  8
0
100
AcDbPolyline
 62
7
  6
CONTINUOUS
 90
12
 70
0
 10
-35.8549223025
 20
72.4324864477
 10
-35.837278991
 20
72.4407772689
 10
-35.7978541657
 20
72.4556928896
 10
-35.7566454723
 20
72.4664468173
 10
-35.713675473
 20
72.4730916882
 10
-35.6694922651
 20
72.4755427447
 10
-35.6240803075
 20
72.4737462648
 10
-35.5774551413
 20
72.4677559704
 10
-35.5302114866
 20
72.4576482699
 10
-35.4825475837
 20
72.4434486327
 10
-35.4342651923
 20
72.4251315894
 10
-35.3853643125
 20
72.4026971399
  0
LWPOLYLINE
  5
227
100
AcDbEntity
  8
0
100
AcDbPolyline
 62
7
  6
CONTINUOUS
 90
12
 70
0
 10
-10.5305609538
 20
84.1229920381
 10
-10.481660074
 20
84.1454264876
 10
-10.4333776826
 20
84.1637435309
 10
-10.3857137797
 20
84.1779431681
 10
-10.338470125
 20
84.1880508686
 10
-10.2918449588
 20
84.1940411629
 10
-10.2464330012
 20
84.1958376429
 10
-10.2022497933
 20
84.1933865864
 10
-10.159279794
 20
84.1867417155
 10
-10.1180711006
 20
84.1759877878
 10
-10.0786462753
 20
84.161072167
 10
-10.0610029638
 20
84.1527813458
  0
LWPOLYLINE
  5
228
100
AcDbEntity
  8
0
100
AcDbPolyline
 62
7
  6
CONTINUOUS
 90
12
 70
0
 10
-9.2577687477
 20
83.486595935
 10
-9.2088678679
 20
83.5090303845
 10
-9.1605854765
 20
83.5273474278
 10
-9.1129215735
 20
83.541547065
 10
-9.0656779189
 20
83.5516547655
 10
-9.0190527527
 20
83.5576450599
 10
-8.9736407951
 20
83.5594415398
 10
-8.9294575871
 20
83.5569904833
 10
-8.8864875878
 20
83.5503456124
 10
-8.8452788945
 20
83.5395916847
 10
-8.8058540691
 20
83.524676064
 10
-8.7882107577
 20
83.5163852428
  0
LINE
  5
229
100
AcDbEntity
  8
0
100
AcDbLine
 62
7
  6
CONTINUOUS
 10
-40.7947311886
 20
62.9677371372
 11
-42.9160515321
 21
61.4303210976
  0
LWPOLYLINE
  5
22A
100
AcDbEntity
  8
ASSI
100
AcDbPolyline
 62
7
  6
CONTINUOUS
 90
14
 70
0
 10
-24.9378616205
 20
70.8559010561
 10
-25.0046707369
 20
70.8203177761
 10
-25.066563351
 20
70.7830505548
 10
-25.1235394626
 20
70.7440993923
 10
-25.1757774498
 20
70.7033041636
 10
-25.2230989346
 20
70.6608249936
 10
-25.264968783
 20
70.6171422572
 10
-25.301325112
 20
70.5722422924
 10
-25.3322298046
 20
70.526138761
 10
-25.3573333757
 20
70.479353024
 10
-25.3765699753
 20
70.4318773374
 10
-25.3900054535
 20
70.3837194451
 10
-25.3974878754
 20
70.3354239396
 10
-25.3991442405
 20
70.2990544713
  0
LWPOLYLINE
  5
22B
100
AcDbEntity
  8
ASSI
100
AcDbPolyline
 62
7
  6
CONTINUOUS
 90
14
 70
0
 10
-17.8667938086
 20
74.391434962
 10
-17.9336029251
 20
74.355851682
 10
-17.9954955391
 20
74.3185844607
 10
-18.0524716507
 20
74.2796332982
 10
-18.1047096379
 20
74.2388380695
 10
-18.1520311227
 20
74.1963588996
 10
-18.1939009711
 20
74.1526761632
 10
-18.2302573001
 20
74.1077761983
 10
-18.2611619927
 20
74.061672667
 10
-18.2862655638
 20
74.0148869299
 10
-18.3055021635
 20
73.9674112433
 10
-18.3189376416
 20
73.919253351
 10
-18.3264200635
 20
73.8709578455
 10
-18.3280764286
 20
73.8345883772
  0
LWPOLYLINE
  5
22C
100
AcDbEntity
  8
ASSI
100
AcDbPolyline
 62
7
  6
CONTINUOUS
 90
14
 70
0
 10
-10.7957259967
 20
77.926968868
 10
-10.8625351132
 20
77.8913855879
 10
-10.9244277272
 20
77.8541183667
 10
-10.9814038389
 20
77.8151672041
 10
-11.0336418261
 20
77.7743719754
 10
-11.0809633108
 20
77.7318928055
 10
-11.1228331592
 20
77.6882100691
 10
-11.1591894882
 20
77.6433101042
 10
-11.1900941808
 20
77.5972065729
 10
-11.215197752
 20
77.5504208359
 10
-11.2344343516
 20
77.5029451492
 10
-11.2478698298
 20
77.454787257
 10
-11.2553522517
 20
77.4064917515
 10
-11.2570086167
 20
77.3701222831
  0
LWPOLYLINE
  5
22D
100
AcDbEntity
  8
ASSI
100
AcDbPolyline
 62
7
  6
CONTINUOUS
 90
5
 70
0
 10
-24.9378616205
 20
69.9898756523
 10
-25.0046707369
 20
69.9542923723
 10
-25.066563351
 20
69.917025151
 10
-25.1235394626
 20
69.8780739885
 10
-25.1390076185
 20
69.8659941403
  0
LWPOLYLINE
  5
22E
100
AcDbEntity
  8
ASSI
100
AcDbPolyline
 62
7
  6
CONTINUOUS
 90
5
 70
0
 10
-17.8667938086
 20
73.5254095582
 10
-17.9336029251
 20
73.4898262782
 10
-17.9954955391
 20
73.4525590569
 10
-18.0524716507
 20
73.4136078944
 10
-18.0679398066
 20
73.4015280462
  0
LWPOLYLINE
  5
22F
100
AcDbEntity
  8
ASSI
100
AcDbPolyline
 62
7
  6
CONTINUOUS
 90
5
 70
0
 10
-10.7957259967
 20
77.0609434642
 10
-10.8625351132
 20
77.0253601841
 10
-10.9244277272
 20
76.9880929629
 10
-10.9814038389
 20
76.9491418003
 10
-10.9968719947
 20
76.9370619521
  0
LWPOLYLINE
  5
230
100
AcDbEntity
  8
ASSI
100
AcDbPolyline
 62
7
  6
CONTINUOUS
 90
14
 70
0
 10
-22.7104752597
 20
69.7422078757
 10
-22.6436661433
 20
69.7777911558
 10
-22.5817735292
 20
69.815058377
 10
-22.5247974176
 20
69.8540095396
 10
-22.4725594304
 20
69.8948047682
 10
-22.4252379456
 20
69.9372839382
 10
-22.3833680972
 20
69.9809666746
 10
-22.3470117682
 20
70.0258666394
 10
-22.3161070756
 20
70.0719701708
 10
-22.2910035045
 20
70.1187559078
 10
-22.2717669049
 20
70.1662315944
 10
-22.2583314267
 20
70.2143894867
 10
-22.2508490048
 20
70.2626849922
 10
-22.2491926397
 20
70.2990544606
  0
LWPOLYLINE
  5
231
100
AcDbEntity
  8
ASSI
100
AcDbPolyline
 62
7
  6
CONTINUOUS
 90
14
 70
0
 10
-15.6394074479
 20
73.2777417817
 10
-15.5725983314
 20
73.3133250617
 10
-15.5107057174
 20
73.350592283
 10
-15.4537296057
 20
73.3895434455
 10
-15.4014916185
 20
73.4303386742
 10
-15.3541701337
 20
73.4728178441
 10
-15.3123002854
 20
73.5165005805
 10
-15.2759439564
 20
73.5614005454
 10
-15.2450392638
 20
73.6075040767
 10
-15.2199356926
 20
73.6542898138
 10
-15.200699093
 20
73.7017655004
 10
-15.1872636148
 20
73.7499233927
 10
-15.1797811929
 20
73.7982188982
 10
-15.1781248279
 20
73.8345883665
  0
LWPOLYLINE
  5
232
100
AcDbEntity
  8
ASSI
100
AcDbPolyline
 62
7
  6
CONTINUOUS
 90
14
 70
0
 10
-8.568339636
 20
76.8132756876
 10
-8.5015305195
 20
76.8488589676
 10
-8.4396379055
 20
76.8861261889
 10
-8.3826617939
 20
76.9250773514
 10
-8.3304238067
 20
76.9658725801
 10
-8.2831023219
 20
77.00835175
 10
-8.2412324735
 20
77.0520344864
 10
-8.2048761445
 20
77.0969344513
 10
-8.1739714519
 20
77.1430379827
 10
-8.1488678807
 20
77.1898237197
 10
-8.1296312811
 20
77.2372994063
 10
-8.116195803
 20
77.2854572986
 10
-8.1087133811
 20
77.3337528041
 10
-8.107057016
 20
77.3701222724
  0
LWPOLYLINE
  5
233
100
AcDbEntity
  8
0
100
AcDbPolyline
 62
7
  6
CONTINUOUS
 90
16
 70
0
 10
-42.9160515321
 20
57.3567908916
 10
-42.9956551889
 20
57.3148086139
 10
-43.0703893452
 20
57.2710573867
 10
-43.1402540011
 20
57.2255372099
 10
-43.205413656
 20
57.1781138643
 10
-43.2657038104
 20
57.1289215692
 10
-43.3206309667
 20
57.078362982
 10
-43.3701511067
 20
57.0264268887
 10
-43.4143082485
 20
56.9731245033
 10
-43.4527409494
 20
56.9188921261
 10
-43.4854022243
 20
56.863722124
 10
-43.5123390581
 20
56.80762213
 10
-43.5333309628
 20
56.7510513439
 10
-43.5483291437
 20
56.6940059015
 10
-43.5573823953
 20
56.6364896669
 10
-43.5604166135
 20
56.5789734323
  0
LINE
  5
234
100
AcDbEntity
  8
0
100
AcDbLine
 62
7
  6
CONTINUOUS
 10
-39.9862935131
 20
63.3719559749
 11
-40.7947311886
 21
62.9677371372
  0
LINE
  5
235
100
AcDbEntity
  8
0
100
AcDbLine
 62
7
  6
CONTINUOUS
 10
-31.2115576694
 20
67.5755746381
 11
-30.1508974976
 21
68.105904724
  0
LINE
  5
236
100
AcDbEntity
  8
0
100
AcDbLine
 62
7
  6
CONTINUOUS
 10
-31.7437643894
 20
67.2584953068
 11
-31.2201310056
 21
67.5203119987
  0
LINE
  5
237
100
AcDbEntity
  8
0
100
AcDbLine
 62
7
  6
CONTINUOUS
 10
-42.9160515321
 20
57.3786624746
 11
-44.1181330602
 21
56.7776217106
  0
LWPOLYLINE
  5
238
100
AcDbEntity
  8
ASSI
100
AcDbPolyline
 62
7
  6
CONTINUOUS
 90
14
 70
0
 10
-16.7692363554
 20
73.7556497664
 10
-16.8288140686
 20
73.7322447388
 10
-16.8945219845
 20
73.70175347
 10
-16.9602299004
 20
73.6665368229
 10
-17.0259378163
 20
73.6266421768
 10
-17.0909824708
 20
73.5824722319
 10
-17.1553571463
 20
73.5339836872
 10
-17.2190685605
 20
73.4812198437
 10
-17.2814736047
 20
73.424713304
 10
-17.3425590479
 20
73.3644261617
 10
-17.4023381212
 20
73.3003963233
 10
-17.4602074094
 20
73.2332701115
 10
-17.51614757
 20
73.1630161658
 10
-17.5266552991
 20
73.1487511292
  0
LWPOLYLINE
  5
239
100
AcDbEntity
  8
ASSI
100
AcDbPolyline
 62
7
  6
CONTINUOUS
 90
30
 70
0
 10
24.8191628314
 20
-69.9433631392
 10
24.8692851286
 20
-69.9337211647
 10
24.9368792452
 20
-69.9153994072
 10
25.0048621753
 20
-69.8917442541
 10
25.0732383326
 20
-69.8626951644
 10
25.1420033034
 20
-69.828312679
 10
25.2103794607
 20
-69.7889856114
 10
25.2783623909
 20
-69.7446578344
 10
25.3459565074
 20
-69.6953854753
 10
25.4123974238
 20
-69.6417257294
 10
25.4776720497
 20
-69.5836287944
 10
25.5417934753
 20
-69.5211444726
 10
25.6040365851
 20
-69.4549793667
 10
25.6643800576
 20
-69.3850916952
 10
25.7228452141
 20
-69.3115232394
 10
25.7787709028
 20
-69.2351059469
 10
25.8321282974
 20
-69.1558074796
 10
25.882946224
 20
-69.0736601754
 10
25.9306500094
 20
-68.9895929954
 10
25.9752043039
 20
-68.9035841465
 10
26.0166444571
 20
-68.8156554218
 10
26.0545018439
 20
-68.7268011614
 10
26.0887357954
 20
-68.6370108591
 10
26.1193869804
 20
-68.5462950212
 10
26.1461087808
 20
-68.4556795055
 10
26.168856593
 20
-68.365165451
 10
26.1876750205
 20
-68.2747517188
 10
26.2023512556
 20
-68.1854607507
 10
26.2128143623
 20
-68.0976333606
 10
26.2191352766
 20
-68.0109287345
  0
LINE
  5
23A
100
AcDbEntity
  8
0
100
AcDbLine
 62
7
  6
CONTINUOUS
 10
-45.8505446741
 20
-55.8055003782
 11
10.9301298552
 21
-84.1958376429
  0
LINE
  5
23B
100
AcDbEntity
  8
0
100
AcDbLine
 62
7
  6
CONTINUOUS
 10
10.9301298552
 20
-83.3298122391
 11
-4.0251785669
 21
-75.852158028
  0
LINE
  5
23C
100
AcDbEntity
  8
0
100
AcDbLine
 62
7
  6
CONTINUOUS
 10
-21.7028480965
 20
-67.0133232632
 11
-30.895236252
 21
-62.4171291855
  0
LINE
  5
23D
100
AcDbEntity
  8
0
100
AcDbLine
 62
7
  6
CONTINUOUS
 10
-13.2175667223
 20
-71.2559639503
 11
-21.7028480965
 21
-67.0133232632
  0
LINE
  5
23E
100
AcDbEntity
  8
0
100
AcDbLine
 62
7
  6
CONTINUOUS
 10
-13.2175667223
 20
-71.2559639503
 11
-4.0251785669
 21
-75.852158028
  0
LINE
  5
23F
100
AcDbEntity
  8
0
100
AcDbLine
 62
7
  6
CONTINUOUS
 10
-30.895236252
 20
-62.4171291855
 11
-45.8505446741
 21
-54.9394749744
  0
LINE
  5
240
100
AcDbEntity
  8
0
100
AcDbLine
 62
7
  6
CONTINUOUS
 10
10.9654851943
 20
-83.3041886384
 11
10.2583784131
 21
-82.9506352478
  0
LINE
  5
241
100
AcDbEntity
  8
0
100
AcDbLine
 62
7
  6
CONTINUOUS
 10
-45.8859000131
 20
-54.8784960347
 11
-45.1787932319
 21
-55.2320494253
  0
LINE
  5
242
100
AcDbEntity
  8
0
100
AcDbLine
 62
7
  6
CONTINUOUS
 10
-25.5956886613
 20
64.7676401341
 11
-24.5350284895
 21
65.29797022
  0
LINE
  5
243
100
AcDbEntity
  8
0
100
AcDbLine
 62
7
  6
CONTINUOUS
 10
-23.9655897963
 20
63.9350934352
 11
-24.5312752213
 21
63.6522507228
  0
LINE
  5
244
100
AcDbEntity
  8
ASSI
100
AcDbLine
 62
7
  6
CONTINUOUS
 10
1.8272901855
 20
71.952496636
 11
1.472908936
 21
71.7753060112
  0
LINE
  5
245
100
AcDbEntity
  8
ASSI
100
AcDbLine
 62
7
  6
CONTINUOUS
 10
-12.634535907
 20
64.7215835897
 11
-12.9889171565
 21
64.544392965
  0
LWPOLYLINE
  5
246
100
AcDbEntity
  8
0
100
AcDbPolyline
 62
7
  6
CONTINUOUS
 90
22
 70
0
 10
-24.5312752213
 20
63.6522507228
 10
-24.5589722104
 20
63.6394365411
 10
-24.5881513278
 20
63.6278017562
 10
-24.6188125736
 20
63.6173463682
 10
-24.6511432947
 20
63.6080252663
 10
-24.6849561442
 20
63.5998835613
 10
-24.7196890809
 20
63.5930565855
 10
-24.7553574839
 20
63.5875663142
 10
-24.7919459743
 20
63.5833907721
 10
-24.8288463738
 20
63.5805993656
 10
-24.8660638961
 20
63.57921523
 10
-24.9035933276
 20
63.57921523
 10
-24.9408108499
 20
63.5805993656
 10
-24.9777112495
 20
63.5833907721
 10
-25.0142997398
 20
63.5875663142
 10
-25.0499681429
 20
63.5930565855
 10
-25.0847010796
 20
63.5998835613
 10
-25.118513929
 20
63.6080252663
 10
-25.1508446501
 20
63.6173463682
 10
-25.1815058959
 20
63.6278017562
 10
-25.2106850134
 20
63.6394365411
 10
-25.2383820025
 20
63.6522507228
  0
LWPOLYLINE
  5
247
100
AcDbEntity
  8
0
100
AcDbPolyline
 62
7
  6
CONTINUOUS
 90
12
 70
0
 10
7.5006619665
 20
75.107380578
 10
7.5495628462
 20
75.1298150274
 10
7.5978452376
 20
75.1481320708
 10
7.6455091406
 20
75.162331708
 10
7.6927527952
 20
75.1724394085
 10
7.7393779615
 20
75.1784297028
 10
7.784789919
 20
75.1802261827
 10
7.828973127
 20
75.1777751263
 10
7.8719431263
 20
75.1711302553
 10
7.9131518196
 20
75.1603763276
 10
7.952576645
 20
75.1454607069
 10
7.9702199564
 20
75.1371698857
  0
LWPOLYLINE
  5
248
100
AcDbEntity
  8
0
100
AcDbPolyline
 62
7
  6
CONTINUOUS
 90
12
 70
0
 10
8.7734541726
 20
74.4709844749
 10
8.8223550524
 20
74.4934189244
 10
8.8706374438
 20
74.5117359677
 10
8.9183013467
 20
74.5259356049
 10
8.9655450014
 20
74.5360433054
 10
9.0121701676
 20
74.5420335998
 10
9.0575821252
 20
74.5438300797
 10
9.1017653331
 20
74.5413790232
 10
9.1447353324
 20
74.5347341523
 10
9.1859440258
 20
74.5239802246
 10
9.2253688511
 20
74.5090646038
 10
9.2430121626
 20
74.5007737826
  0
LWPOLYLINE
  5
249
100
AcDbEntity
  8
ASSI
100
AcDbPolyline
 62
7
  6
CONTINUOUS
 90
30
 70
0
 10
38.9612984551
 20
-62.8722953274
 10
39.0114207523
 20
-62.8626533528
 10
39.0790148689
 20
-62.8443315954
 10
39.146997799
 20
-62.8206764422
 10
39.2153739563
 20
-62.7916273525
 10
39.2841389272
 20
-62.7572448671
 10
39.3525150844
 20
-62.7179177995
 10
39.4204980146
 20
-62.6735900225
 10
39.4880921311
 20
-62.6243176634
 10
39.5545330475
 20
-62.5706579175
 10
39.6198076734
 20
-62.5125609825
 10
39.6839290991
 20
-62.4500766608
 10
39.7461722088
 20
-62.3839115549
 10
39.8065156813
 20
-62.3140238833
 10
39.8649808379
 20
-62.2404554276
 10
39.9209065265
 20
-62.164038135
 10
39.9742639211
 20
-62.0847396677
 10
40.0250818478
 20
-62.0025923635
 10
40.0727856331
 20
-61.9185251835
 10
40.1173399276
 20
-61.8325163347
 10
40.1587800808
 20
-61.7445876099
 10
40.1966374676
 20
-61.6557333495
 10
40.2308714191
 20
-61.5659430473
 10
40.2615226041
 20
-61.4752272093
 10
40.2882444045
 20
-61.3846116937
 10
40.3109922167
 20
-61.2940976391
 10
40.3298106443
 20
-61.203683907
 10
40.3444868793
 20
-61.1143929388
 10
40.3549499861
 20
-61.0265655487
 10
40.3612709003
 20
-60.9398609226
  0
LWPOLYLINE
  5
24A
100
AcDbEntity
  8
ASSI
100
AcDbPolyline
 62
7
  6
CONTINUOUS
 90
35
 70
0
 10
31.6863808033
 20
-66.8162123112
 10
31.6949991046
 20
-66.8160996821
 10
31.7730054099
 20
-66.8087265514
 10
31.8526446775
 20
-66.7950420882
 10
31.9331130219
 20
-66.7751844246
 10
32.0144188401
 20
-66.7490910376
 10
32.096553735
 20
-66.7168244503
 10
32.1786886299
 20
-66.6787103643
 10
32.2608235248
 20
-66.6346895554
 10
32.3429584197
 20
-66.5848212478
 10
32.4242642378
 20
-66.5296088167
 10
32.5047325822
 20
-66.4689981358
 10
32.5843718499
 20
-66.4030433314
 10
32.6623781552
 20
-66.3324101568
 10
32.7387349592
 20
-66.2570512289
 10
32.8134588008
 20
-66.1770139309
 10
32.8857954111
 20
-66.0931061662
 10
32.9557206118
 20
-66.0052887341
 10
33.0232585812
 20
-65.9136008353
 10
33.0877275852
 20
-65.8189679754
 10
33.1490965408
 20
-65.7213603274
 10
33.2073965311
 20
-65.6208077183
 10
33.2620390707
 20
-65.5183251348
 10
33.3129871166
 20
-65.4138930298
 10
33.3602777119
 20
-65.3075309505
 10
33.4034335013
 20
-65.2003125248
 10
33.4424126068
 20
-65.0922290796
 10
33.4772569063
 20
-64.9832892881
 10
33.5076146787
 20
-64.8745927978
 10
33.5334404834
 20
-64.7661420731
 10
33.5547797609
 20
-64.6579346497
 10
33.5714171105
 20
-64.5510627828
 10
33.5832807322
 20
-64.4458905573
 10
33.5904424261
 20
-64.3420538882
 10
33.5929021923
 20
-64.2395527756
  0
LWPOLYLINE
  5
24B
100
AcDbEntity
  8
0
100
AcDbPolyline
 62
7
  6
CONTINUOUS
 90
9
 70
0
 10
10.2583784131
 20
-72.3833575424
 10
10.1531110524
 20
-72.3642004494
 10
10.0357250185
 20
-72.338900982
 10
9.9215096974
 20
-72.3102017067
 10
9.8104332978
 20
-72.2781367121
 10
9.7036170343
 20
-72.243029665
 10
9.6014346453
 20
-72.2049884543
 10
9.5035123924
 20
-72.1639051912
 10
9.4098502757
 20
-72.1197798756
  0
LINE
  5
24C
100
AcDbEntity
  8
0
100
AcDbLine
 62
7
  6
CONTINUOUS
 10
-4.0251785669
 20
-74.5531199224
 11
-13.2175667223
 21
-69.9569258447
  0
LINE
  5
24D
100
AcDbEntity
  8
0
100
AcDbLine
 62
7
  6
CONTINUOUS
 10
-21.7028480965
 20
-65.7142851575
 11
-30.895236252
 21
-61.1180910798
  0
LINE
  5
24E
100
AcDbEntity
  8
0
100
AcDbLine
 62
7
  6
CONTINUOUS
 10
-40.7947311886
 20
-55.2447304794
 11
7.2885299321
 21
-79.2863610397
  0
LINE
  5
24F
100
AcDbEntity
  8
ASSI
100
AcDbLine
 62
7
  6
CONTINUOUS
 10
-11.9989676628
 20
64.0494182181
 11
-11.6445864134
 21
64.2266088429
  0
LINE
  5
250
100
AcDbEntity
  8
ASSI
100
AcDbLine
 62
7
  6
CONTINUOUS
 10
2.4628584297
 20
71.2803312644
 11
2.8172396792
 21
71.4575218891
  0
LINE
  5
251
100
AcDbEntity
  8
0
100
AcDbLine
 62
7
  6
CONTINUOUS
 10
-13.2845241322
 20
58.6120578695
 11
-12.2238639604
 21
59.1423879554
  0
LINE
  5
252
100
AcDbEntity
  8
0
100
AcDbLine
 62
7
  6
CONTINUOUS
 10
-13.7832521472
 20
58.2782391857
 11
-13.2987280467
 21
58.520501236
  0
LINE
  5
253
100
AcDbEntity
  8
0
100
AcDbLine
 62
7
  6
CONTINUOUS
 10
-21.7028480965
 20
52.9311951609
 11
-20.4038099909
 21
53.5807142138
  0
LWPOLYLINE
  5
254
100
AcDbEntity
  8
ASSI
100
AcDbPolyline
 62
7
  6
CONTINUOUS
 90
5
 70
0
 10
25.0326473515
 20
-68.9612783773
 10
25.0254947343
 20
-68.9591379873
 10
24.9394324141
 20
-68.9368945216
 10
24.8504702157
 20
-68.9172541951
 10
24.7663322671
 20
-68.9016824552
  0
LINE
  5
255
100
AcDbEntity
  8
0
100
AcDbLine
 62
7
  6
CONTINUOUS
 10
20.1578733497
 20
-79.4151013419
 11
19.4507665685
 21
-79.0615479513
  0
LINE
  5
256
100
AcDbEntity
  8
0
100
AcDbLine
 62
7
  6
CONTINUOUS
 10
10.2583784131
 20
-74.3336824802
 11
9.1977182413
 21
-73.8033523943
  0
LINE
  5
257
100
AcDbEntity
  8
0
100
AcDbLine
 62
7
  6
CONTINUOUS
 10
-45.1787932319
 20
-46.6150966577
 11
-44.1181330602
 21
-47.1454267436
  0
LINE
  5
258
100
AcDbEntity
  8
0
100
AcDbLine
 62
7
  6
CONTINUOUS
 10
-42.9160515321
 20
-51.5859940962
 11
-40.7947311886
 21
-55.2447304794
  0
LWPOLYLINE
  5
259
100
AcDbEntity
  8
ASSI
100
AcDbPolyline
 62
7
  6
CONTINUOUS
 90
10
 70
0
 10
-14.865834127
 20
69.0431961829
 10
-14.9188879876
 20
68.9761621846
 10
-15.0489481019
 20
68.7921754706
 10
-15.1651210941
 20
68.6061617129
 10
-15.2673495636
 20
68.418112533
 10
-15.3556909109
 20
68.2280363092
 10
-15.4297804914
 20
68.0367176154
 10
-15.4895593971
 20
67.844151316
 10
-15.535086536
 20
67.6503425464
 10
-15.5487862133
 20
67.5647395293
  0
LINE
  5
25A
100
AcDbEntity
  8
0
100
AcDbLine
 62
7
  6
CONTINUOUS
 10
-7.9180191316
 20
55.9288053692
 11
-6.8573589598
 21
56.4591354551
  0
LINE
  5
25B
100
AcDbEntity
  8
0
100
AcDbLine
 62
7
  6
CONTINUOUS
 10
-6.2879202667
 20
55.0962586704
 11
-6.8536056916
 21
54.8134159579
  0
LWPOLYLINE
  5
25C
100
AcDbEntity
  8
0
100
AcDbPolyline
 62
7
  6
CONTINUOUS
 90
22
 70
0
 10
-6.8536056916
 20
54.8134159579
 10
-6.8813026807
 20
54.8006017762
 10
-6.9104817982
 20
54.7889669914
 10
-6.941143044
 20
54.7785116034
 10
-6.9734737651
 20
54.7691905015
 10
-7.0072866145
 20
54.7610487965
 10
-7.0420195512
 20
54.7542218206
 10
-7.0776879543
 20
54.7487315494
 10
-7.1142764446
 20
54.7445560073
 10
-7.1511768442
 20
54.7417646007
 10
-7.1883943664
 20
54.7403804652
 10
-7.225923798
 20
54.7403804652
 10
-7.2631413203
 20
54.7417646007
 10
-7.3000417198
 20
54.7445560073
 10
-7.3366302102
 20
54.7487315494
 10
-7.3722986132
 20
54.7542218206
 10
-7.4070315499
 20
54.7610487965
 10
-7.4408443994
 20
54.7691905015
 10
-7.4731751205
 20
54.7785116034
 10
-7.5038363662
 20
54.7889669914
 10
-7.5330154837
 20
54.8006017762
 10
-7.5607124728
 20
54.8134159579
  0
LWPOLYLINE
  5
25D
100
AcDbEntity
  8
ASSI
100
AcDbPolyline
 62
7
  6
CONTINUOUS
 90
7
 70
0
 10
32.0876392076
 20
-65.4212977762
 10
32.0105002259
 20
-65.4013606156
 10
31.9215380276
 20
-65.3817202891
 10
31.8306819783
 20
-65.364905204
 10
31.7379105804
 20
-65.3509474305
 10
31.6432453315
 20
-65.3398148984
 10
31.5677431538
 20
-65.3333459215
  0
LWPOLYLINE
  5
25E
100
AcDbEntity
  8
ASSI
100
AcDbPolyline
 62
7
  6
CONTINUOUS
 90
38
 70
0
 10
25.1103743859
 20
-70.2444532913
 10
25.1435775144
 20
-70.2598094223
 10
25.1995032031
 20
-70.2803010262
 10
25.2579683596
 20
-70.2954043253
 10
25.3183118321
 20
-70.3049485244
 10
25.3805549419
 20
-70.3088705206
 10
25.4446763676
 20
-70.3072334166
 10
25.5099509934
 20
-70.3000557257
 10
25.5763919098
 20
-70.2872745553
 10
25.6439860264
 20
-70.2689527978
 10
25.7119689565
 20
-70.2452976447
 10
25.7803451138
 20
-70.216248555
 10
25.8491100846
 20
-70.1818660695
 10
25.9174862419
 20
-70.142539002
 10
25.985469172
 20
-70.098211225
 10
26.0530632886
 20
-70.0489388658
 10
26.119504205
 20
-69.99527912
 10
26.1847788308
 20
-69.937182185
 10
26.2489002565
 20
-69.8746978632
 10
26.3111433663
 20
-69.8085327573
 10
26.3714868388
 20
-69.7386450858
 10
26.4299519953
 20
-69.66507663
 10
26.485877684
 20
-69.5886593375
 10
26.5392350786
 20
-69.5093608702
 10
26.5900530052
 20
-69.427213566
 10
26.6377567905
 20
-69.343146386
 10
26.6823110851
 20
-69.2571375371
 10
26.7237512383
 20
-69.1692088124
 10
26.7616086251
 20
-69.080354552
 10
26.7958425765
 20
-68.9905642497
 10
26.8264937616
 20
-68.8998484118
 10
26.853215562
 20
-68.8092328961
 10
26.8759633742
 20
-68.7187188416
 10
26.8947818017
 20
-68.6283051094
 10
26.9094580368
 20
-68.5390141413
 10
26.9199211435
 20
-68.4511867512
 10
26.9262420578
 20
-68.3644821251
 10
26.9284207796
 20
-68.2789002631
  0
LINE
  5
25F
100
AcDbEntity
  8
0
100
AcDbLine
 62
7
  6
CONTINUOUS
 10
14.5010191002
 20
-64.1002962574
 11
13.793912319
 21
-63.7467428668
  0
LWPOLYLINE
  5
260
100
AcDbEntity
  8
0
100
AcDbPolyline
 62
7
  6
CONTINUOUS
 90
16
 70
0
 10
-43.5604166135
 20
-45.1790115123
 10
-43.5573823953
 20
-45.2365277469
 10
-43.5483291437
 20
-45.2940439815
 10
-43.5333309628
 20
-45.3510894239
 10
-43.5123390581
 20
-45.40766021
 10
-43.4854022243
 20
-45.463760204
 10
-43.4527409494
 20
-45.5189302062
 10
-43.4143082485
 20
-45.5731625833
 10
-43.3701511067
 20
-45.6264649687
 10
-43.3206309667
 20
-45.6784010621
 10
-43.2657038104
 20
-45.7289596492
 10
-43.205413656
 20
-45.7781519443
 10
-43.1402540011
 20
-45.8255752899
 10
-43.0703893452
 20
-45.8710954667
 10
-42.9956551889
 20
-45.9148466939
 10
-42.9160515321
 20
-45.9568289716
  0
LINE
  5
261
100
AcDbEntity
  8
0
100
AcDbLine
 62
7
  6
CONTINUOUS
 10
-45.8859000131
 20
-54.8784960347
 11
-45.8859000131
 21
66.2784579547
  0
LINE
  5
262
100
AcDbEntity
  8
0
100
AcDbLine
 62
7
  6
CONTINUOUS
 10
-45.8505446741
 20
-54.9394749744
 11
-45.8505446741
 21
-55.8055003782
  0
LINE
  5
263
100
AcDbEntity
  8
0
100
AcDbLine
 62
7
  6
CONTINUOUS
 10
-45.8505446741
 20
66.3040815554
 11
-45.8505446741
 21
67.1701069592
  0
LINE
  5
264
100
AcDbEntity
  8
0
100
AcDbLine
 62
7
  6
CONTINUOUS
 10
-45.1787932319
 20
-55.2753506955
 11
-45.1787932319
 21
-46.6150966577
  0
LINE
  5
265
100
AcDbEntity
  8
0
100
AcDbLine
 62
7
  6
CONTINUOUS
 10
-45.1787932319
 20
-46.6150966577
 11
-45.1787932319
 21
57.3079517965
  0
LINE
  5
266
100
AcDbEntity
  8
0
100
AcDbLine
 62
7
  6
CONTINUOUS
 10
-45.1787932319
 20
57.3079517965
 11
-45.1787932319
 21
65.9682058343
  0
LINE
  5
267
100
AcDbEntity
  8
0
100
AcDbLine
 62
7
  6
CONTINUOUS
 10
-44.1181330602
 20
-55.8056807814
 11
-44.1181330602
 21
-47.1454267436
  0
LINE
  5
268
100
AcDbEntity
  8
0
100
AcDbLine
 62
7
  6
CONTINUOUS
 10
-44.1181330602
 20
56.7776217106
 11
-44.1181330602
 21
65.4378757484
  0
LWPOLYLINE
  5
269
100
AcDbEntity
  8
0
100
AcDbPolyline
 62
7
  6
CONTINUOUS
 90
12
 70
0
 10
-36.1126813221
 20
72.0390386351
 10
-36.1025259929
 20
72.0872135636
 10
-36.0883824034
 20
72.137245702
 10
-36.0713098691
 20
72.184327497
 10
-36.0512708707
 20
72.2284211551
 10
-36.0283029276
 20
72.2695644698
 10
-36.0026990038
 20
72.3072326438
 10
-35.9744253329
 20
72.341381161
 10
-35.9435156813
 20
72.3720545374
 10
-35.9103643125
 20
72.3988615234
 10
-35.8749425104
 20
72.4217525914
 10
-35.8549223025
 20
72.4324864477
  0
LINE
  5
26A
100
AcDbEntity
  8
ASSI
100
AcDbLine
 62
7
  6
CONTINUOUS
 10
19.5049597152
 20
63.1136618711
 11
19.1505784657
 21
62.9364712464
  0
LINE
  5
26B
100
AcDbEntity
  8
ASSI
100
AcDbLine
 62
7
  6
CONTINUOUS
 10
5.0431336226
 20
55.8827488249
 11
4.6887523732
 21
55.7055582001
  0
LINE
  5
26C
100
AcDbEntity
  8
ASSI
100
AcDbLine
 62
7
  6
CONTINUOUS
 10
5.6787018669
 20
55.2105834533
 11
6.0330831163
 21
55.387774078
  0
LINE
  5
26D
100
AcDbEntity
  8
ASSI
100
AcDbLine
 62
7
  6
CONTINUOUS
 10
20.1405279594
 20
62.4414964996
 11
20.4949092088
 21
62.6186871243
  0
LWPOLYLINE
  5
26E
100
AcDbEntity
  8
0
100
AcDbPolyline
 62
7
  6
CONTINUOUS
 90
12
 70
0
 10
25.5318848867
 20
66.0917691178
 10
25.5807857665
 20
66.1142035673
 10
25.6290681579
 20
66.1325206107
 10
25.6767320608
 20
66.1467202478
 10
25.7239757155
 20
66.1568279483
 10
25.7706008817
 20
66.1628182427
 10
25.8160128393
 20
66.1646147226
 10
25.8601960473
 20
66.1621636661
 10
25.9031660465
 20
66.1555187952
 10
25.9443747399
 20
66.1447648675
 10
25.9837995652
 20
66.1298492468
 10
26.0014428767
 20
66.1215584256
  0
LWPOLYLINE
  5
26F
100
AcDbEntity
  8
0
100
AcDbPolyline
 62
7
  6
CONTINUOUS
 90
12
 70
0
 10
26.8046770929
 20
65.4553730148
 10
26.8535779726
 20
65.4778074643
 10
26.901860364
 20
65.4961245076
 10
26.949524267
 20
65.5103241448
 10
26.9967679216
 20
65.5204318453
 10
27.0433930879
 20
65.5264221396
 10
27.0888050454
 20
65.5282186195
 10
27.1329882534
 20
65.5257675631
 10
27.1759582527
 20
65.5191226921
 10
27.217166946
 20
65.5083687644
 10
27.2565917714
 20
65.4934531437
 10
27.2742350828
 20
65.4851623225
  0
LWPOLYLINE
  5
270
100
AcDbEntity
  8
ASSI
100
AcDbPolyline
 62
7
  6
CONTINUOUS
 90
40
 70
0
 10
31.9913697906
 20
-67.0890641872
 10
32.0412254597
 20
-67.1117241772
 10
32.1087634292
 20
-67.1358741066
 10
32.1786886299
 20
-67.1537663379
 10
32.2510252402
 20
-67.1653374923
 10
32.3257490818
 20
-67.1706509488
 10
32.4021058858
 20
-67.1696530727
 10
32.4801121911
 20
-67.162279942
 10
32.5597514587
 20
-67.1485954787
 10
32.6402198031
 20
-67.1287378152
 10
32.7215256213
 20
-67.1026444282
 10
32.8036605162
 20
-67.0703778409
 10
32.8857954111
 20
-67.0322637549
 10
32.967930306
 20
-66.988242946
 10
33.0500652008
 20
-66.9383746384
 10
33.131371019
 20
-66.8831622073
 10
33.2118393634
 20
-66.8225515264
 10
33.2914786311
 20
-66.7565967219
 10
33.3694849364
 20
-66.6859635474
 10
33.4458417403
 20
-66.6106046195
 10
33.520565582
 20
-66.5305673215
 10
33.5929021923
 20
-66.4466595568
 10
33.662827393
 20
-66.3588421247
 10
33.7303653624
 20
-66.2671542259
 10
33.7948343664
 20
-66.172521366
 10
33.856203322
 20
-66.074913718
 10
33.9145033122
 20
-65.9743611089
 10
33.9691458519
 20
-65.8718785254
 10
34.0200938978
 20
-65.7674464204
 10
34.0673844931
 20
-65.6610843411
 10
34.1105402825
 20
-65.5538659154
 10
34.1495193879
 20
-65.4457824702
 10
34.1843636875
 20
-65.3368426786
 10
34.2147214598
 20
-65.2281461884
 10
34.2405472646
 20
-65.1196954637
 10
34.261886542
 20
-65.0114880403
 10
34.2785238917
 20
-64.9046161734
 10
34.2903875134
 20
-64.7994439479
 10
34.2975492073
 20
-64.6956072788
 10
34.3000089734
 20
-64.5931061662
  0
LWPOLYLINE
  5
271
100
AcDbEntity
  8
ASSI
100
AcDbPolyline
 62
7
  6
CONTINUOUS
 90
38
 70
0
 10
26.5190808125
 20
-67.4270404153
 10
26.485877684
 20
-67.4116842843
 10
26.4299519953
 20
-67.3911926804
 10
26.3714868388
 20
-67.3760893812
 10
26.3111433663
 20
-67.3665451822
 10
26.2489002565
 20
-67.362623186
 10
26.1847788308
 20
-67.36426029
 10
26.119504205
 20
-67.3714379808
 10
26.0530632886
 20
-67.3842191513
 10
25.985469172
 20
-67.4025409087
 10
25.9174862419
 20
-67.4261960619
 10
25.8491100846
 20
-67.4552451516
 10
25.7803451138
 20
-67.489627637
 10
25.7119689565
 20
-67.5289547046
 10
25.6439860264
 20
-67.5732824816
 10
25.5763919098
 20
-67.6225548407
 10
25.5099509934
 20
-67.6762145866
 10
25.4446763676
 20
-67.7343115216
 10
25.3805549419
 20
-67.7967958433
 10
25.3183118321
 20
-67.8629609492
 10
25.2579683596
 20
-67.9328486208
 10
25.1995032031
 20
-68.0064170765
 10
25.1435775144
 20
-68.0828343691
 10
25.0902201198
 20
-68.1621328364
 10
25.0394021932
 20
-68.2442801406
 10
24.9916984079
 20
-68.3283473206
 10
24.9471441133
 20
-68.4143561695
 10
24.9057039601
 20
-68.5022848942
 10
24.8678465733
 20
-68.5911391546
 10
24.8336126218
 20
-68.6809294568
 10
24.8029614368
 20
-68.7716452948
 10
24.7762396364
 20
-68.8622608104
 10
24.7534918242
 20
-68.952774865
 10
24.7346733967
 20
-69.0431885972
 10
24.7199971616
 20
-69.1324795653
 10
24.7095340549
 20
-69.2203069554
 10
24.7032131406
 20
-69.3070115815
 10
24.7010344188
 20
-69.3925934435
  0
LWPOLYLINE
  5
272
100
AcDbEntity
  8
ASSI
100
AcDbPolyline
 62
7
  6
CONTINUOUS
 90
38
 70
0
 10
31.5065083463
 20
-66.3702456686
 10
31.5075385451
 20
-66.3707221257
 10
31.5634642337
 20
-66.3912137297
 10
31.6219293903
 20
-66.4063170288
 10
31.6822728628
 20
-66.4158612279
 10
31.7445159726
 20
-66.419783224
 10
31.8086373982
 20
-66.4181461201
 10
31.8739120241
 20
-66.4109684292
 10
31.9403529405
 20
-66.3981872587
 10
32.007947057
 20
-66.3798655013
 10
32.0759299872
 20
-66.3562103481
 10
32.1443061444
 20
-66.3271612585
 10
32.2130711153
 20
-66.292778773
 10
32.2814472726
 20
-66.2534517054
 10
32.3494302027
 20
-66.2091239285
 10
32.4170243193
 20
-66.1598515693
 10
32.4834652356
 20
-66.1061918235
 10
32.5487398615
 20
-66.0480948884
 10
32.6128612872
 20
-65.9856105667
 10
32.6751043969
 20
-65.9194454608
 10
32.7354478694
 20
-65.8495577892
 10
32.793913026
 20
-65.7759893335
 10
32.8498387147
 20
-65.6995720409
 10
32.9031961092
 20
-65.6202735736
 10
32.9540140359
 20
-65.5381262695
 10
33.0017178212
 20
-65.4540590894
 10
33.0462721158
 20
-65.3680502406
 10
33.087712269
 20
-65.2801215159
 10
33.1255696558
 20
-65.1912672554
 10
33.1598036072
 20
-65.1014769532
 10
33.1904547923
 20
-65.0107611152
 10
33.2171765926
 20
-64.9201455996
 10
33.2399244049
 20
-64.8296315451
 10
33.2587428324
 20
-64.7392178129
 10
33.2734190675
 20
-64.6499268448
 10
33.2838821742
 20
-64.5620994546
 10
33.2902030884
 20
-64.4753948286
 10
33.2923818102
 20
-64.3898129666
  0
LINE
  5
273
100
AcDbEntity
  8
0
100
AcDbLine
 62
253
  6
CONTINUOUS
 10
13.6524909628
 20
-62.5184154392
 11
12.9598080965
 21
-62.1720740061
  0
LINE
  5
274
100
AcDbEntity
  8
ASSI
100
AcDbLine
 62
253
  6
CONTINUOUS
 10
26.9284207796
 20
-68.2789002631
 11
26.2213139984
 21
-67.9253468725
  0
LINE
  5
275
100
AcDbEntity
  8
ASSI
100
AcDbLine
 62
253
  6
CONTINUOUS
 10
26.2208460971
 20
-67.9074352523
 11
25.606781144
 21
-67.6004027758
  0
LINE
  5
276
100
AcDbEntity
  8
0
100
AcDbLine
 62
7
  6
CONTINUOUS
 10
20.1578733497
 20
-63.0039199402
 11
19.4507665685
 21
-62.6503665496
  0
LWPOLYLINE
  5
277
100
AcDbEntity
  8
0
100
AcDbPolyline
 62
7
  6
CONTINUOUS
 90
15
 70
0
 10
13.2052928771
 20
-62.5467862085
 10
13.1862260124
 20
-62.5365634882
 10
13.1524909628
 20
-62.5147624711
 10
13.1209182306
 20
-62.4892320082
 10
13.0914804672
 20
-62.4600192688
 10
13.0645531616
 20
-62.4274968714
 10
13.0401684722
 20
-62.3916224201
 10
13.0182942407
 20
-62.3524383108
 10
12.9992094804
 20
-62.3104443507
 10
12.9829499238
 20
-62.2656045459
 10
12.9694798386
 20
-62.2179548903
 10
12.9589710401
 20
-62.1681031717
 10
12.9514808004
 20
-62.1162519861
 10
12.9469518476
 20
-62.0621987375
 10
12.9453841816
 20
-62.005943426
  0
LWPOLYLINE
  5
278
100
AcDbEntity
  8
ASSI
100
AcDbPolyline
 62
7
  6
CONTINUOUS
 90
6
 70
0
 10
25.4116623767
 20
-68.2445668211
 10
25.4066134945
 20
-68.2417122946
 10
25.3378485237
 20
-68.2073298092
 10
25.2652763995
 20
-68.175239714
 10
25.188853906
 20
-68.1454680306
 10
25.1178069913
 20
-68.1211338963
  0
LWPOLYLINE
  5
279
100
AcDbEntity
  8
0
100
AcDbPolyline
 62
7
  6
CONTINUOUS
 90
16
 70
0
 10
-43.5604166135
 20
56.5789734323
 10
-43.5573823953
 20
56.5214571978
 10
-43.5483291437
 20
56.4639409632
 10
-43.5333309628
 20
56.4068955208
 10
-43.5123390581
 20
56.3503247347
 10
-43.4854022243
 20
56.2942247407
 10
-43.4527409494
 20
56.2390547385
 10
-43.4143082485
 20
56.1848223613
 10
-43.3701511067
 20
56.131519976
 10
-43.3206309667
 20
56.0795838826
 10
-43.2657038104
 20
56.0290252955
 10
-43.205413656
 20
55.9798330004
 10
-43.1402540011
 20
55.9324096548
 10
-43.0703893452
 20
55.886889478
 10
-42.9956551889
 20
55.8431382507
 10
-42.9160515321
 20
55.801155973
  0
LINE
  5
27A
100
AcDbEntity
  8
0
100
AcDbLine
 62
7
  6
CONTINUOUS
 10
-43.5604166135
 20
-45.1790115123
 11
-43.5604166135
 21
56.5789734323
  0
LINE
  5
27B
100
AcDbEntity
  8
0
100
AcDbLine
 62
7
  6
CONTINUOUS
 10
-42.9160515321
 20
61.4303210976
 11
-42.9160515321
 21
55.801155973
  0
LINE
  5
27C
100
AcDbEntity
  8
0
100
AcDbLine
 62
253
  6
CONTINUOUS
 10
-42.9160515321
 20
55.801155973
 11
-42.9160515321
 21
-45.9568289716
  0
LINE
  5
27D
100
AcDbEntity
  8
0
100
AcDbLine
 62
7
  6
CONTINUOUS
 10
-42.9160515321
 20
-45.9568289716
 11
-42.9160515321
 21
-51.5859940962
  0
LINE
  5
27E
100
AcDbEntity
  8
0
100
AcDbLine
 62
7
  6
CONTINUOUS
 10
-31.2115576694
 20
67.5755746381
 11
-31.3464199161
 21
66.7062696796
  0
LWPOLYLINE
  5
27F
100
AcDbEntity
  8
0
100
AcDbPolyline
 62
7
  6
CONTINUOUS
 90
12
 70
0
 10
-26.0010543511
 20
77.0948521206
 10
-25.990899022
 20
77.143027049
 10
-25.9767554324
 20
77.1930591875
 10
-25.9596828981
 20
77.2401409825
 10
-25.9396438997
 20
77.2842346406
 10
-25.9166759566
 20
77.3253779553
 10
-25.8910720328
 20
77.3630461292
 10
-25.8627983619
 20
77.3971946465
 10
-25.8318887104
 20
77.4278680229
 10
-25.7987373415
 20
77.4546750089
 10
-25.7633155394
 20
77.4775660768
 10
-25.7432953315
 20
77.4882999331
  0
LINE
  5
280
100
AcDbEntity
  8
0
100
AcDbLine
 62
7
  6
CONTINUOUS
 10
4.3931453975
 20
49.7732231047
 11
5.4538055693
 21
50.3035531906
  0
LINE
  5
281
100
AcDbEntity
  8
0
100
AcDbLine
 62
7
  6
CONTINUOUS
 10
3.8944173824
 20
49.4394044209
 11
4.378941483
 21
49.6816664712
  0
LINE
  5
282
100
AcDbEntity
  8
0
100
AcDbLine
 62
7
  6
CONTINUOUS
 10
-4.0251785669
 20
44.0923603961
 11
-2.7261404612
 21
44.7418794489
  0
LINE
  5
283
100
AcDbEntity
  8
0
100
AcDbLine
 62
7
  6
CONTINUOUS
 10
10.0090144056
 20
46.9652886006
 11
11.0696745773
 21
47.4956186865
  0
LWPOLYLINE
  5
284
100
AcDbEntity
  8
ASSI
100
AcDbPolyline
 62
7
  6
CONTINUOUS
 90
14
 70
0
 10
33.7802210316
 20
-63.5113617075
 10
33.7303653624
 20
-63.4887017175
 10
33.662827393
 20
-63.4645517881
 10
33.5929021923
 20
-63.4466595568
 10
33.520565582
 20
-63.4350884024
 10
33.4458417403
 20
-63.4297749459
 10
33.3694849364
 20
-63.430772822
 10
33.2914786311
 20
-63.4381459527
 10
33.2118393634
 20
-63.451830416
 10
33.131371019
 20
-63.4716880795
 10
33.0500652008
 20
-63.4977814665
 10
32.967930306
 20
-63.5300480538
 10
32.8857954111
 20
-63.5681621398
 10
32.8036605162
 20
-63.6121829487
  0
LWPOLYLINE
  5
285
100
AcDbEntity
  8
ASSI
100
AcDbPolyline
 62
7
  6
CONTINUOUS
 90
38
 70
0
 10
39.2525100096
 20
-63.1733854794
 10
39.2857131381
 20
-63.1887416104
 10
39.3416388268
 20
-63.2092332143
 10
39.4001039834
 20
-63.2243365135
 10
39.4604474559
 20
-63.2338807125
 10
39.5226905656
 20
-63.2378027087
 10
39.5868119913
 20
-63.2361656047
 10
39.6520866172
 20
-63.2289879139
 10
39.7185275335
 20
-63.2162067434
 10
39.7861216501
 20
-63.197884986
 10
39.8541045802
 20
-63.1742298328
 10
39.9224807375
 20
-63.1451807431
 10
39.9912457084
 20
-63.1107982577
 10
40.0596218656
 20
-63.0714711901
 10
40.1276047958
 20
-63.0271434131
 10
40.1951989123
 20
-62.977871054
 10
40.2616398287
 20
-62.9242113081
 10
40.3269144546
 20
-62.8661143731
 10
40.3910358803
 20
-62.8036300514
 10
40.45327899
 20
-62.7374649455
 10
40.5136224625
 20
-62.6675772739
 10
40.5720876191
 20
-62.5940088182
 10
40.6280133077
 20
-62.5175915256
 10
40.6813707023
 20
-62.4382930583
 10
40.7321886289
 20
-62.3561457541
 10
40.7798924143
 20
-62.2720785741
 10
40.8244467088
 20
-62.1860697252
 10
40.865886862
 20
-62.0981410005
 10
40.9037442488
 20
-62.0092867401
 10
40.9379782003
 20
-61.9194964379
 10
40.9686293853
 20
-61.8287805999
 10
40.9953511857
 20
-61.7381650843
 10
41.0180989979
 20
-61.6476510297
 10
41.0369174254
 20
-61.5572372976
 10
41.0515936605
 20
-61.4679463294
 10
41.0620567672
 20
-61.3801189393
 10
41.0683776815
 20
-61.2934143132
 10
41.0705564033
 20
-61.2078324512
  0
LWPOLYLINE
  5
286
100
AcDbEntity
  8
ASSI
100
AcDbPolyline
 62
7
  6
CONTINUOUS
 90
38
 70
0
 10
40.6612164362
 20
-60.3559726034
 10
40.6280133077
 20
-60.3406164724
 10
40.5720876191
 20
-60.3201248685
 10
40.5136224625
 20
-60.3050215694
 10
40.45327899
 20
-60.2954773703
 10
40.3910358803
 20
-60.2915553742
 10
40.3269144546
 20
-60.2931924781
 10
40.2616398287
 20
-60.300370169
 10
40.1951989123
 20
-60.3131513395
 10
40.1276047958
 20
-60.3314730969
 10
40.0596218656
 20
-60.35512825
 10
39.9912457084
 20
-60.3841773397
 10
39.9224807375
 20
-60.4185598252
 10
39.8541045802
 20
-60.4578868927
 10
39.7861216501
 20
-60.5022146697
 10
39.7185275335
 20
-60.5514870289
 10
39.6520866172
 20
-60.6051467747
 10
39.5868119913
 20
-60.6632437097
 10
39.5226905656
 20
-60.7257280315
 10
39.4604474559
 20
-60.7918931374
 10
39.4001039834
 20
-60.8617808089
 10
39.3416388268
 20
-60.9353492647
 10
39.2857131381
 20
-61.0117665572
 10
39.2323557436
 20
-61.0910650246
 10
39.1815378169
 20
-61.1732123287
 10
39.1338340316
 20
-61.2572795087
 10
39.089279737
 20
-61.3432883576
 10
39.0478395838
 20
-61.4312170823
 10
39.009982197
 20
-61.5200713428
 10
38.9757482456
 20
-61.609861645
 10
38.9450970605
 20
-61.7005774829
 10
38.9183752602
 20
-61.7911929986
 10
38.8956274479
 20
-61.8817070531
 10
38.8768090204
 20
-61.9721207853
 10
38.8621327853
 20
-62.0614117534
 10
38.8516696786
 20
-62.1492391435
 10
38.8453487644
 20
-62.2359437696
 10
38.8431700426
 20
-62.3215256316
  0
LWPOLYLINE
  5
287
100
AcDbEntity
  8
ASSI
100
AcDbPolyline
 62
7
  6
CONTINUOUS
 90
8
 70
0
 10
32.4683741043
 20
-64.7015247877
 10
32.4089163355
 20
-64.6717959033
 10
32.3363442114
 20
-64.6397058081
 10
32.2599217179
 20
-64.6099341247
 10
32.1796920711
 20
-64.5824548315
 10
32.0965625462
 20
-64.5575786776
 10
32.0105002259
 20
-64.5353352119
 10
31.9215572654
 20
-64.5156991325
  0
LINE
  5
288
100
AcDbEntity
  8
0
100
AcDbLine
 62
7
  6
CONTINUOUS
 10
14.5010191002
 20
-55.4400422195
 11
13.793912319
 21
-55.0864888289
  0
LINE
  5
289
100
AcDbEntity
  8
ASSI
100
AcDbLine
 62
253
  6
CONTINUOUS
 10
33.2923818102
 20
-64.3898129666
 11
32.5852750291
 21
-64.036259576
  0
LINE
  5
28A
100
AcDbEntity
  8
ASSI
100
AcDbLine
 62
253
  6
CONTINUOUS
 10
34.3000089734
 20
-64.5931061662
 11
33.5929021923
 21
-64.2395527756
  0
LINE
  5
28B
100
AcDbEntity
  8
0
100
AcDbLine
 62
253
  6
CONTINUOUS
 10
-31.7437643894
 20
67.2584953068
 11
-31.7437643894
 21
66.9049419162
  0
LWPOLYLINE
  5
28C
100
AcDbEntity
  8
0
100
AcDbPolyline
 62
7
  6
CONTINUOUS
 90
12
 70
0
 10
-31.8901814087
 20
67.0817186115
 10
-31.8898353748
 20
67.0911009694
 10
-31.8870671037
 20
67.1097097305
 10
-31.8814842907
 20
67.1281599303
 10
-31.8731332065
 20
67.1464541755
 10
-31.8621526639
 20
67.164288377
 10
-31.8484987123
 20
67.1816548454
 10
-31.8322153022
 20
67.1985612701
 10
-31.8135730984
 20
67.2147266306
 10
-31.7926623225
 20
67.2300572535
 10
-31.7693927528
 20
67.2446468122
 10
-31.7437643894
 20
67.2584953068
  0
LWPOLYLINE
  5
28D
100
AcDbEntity
  8
0
100
AcDbPolyline
 62
7
  6
CONTINUOUS
 90
12
 70
0
 10
-15.8894273802
 20
82.1506656061
 10
-15.879272051
 20
82.1988405345
 10
-15.8651284615
 20
82.248872673
 10
-15.8480559271
 20
82.295954468
 10
-15.8280169288
 20
82.3400481261
 10
-15.8050489856
 20
82.3811914408
 10
-15.7794450618
 20
82.4188596147
 10
-15.7511713909
 20
82.4530081319
 10
-15.7202617394
 20
82.4836815084
 10
-15.6871103706
 20
82.5104884944
 10
-15.6516885685
 20
82.5333795623
 10
-15.6316683605
 20
82.5441134186
  0
LWPOLYLINE
  5
28E
100
AcDbEntity
  8
ASSI
100
AcDbPolyline
 62
7
  6
CONTINUOUS
 90
7
 70
0
 10
-17.2603402147
 20
73.0891552071
 10
-17.2474997719
 20
73.1402476168
 10
-17.2286813443
 20
73.230661349
 10
-17.2140051092
 20
73.3199523171
 10
-17.2035420025
 20
73.4077797073
 10
-17.1972210883
 20
73.4944843334
 10
-17.1970955072
 20
73.499417254
  0
LWPOLYLINE
  5
28F
100
AcDbEntity
  8
ASSI
100
AcDbPolyline
 62
7
  6
CONTINUOUS
 90
10
 70
0
 10
2.8118354026
 20
60.2043614181
 10
2.7587815421
 20
60.1373274197
 10
2.6287214277
 20
59.9533407058
 10
2.5125484356
 20
59.7673269481
 10
2.4103199661
 20
59.5792777681
 10
2.3219786187
 20
59.3892015444
 10
2.2478890383
 20
59.1978828506
 10
2.1881101325
 20
59.0053165511
 10
2.1425829937
 20
58.8115077816
 10
2.1288833164
 20
58.7259047644
  0
LWPOLYLINE
  5
290
100
AcDbEntity
  8
ASSI
100
AcDbPolyline
 62
7
  6
CONTINUOUS
 90
14
 70
0
 10
16.0743316884
 20
50.3498044017
 10
16.0075225719
 20
50.3142211217
 10
15.9456299579
 20
50.2769539004
 10
15.8886538462
 20
50.2380027379
 10
15.836415859
 20
50.1972075092
 10
15.7890943742
 20
50.1547283392
 10
15.7472245259
 20
50.1110456028
 10
15.7108681969
 20
50.066145638
 10
15.6799635043
 20
50.0200421066
 10
15.6548599331
 20
49.9732563696
 10
15.6356233335
 20
49.925780683
 10
15.6221878553
 20
49.8776227907
 10
15.6147054334
 20
49.8293272852
 10
15.6130490684
 20
49.7929578168
  0
LWPOLYLINE
  5
291
100
AcDbEntity
  8
ASSI
100
AcDbPolyline
 62
7
  6
CONTINUOUS
 90
14
 70
0
 10
23.1453995002
 20
53.8853383076
 10
23.0785903838
 20
53.8497550276
 10
23.0166977697
 20
53.8124878063
 10
22.9597216581
 20
53.7735366438
 10
22.9074836709
 20
53.7327414151
 10
22.8601621861
 20
53.6902622452
 10
22.8182923377
 20
53.6465795088
 10
22.7819360087
 20
53.6016795439
 10
22.7510313161
 20
53.5555760125
 10
22.725927745
 20
53.5087902755
 10
22.7066911454
 20
53.4613145889
 10
22.6932556672
 20
53.4131566966
 10
22.6857732453
 20
53.3648611911
 10
22.6841168802
 20
53.3284917228
  0
LWPOLYLINE
  5
292
100
AcDbEntity
  8
ASSI
100
AcDbPolyline
 62
7
  6
CONTINUOUS
 90
14
 70
0
 10
30.2164673121
 20
57.4208722135
 10
30.1496581956
 20
57.3852889335
 10
30.0877655816
 20
57.3480217122
 10
30.03078947
 20
57.3090705497
 10
29.9785514828
 20
57.268275321
 10
29.931229998
 20
57.2257961511
 10
29.8893601496
 20
57.1821134147
 10
29.8530038206
 20
57.1372134498
 10
29.822099128
 20
57.0911099185
 10
29.7969955568
 20
57.0443241815
 10
29.7777589572
 20
56.9968484948
 10
29.764323479
 20
56.9486906025
 10
29.7568410571
 20
56.900395097
 10
29.7551846921
 20
56.8640256287
  0
LWPOLYLINE
  5
293
100
AcDbEntity
  8
ASSI
100
AcDbPolyline
 62
7
  6
CONTINUOUS
 90
5
 70
0
 10
16.0743316884
 20
49.4837789979
 10
16.0075225719
 20
49.4481957179
 10
15.9456299579
 20
49.4109284966
 10
15.8886538462
 20
49.3719773341
 10
15.8731856904
 20
49.3598974859
  0
LWPOLYLINE
  5
294
100
AcDbEntity
  8
ASSI
100
AcDbPolyline
 62
7
  6
CONTINUOUS
 90
5
 70
0
 10
23.1453995002
 20
53.0193129038
 10
23.0785903838
 20
52.9837296238
 10
23.0166977697
 20
52.9464624025
 10
22.9597216581
 20
52.90751124
 10
22.9442535022
 20
52.8954313918
  0
LWPOLYLINE
  5
295
100
AcDbEntity
  8
ASSI
100
AcDbPolyline
 62
7
  6
CONTINUOUS
 90
5
 70
0
 10
30.2164673121
 20
56.5548468098
 10
30.1496581956
 20
56.5192635297
 10
30.0877655816
 20
56.4819963085
 10
30.03078947
 20
56.4430451459
 10
30.0153213141
 20
56.4309652977
  0
LWPOLYLINE
  5
296
100
AcDbEntity
  8
ASSI
100
AcDbPolyline
 62
7
  6
CONTINUOUS
 90
14
 70
0
 10
18.3017180491
 20
49.2361112213
 10
18.3685271655
 20
49.2716945013
 10
18.4304197796
 20
49.3089617226
 10
18.4873958912
 20
49.3479128851
 10
18.5396338784
 20
49.3887081138
 10
18.5869553632
 20
49.4311872838
 10
18.6288252116
 20
49.4748700202
 10
18.6651815406
 20
49.519769985
 10
18.6960862332
 20
49.5658735164
 10
18.7211898043
 20
49.6126592534
 10
18.740426404
 20
49.66013494
 10
18.7538618821
 20
49.7082928323
 10
18.761344304
 20
49.7565883378
 10
18.7630006691
 20
49.7929578062
  0
LWPOLYLINE
  5
297
100
AcDbEntity
  8
ASSI
100
AcDbPolyline
 62
7
  6
CONTINUOUS
 90
14
 70
0
 10
25.372785861
 20
52.7716451272
 10
25.4395949774
 20
52.8072284073
 10
25.5014875915
 20
52.8444956286
 10
25.5584637031
 20
52.8834467911
 10
25.6107016903
 20
52.9242420198
 10
25.6580231751
 20
52.9667211897
 10
25.6998930235
 20
53.0104039261
 10
25.7362493525
 20
53.055303891
 10
25.7671540451
 20
53.1014074223
 10
25.7922576162
 20
53.1481931593
 10
25.8114942158
 20
53.195668846
 10
25.824929694
 20
53.2438267383
 10
25.8324121159
 20
53.2921222437
 10
25.8340684809
 20
53.3284917121
  0
LWPOLYLINE
  5
298
100
AcDbEntity
  8
ASSI
100
AcDbPolyline
 62
7
  6
CONTINUOUS
 90
14
 70
0
 10
32.4438536728
 20
56.3071790332
 10
32.5106627893
 20
56.3427623132
 10
32.5725554033
 20
56.3800295345
 10
32.6295315149
 20
56.418980697
 10
32.6817695022
 20
56.4597759257
 10
32.7290909869
 20
56.5022550956
 10
32.7709608353
 20
56.545937832
 10
32.8073171643
 20
56.5908377969
 10
32.8382218569
 20
56.6369413282
 10
32.8633254281
 20
56.6837270653
 10
32.8825620277
 20
56.7312027519
 10
32.8959975059
 20
56.7793606442
 10
32.9034799278
 20
56.8276561497
 10
32.9051362928
 20
56.864025618
  0
LINE
  5
299
100
AcDbEntity
  8
0
100
AcDbLine
 62
7
  6
CONTINUOUS
 10
11.6725919755
 20
46.1160025493
 11
11.1069065505
 21
45.8331598369
  0
LINE
  5
29A
100
AcDbEntity
  8
0
100
AcDbLine
 62
7
  6
CONTINUOUS
 10
8.0969676075
 20
39.3303254146
 11
7.2885299321
 21
38.9261065769
  0
LWPOLYLINE
  5
29B
100
AcDbEntity
  8
0
100
AcDbPolyline
 62
7
  6
CONTINUOUS
 90
22
 70
0
 10
11.1069065505
 20
45.8331598369
 10
11.0792095614
 20
45.8203456552
 10
11.050030444
 20
45.8087108703
 10
11.0193691982
 20
45.7982554823
 10
10.9870384771
 20
45.7889343804
 10
10.9532256276
 20
45.7807926754
 10
10.9184926909
 20
45.7739656996
 10
10.8828242879
 20
45.7684754283
 10
10.8462357975
 20
45.7642998862
 10
10.809335398
 20
45.7615084797
 10
10.7721178757
 20
45.7601243441
 10
10.7345884442
 20
45.7601243441
 10
10.6973709219
 20
45.7615084797
 10
10.6604705223
 20
45.7642998862
 10
10.623882032
 20
45.7684754283
 10
10.5882136289
 20
45.7739656996
 10
10.5534806922
 20
45.7807926754
 10
10.5196678428
 20
45.7889343804
 10
10.4873371217
 20
45.7982554823
 10
10.4566758759
 20
45.8087108703
 10
10.4274967585
 20
45.8203456552
 10
10.3997997693
 20
45.8331598369
  0
LWPOLYLINE
  5
29C
100
AcDbEntity
  8
0
100
AcDbPolyline
 62
7
  6
CONTINUOUS
 90
12
 70
0
 10
43.563107807
 20
57.0761576577
 10
43.6120086868
 20
57.0985921072
 10
43.6602910781
 20
57.1169091505
 10
43.7079549811
 20
57.1311087877
 10
43.7551986357
 20
57.1412164882
 10
43.801823802
 20
57.1472067826
 10
43.8472357596
 20
57.1490032625
 10
43.8914189675
 20
57.146552206
 10
43.9343889668
 20
57.1399073351
 10
43.9755976601
 20
57.1291534074
 10
44.0150224855
 20
57.1142377867
 10
44.0326657969
 20
57.1059469654
  0
LWPOLYLINE
  5
29D
100
AcDbEntity
  8
0
100
AcDbPolyline
 62
7
  6
CONTINUOUS
 90
12
 70
0
 10
44.8359000131
 20
56.4397615547
 10
44.8848008929
 20
56.4621960041
 10
44.9330832843
 20
56.4805130475
 10
44.9807471872
 20
56.4947126847
 10
45.0279908419
 20
56.5048203851
 10
45.0746160081
 20
56.5108106795
 10
45.1200279657
 20
56.5126071594
 10
45.1642111736
 20
56.5101561029
 10
45.2071811729
 20
56.503511232
 10
45.2483898663
 20
56.4927573043
 10
45.2878146916
 20
56.4778416836
 10
45.3054580031
 20
56.4695508624
  0
LWPOLYLINE
  5
29E
100
AcDbEntity
  8
ASSI
100
AcDbPolyline
 62
7
  6
CONTINUOUS
 90
11
 70
0
 10
25.1756419625
 20
-44.0119466875
 10
25.4490722673
 20
-44.0848730587
 10
25.7285195983
 20
-44.1425311288
 10
26.0139605692
 20
-44.184980241
 10
26.3042828763
 20
-44.2120549801
 10
26.599505566
 20
-44.2236953574
 10
26.8996095919
 20
-44.2199613615
 10
27.2034255116
 20
-44.2008675431
 10
27.5109678084
 20
-44.1663539702
 10
27.8222219989
 20
-44.1164805748
 10
27.9346360533
 20
-44.093177917
  0
LINE
  5
29F
100
AcDbEntity
  8
ASSI
100
AcDbLine
 62
7
  6
CONTINUOUS
 10
24.9082052976
 20
-43.9238113584
 11
25.1756419625
 21
-44.0119466875
  0
LINE
  5
2A0
100
AcDbEntity
  8
ASSI
100
AcDbLine
 62
7
  6
CONTINUOUS
 10
24.7616372615
 20
-43.8658367805
 11
24.9082052976
 21
-43.9238113584
  0
LINE
  5
2A1
100
AcDbEntity
  8
0
100
AcDbLine
 62
7
  6
CONTINUOUS
 10
31.4715818487
 20
-57.3470656907
 11
30.7644750675
 21
-56.9935123001
  0
LINE
  5
2A2
100
AcDbEntity
  8
ASSI
100
AcDbLine
 62
253
  6
CONTINUOUS
 10
41.0705564033
 20
-61.2078324512
 11
40.3634496221
 21
-60.8542790606
  0
LINE
  5
2A3
100
AcDbEntity
  8
ASSI
100
AcDbLine
 62
253
  6
CONTINUOUS
 10
40.3629817208
 20
-60.8363674405
 11
39.7489167677
 21
-60.5293349639
  0
LINE
  5
2A4
100
AcDbEntity
  8
0
100
AcDbLine
 62
253
  6
CONTINUOUS
 10
30.6230537113
 20
-53.8742154424
 11
30.0689074182
 21
-53.5971422959
  0
LINE
  5
2A5
100
AcDbEntity
  8
0
100
AcDbLine
 62
253
  6
CONTINUOUS
 10
30.9058964237
 20
-53.7327940861
 11
30.1987896426
 21
-53.3792406955
  0
LINE
  5
2A6
100
AcDbEntity
  8
0
100
AcDbLine
 62
253
  6
CONTINUOUS
 10
31.4715818487
 20
-52.7571310506
 11
30.7644750675
 21
-52.40357766
  0
LWPOLYLINE
  5
2A7
100
AcDbEntity
  8
0
100
AcDbPolyline
 62
7
  6
CONTINUOUS
 90
15
 70
0
 10
30.2652952427
 20
-53.8969120578
 10
30.250041751
 20
-53.8887338816
 10
30.2230537113
 20
-53.8712930679
 10
30.1977955255
 20
-53.8508686976
 10
30.1742453148
 20
-53.827498506
 10
30.1527034703
 20
-53.8014805881
 10
30.1331957188
 20
-53.7727810271
 10
30.1156963336
 20
-53.7414337397
 10
30.1004285253
 20
-53.7078385716
 10
30.0874208801
 20
-53.6719667278
 10
30.0766448119
 20
-53.6338470032
 10
30.0682377731
 20
-53.5939656283
 10
30.0622455814
 20
-53.5524846799
 10
30.0586224191
 20
-53.509242081
 10
30.0573682863
 20
-53.4642378318
  0
LWPOLYLINE
  5
2A8
100
AcDbEntity
  8
0
100
AcDbPolyline
 62
7
  6
CONTINUOUS
 90
19
 70
0
 10
-25.0144564492
 20
-5.1111657955
 10
-24.9821055784
 20
-5.4489331498
 10
-24.9415347304
 20
-5.7887492242
 10
-24.8927439053
 20
-6.1306140187
 10
-24.8356672284
 20
-6.47487691
 10
-24.7703705743
 20
-6.8211885214
 10
-24.6970515667
 20
-7.1685007228
 10
-24.6156859011
 20
-7.5168165456
 10
-24.526297882
 20
-7.8661329583
 10
-24.4291580469
 20
-8.2153927369
 10
-24.3242429108
 20
-8.5645957095
 10
-24.2115759588
 20
-8.9137420479
 10
-24.0914981831
 20
-9.2617750425
 10
-23.963987132
 20
-9.6086913202
 10
-23.8290652573
 20
-9.9544942542
 10
-23.687140907
 20
-10.2981372538
 10
-23.5383501972
 20
-10.6392714555
 10
-23.3825570119
 20
-10.9782457229
 10
-23.219761351
 20
-11.3150600559
  0
LWPOLYLINE
  5
2A9
100
AcDbEntity
  8
0
100
AcDbPolyline
 62
7
  6
CONTINUOUS
 90
19
 70
0
 10
-25.192220843
 20
-5.0222835986
 10
-25.1594917092
 20
-5.3697342626
 10
-25.1182339283
 20
-5.719326744
 10
-25.0684475002
 20
-6.0710610429
 10
-25.0100638666
 20
-6.4253023095
 10
-24.9431515859
 20
-6.7816853936
 10
-24.8679163332
 20
-7.1391148443
 10
-24.7843324989
 20
-7.4975938812
 10
-24.6924256926
 20
-7.8571192847
 10
-24.5924784175
 20
-8.2165859451
 10
-24.4844659335
 20
-8.5759936815
 10
-24.3684129806
 20
-8.9353426748
 10
-24.2446762828
 20
-9.2935283574
 10
-24.1132321973
 20
-9.65054715
 10
-23.9741043669
 20
-10.0064026319
 10
-23.8277204427
 20
-10.360000974
 10
-23.6742229753
 20
-10.7109775667
 10
-23.5134694142
 20
-11.0596970196
 10
-23.3454597594
 20
-11.4061593327
  0
LINE
  5
2AA
100
AcDbEntity
  8
0
100
AcDbLine
 62
7
  6
CONTINUOUS
 10
-30.895236252
 20
58.8264273443
 11
-30.895236252
 21
57.5273892386
  0
LINE
  5
2AB
100
AcDbEntity
  8
0
100
AcDbLine
 62
7
  6
CONTINUOUS
 10
-30.895236252
 20
-62.4171291855
 11
-30.895236252
 21
-61.1180910798
  0
LINE
  5
2AC
100
AcDbEntity
  8
ASSI
100
AcDbLine
 62
253
  6
CONTINUOUS
 10
-24.9378616205
 20
70.8559010561
 11
-24.9378616205
 21
69.9898756523
  0
LWPOLYLINE
  5
2AD
100
AcDbEntity
  8
ASSI
100
AcDbPolyline
 62
7
  6
CONTINUOUS
 90
8
 70
0
 10
-23.9668261764
 20
70.143271187
 10
-23.9680495625
 20
70.0922913678
 10
-23.9752112564
 20
69.9884546987
 10
-23.9870748781
 20
69.8832824732
 10
-24.0037122277
 20
69.7764106062
 10
-24.0250515052
 20
69.6682031829
 10
-24.0508773099
 20
69.5597524582
 10
-24.0617511014
 20
69.5208186734
  0
LWPOLYLINE
  5
2AE
100
AcDbEntity
  8
0
100
AcDbPolyline
 62
7
  6
CONTINUOUS
 90
12
 70
0
 10
-23.819172777
 20
64.1118701305
 10
-23.8195188109
 20
64.1024877726
 10
-23.822287082
 20
64.0838790115
 10
-23.827869895
 20
64.0654288117
 10
-23.8362209792
 20
64.0471345666
 10
-23.8472015218
 20
64.029300365
 10
-23.8608554734
 20
64.0119338967
 10
-23.8771388835
 20
63.995027472
 10
-23.8957810873
 20
63.9788621114
 10
-23.9166918633
 20
63.9635314885
 10
-23.9399614329
 20
63.9489419298
 10
-23.9655897963
 20
63.9350934352
  0
LWPOLYLINE
  5
2AF
100
AcDbEntity
  8
ASSI
100
AcDbPolyline
 62
7
  6
CONTINUOUS
 90
3
 70
0
 10
-23.5672440134
 20
69.5222454125
 10
-23.561182119
 20
69.6053970368
 10
-23.5590033972
 20
69.6909788988
  0
LWPOLYLINE
  5
2B0
100
AcDbEntity
  8
0
100
AcDbPolyline
 62
7
  6
CONTINUOUS
 90
13
 70
0
 10
45.5783621334
 20
52.73433269
 10
45.6256169639
 20
52.7596061545
 10
45.6691439547
 20
52.7861250504
 10
45.708943106
 20
52.8138893777
 10
45.7451525223
 20
52.8430283242
 10
45.777634099
 20
52.8734127021
 10
45.8059735223
 20
52.9046549481
 10
45.8301177319
 20
52.9367660512
 10
45.850119788
 20
52.9697350225
 10
45.8657245575
 20
53.003141331
 10
45.876875712
 20
53.0369905791
 10
45.8836295799
 20
53.0712771646
 10
45.8859000131
 20
53.1055637501
  0
LINE
  5
2B1
100
AcDbEntity
  8
0
100
AcDbLine
 62
7
  6
CONTINUOUS
 10
44.164148571
 20
56.1038858336
 11
44.8359000131
 21
56.4397615547
  0
LINE
  5
2B2
100
AcDbEntity
  8
0
100
AcDbLine
 62
7
  6
CONTINUOUS
 10
10.9301298552
 20
38.7797696945
 11
21.3953102168
 21
44.0123598753
  0
LINE
  5
2B3
100
AcDbEntity
  8
0
100
AcDbLine
 62
253
  6
CONTINUOUS
 10
21.3953102168
 20
44.0123598753
 11
22.6681024229
 21
44.6487559784
  0
LINE
  5
2B4
100
AcDbEntity
  8
0
100
AcDbLine
 62
7
  6
CONTINUOUS
 10
22.6681024229
 20
44.6487559784
 11
31.5069371878
 21
49.0681733608
  0
LINE
  5
2B5
100
AcDbEntity
  8
0
100
AcDbLine
 62
253
  6
CONTINUOUS
 10
31.5069371878
 20
49.0681733608
 11
32.7797293939
 21
49.7045694639
  0
LINE
  5
2B6
100
AcDbEntity
  8
0
100
AcDbLine
 62
7
  6
CONTINUOUS
 10
32.7797293939
 20
49.7045694639
 11
41.6185641587
 21
54.1239868463
  0
LINE
  5
2B7
100
AcDbEntity
  8
0
100
AcDbLine
 62
253
  6
CONTINUOUS
 10
41.6185641587
 20
54.1239868463
 11
42.8913563649
 21
54.7603829493
  0
LINE
  5
2B8
100
AcDbEntity
  8
0
100
AcDbLine
 62
7
  6
CONTINUOUS
 10
42.8913563649
 20
54.7603829493
 11
44.8712553522
 21
55.750332443
  0
LINE
  5
2B9
100
AcDbEntity
  8
0
100
AcDbLine
 62
253
  6
CONTINUOUS
 10
45.5783621334
 20
55.9016659408
 11
44.8712553522
 21
55.5481125502
  0
LINE
  5
2BA
100
AcDbEntity
  8
0
100
AcDbLine
 62
7
  6
CONTINUOUS
 10
10.3016796833
 20
38.2279693767
 11
10.2583784131
 21
38.2063187416
  0
LINE
  5
2BB
100
AcDbEntity
  8
0
100
AcDbLine
 62
7
  6
CONTINUOUS
 10
10.9301298552
 20
37.9137442907
 11
21.3953102168
 21
43.1463344715
  0
LINE
  5
2BC
100
AcDbEntity
  8
0
100
AcDbLine
 62
7
  6
CONTINUOUS
 10
23.2254549383
 20
44.0614068323
 11
31.5069371878
 21
48.202147957
  0
LINE
  5
2BD
100
AcDbEntity
  8
0
100
AcDbLine
 62
7
  6
CONTINUOUS
 10
33.3370819093
 20
49.1172203178
 11
41.6185641587
 21
53.2579614425
  0
LINE
  5
2BE
100
AcDbEntity
  8
0
100
AcDbLine
 62
7
  6
CONTINUOUS
 10
43.4487088803
 20
54.1730338033
 11
44.8712553522
 21
54.8843070392
  0
LINE
  5
2BF
100
AcDbEntity
  8
0
100
AcDbLine
 62
7
  6
CONTINUOUS
 10
44.8416536726
 20
54.7908495902
 11
43.48032691
 21
54.1101862089
  0
LINE
  5
2C0
100
AcDbEntity
  8
0
100
AcDbLine
 62
7
  6
CONTINUOUS
 10
41.6539194978
 20
53.1969825028
 11
33.368699939
 21
49.0543727234
  0
LINE
  5
2C1
100
AcDbEntity
  8
0
100
AcDbLine
 62
7
  6
CONTINUOUS
 10
10.9654851943
 20
37.852765351
 11
20.4053607231
 21
42.5727031154
  0
LINE
  5
2C2
100
AcDbEntity
  8
0
100
AcDbLine
 62
7
  6
CONTINUOUS
 10
20.4053607231
 20
42.5727031154
 11
21.4306655558
 21
43.0853555318
  0
LINE
  5
2C3
100
AcDbEntity
  8
0
100
AcDbLine
 62
7
  6
CONTINUOUS
 10
23.2570729681
 20
43.9985592379
 11
31.5422925268
 21
48.1411690173
  0
LINE
  5
2C4
100
AcDbEntity
  8
0
100
AcDbLine
 62
7
  6
CONTINUOUS
 10
45.5783621334
 20
54.7261911187
 11
45.2746663745
 21
54.5743432392
  0
LINE
  5
2C5
100
AcDbEntity
  8
0
100
AcDbLine
 62
7
  6
CONTINUOUS
 10
45.5487604538
 20
54.4372961996
 11
43.6338184851
 21
53.4798252152
  0
LINE
  5
2C6
100
AcDbEntity
  8
0
100
AcDbLine
 62
7
  6
CONTINUOUS
 10
42.361026279
 20
52.8434291122
 11
33.5221915141
 21
48.4240117298
  0
LINE
  5
2C7
100
AcDbEntity
  8
0
100
AcDbLine
 62
7
  6
CONTINUOUS
 10
20.1578733497
 20
41.7418526475
 11
22.137772337
 21
42.7318021412
  0
LINE
  5
2C8
100
AcDbEntity
  8
0
100
AcDbLine
 62
253
  6
CONTINUOUS
 10
22.137772337
 20
42.7318021412
 11
23.4105645432
 21
43.3681982443
  0
LINE
  5
2C9
100
AcDbEntity
  8
0
100
AcDbLine
 62
7
  6
CONTINUOUS
 10
23.4105645432
 20
43.3681982443
 11
32.249399308
 21
47.7876156267
  0
LINE
  5
2CA
100
AcDbEntity
  8
0
100
AcDbLine
 62
253
  6
CONTINUOUS
 10
32.249399308
 20
47.7876156267
 11
33.5221915141
 21
48.4240117298
  0
LINE
  5
2CB
100
AcDbEntity
  8
0
100
AcDbLine
 62
253
  6
CONTINUOUS
 10
42.361026279
 20
52.8434291122
 11
43.6338184851
 21
53.4798252152
  0
LWPOLYLINE
  5
2CC
100
AcDbEntity
  8
ASSI
100
AcDbPolyline
 62
7
  6
CONTINUOUS
 90
62
 70
0
 10
25.330843681
 20
-43.6120637701
 10
25.5754186892
 20
-43.7254734615
 10
25.8253243583
 20
-43.8238769979
 10
26.0819587352
 20
-43.9080417728
 10
26.3443247706
 20
-43.9776407981
 10
26.6124447615
 20
-44.0326174111
 10
26.8862964109
 20
-44.0730282744
 10
27.1648157791
 20
-44.098716388
 10
27.4480210239
 20
-44.1096244784
 10
27.7358939874
 20
-44.105809819
 10
28.0273162556
 20
-44.0872872303
 10
28.3223016355
 20
-44.0539994964
 10
28.6208363201
 20
-44.006003833
 10
28.9217604734
 20
-43.943486708
 10
29.2250833908
 20
-43.8663916309
 10
29.530795777
 20
-43.7747750922
 10
29.8377099099
 20
-43.6689930308
 10
30.1458304646
 20
-43.5489903411
 10
30.455152766
 20
-43.4148221287
 10
30.7644750675
 20
-43.2670096501
 10
31.073797369
 20
-43.1054998272
 10
31.3831196705
 20
-42.9303457381
 10
31.6912402251
 20
-42.7422278732
 10
31.998154358
 20
-42.5410958016
 10
32.3038667442
 20
-42.3269999542
 10
32.6071896616
 20
-42.1007721139
 10
32.9081138149
 20
-41.8623650856
 10
33.2066484995
 20
-41.6118260644
 10
33.5016338795
 20
-41.3501284183
 10
33.7930561476
 20
-41.077228739
 10
34.0809291111
 20
-40.7931704348
 10
34.3641343559
 20
-40.4990570995
 10
34.6426537241
 20
-40.1948496178
 10
34.9165053736
 20
-39.880587105
 10
35.1846253645
 20
-39.5574905012
 10
35.4469913999
 20
-39.2255254405
 10
35.7036257767
 20
-38.8847262887
 10
35.9535314458
 20
-38.5364170832
 10
36.1966822315
 20
-38.180568609
 10
36.4331043096
 20
-37.817210081
 10
36.6618791574
 20
-37.4477531821
 10
36.8829770264
 20
-37.0721741887
 10
37.0964276651
 20
-36.6904968244
 10
37.3014017975
 20
-36.3042039422
 10
37.4978664488
 20
-35.9132775873
 10
37.6858545937
 20
-35.5177357145
 10
37.8646358802
 20
-35.119115042
 10
38.0341744926
 20
-34.7174035929
 10
38.1945062465
 20
-34.312613344
 10
38.3450082379
 20
-33.9063169444
 10
38.4856422276
 20
-33.4985085348
 10
38.6164464548
 20
-33.0891939745
 10
38.7369127324
 20
-32.6799634897
 10
38.8470008444
 20
-32.2708174074
 10
38.946751007
 20
-31.8617554007
 10
39.035775681
 20
-31.4543667146
 10
39.114033143
 20
-31.0486578586
 10
39.1815651165
 20
-30.6446223232
 10
39.2381092333
 20
-30.2438298253
 10
39.2835780373
 20
-29.8468036037
 10
39.3180589847
 20
-29.4530204195
 10
39.3415520754
 20
-29.0624802728
  0
LWPOLYLINE
  5
2CD
100
AcDbEntity
  8
ASSI
100
AcDbPolyline
 62
7
  6
CONTINUOUS
 90
62
 70
0
 10
25.107237122
 20
-44.0592768883
 10
25.3549111984
 20
-44.174363907
 10
25.6153120788
 20
-44.277364749
 10
25.8827487437
 20
-44.3655000781
 10
26.1561790485
 20
-44.4384264493
 10
26.4356263795
 20
-44.4960845194
 10
26.7210673504
 20
-44.5385336316
 10
27.0113896575
 20
-44.5656083707
 10
27.3066123472
 20
-44.577248748
 10
27.6067163731
 20
-44.5735147521
 10
27.9105322928
 20
-44.5544209337
 10
28.2180745896
 20
-44.5199073608
 10
28.5293287801
 20
-44.4700339654
 10
28.843081972
 20
-44.4049950936
 10
29.1593439162
 20
-44.3247315718
 10
29.4781048617
 20
-44.2293025737
 10
29.798122664
 20
-44.1190799659
 10
30.1194022273
 20
-43.994006026
 10
30.4419386474
 20
-43.8541384766
 10
30.7644750675
 20
-43.700022352
 10
31.0870114876
 20
-43.5316020565
 10
31.4095479077
 20
-43.3489331859
 10
31.730827471
 20
-43.1527275625
 10
32.0508452733
 20
-42.9429323679
 10
32.3696062189
 20
-42.7196004205
 10
32.685868163
 20
-42.4836019981
 10
32.9996213549
 20
-42.234887678
 10
33.3108755454
 20
-41.9735068829
 10
33.6184178422
 20
-41.700478159
 10
33.9222337619
 20
-41.4157560577
 10
34.2223377878
 20
-41.1193860277
 10
34.5175604775
 20
-40.8125229607
 10
34.8078827847
 20
-40.4951259145
 10
35.0933237555
 20
-40.1672358313
 10
35.3727710865
 20
-39.8301304302
 10
35.6462013913
 20
-39.4837737542
 10
35.9136380562
 20
-39.1282017603
 10
36.1740389366
 20
-38.7648000379
 10
36.4273765798
 20
-38.3935380366
 10
36.6736784385
 20
-38.0144463069
 10
36.9119847259
 20
-37.6290020897
 10
37.1422642445
 20
-37.2371805986
 10
37.3645481919
 20
-36.83900662
 10
37.5779703741
 20
-36.4360317546
 10
37.7824962137
 20
-36.0282372699
 10
37.9781602881
 20
-35.6156418983
 10
38.1642001355
 20
-35.1998534375
 10
38.3405782034
 20
-34.7808594285
 10
38.5073320442
 20
-34.3586723303
 10
38.6638118531
 20
-33.9349373176
 10
38.8099775424
 20
-33.5096483505
 10
38.9458691999
 20
-33.0828114689
 10
39.0709572841
 20
-32.6560899665
 10
39.1851996413
 20
-32.2294842937
 10
39.2886384252
 20
-31.8029940001
 10
39.3808705568
 20
-31.3782810292
 10
39.4618523091
 20
-30.9553523156
 10
39.531627409
 20
-30.5342009247
 10
39.5899239576
 20
-30.116467995
 10
39.6366513218
 20
-29.7027005729
 10
39.6719001347
 20
-29.292351612
 10
39.6956703962
 20
-28.8854211124
  0
LINE
  5
2CE
100
AcDbEntity
  8
0
100
AcDbLine
 62
253
  6
CONTINUOUS
 10
31.4715818487
 20
-49.8126446778
 11
30.7787615257
 21
-49.4662345163
  0
LINE
  5
2CF
100
AcDbEntity
  8
ASSI
100
AcDbLine
 62
7
  6
CONTINUOUS
 10
24.623723101
 20
-43.2585379742
 11
25.3308298822
 21
-43.6120913648
  0
LWPOLYLINE
  5
2D0
100
AcDbEntity
  8
0
100
AcDbPolyline
 62
7
  6
CONTINUOUS
 90
15
 70
0
 10
31.2636548923
 20
-49.3799704518
 10
31.278908384
 20
-49.388148628
 10
31.3058964237
 20
-49.4055894417
 10
31.3311546095
 20
-49.426013812
 10
31.3547048202
 20
-49.4493840036
 10
31.3762466647
 20
-49.4754019215
 10
31.3957544162
 20
-49.5041014825
 10
31.4132538014
 20
-49.5354487699
 10
31.4285216097
 20
-49.569043938
 10
31.4415292549
 20
-49.6049157818
 10
31.4523053231
 20
-49.6430355064
 10
31.4607123619
 20
-49.6829168813
 10
31.4667045536
 20
-49.7243978297
 10
31.4703277159
 20
-49.7676404286
 10
31.4715818487
 20
-49.8126446778
  0
LWPOLYLINE
  5
2D1
100
AcDbEntity
  8
ASSI
100
AcDbPolyline
 62
7
  6
CONTINUOUS
 90
9
 70
0
 10
-23.5590033972
 20
69.6909788988
 10
-23.561182119
 20
69.774382039
 10
-23.5675030332
 20
69.8547657508
 10
-23.5779661399
 20
69.9321300343
 10
-23.592642375
 20
70.0067447673
 10
-23.6114608025
 20
70.0783400719
 10
-23.6342086147
 20
70.1461063142
 10
-23.6609304151
 20
70.2100000295
 10
-23.6640316948
 20
70.216077357
  0
LWPOLYLINE
  5
2D2
100
AcDbEntity
  8
ASSI
100
AcDbPolyline
 62
7
  6
CONTINUOUS
 90
40
 70
0
 10
-25.3991442405
 20
70.2990544713
 10
-25.3989496663
 20
70.2869892588
 10
-25.394458401
 20
70.2384169648
 10
-25.3840648687
 20
70.1902563364
 10
-25.3677020714
 20
70.1425120464
 10
-25.3454370072
 20
70.0951794219
 10
-25.3175214601
 20
70.048793723
 10
-25.2838912899
 20
70.0033656983
 10
-25.2446106369
 20
69.9588845992
 10
-25.2001237054
 20
69.915853439
 10
-25.1503713975
 20
69.8742886766
 10
-25.0954128112
 20
69.8341738532
 10
-25.0358694444
 20
69.7959626065
 10
-24.971689254
 20
69.7596765444
 10
-24.9029242832
 20
69.7252940589
 10
-24.830352159
 20
69.6932039638
 10
-24.7539296655
 20
69.6634322804
 10
-24.6737000187
 20
69.6359529872
 10
-24.5905704938
 20
69.6110768333
 10
-24.5045081736
 20
69.5888333675
 10
-24.4155459753
 20
69.569193041
 10
-24.3246899259
 20
69.5523779559
 10
-24.231918528
 20
69.5384201824
 10
-24.1372532791
 20
69.5272876503
 10
-24.0417646991
 20
69.5191062516
 10
-23.9454434423
 20
69.5139094855
 10
-23.8482988543
 20
69.5116638528
 10
-23.7514294927
 20
69.5123947483
 10
-23.6548384817
 20
69.5161359592
 10
-23.5585226971
 20
69.5228536983
 10
-23.4635713239
 20
69.5324719981
 10
-23.3699998499
 20
69.5450237837
 10
-23.2777927872
 20
69.56047613
 10
-23.1879928574
 20
69.5786542945
 10
-23.1006273846
 20
69.5995892187
 10
-23.0156690448
 20
69.6232499611
 10
-22.9340785874
 20
69.6493689547
 10
-22.8561762623
 20
69.6778570105
 10
-22.7816418198
 20
69.7088033175
 10
-22.7104752597
 20
69.7422078757
  0
LWPOLYLINE
  5
2D3
100
AcDbEntity
  8
ASSI
100
AcDbPolyline
 62
7
  6
CONTINUOUS
 90
40
 70
0
 10
-22.2491926397
 20
70.2990544606
 10
-22.2493872139
 20
70.311119673
 10
-22.2538784792
 20
70.359691967
 10
-22.2642720115
 20
70.4078525954
 10
-22.2806348088
 20
70.4555968854
 10
-22.302899873
 20
70.5029295099
 10
-22.3308154201
 20
70.5493152088
 10
-22.3644455903
 20
70.5947432335
 10
-22.4037262433
 20
70.6392243327
 10
-22.4482131748
 20
70.6822554928
 10
-22.4979654827
 20
70.7238202552
 10
-22.552924069
 20
70.7639350786
 10
-22.6124674358
 20
70.8021463254
 10
-22.6766476262
 20
70.8384323874
 10
-22.745412597
 20
70.8728148729
 10
-22.8179847212
 20
70.9049049681
 10
-22.8944072147
 20
70.9346766515
 10
-22.9746368615
 20
70.9621559446
 10
-23.0577663864
 20
70.9870320985
 10
-23.1438287066
 20
71.0092755643
 10
-23.2327909049
 20
71.0289158908
 10
-23.3236469543
 20
71.0457309759
 10
-23.4164183522
 20
71.0596887494
 10
-23.5110836011
 20
71.0708212816
 10
-23.606572181
 20
71.0790026802
 10
-23.7028934379
 20
71.0841994463
 10
-23.8000380259
 20
71.086445079
 10
-23.8969073875
 20
71.0857141836
 10
-23.9934983985
 20
71.0819729726
 10
-24.089814183
 20
71.0752552335
 10
-24.1847655563
 20
71.0656369337
 10
-24.2783370303
 20
71.0530851481
 10
-24.370544093
 20
71.0376328018
 10
-24.4603440228
 20
71.0194546373
 10
-24.5477094956
 20
70.9985197132
 10
-24.6326678354
 20
70.9748589708
 10
-24.7142582928
 20
70.9487399772
 10
-24.7921606179
 20
70.9202519213
 10
-24.8666950604
 20
70.8893056143
 10
-24.9378616205
 20
70.8559010561
  0
LINE
  5
2D4
100
AcDbEntity
  8
0
100
AcDbLine
 62
253
  6
CONTINUOUS
 10
-23.9655897963
 20
64.2886468258
 11
-23.9655897963
 21
63.9350934352
  0
LINE
  5
2D5
100
AcDbEntity
  8
0
100
AcDbLine
 62
7
  6
CONTINUOUS
 10
-21.7028480965
 20
54.2302332666
 11
-21.7028480965
 21
52.9311951609
  0
LINE
  5
2D6
100
AcDbEntity
  8
0
100
AcDbLine
 62
7
  6
CONTINUOUS
 10
-21.7028480965
 20
-67.0133232632
 11
-21.7028480965
 21
-65.7142851575
  0
LINE
  5
2D7
100
AcDbEntity
  8
ASSI
100
AcDbLine
 62
7
  6
CONTINUOUS
 10
-16.4901143071
 20
73.1409309428
 11
-16.4879355853
 21
73.2265128048
  0
LINE
  5
2D8
100
AcDbEntity
  8
ASSI
100
AcDbLine
 62
7
  6
CONTINUOUS
 10
-16.4961762015
 20
73.0577793184
 11
-16.4901143071
 21
73.1409309428
  0
LWPOLYLINE
  5
2D9
100
AcDbEntity
  8
ASSI
100
AcDbPolyline
 62
7
  6
CONTINUOUS
 90
3
 70
0
 10
-16.4792024309
 20
73.059223554
 10
-16.4779550838
 20
73.0702814141
 10
-16.4722257287
 20
73.1533507494
  0
LINE
  5
2DA
100
AcDbEntity
  8
0
100
AcDbLine
 62
7
  6
CONTINUOUS
 10
-13.2845241322
 20
58.6120578695
 11
-13.4193863789
 21
57.742752911
  0
LWPOLYLINE
  5
2DB
100
AcDbEntity
  8
ASSI
100
AcDbPolyline
 62
7
  6
CONTINUOUS
 90
8
 70
0
 10
4.6941566497
 20
66.0926932674
 10
4.6982257682
 20
66.1014812836
 10
4.7704340526
 20
66.2903567316
 10
4.8281706857
 20
66.480760761
 10
4.8711798506
 20
66.6718497373
 10
4.8993961967
 20
66.8636267
 10
4.9128850745
 20
67.0560886095
 10
4.9141446482
 20
67.1349320242
  0
LWPOLYLINE
  5
2DC
100
AcDbEntity
  8
ASSI
100
AcDbPolyline
 62
7
  6
CONTINUOUS
 90
27
 70
0
 10
32.8036605162
 20
42.042916313
 10
32.7215256213
 20
41.9930480054
 10
32.6402198031
 20
41.9378355743
 10
32.5597514587
 20
41.8772248934
 10
32.4801121911
 20
41.8112700889
 10
32.4021058858
 20
41.7406369144
 10
32.3257490818
 20
41.6652779865
 10
32.2510252402
 20
41.5852406885
 10
32.1786886299
 20
41.5013329238
 10
32.1087634292
 20
41.4135154917
 10
32.0412254597
 20
41.3218275929
 10
31.9767564557
 20
41.227194733
 10
31.9153875001
 20
41.129587085
 10
31.8570875099
 20
41.0290344759
 10
31.8024449702
 20
40.9265518924
 10
31.7514969244
 20
40.8221197874
 10
31.7042063291
 20
40.7157577081
 10
31.6610505397
 20
40.6085392824
 10
31.6220714342
 20
40.5004558372
 10
31.5872271346
 20
40.3915160456
 10
31.5568693623
 20
40.2828195554
 10
31.5310435575
 20
40.1743688307
 10
31.5097042801
 20
40.0661614073
 10
31.4930669304
 20
39.9592895404
 10
31.4812033087
 20
39.8541173149
 10
31.4740416148
 20
39.7502806458
 10
31.4715818487
 20
39.6477795332
  0
LWPOLYLINE
  5
2DD
100
AcDbEntity
  8
ASSI
100
AcDbPolyline
 62
7
  6
CONTINUOUS
 90
26
 70
0
 10
31.5059643341
 20
39.7158738793
 10
31.5743404914
 20
39.7552009468
 10
31.6423234215
 20
39.7995287238
 10
31.7099175381
 20
39.848801083
 10
31.7763584545
 20
39.9024608288
 10
31.8416330803
 20
39.9605577639
 10
31.905754506
 20
40.0230420856
 10
31.9679976157
 20
40.0892071915
 10
32.0283410883
 20
40.1590948631
 10
32.0868062448
 20
40.2326633188
 10
32.1427319335
 20
40.3090806113
 10
32.196089328
 20
40.3883790787
 10
32.2469072547
 20
40.4705263828
 10
32.29461104
 20
40.5545935628
 10
32.3391653346
 20
40.6406024117
 10
32.3806054878
 20
40.7285311364
 10
32.4184628746
 20
40.8173853969
 10
32.452696826
 20
40.9071756991
 10
32.4833480111
 20
40.9978915371
 10
32.5100698115
 20
41.0885070527
 10
32.5328176237
 20
41.1790211072
 10
32.5516360512
 20
41.2694348394
 10
32.5663122863
 20
41.3587258075
 10
32.576775393
 20
41.4465531977
 10
32.5830963073
 20
41.5332578237
 10
32.5852750291
 20
41.6188396857
  0
LWPOLYLINE
  5
2DE
100
AcDbEntity
  8
0
100
AcDbPolyline
 62
7
  6
CONTINUOUS
 90
13
 70
0
 10
45.5783621334
 20
51.1754869631
 10
45.6256169639
 20
51.2007604277
 10
45.6691439547
 20
51.2272793236
 10
45.708943106
 20
51.2550436509
 10
45.7451525223
 20
51.2841825974
 10
45.777634099
 20
51.3145669753
 10
45.8059735223
 20
51.3458092213
 10
45.8301177319
 20
51.3779203244
 10
45.850119788
 20
51.4108892956
 10
45.8657245575
 20
51.4442956042
 10
45.876875712
 20
51.4781448523
 10
45.8836295799
 20
51.5124314378
 10
45.8859000131
 20
51.5467180233
  0
LINE
  5
2DF
100
AcDbEntity
  8
0
100
AcDbLine
 62
7
  6
CONTINUOUS
 10
9.4098502757
 20
29.6382050691
 11
9.7852752492
 21
29.8259175559
  0
LINE
  5
2E0
100
AcDbEntity
  8
0
100
AcDbLine
 62
7
  6
CONTINUOUS
 10
39.5861747653
 20
44.5849459577
 11
39.1065385875
 21
44.3451278688
  0
LINE
  5
2E1
100
AcDbEntity
  8
0
100
AcDbLine
 62
7
  6
CONTINUOUS
 10
32.4956759846
 20
41.0396965673
 11
31.6680270614
 21
40.6258721057
  0
LINE
  5
2E2
100
AcDbEntity
  8
0
100
AcDbLine
 62
7
  6
CONTINUOUS
 10
25.4440391416
 20
37.5138781458
 11
24.9644029637
 21
37.2740600569
  0
LINE
  5
2E3
100
AcDbEntity
  8
ASSI
100
AcDbLine
 62
7
  6
CONTINUOUS
 10
31.4728182288
 20
39.6993008266
 11
31.5059643341
 21
39.7158738793
  0
LINE
  5
2E4
100
AcDbEntity
  8
ASSI
100
AcDbLine
 62
7
  6
CONTINUOUS
 10
22.1873980596
 20
-36.4271217155
 11
21.8533780457
 21
-36.2601117085
  0
LWPOLYLINE
  5
2E5
100
AcDbEntity
  8
ASSI
100
AcDbPolyline
 62
7
  6
CONTINUOUS
 90
4
 70
0
 10
24.6459731086
 20
-43.1906761476
 10
24.8670709776
 20
-43.345157272
 10
25.0958458254
 20
-43.4858393231
 10
25.330843681
 20
-43.6120637701
  0
LINE
  5
2E6
100
AcDbEntity
  8
0
100
AcDbLine
 62
7
  6
CONTINUOUS
 10
-23.3454597594
 20
1.6798945613
 11
-23.219761351
 21
1.4630968761
  0
LINE
  5
2E7
100
AcDbEntity
  8
ASSI
100
AcDbLine
 62
7
  6
CONTINUOUS
 10
-16.4879355853
 20
73.2265128048
 11
-16.4901143071
 21
73.309915945
  0
LINE
  5
2E8
100
AcDbEntity
  8
ASSI
100
AcDbLine
 62
7
  6
CONTINUOUS
 10
-16.4702579158
 20
73.2353516395
 11
-16.4722257287
 21
73.3153847168
  0
LWPOLYLINE
  5
2E9
100
AcDbEntity
  8
ASSI
100
AcDbPolyline
 62
7
  6
CONTINUOUS
 90
7
 70
0
 10
-15.0858221255
 20
67.1349320224
 10
-15.0832641954
 20
67.0214813328
 10
-15.0671129891
 20
66.8293557786
 10
-15.0361745485
 20
66.6373980298
 10
-14.9905859545
 20
66.4464586049
 10
-14.9302821996
 20
66.2565420226
 10
-14.8645591513
 20
66.0909073063
  0
LWPOLYLINE
  5
2EA
100
AcDbEntity
  8
ASSI
100
AcDbPolyline
 62
7
  6
CONTINUOUS
 90
20
 70
0
 10
-15.0858221255
 20
68.0009574261
 10
-15.0832641954
 20
67.8875067366
 10
-15.0671129891
 20
67.6953811824
 10
-15.0361745485
 20
67.5034234336
 10
-14.9905859545
 20
67.3124840087
 10
-14.9302821996
 20
67.1225674264
 10
-14.8553282912
 20
66.9336691681
 10
-14.766056332
 20
66.7466261964
 10
-14.6624027884
 20
66.5614467437
 10
-14.544431194
 20
66.3781225778
 10
-14.4126642525
 20
66.1974659637
 10
-14.2670407497
 20
66.0194887381
 10
-14.1076218998
 20
65.8441790645
 10
-13.9351140494
 20
65.6723136976
 10
-13.7494591185
 20
65.503907921
 10
-13.550715187
 20
65.3389464512
 10
-13.3397628414
 20
65.1781601927
 10
-13.1168956107
 20
65.0217927804
 10
-12.8818199659
 20
64.8696005794
 10
-12.634535907
 20
64.7215835897
  0
LWPOLYLINE
  5
2EB
100
AcDbEntity
  8
ASSI
100
AcDbPolyline
 62
7
  6
CONTINUOUS
 90
40
 70
0
 10
-18.3280764286
 20
73.8345883772
 10
-18.3278818545
 20
73.8225231647
 10
-18.3233905891
 20
73.7739508708
 10
-18.3129970569
 20
73.7257902423
 10
-18.2966342595
 20
73.6780459523
 10
-18.2743691953
 20
73.6307133279
 10
-18.2464536482
 20
73.5843276289
 10
-18.212823478
 20
73.5388996043
 10
-18.173542825
 20
73.4944185051
 10
-18.1290558935
 20
73.451387345
 10
-18.0793035857
 20
73.4098225825
 10
-18.0243449993
 20
73.3697077591
 10
-17.9648016325
 20
73.3314965124
 10
-17.9006214422
 20
73.2952104503
 10
-17.8318564713
 20
73.2608279649
 10
-17.7592843471
 20
73.2287378697
 10
-17.6828618536
 20
73.1989661863
 10
-17.6026322069
 20
73.1714868931
 10
-17.519502682
 20
73.1466107392
 10
-17.4334403617
 20
73.1243672735
 10
-17.3444781634
 20
73.1047269469
 10
-17.2536221141
 20
73.0879118619
 10
-17.1608507162
 20
73.0739540883
 10
-17.0661854673
 20
73.0628215562
 10
-16.9706968873
 20
73.0546401575
 10
-16.8743756304
 20
73.0494433914
 10
-16.7772310424
 20
73.0471977587
 10
-16.6803616809
 20
73.0479286542
 10
-16.5837706699
 20
73.0516698651
 10
-16.4874548853
 20
73.0583876042
 10
-16.3925035121
 20
73.068005904
 10
-16.298932038
 20
73.0805576896
 10
-16.2067249753
 20
73.0960100359
 10
-16.1169250456
 20
73.1141882004
 10
-16.0295595728
 20
73.1351231246
 10
-15.9446012329
 20
73.158783867
 10
-15.8630107755
 20
73.1849028606
 10
-15.7851084505
 20
73.2133909164
 10
-15.7105740079
 20
73.2443372234
 10
-15.6394074479
 20
73.2777417817
  0
LWPOLYLINE
  5
2EC
100
AcDbEntity
  8
ASSI
100
AcDbPolyline
 62
7
  6
CONTINUOUS
 90
40
 70
0
 10
-15.1781248279
 20
73.8345883665
 10
-15.178319402
 20
73.8466535789
 10
-15.1828106674
 20
73.8952258729
 10
-15.1932041996
 20
73.9433865014
 10
-15.2095669969
 20
73.9911307914
 10
-15.2318320612
 20
74.0384634158
 10
-15.2597476083
 20
74.0848491148
 10
-15.2933777784
 20
74.1302771394
 10
-15.3326584315
 20
74.1747582386
 10
-15.377145363
 20
74.2177893987
 10
-15.4268976708
 20
74.2593541612
 10
-15.4818562571
 20
74.2994689845
 10
-15.5413996239
 20
74.3376802313
 10
-15.6055798143
 20
74.3739662934
 10
-15.6743447852
 20
74.4083487788
 10
-15.7469169093
 20
74.440438874
 10
-15.8233394028
 20
74.4702105574
 10
-15.9035690496
 20
74.4976898506
 10
-15.9866985745
 20
74.5225660045
 10
-16.0727608947
 20
74.5448094702
 10
-16.1617230931
 20
74.5644497967
 10
-16.2525791424
 20
74.5812648818
 10
-16.3453505403
 20
74.5952226554
 10
-16.4400157892
 20
74.6063551875
 10
-16.5355043692
 20
74.6145365862
 10
-16.6318256261
 20
74.6197333523
 10
-16.728970214
 20
74.621978985
 10
-16.8258395756
 20
74.6212480895
 10
-16.9224305866
 20
74.6175068785
 10
-17.0187463712
 20
74.6107891395
 10
-17.1136977444
 20
74.6011708397
 10
-17.2072692185
 20
74.5886190541
 10
-17.2994762812
 20
74.5731667078
 10
-17.3892762109
 20
74.5549885433
 10
-17.4766416837
 20
74.5340536191
 10
-17.5616000236
 20
74.5103928767
 10
-17.6431904809
 20
74.4842738831
 10
-17.721092806
 20
74.4557858273
 10
-17.7956272485
 20
74.4248395203
 10
-17.8667938086
 20
74.391434962
  0
LWPOLYLINE
  5
2ED
100
AcDbEntity
  8
ASSI
100
AcDbPolyline
 62
7
  6
CONTINUOUS
 90
21
 70
0
 10
-15.5858015945
 20
68.0009574266
 10
-15.5849104537
 20
67.9322830459
 10
-15.5726102869
 20
67.7375079562
 10
-15.5458018428
 20
67.5430973446
 10
-15.5045448425
 20
67.3490497107
 10
-15.4490095816
 20
67.1561660209
 10
-15.379137043
 20
66.9644510863
 10
-15.2949862438
 20
66.7739000957
 10
-15.1969045317
 20
66.5852995827
 10
-15.0848343249
 20
66.3986576092
 10
-14.9588332052
 20
66.2139661132
 10
-14.8194212647
 20
66.0319874419
 10
-14.6665430715
 20
65.8527328085
 10
-14.5002540575
 20
65.6761909999
 10
-14.3212406105
 20
65.503090724
 10
-14.1294501356
 20
65.3334462059
 10
-13.9249352277
 20
65.1672432205
 10
-13.7085400586
 20
65.0051678005
 10
-13.480546019
 20
64.8474486233
 10
-13.2406717183
 20
64.6938570115
 10
-12.9889171565
 20
64.544392965
  0
LINE
  5
2EE
100
AcDbEntity
  8
ASSI
100
AcDbLine
 62
253
  6
CONTINUOUS
 10
-17.8667938086
 20
74.391434962
 11
-17.8667938086
 21
73.5254095582
  0
LINE
  5
2EF
100
AcDbEntity
  8
ASSI
100
AcDbLine
 62
7
  6
CONTINUOUS
 10
-15.0858387387
 20
67.1349320233
 11
-15.0858387387
 21
68.0009574271
  0
LINE
  5
2F0
100
AcDbEntity
  8
0
100
AcDbLine
 62
253
  6
CONTINUOUS
 10
-13.7832521472
 20
58.2782391857
 11
-13.7832521472
 21
57.9246857951
  0
LINE
  5
2F1
100
AcDbEntity
  8
0
100
AcDbLine
 62
7
  6
CONTINUOUS
 10
-13.2175667223
 20
49.9875925795
 11
-13.2175667223
 21
48.6885544738
  0
LINE
  5
2F2
100
AcDbEntity
  8
0
100
AcDbLine
 62
7
  6
CONTINUOUS
 10
-13.2175667223
 20
-71.2559639503
 11
-13.2175667223
 21
-69.9569258447
  0
LINE
  5
2F3
100
AcDbEntity
  8
ASSI
100
AcDbLine
 62
7
  6
CONTINUOUS
 10
-16.4722257287
 20
73.1533507494
 11
-16.4702579158
 21
73.2353516395
  0
LWPOLYLINE
  5
2F4
100
AcDbEntity
  8
0
100
AcDbPolyline
 62
7
  6
CONTINUOUS
 90
12
 70
0
 10
-13.9296691666
 20
58.1014624904
 10
-13.9293231327
 20
58.1108448483
 10
-13.9265548616
 20
58.1294536095
 10
-13.9209720485
 20
58.1479038093
 10
-13.9126209644
 20
58.1661980544
 10
-13.9016404218
 20
58.1840322559
 10
-13.8879864701
 20
58.2013987243
 10
-13.8717030601
 20
58.218305149
 10
-13.8530608563
 20
58.2344705096
 10
-13.8321500803
 20
58.2498011325
 10
-13.8088805106
 20
58.2643906912
 10
-13.7832521472
 20
58.2782391857
  0
LWPOLYLINE
  5
2F5
100
AcDbEntity
  8
0
100
AcDbPolyline
 62
7
  6
CONTINUOUS
 90
19
 70
0
 10
-23.219761351
 20
1.4630968761
 10
-23.3825570119
 20
1.289078204
 10
-23.5383501972
 20
1.105897122
 10
-23.687140907
 20
0.91355363
 10
-23.8290652573
 20
0.7118349807
 10
-23.963987132
 20
0.5009539215
 10
-24.0914981831
 20
0.2815486949
 10
-24.2115759588
 20
0.0535934759
 10
-24.3242429108
 20
-0.1828859104
 10
-24.4291580469
 20
-0.427173747
 10
-24.526297882
 20
-0.6792936904
 10
-24.6156859011
 20
-0.9392220841
 10
-24.6970515667
 20
-1.2061722413
 10
-24.7703705743
 20
-1.4801654351
 10
-24.8356672284
 20
-1.7611803923
 10
-24.8927439053
 20
-2.0483666067
 10
-24.9415347304
 20
-2.3414405761
 10
-24.9821055784
 20
-2.6406858025
 10
-25.0144564492
 20
-2.9461022861
  0
LWPOLYLINE
  5
2F6
100
AcDbEntity
  8
0
100
AcDbPolyline
 62
7
  6
CONTINUOUS
 90
19
 70
0
 10
-23.3454597594
 20
1.6798945613
 10
-23.5134694142
 20
1.501441903
 10
-23.6742229753
 20
1.3134760112
 10
-23.8277204427
 20
1.115996886
 10
-23.9741043669
 20
0.908782468
 10
-24.1132321973
 20
0.6920548166
 10
-24.2446762828
 20
0.4664801095
 10
-24.3684129806
 20
0.2320311247
 10
-24.4844659335
 20
-0.0112649158
 10
-24.5924784175
 20
-0.2626601682
 10
-24.6924256926
 20
-0.5221795534
 10
-24.7843324989
 20
-0.7897981506
 10
-24.8679163332
 20
-1.0646933533
 10
-24.9431515859
 20
-1.3468875512
 10
-25.0100638666
 20
-1.6363583546
 10
-25.0684475002
 20
-1.9322159877
 10
-25.1182339283
 20
-2.2341638585
 10
-25.1594917092
 20
-2.542498559
 10
-25.192220843
 20
-2.8572200891
  0
LINE
  5
2F7
100
AcDbEntity
  8
ASSI
100
AcDbLine
 62
7
  6
CONTINUOUS
 10
24.7030875596
 20
36.3431547596
 11
24.7250606128
 21
36.3613521699
  0
LWPOLYLINE
  5
2F8
100
AcDbEntity
  8
CURVE
100
AcDbPolyline
 62
7
  6
HIDDEN
 90
17
 70
0
 10
22.9863004745
 20
32.3740499328
 10
22.6429394072
 20
32.161136101
 10
22.3126568564
 20
31.8738654945
 10
22.0080331816
 20
31.5231801615
 10
21.7363004745
 20
31.1149175126
 10
21.5173135912
 20
30.6789083193
 10
21.354279962
 20
30.2249999471
 10
21.253409487
 20
29.7704816246
 10
21.2185335215
 20
29.3251029469
 10
21.2522003685
 20
28.9214066642
 10
21.3519185497
 20
28.5667538946
 10
21.5138898307
 20
28.2746532518
 10
21.7363004745
 20
28.0530553341
 10
22.0028994693
 20
27.9181517694
 10
22.3069559029
 20
27.8705053849
 10
22.6368883601
 20
27.9119310166
 10
22.986300629
 20
28.0439229911
  0
LINE
  5
2F9
100
AcDbEntity
  8
0
100
AcDbLine
 62
7
  6
CONTINUOUS
 10
20.1578733497
 20
25.3306712458
 11
31.4715818487
 21
30.9875254953
  0
LINE
  5
2FA
100
AcDbEntity
  8
0
100
AcDbLine
 62
7
  6
CONTINUOUS
 10
13.793912319
 20
21.1237467041
 11
30.7644750675
 21
29.6090280783
  0
LINE
  5
2FB
100
AcDbEntity
  8
0
100
AcDbLine
 62
7
  6
CONTINUOUS
 10
14.5010191002
 20
20.7701933135
 11
31.4715818487
 21
29.2554746877
  0
LINE
  5
2FC
100
AcDbEntity
  8
0
100
AcDbLine
 62
7
  6
CONTINUOUS
 10
-21.969761351
 20
2.3690279654
 11
-20.6764545596
 21
3.015681361
  0
LINE
  5
2FD
100
AcDbEntity
  8
0
100
AcDbLine
 62
7
  6
CONTINUOUS
 10
43.6340750002
 20
-40.8735142695
 11
42.926968219
 21
-40.5199608789
  0
LINE
  5
2FE
100
AcDbEntity
  8
0
100
AcDbLine
 62
7
  6
CONTINUOUS
 10
-25.192220843
 20
-5.0222835986
 11
-25.0144564492
 21
-5.1111657955
  0
LINE
  5
2FF
100
AcDbEntity
  8
0
100
AcDbLine
 62
7
  6
CONTINUOUS
 10
-8.4917448073
 20
-13.3725216165
 11
-8.3139804134
 21
-13.4614038134
  0
LINE
  5
300
100
AcDbEntity
  8
0
100
AcDbLine
 62
7
  6
CONTINUOUS
 10
-8.3139804134
 20
-11.2963403039
 11
-8.4917448073
 21
-11.207458107
  0
LINE
  5
301
100
AcDbEntity
  8
0
100
AcDbLine
 62
7
  6
CONTINUOUS
 10
-25.0144564492
 20
-2.9461022861
 11
-25.192220843
 21
-2.8572200891
  0
LINE
  5
302
100
AcDbEntity
  8
0
100
AcDbLine
 62
7
  6
CONTINUOUS
 10
-10.1607414971
 20
-17.9985184638
 11
-10.2864399055
 21
-17.7817207787
  0
LINE
  5
303
100
AcDbEntity
  8
0
100
AcDbLine
 62
7
  6
CONTINUOUS
 10
-21.969761351
 20
2.3690279654
 11
-22.0954597594
 21
2.5858256505
  0
LINE
  5
304
100
AcDbEntity
  8
0
100
AcDbLine
 62
7
  6
CONTINUOUS
 10
-25.4608264146
 20
63.7634729288
 11
-25.5956886613
 21
64.7676401341
  0
LINE
  5
305
100
AcDbEntity
  8
0
100
AcDbLine
 62
7
  6
CONTINUOUS
 10
-24.5350284895
 20
65.29797022
 11
-24.3276760609
 21
63.754050303
  0
LWPOLYLINE
  5
306
100
AcDbEntity
  8
0
100
AcDbPolyline
 62
7
  6
CONTINUOUS
 90
19
 70
0
 10
-8.4917448073
 20
-11.207458107
 10
-8.5240956781
 20
-10.8696907527
 10
-8.564666526
 20
-10.5298746783
 10
-8.6134573512
 20
-10.1880098838
 10
-8.6705340281
 20
-9.8437469925
 10
-8.7358306822
 20
-9.4974353811
 10
-8.8091496897
 20
-9.1501231797
 10
-8.8905153554
 20
-8.801807357
 10
-8.9799033745
 20
-8.4524909442
 10
-9.0770432096
 20
-8.1032311657
 10
-9.1819583456
 20
-7.754028193
 10
-9.2946252977
 20
-7.4048818546
 10
-9.4147030733
 20
-7.05684886
 10
-9.5422141245
 20
-6.7099325823
 10
-9.6771359992
 20
-6.3641296483
 10
-9.8190603495
 20
-6.0204866487
 10
-9.9678510593
 20
-5.679352447
 10
-10.1236442446
 20
-5.3403781796
 10
-10.2864399055
 20
-5.0035638466
  0
LWPOLYLINE
  5
307
100
AcDbEntity
  8
0
100
AcDbPolyline
 62
7
  6
CONTINUOUS
 90
19
 70
0
 10
-8.3139804134
 20
-11.2963403039
 10
-8.3467095472
 20
-10.94888964
 10
-8.3879673282
 20
-10.5992971585
 10
-8.4377537562
 20
-10.2475628597
 10
-8.4961373898
 20
-9.893321593
 10
-8.5630496705
 20
-9.5369385089
 10
-8.6382849233
 20
-9.1795090582
 10
-8.7218687576
 20
-8.8210300213
 10
-8.8137755639
 20
-8.4615046178
 10
-8.913722839
 20
-8.1020379575
 10
-9.021735323
 20
-7.742630221
 10
-9.1377882758
 20
-7.3832812277
 10
-9.2615249737
 20
-7.0250955451
 10
-9.3929690591
 20
-6.6680767525
 10
-9.5320968896
 20
-6.3122212706
 10
-9.6784808137
 20
-5.9586229285
 10
-9.8319782812
 20
-5.6076463358
 10
-9.9927318423
 20
-5.258926883
 10
-10.1607414971
 20
-4.9124645698
  0
LWPOLYLINE
  5
308
100
AcDbEntity
  8
ASSI
100
AcDbPolyline
 62
7
  6
CONTINUOUS
 90
8
 70
0
 10
-16.4901143071
 20
73.309915945
 10
-16.4964352213
 20
73.3902996568
 10
-16.5068983281
 20
73.4676639402
 10
-16.5215745631
 20
73.5422786732
 10
-16.5403929907
 20
73.6138739779
 10
-16.5631408029
 20
73.6816402202
 10
-16.5898626033
 20
73.7455339354
 10
-16.592963883
 20
73.7516112629
  0
LWPOLYLINE
  5
309
100
AcDbEntity
  8
ASSI
100
AcDbPolyline
 62
7
  6
CONTINUOUS
 90
8
 70
0
 10
-16.4722257287
 20
73.3153847168
 10
-16.4779550838
 20
73.3927246969
 10
-16.4874459811
 20
73.4673715799
 10
-16.5007558609
 20
73.5395591937
 10
-16.5178272828
 20
73.6090537105
 10
-16.5384879266
 20
73.6751536464
 10
-16.5627741445
 20
73.7378246208
 10
-16.5686403479
 20
73.750298949
  0
LWPOLYLINE
  5
30A
100
AcDbEntity
  8
ASSI
100
AcDbPolyline
 62
7
  6
CONTINUOUS
 90
40
 70
0
 10
-11.2570086167
 20
77.3701222831
 10
-11.2568140426
 20
77.3580570707
 10
-11.2523227772
 20
77.3094847767
 10
-11.241929245
 20
77.2613241482
 10
-11.2255664477
 20
77.2135798583
 10
-11.2033013834
 20
77.1662472338
 10
-11.1753858363
 20
77.1198615349
 10
-11.1417556662
 20
77.0744335102
 10
-11.1024750131
 20
77.029952411
 10
-11.0579880816
 20
76.9869212509
 10
-11.0082357738
 20
76.9453564885
 10
-10.9532771875
 20
76.9052416651
 10
-10.8937338207
 20
76.8670304183
 10
-10.8295536303
 20
76.8307443562
 10
-10.7607886594
 20
76.7963618708
 10
-10.6882165353
 20
76.7642717756
 10
-10.6117940418
 20
76.7345000922
 10
-10.531564395
 20
76.7070207991
 10
-10.4484348701
 20
76.6821446451
 10
-10.3623725499
 20
76.6599011794
 10
-10.2734103515
 20
76.6402608529
 10
-10.1825543022
 20
76.6234457678
 10
-10.0897829043
 20
76.6094879942
 10
-9.9951176554
 20
76.5983554621
 10
-9.8996290754
 20
76.5901740635
 10
-9.8033078185
 20
76.5849772973
 10
-9.7061632306
 20
76.5827316647
 10
-9.609293869
 20
76.5834625601
 10
-9.512702858
 20
76.5872037711
 10
-9.4163870734
 20
76.5939215102
 10
-9.3214357002
 20
76.60353981
 10
-9.2278642261
 20
76.6160915955
 10
-9.1356571634
 20
76.6315439418
 10
-9.0458572337
 20
76.6497221063
 10
-8.9584917609
 20
76.6706570305
 10
-8.873533421
 20
76.6943177729
 10
-8.7919429637
 20
76.7204367665
 10
-8.7140406386
 20
76.7489248223
 10
-8.6395061961
 20
76.7798711294
 10
-8.568339636
 20
76.8132756876
  0
LWPOLYLINE
  5
30B
100
AcDbEntity
  8
ASSI
100
AcDbPolyline
 62
7
  6
CONTINUOUS
 90
40
 70
0
 10
-8.107057016
 20
77.3701222724
 10
-8.1072515901
 20
77.3821874849
 10
-8.1117428555
 20
77.4307597789
 10
-8.1221363877
 20
77.4789204073
 10
-8.1384991851
 20
77.5266646973
 10
-8.1607642493
 20
77.5739973217
 10
-8.1886797964
 20
77.6203830207
 10
-8.2223099666
 20
77.6658110454
 10
-8.2615906196
 20
77.7102921445
 10
-8.3060775511
 20
77.7533233046
 10
-8.3558298589
 20
77.7948880671
 10
-8.4107884453
 20
77.8350028905
 10
-8.4703318121
 20
77.8732141372
 10
-8.5345120024
 20
77.9095001993
 10
-8.6032769733
 20
77.9438826847
 10
-8.6758490975
 20
77.9759727799
 10
-8.752271591
 20
78.0057444633
 10
-8.8325012377
 20
78.0332237565
 10
-8.9156307626
 20
78.0580999104
 10
-9.0016930829
 20
78.0803433762
 10
-9.0906552812
 20
78.0999837027
 10
-9.1815113305
 20
78.1167987878
 10
-9.2742827284
 20
78.1307565613
 10
-9.3689479773
 20
78.1418890934
 10
-9.4644365573
 20
78.1500704921
 10
-9.5607578142
 20
78.1552672582
 10
-9.6579024022
 20
78.1575128909
 10
-9.7547717637
 20
78.1567819954
 10
-9.8513627747
 20
78.1530407845
 10
-9.9476785593
 20
78.1463230454
 10
-10.0426299325
 20
78.1367047456
 10
-10.1362014066
 20
78.12415296
 10
-10.2284084693
 20
78.1087006137
 10
-10.318208399
 20
78.0905224492
 10
-10.4055738718
 20
78.069587525
 10
-10.4905322117
 20
78.0459267826
 10
-10.5721226691
 20
78.019807789
 10
-10.6500249941
 20
77.9913197332
 10
-10.7245594367
 20
77.9603734262
 10
-10.7957259967
 20
77.926968868
  0
LINE
  5
30C
100
AcDbEntity
  8
ASSI
100
AcDbLine
 62
7
  6
CONTINUOUS
 10
-11.6445864134
 20
64.2266088429
 11
-11.6445864134
 21
63.9018897107
  0
LINE
  5
30D
100
AcDbEntity
  8
ASSI
100
AcDbLine
 62
253
  6
CONTINUOUS
 10
-10.7957259967
 20
77.926968868
 11
-10.7957259967
 21
77.0609434642
  0
LINE
  5
30E
100
AcDbEntity
  8
0
100
AcDbLine
 62
7
  6
CONTINUOUS
 10
-10.5659162928
 20
77.1557691899
 11
-10.5659162928
 21
76.7187865977
  0
LINE
  5
30F
100
AcDbEntity
  8
0
100
AcDbLine
 62
7
  6
CONTINUOUS
 10
-10.4952056147
 20
76.6961405899
 11
-10.4952056147
 21
77.1784053144
  0
LINE
  5
310
100
AcDbEntity
  8
0
100
AcDbLine
 62
253
  6
CONTINUOUS
 10
-6.2879202667
 20
55.449812061
 11
-6.2879202667
 21
55.0962586704
  0
LWPOLYLINE
  5
311
100
AcDbEntity
  8
0
100
AcDbPolyline
 62
7
  6
CONTINUOUS
 90
12
 70
0
 10
-6.1415032473
 20
55.2730353657
 10
-6.1418492812
 20
55.2636530078
 10
-6.1446175523
 20
55.2450442467
 10
-6.1502003654
 20
55.2265940469
 10
-6.1585514495
 20
55.2082998017
 10
-6.1695319921
 20
55.1904656002
 10
-6.1831859438
 20
55.1730991318
 10
-6.1994693539
 20
55.1561927071
 10
-6.2181115576
 20
55.1400273466
 10
-6.2390223336
 20
55.1246967237
 10
-6.2622919033
 20
55.110107165
 10
-6.2879202667
 20
55.0962586704
  0
LWPOLYLINE
  5
312
100
AcDbEntity
  8
ASSI
100
AcDbPolyline
 62
7
  6
CONTINUOUS
 90
22
 70
0
 10
24.7250606128
 20
36.3613521699
 10
24.7874656571
 20
36.4178587096
 10
24.8485511003
 20
36.4781458519
 10
24.9083301735
 20
36.5421756903
 10
24.9661994618
 20
36.6093019021
 10
25.0221396224
 20
36.6795558478
 10
25.0761699979
 20
36.7529061668
 10
25.1277452011
 20
36.8286124547
 10
25.1768403656
 20
36.9066985731
 10
25.2234803578
 20
36.9871406604
 10
25.2671943895
 20
37.0691267272
 10
25.3079528262
 20
37.1526724111
 10
25.3457853024
 20
37.2377620746
 10
25.3803099339
 20
37.3235368151
 10
25.4114932183
 20
37.4100035713
 10
25.439368658
 20
37.4971554046
 10
25.4636548758
 20
37.5841125968
 10
25.4843155196
 20
37.6708731765
 10
25.5013869416
 20
37.7574391152
 10
25.5146968213
 20
37.8429366088
 10
25.5241877187
 20
37.9270743892
 10
25.5288117106
 20
37.9941171756
  0
LWPOLYLINE
  5
313
100
AcDbEntity
  8
ASSI
100
AcDbPolyline
 62
7
  6
CONTINUOUS
 90
22
 70
0
 10
38.8671962366
 20
43.4324199818
 10
38.9296012808
 20
43.4889265214
 10
38.990686724
 20
43.5492136638
 10
39.0504657973
 20
43.6132435022
 10
39.1083350855
 20
43.6803697139
 10
39.1642752461
 20
43.7506236596
 10
39.2183056216
 20
43.8239739786
 10
39.2698808248
 20
43.8996802665
 10
39.3189759893
 20
43.977766385
 10
39.3656159815
 20
44.0582084723
 10
39.4093300132
 20
44.140194539
 10
39.4500884499
 20
44.223740223
 10
39.4879209262
 20
44.3088298865
 10
39.5224455577
 20
44.394604627
 10
39.5536288421
 20
44.4810713832
 10
39.5815042817
 20
44.5682232164
 10
39.6057904996
 20
44.6551804086
 10
39.6264511434
 20
44.7419409884
 10
39.6435225653
 20
44.8285069271
 10
39.6568324451
 20
44.9140044206
 10
39.6663233424
 20
44.998142201
 10
39.6709473343
 20
45.0651849874
  0
LINE
  5
314
100
AcDbEntity
  8
ASSI
100
AcDbLine
 62
7
  6
CONTINUOUS
 10
38.8452231833
 20
43.4142225715
 11
38.8671962366
 21
43.4324199818
  0
LWPOLYLINE
  5
315
100
AcDbEntity
  8
CURVE
100
AcDbPolyline
 62
7
  6
HIDDEN
 90
17
 70
0
 10
22.9863004745
 20
28.0439229139
 10
23.3296615417
 20
28.2568367457
 10
23.6599440925
 20
28.5441073522
 10
23.9645677673
 20
28.8947926852
 10
24.2363004745
 20
29.3030553341
 10
24.4552873577
 20
29.7390645273
 10
24.6183209869
 20
30.1929728996
 10
24.7191914619
 20
30.647491222
 10
24.7540674274
 20
31.0928698998
 10
24.7204005804
 20
31.4965661824
 10
24.6206823992
 20
31.8512189521
 10
24.4587111182
 20
32.1433195949
 10
24.2363004745
 20
32.3649175126
 10
23.9697014796
 20
32.4998210773
 10
23.665645046
 20
32.5474674618
 10
23.3357125888
 20
32.5060418301
 10
22.9863003199
 20
32.3740498555
  0
LWPOLYLINE
  5
316
100
AcDbEntity
  8
0
100
AcDbPolyline
 62
7
  6
CONTINUOUS
 90
25
 70
0
 10
30.1987896426
 20
22.8309948375
 10
30.2360474557
 20
22.8511597368
 10
30.2728340396
 20
22.8739904781
 10
30.3091493943
 20
22.8994870616
 10
30.3451445597
 20
22.9277811219
 10
30.3806684959
 20
22.9587410243
 10
30.4152680826
 20
22.9919718644
 10
30.4489314791
 20
23.0275027325
 10
30.4816705262
 20
23.0653045384
 10
30.5130676259
 20
23.1048951068
 10
30.5431055881
 20
23.1462973514
 10
30.5718016029
 20
23.1894883586
 10
30.5987896426
 20
23.233917212
 10
30.6240478283
 20
23.2795997681
 10
30.647598039
 20
23.3265201703
 10
30.6691398835
 20
23.3740799327
 10
30.688647635
 20
23.4222872452
 10
30.7061470202
 20
23.4711339179
 10
30.7214148285
 20
23.5199968943
 10
30.7344224737
 20
23.5688763833
 10
30.7451985419
 20
23.617772176
 10
30.7536055807
 20
23.6660605897
 10
30.7595977724
 20
23.7135337299
 10
30.7632209347
 20
23.760399491
 10
30.7644750675
 20
23.806657873
  0
LINE
  5
317
100
AcDbEntity
  8
0
100
AcDbLine
 62
7
  6
CONTINUOUS
 10
13.793912319
 20
19.8247085984
 11
13.6524909628
 21
19.7539979203
  0
LINE
  5
318
100
AcDbEntity
  8
0
100
AcDbLine
 62
7
  6
CONTINUOUS
 10
30.6230537113
 20
26.6661471096
 11
30.9058964237
 21
26.8075684658
  0
LINE
  5
319
100
AcDbEntity
  8
0
100
AcDbLine
 62
7
  6
CONTINUOUS
 10
-25.192220843
 20
-2.8572200891
 11
-24.9945739568
 21
-2.758396646
  0
LINE
  5
31A
100
AcDbEntity
  8
0
100
AcDbLine
 62
7
  6
CONTINUOUS
 10
30.1987896426
 20
22.8309948375
 11
30.0573682863
 21
22.7602841594
  0
LINE
  5
31B
100
AcDbEntity
  8
0
100
AcDbLine
 62
7
  6
CONTINUOUS
 10
12.9576191301
 20
14.0514909587
 11
13.793912319
 21
14.4696375531
  0
LINE
  5
31C
100
AcDbEntity
  8
0
100
AcDbLine
 62
7
  6
CONTINUOUS
 10
30.9058964237
 20
22.4774414469
 11
30.6230537113
 21
22.3360200907
  0
LINE
  5
31D
100
AcDbEntity
  8
0
100
AcDbLine
 62
7
  6
CONTINUOUS
 10
13.6524909628
 20
13.6918200938
 11
13.793912319
 21
13.7625307719
  0
LWPOLYLINE
  5
31E
100
AcDbEntity
  8
0
100
AcDbPolyline
 62
7
  6
CONTINUOUS
 90
12
 70
0
 10
30.9058964237
 20
26.8075684658
 10
30.9431542369
 20
26.8246613797
 10
30.9799408208
 20
26.8386172222
 10
31.0162561755
 20
26.8494359934
 10
31.0522513409
 20
26.8571370986
 10
31.0877752771
 20
26.8617011324
 10
31.1223748638
 20
26.863069879
 10
31.1560382603
 20
26.8612024074
 10
31.1887773074
 20
26.8561396486
 10
31.2201744071
 20
26.8479461798
 10
31.2502123693
 20
26.8365818974
 10
31.2636548923
 20
26.8302650812
  0
LWPOLYLINE
  5
31F
100
AcDbEntity
  8
0
100
AcDbPolyline
 62
7
  6
CONTINUOUS
 90
12
 70
0
 10
30.6230537113
 20
22.3360200907
 10
30.5857958981
 20
22.3189271768
 10
30.5490093142
 20
22.3049713342
 10
30.5126939596
 20
22.294152563
 10
30.4766987941
 20
22.2864514579
 10
30.4411748579
 20
22.2818874241
 10
30.4065752712
 20
22.2805186775
 10
30.3729118747
 20
22.2823861491
 10
30.3401728276
 20
22.2874489079
 10
30.3087757279
 20
22.2956423766
 10
30.2787377657
 20
22.3070066591
 10
30.2652952427
 20
22.3133234752
  0
LWPOLYLINE
  5
320
100
AcDbEntity
  8
0
100
AcDbPolyline
 62
7
  6
CONTINUOUS
 90
12
 70
0
 10
13.6524909628
 20
13.6918200938
 10
13.6059186963
 20
13.6704539515
 10
13.5599354665
 20
13.6530091483
 10
13.5145412731
 20
13.6394856843
 10
13.4695473163
 20
13.6298593029
 10
13.4251423961
 20
13.6241542606
 10
13.3818929127
 20
13.6224433274
 10
13.339813667
 20
13.6247776669
 10
13.2988898582
 20
13.6311061154
 10
13.2596434836
 20
13.6413479513
 10
13.2220960309
 20
13.6555533044
 10
13.2052928771
 20
13.6634493246
  0
LWPOLYLINE
  5
321
100
AcDbEntity
  8
ASSI
100
AcDbPolyline
 62
7
  6
CONTINUOUS
 90
59
 70
0
 10
35.4469913999
 20
-21.5815602155
 10
35.1846253645
 20
-21.5119611902
 10
34.9165053736
 20
-21.4569845772
 10
34.6426537241
 20
-21.4165737139
 10
34.3641343559
 20
-21.3908856003
 10
34.0809291111
 20
-21.3799775099
 10
33.7930561476
 20
-21.3837921692
 10
33.5016338795
 20
-21.402314758
 10
33.2066484995
 20
-21.4356024919
 10
32.9081138149
 20
-21.4835981553
 10
32.6071896616
 20
-21.5461152803
 10
32.3038667442
 20
-21.6232103574
 10
31.998154358
 20
-21.7148268961
 10
31.6912402251
 20
-21.8206089575
 10
31.3831196705
 20
-21.9406116472
 10
31.073797369
 20
-22.0747798596
 10
30.7644750675
 20
-22.2225923382
 10
30.455152766
 20
-22.384102161
 10
30.1458304646
 20
-22.5592562501
 10
29.8377099099
 20
-22.7473741151
 10
29.530795777
 20
-22.9485061866
 10
29.2250833908
 20
-23.162602034
 10
28.9217604734
 20
-23.3888298743
 10
28.6208363201
 20
-23.6272369027
 10
28.3223016355
 20
-23.8777759239
 10
28.0273162556
 20
-24.1394735699
 10
27.7358939874
 20
-24.4123732493
 10
27.4480210239
 20
-24.6964315535
 10
27.1648157791
 20
-24.9905448888
 10
26.8862964109
 20
-25.2947523705
 10
26.6124447615
 20
-25.6090148833
 10
26.3443247706
 20
-25.9321114871
 10
26.0819587352
 20
-26.2640765478
 10
25.8253243583
 20
-26.6048756996
 10
25.5754186892
 20
-26.9531849051
 10
25.3322679035
 20
-27.3090333793
 10
25.0958458254
 20
-27.6723919073
 10
24.8670709776
 20
-28.0418488062
 10
24.6459731086
 20
-28.4174277996
 10
24.4325224699
 20
-28.7991051639
 10
24.2275483375
 20
-29.1853980461
 10
24.0310836862
 20
-29.576324401
 10
23.8430955413
 20
-29.9718662738
 10
23.6643142548
 20
-30.3704869462
 10
23.4947756425
 20
-30.7721983954
 10
23.3344438885
 20
-31.1769886442
 10
23.1839418971
 20
-31.5832850439
 10
23.0433079074
 20
-31.9910934534
 10
22.9125036802
 20
-32.4004080138
 10
22.7920374026
 20
-32.8096384986
 10
22.6819492906
 20
-33.2187845809
 10
22.582199128
 20
-33.6278465876
 10
22.493174454
 20
-34.0352352737
 10
22.414916992
 20
-34.4409441297
 10
22.3473850186
 20
-34.844979665
 10
22.2908409017
 20
-35.245772163
 10
22.2453720977
 20
-35.6427983846
 10
22.2108911503
 20
-36.0365815687
 10
22.1873980596
 20
-36.4271217155
  0
LINE
  5
322
100
AcDbEntity
  8
ASSI
100
AcDbLine
 62
7
  6
CONTINUOUS
 10
35.7036257767
 20
-21.6657249904
 11
35.4469913999
 21
-21.5815602155
  0
LINE
  5
323
100
AcDbEntity
  8
ASSI
100
AcDbLine
 62
7
  6
CONTINUOUS
 10
39.6956703962
 20
-27.6729855471
 11
39.3181371532
 21
-27.4842189256
  0
LWPOLYLINE
  5
324
100
AcDbEntity
  8
0
100
AcDbPolyline
 62
7
  6
CONTINUOUS
 90
37
 70
0
 10
-11.5364399055
 20
-2.8476327574
 10
-11.784579915
 20
-2.4878054561
 10
-12.0390465303
 20
-2.1370193401
 10
-12.2998397515
 20
-1.7952744095
 10
-12.5673480551
 20
-1.4621108471
 10
-12.8411829645
 20
-1.13798847
 10
-13.1201790499
 20
-0.8242867295
 10
-13.4043583081
 20
-0.5210500384
 10
-13.6936987422
 20
-0.2282339839
 10
-13.9869689315
 20
0.0529152211
 10
-14.2841856245
 20
0.3223478526
 10
-14.5853320728
 20
0.5801136346
 10
-14.8891266095
 20
0.8251155268
 10
-15.1955805208
 20
1.0572991294
 10
-15.5046825207
 20
1.2767188422
 10
-15.8151170839
 20
1.4824408241
 10
-16.1268898898
 20
1.6744066953
 10
-16.439995259
 20
1.8526748356
 10
-16.7531006282
 20
2.0164865432
 10
-17.0662059975
 20
2.1657802048
 10
-17.3793113667
 20
2.3006174338
 10
-17.6910841726
 20
2.4204243685
 10
-18.0015187358
 20
2.5251369498
 10
-18.3106207356
 20
2.6148192368
 10
-18.617074647
 20
2.6890895455
 10
-18.9208691837
 20
2.74788219
 10
-19.2220156319
 20
2.7912628563
 10
-19.519232325
 20
2.8190469179
 10
-19.8125025143
 20
2.8311679021
 10
-20.1018429484
 20
2.8276922817
 10
-20.3860222066
 20
2.8086348488
 10
-20.6650182919
 20
2.7739291937
 10
-20.9388532014
 20
2.7236417261
 10
-21.206361505
 20
2.6579864673
 10
-21.4671547261
 20
2.5770347578
 10
-21.7216213415
 20
2.4807152572
 10
-21.969761351
 20
2.3690279654
  0
LWPOLYLINE
  5
325
100
AcDbEntity
  8
0
100
AcDbPolyline
 62
7
  6
CONTINUOUS
 90
33
 70
0
 10
-11.4107414971
 20
-2.7565334806
 10
-11.644691362
 20
-2.4155993647
 10
-11.8842758161
 20
-2.0824673035
 10
-12.1294948596
 20
-1.7571372969
 10
-12.3806610636
 20
-1.4392318953
 10
-12.6374618569
 20
-1.1291285484
 10
-12.898959526
 20
-0.827959605
 10
-13.1651712426
 20
-0.535757729
 10
-13.4360798351
 20
-0.2524902566
 10
-13.710696075
 20
0.0208084553
 10
-13.9890335175
 20
0.284101961
 10
-14.2710786074
 20
0.5374267062
 10
-14.5558014512
 20
0.7798576701
 10
-14.8432118388
 20
1.0113550255
 10
-15.1332999802
 20
1.2319585997
 10
-15.4250066127
 20
1.4408628541
 10
-15.7183376533
 20
1.6380250163
 10
-16.0132871849
 20
1.8234878588
 10
-16.3087781932
 20
1.9965741601
 10
-16.6048126577
 20
2.1572386719
 10
-16.9013885988
 20
2.3055266424
 10
-17.1974230633
 20
2.4408965952
 10
-17.4929140715
 20
2.5633013021
 10
-17.7878636032
 20
2.6727879913
 10
-18.0811946438
 20
2.7689568696
 10
-18.3729012762
 20
2.8517592477
 10
-18.6629894177
 20
2.921243815
 10
-18.9503998052
 20
2.9771568471
 10
-19.2351226491
 20
3.019448727
 10
-19.517167739
 20
3.0481690718
 10
-19.7955051814
 20
3.0632130085
 10
-20.0701214213
 20
3.0645305365
 10
-20.3410300138
 20
3.0521716565
  0
LINE
  5
326
100
AcDbEntity
  8
0
100
AcDbLine
 62
7
  6
CONTINUOUS
 10
-4.0251785669
 20
45.3913985018
 11
-4.0251785669
 21
44.0923603961
  0
LINE
  5
327
100
AcDbEntity
  8
0
100
AcDbLine
 62
7
  6
CONTINUOUS
 10
-4.0251785669
 20
-75.852158028
 11
-4.0251785669
 21
-74.5531199224
  0
LINE
  5
328
100
AcDbEntity
  8
0
100
AcDbLine
 62
7
  6
CONTINUOUS
 10
4.3931453975
 20
49.7732231047
 11
4.2582831507
 21
48.9039181462
  0
LWPOLYLINE
  5
329
100
AcDbEntity
  8
ASSI
100
AcDbPolyline
 62
7
  6
CONTINUOUS
 90
8
 70
0
 10
22.3718261794
 20
57.2538585026
 10
22.3758952979
 20
57.2626465188
 10
22.4481035822
 20
57.4515219668
 10
22.5058402154
 20
57.6419259962
 10
22.5488493802
 20
57.8330149725
 10
22.5770657264
 20
58.0247919351
 10
22.5905546042
 20
58.2172538447
 10
22.5918141778
 20
58.2960972594
  0
LINE
  5
32A
100
AcDbEntity
  8
0
100
AcDbLine
 62
7
  6
CONTINUOUS
 10
-11.4107414971
 20
-2.7565334806
 11
-11.5364399055
 21
-2.8476327574
  0
LINE
  5
32B
100
AcDbEntity
  8
0
100
AcDbLine
 62
7
  6
CONTINUOUS
 10
-23.219761351
 20
-11.3150600559
 11
-23.3454597594
 21
-11.4061593327
  0
LINE
  5
32C
100
AcDbEntity
  8
0
100
AcDbLine
 62
7
  6
CONTINUOUS
 10
-10.2864399055
 20
-5.0035638466
 11
-10.1607414971
 21
-4.9124645698
  0
LWPOLYLINE
  5
32D
100
AcDbEntity
  8
CURVE
100
AcDbPolyline
 62
7
  6
HIDDEN
 90
17
 70
0
 10
41.0175233947
 20
30.9973565475
 10
40.6741623275
 20
30.7844427157
 10
40.3438797766
 20
30.4971721092
 10
40.0392561019
 20
30.1464867762
 10
39.7675233947
 20
29.7382241273
 10
39.5485365115
 20
29.302214934
 10
39.3855028823
 20
28.8483065618
 10
39.2846324073
 20
28.3937882394
 10
39.2497564417
 20
27.9484095616
 10
39.2834232887
 20
27.544713279
 10
39.38314147
 20
27.1900605093
 10
39.545112751
 20
26.8979598665
 10
39.7675233947
 20
26.6763619488
 10
40.0341223895
 20
26.5414583841
 10
40.3381788231
 20
26.4938119996
 10
40.6681112804
 20
26.5352376313
 10
41.0175235493
 20
26.6672296059
  0
LWPOLYLINE
  5
32E
100
AcDbEntity
  8
CURVE
100
AcDbPolyline
 62
7
  6
HIDDEN
 90
17
 70
0
 10
41.0175233947
 20
26.6672295286
 10
41.3608844619
 20
26.8801433604
 10
41.6911670128
 20
27.1674139669
 10
41.9957906875
 20
27.5180992999
 10
42.2675233947
 20
27.9263619488
 10
42.4865102779
 20
28.3623711421
 10
42.6495439072
 20
28.8162795143
 10
42.7504143822
 20
29.2707978367
 10
42.7852903477
 20
29.7161765145
 10
42.7516235007
 20
30.1198727971
 10
42.6519053194
 20
30.4745255668
 10
42.4899340385
 20
30.7666262096
 10
42.2675233947
 20
30.9882241273
 10
42.0009243999
 20
31.123127692
 10
41.6968679663
 20
31.1707740765
 10
41.366935509
 20
31.1293484448
 10
41.0175232402
 20
30.9973564702
  0
LWPOLYLINE
  5
32F
100
AcDbEntity
  8
0
100
AcDbPolyline
 62
7
  6
CONTINUOUS
 90
13
 70
0
 10
45.5783621334
 20
29.7846594897
 10
45.6256169639
 20
29.8099329542
 10
45.6691439547
 20
29.8364518501
 10
45.708943106
 20
29.8642161775
 10
45.7451525223
 20
29.893355124
 10
45.777634099
 20
29.9237395018
 10
45.8059735223
 20
29.9549817478
 10
45.8301177319
 20
29.987092851
 10
45.850119788
 20
30.0200618222
 10
45.8657245575
 20
30.0534681307
 10
45.876875712
 20
30.0873173789
 10
45.8836295799
 20
30.1216039643
 10
45.8859000131
 20
30.1558905498
  0
LWPOLYLINE
  5
330
100
AcDbEntity
  8
0
100
AcDbPolyline
 62
7
  6
CONTINUOUS
 90
13
 70
0
 10
45.5783621334
 20
28.2258137629
 10
45.6256169639
 20
28.2510872274
 10
45.6691439547
 20
28.2776061233
 10
45.708943106
 20
28.3053704506
 10
45.7451525223
 20
28.3345093971
 10
45.777634099
 20
28.364893775
 10
45.8059735223
 20
28.396136021
 10
45.8301177319
 20
28.4282471241
 10
45.850119788
 20
28.4612160954
 10
45.8657245575
 20
28.4946224039
 10
45.876875712
 20
28.528471652
 10
45.8836295799
 20
28.5627582375
 10
45.8859000131
 20
28.597044823
  0
LINE
  5
331
100
AcDbEntity
  8
0
100
AcDbLine
 62
7
  6
CONTINUOUS
 10
43.6340750002
 20
26.6764672257
 11
14.5010191002
 21
12.1099392757
  0
LINE
  5
332
100
AcDbEntity
  8
0
100
AcDbLine
 62
7
  6
CONTINUOUS
 10
-10.2864399055
 20
-5.0035638466
 11
-10.149441468
 21
-4.9350646279
  0
LWPOLYLINE
  5
333
100
AcDbEntity
  8
ASSI
100
AcDbPolyline
 62
7
  6
CONTINUOUS
 90
3
 70
0
 10
36.198106454
 20
-21.8775382182
 10
35.9535314458
 20
-21.7641285268
 10
35.7036257767
 20
-21.6657249904
  0
LWPOLYLINE
  5
334
100
AcDbEntity
  8
ASSI
100
AcDbPolyline
 62
7
  6
CONTINUOUS
 90
11
 70
0
 10
35.4909996728
 20
-21.5239848276
 10
35.2464246646
 20
-21.4105751362
 10
34.9965189955
 20
-21.3121715998
 10
34.7398846187
 20
-21.2280068249
 10
34.4775185833
 20
-21.1584077996
 10
34.2093985924
 20
-21.1034311866
 10
33.9355469429
 20
-21.0630203233
 10
33.6570275748
 20
-21.0373322097
 10
33.3738223299
 20
-21.0264241193
 10
33.0859493664
 20
-21.0302387787
 10
32.8872073005
 20
-21.0428706807
  0
LWPOLYLINE
  5
335
100
AcDbEntity
  8
ASSI
100
AcDbPolyline
 62
7
  6
CONTINUOUS
 90
62
 70
0
 10
36.421713013
 20
-21.4303250999
 10
36.1740389366
 20
-21.3152380813
 10
35.9136380562
 20
-21.2122372393
 10
35.6462013913
 20
-21.1241019102
 10
35.3727710865
 20
-21.051175539
 10
35.0933237555
 20
-20.9935174689
 10
34.8078827847
 20
-20.9510683567
 10
34.5175604775
 20
-20.9239936176
 10
34.2223377878
 20
-20.9123532403
 10
33.9222337619
 20
-20.9160872362
 10
33.6184178422
 20
-20.9351810546
 10
33.3108755454
 20
-20.9696946275
 10
32.9996213549
 20
-21.0195680229
 10
32.685868163
 20
-21.0846068947
 10
32.3696062189
 20
-21.1648704164
 10
32.0508452733
 20
-21.2602994146
 10
31.730827471
 20
-21.3705220223
 10
31.4095479077
 20
-21.4955959622
 10
31.0870114876
 20
-21.6354635117
 10
30.7644750675
 20
-21.7895796363
 10
30.4419386474
 20
-21.9579999318
 10
30.1194022273
 20
-22.1406688024
 10
29.798122664
 20
-22.3368744258
 10
29.4781048617
 20
-22.5466696204
 10
29.1593439162
 20
-22.7700015678
 10
28.843081972
 20
-23.0059999902
 10
28.5293287801
 20
-23.2547143103
 10
28.2180745896
 20
-23.5160951054
 10
27.9105322928
 20
-23.7891238293
 10
27.6067163731
 20
-24.0738459306
 10
27.3066123472
 20
-24.3702159606
 10
27.0113896575
 20
-24.6770790276
 10
26.7210673504
 20
-24.9944760738
 10
26.4356263795
 20
-25.322366157
 10
26.1561790485
 20
-25.6594715581
 10
25.8827487437
 20
-26.005828234
 10
25.6153120788
 20
-26.361400228
 10
25.3549111984
 20
-26.7248019503
 10
25.1015735552
 20
-27.0960639517
 10
24.8552716966
 20
-27.4751556814
 10
24.6169654091
 20
-27.8605998986
 10
24.3866858905
 20
-28.2524213897
 10
24.1644019431
 20
-28.6505953683
 10
23.950979761
 20
-29.0535702337
 10
23.7464539213
 20
-29.4613647184
 10
23.5507898469
 20
-29.87396009
 10
23.3647499995
 20
-30.2897485508
 10
23.1883719317
 20
-30.7087425598
 10
23.0216180908
 20
-31.130929658
 10
22.8651382819
 20
-31.5546646707
 10
22.7189725926
 20
-31.9799536378
 10
22.5830809352
 20
-32.4067905194
 10
22.4579928509
 20
-32.8335120217
 10
22.3437504938
 20
-33.2601176946
 10
22.2403117098
 20
-33.6866079881
 10
22.1480795783
 20
-34.1113209591
 10
22.0670978259
 20
-34.5342496726
 10
21.997322726
 20
-34.9554010636
 10
21.9390261774
 20
-35.3731339932
 10
21.8922988132
 20
-35.7869014154
 10
21.8570500003
 20
-36.1972503763
 10
21.8332797388
 20
-36.6041808759
  0
LINE
  5
336
100
AcDbEntity
  8
ASSI
100
AcDbLine
 62
7
  6
CONTINUOUS
 10
35.4910134716
 20
-21.5239572329
 11
36.1981202528
 21
-21.8775106235
  0
LWPOLYLINE
  5
337
100
AcDbEntity
  8
ASSI
100
AcDbPolyline
 62
7
  6
CONTINUOUS
 90
11
 70
0
 10
22.6762296242
 20
-41.4636377572
 10
22.7876688613
 20
-41.6335496274
 10
22.9572074736
 20
-41.8657224642
 10
23.1359887601
 20
-42.0855618501
 10
23.323976905
 20
-42.293115578
 10
23.5204415563
 20
-42.4875772816
 10
23.7254156887
 20
-42.6688960314
 10
23.9388663274
 20
-42.837122757
 10
24.1599641964
 20
-42.9916038814
 10
24.3887390442
 20
-43.1322859325
 10
24.6237368998
 20
-43.2585103795
  0
LWPOLYLINE
  5
338
100
AcDbEntity
  8
ASSI
100
AcDbPolyline
 62
7
  6
CONTINUOUS
 90
11
 70
0
 10
-22.8888757613
 20
69.6658991498
 10
-22.9043540214
 20
69.7247866813
 10
-22.9271018336
 20
69.7925529237
 10
-22.9538236339
 20
69.8564466389
 10
-22.984474819
 20
69.9165112918
 10
-23.0187087704
 20
69.9720676426
 10
-23.0565661572
 20
70.0230645163
 10
-23.0980063105
 20
70.0695530878
 10
-23.142560605
 20
70.1110076421
 10
-23.1902643903
 20
70.1473710368
 10
-23.2057567466
 20
70.1569221128
  0
LINE
  5
339
100
AcDbEntity
  8
0
100
AcDbLine
 62
7
  6
CONTINUOUS
 10
-7.7831568849
 20
54.924638164
 11
-7.9180191316
 21
55.9288053692
  0
LINE
  5
33A
100
AcDbEntity
  8
0
100
AcDbLine
 62
7
  6
CONTINUOUS
 10
-6.8573589598
 20
56.4591354551
 11
-6.6500065312
 21
54.9152155381
  0
LWPOLYLINE
  5
33B
100
AcDbEntity
  8
ASSI
100
AcDbPolyline
 62
7
  6
CONTINUOUS
 90
7
 70
0
 10
2.5918474042
 20
58.2960972575
 10
2.5944053343
 20
58.182646568
 10
2.6105565406
 20
57.9905210138
 10
2.6414949811
 20
57.798563265
 10
2.6870835752
 20
57.6076238401
 10
2.7473873301
 20
57.4177072578
 10
2.8131103784
 20
57.2520725415
  0
LWPOLYLINE
  5
33C
100
AcDbEntity
  8
ASSI
100
AcDbPolyline
 62
7
  6
CONTINUOUS
 90
20
 70
0
 10
2.5918474042
 20
59.1621226613
 10
2.5944053343
 20
59.0486719717
 10
2.6105565406
 20
58.8565464175
 10
2.6414949811
 20
58.6645886687
 10
2.6870835752
 20
58.4736492439
 10
2.7473873301
 20
58.2837326616
 10
2.8223412385
 20
58.0948344032
 10
2.9116131977
 20
57.9077914315
 10
3.0152667413
 20
57.7226119789
 10
3.1332383357
 20
57.5392878129
 10
3.2650052772
 20
57.3586311988
 10
3.41062878
 20
57.1806539733
 10
3.5700476298
 20
57.0053442997
 10
3.7425554803
 20
56.8334789328
 10
3.9282104112
 20
56.6650731562
 10
4.1269543427
 20
56.5001116863
 10
4.3379066882
 20
56.3393254278
 10
4.560773919
 20
56.1829580155
 10
4.7958495638
 20
56.0307658145
 10
5.0431336226
 20
55.8827488249
  0
LWPOLYLINE
  5
33D
100
AcDbEntity
  8
ASSI
100
AcDbPolyline
 62
7
  6
CONTINUOUS
 90
20
 70
0
 10
4.9141446482
 20
68.000957428
 10
4.9115867181
 20
68.1144081175
 10
4.8954355118
 20
68.3065336717
 10
4.8644970712
 20
68.4984914205
 10
4.8189084771
 20
68.6894308454
 10
4.7586047223
 20
68.8793474277
 10
4.6836508139
 20
69.068245686
 10
4.5943788547
 20
69.2552886578
 10
4.4907253111
 20
69.4404681104
 10
4.3727537167
 20
69.6237922763
 10
4.2409867752
 20
69.8044488905
 10
4.0953632724
 20
69.982426116
 10
3.9359444225
 20
70.1577357896
 10
3.7634365721
 20
70.3296011565
 10
3.5777816411
 20
70.4980069331
 10
3.3790377097
 20
70.6629684029
 10
3.1680853641
 20
70.8237546614
 10
2.9452181334
 20
70.9801220737
 10
2.7101424886
 20
71.1323142747
 10
2.4628584297
 20
71.2803312644
  0
LWPOLYLINE
  5
33E
100
AcDbEntity
  8
ASSI
100
AcDbPolyline
 62
7
  6
CONTINUOUS
 90
21
 70
0
 10
2.0918679351
 20
59.1621226618
 10
2.092759076
 20
59.0934482811
 10
2.1050592428
 20
58.8986731914
 10
2.1318676869
 20
58.7042625798
 10
2.1731246872
 20
58.5102149459
 10
2.228659948
 20
58.3173312561
 10
2.2985324867
 20
58.1256163214
 10
2.3826832858
 20
57.9350653309
 10
2.480764998
 20
57.7464648179
 10
2.5928352047
 20
57.5598228444
 10
2.7188363245
 20
57.3751313484
 10
2.858248265
 20
57.1931526771
 10
3.0111264582
 20
57.0138980437
 10
3.1774154721
 20
56.8373562351
 10
3.3564289192
 20
56.6642559591
 10
3.548219394
 20
56.494611441
 10
3.752734302
 20
56.3284084557
 10
3.9691294711
 20
56.1663330356
 10
4.1971235106
 20
56.0086138585
 10
4.4369978114
 20
55.8550222466
 10
4.6887523732
 20
55.7055582001
  0
LWPOLYLINE
  5
33F
100
AcDbEntity
  8
ASSI
100
AcDbPolyline
 62
7
  6
CONTINUOUS
 90
21
 70
0
 10
5.4141241172
 20
68.0009574275
 10
5.4132329764
 20
68.0696318082
 10
5.4009328096
 20
68.2644068979
 10
5.3741243655
 20
68.4588175095
 10
5.3328673651
 20
68.6528651434
 10
5.2773321043
 20
68.8457488332
 10
5.2074595657
 20
69.0374637678
 10
5.1233087665
 20
69.2280147584
 10
5.0252270544
 20
69.4166152714
 10
4.9131568476
 20
69.6032572449
 10
4.7871557279
 20
69.7879487409
 10
4.6477437874
 20
69.9699274122
 10
4.4948655942
 20
70.1491820456
 10
4.3285765802
 20
70.3257238542
 10
4.1495631332
 20
70.4988241301
 10
3.9577726583
 20
70.6684686482
 10
3.7532577504
 20
70.8346716336
 10
3.5368625813
 20
70.9967470536
 10
3.3088685417
 20
71.1544662308
 10
3.068994241
 20
71.3080578426
 10
2.8172396792
 20
71.4575218891
  0
LINE
  5
340
100
AcDbEntity
  8
ASSI
100
AcDbLine
 62
7
  6
CONTINUOUS
 10
2.591830791
 20
58.2960972584
 11
2.591830791
 21
59.1621226622
  0
LINE
  5
341
100
AcDbEntity
  8
ASSI
100
AcDbLine
 62
7
  6
CONTINUOUS
 10
2.8172396792
 20
71.4575218891
 11
2.8172396792
 21
71.0629776271
  0
LINE
  5
342
100
AcDbEntity
  8
0
100
AcDbLine
 62
253
  6
CONTINUOUS
 10
3.8944173824
 20
49.4394044209
 11
3.8944173824
 21
49.0858510303
  0
LINE
  5
343
100
AcDbEntity
  8
ASSI
100
AcDbLine
 62
7
  6
CONTINUOUS
 10
4.9141612613
 20
67.1349320233
 11
4.9141612613
 21
68.0009574271
  0
LINE
  5
344
100
AcDbEntity
  8
ASSI
100
AcDbLine
 62
7
  6
CONTINUOUS
 10
6.0330831163
 20
55.387774078
 11
6.0330831163
 21
55.0630549459
  0
LWPOLYLINE
  5
345
100
AcDbEntity
  8
0
100
AcDbPolyline
 62
7
  6
CONTINUOUS
 90
12
 70
0
 10
3.7480003631
 20
49.2626277256
 10
3.748346397
 20
49.2720100835
 10
3.7511146681
 20
49.2906188446
 10
3.7566974811
 20
49.3090690444
 10
3.7650485653
 20
49.3273632896
 10
3.7760291079
 20
49.3451974911
 10
3.7896830595
 20
49.3625639595
 10
3.8059664696
 20
49.3794703842
 10
3.8246086734
 20
49.3956357447
 10
3.8455194493
 20
49.4109663676
 10
3.868789019
 20
49.4255559263
 10
3.8944173824
 20
49.4394044209
  0
LWPOLYLINE
  5
346
100
AcDbEntity
  8
0
100
AcDbPolyline
 62
7
  6
CONTINUOUS
 90
19
 70
0
 10
-10.2864399055
 20
-17.7817207787
 10
-10.1236442446
 20
-17.6077021065
 10
-9.9678510593
 20
-17.4245210245
 10
-9.8190603495
 20
-17.2321775326
 10
-9.6771359992
 20
-17.0304588832
 10
-9.5422141245
 20
-16.819577824
 10
-9.4147030733
 20
-16.6001725974
 10
-9.2946252977
 20
-16.3722173785
 10
-9.1819583456
 20
-16.1357379921
 10
-9.0770432096
 20
-15.8914501555
 10
-8.9799033745
 20
-15.6393302121
 10
-8.8905153554
 20
-15.3794018184
 10
-8.8091496897
 20
-15.1124516613
 10
-8.7358306822
 20
-14.8384584675
 10
-8.6705340281
 20
-14.5574435102
 10
-8.6134573512
 20
-14.2702572958
 10
-8.564666526
 20
-13.9771833265
 10
-8.5240956781
 20
-13.6779381
 10
-8.4917448073
 20
-13.3725216165
  0
LWPOLYLINE
  5
347
100
AcDbEntity
  8
0
100
AcDbPolyline
 62
7
  6
CONTINUOUS
 90
19
 70
0
 10
-10.1607414971
 20
-17.9985184638
 10
-9.9927318423
 20
-17.8200658055
 10
-9.8319782812
 20
-17.6320999138
 10
-9.6784808137
 20
-17.4346207885
 10
-9.5320968896
 20
-17.2274063705
 10
-9.3929690591
 20
-17.0106787191
 10
-9.2615249737
 20
-16.785104012
 10
-9.1377882758
 20
-16.5506550272
 10
-9.021735323
 20
-16.3073589867
 10
-8.913722839
 20
-16.0559637343
 10
-8.8137755639
 20
-15.7964443491
 10
-8.7218687576
 20
-15.5288257519
 10
-8.6382849233
 20
-15.2539305492
 10
-8.5630496705
 20
-14.9717363513
 10
-8.4961373898
 20
-14.6822655479
 10
-8.4377537562
 20
-14.3864079149
 10
-8.3879673282
 20
-14.0844600441
 10
-8.3467095472
 20
-13.7761253436
 10
-8.3139804134
 20
-13.4614038134
  0
LINE
  5
348
100
AcDbEntity
  8
0
100
AcDbLine
 62
7
  6
CONTINUOUS
 10
-8.4917448073
 20
-11.207458107
 11
-8.3299722525
 21
-11.1265718296
  0
LINE
  5
349
100
AcDbEntity
  8
ASSI
100
AcDbLine
 62
7
  6
CONTINUOUS
 10
39.6956703962
 20
12.164183027
 11
39.3415520754
 21
11.9871238666
  0
LINE
  5
34A
100
AcDbEntity
  8
ASSI
100
AcDbLine
 62
7
  6
CONTINUOUS
 10
22.1873980596
 20
3.4100468586
 11
21.8332797388
 21
3.2329876982
  0
LWPOLYLINE
  5
34B
100
AcDbEntity
  8
0
100
AcDbPolyline
 62
7
  6
CONTINUOUS
 90
7
 70
0
 10
-20.6072417304
 20
3.0261814972
 10
-20.8687393996
 20
2.9865102229
 10
-21.1255401929
 20
2.9332076693
 10
-21.3767063968
 20
2.8664684717
 10
-21.6219254403
 20
2.7863575086
 10
-21.8615098945
 20
2.6928099016
 10
-22.0954597594
 20
2.5858256505
  0
LINE
  5
34C
100
AcDbEntity
  8
0
100
AcDbLine
 62
7
  6
CONTINUOUS
 10
-20.3410300138
 20
3.0521716565
 11
-20.6072417304
 21
3.0261814972
  0
LWPOLYLINE
  5
34D
100
AcDbEntity
  8
ASSI
100
AcDbPolyline
 62
7
  6
CONTINUOUS
 90
11
 70
0
 10
25.1756419625
 20
-4.1747781134
 10
25.4490722673
 20
-4.2477044846
 10
25.7285195983
 20
-4.3053625547
 10
26.0139605692
 20
-4.3478116669
 10
26.3042828763
 20
-4.374886406
 10
26.599505566
 20
-4.3865267833
 10
26.8996095919
 20
-4.3827927874
 10
27.2034255116
 20
-4.363698969
 10
27.5109678084
 20
-4.3291853961
 10
27.8222219989
 20
-4.2793120007
 10
27.9346360533
 20
-4.2560093429
  0
LINE
  5
34E
100
AcDbEntity
  8
ASSI
100
AcDbLine
 62
7
  6
CONTINUOUS
 10
24.9082052976
 20
-4.0866427843
 11
25.1756419625
 21
-4.1747781134
  0
LINE
  5
34F
100
AcDbEntity
  8
ASSI
100
AcDbLine
 62
7
  6
CONTINUOUS
 10
24.7616372615
 20
-4.0286682064
 11
24.9082052976
 21
-4.0866427843
  0
LWPOLYLINE
  5
350
100
AcDbEntity
  8
ASSI
100
AcDbPolyline
 62
7
  6
CONTINUOUS
 90
62
 70
0
 10
25.330843681
 20
-3.774895196
 10
25.5754186892
 20
-3.8883048874
 10
25.8253243583
 20
-3.9867084238
 10
26.0819587352
 20
-4.0708731987
 10
26.3443247706
 20
-4.140472224
 10
26.6124447615
 20
-4.195448837
 10
26.8862964109
 20
-4.2358597003
 10
27.1648157791
 20
-4.2615478139
 10
27.4480210239
 20
-4.2724559043
 10
27.7358939874
 20
-4.2686412449
 10
28.0273162556
 20
-4.2501186562
 10
28.3223016355
 20
-4.2168309223
 10
28.6208363201
 20
-4.1688352589
 10
28.9217604734
 20
-4.1063181339
 10
29.2250833908
 20
-4.0292230568
 10
29.530795777
 20
-3.9376065181
 10
29.8377099099
 20
-3.8318244567
 10
30.1458304646
 20
-3.711821767
 10
30.455152766
 20
-3.5776535546
 10
30.7644750675
 20
-3.429841076
 10
31.073797369
 20
-3.2683312532
 10
31.3831196705
 20
-3.093177164
 10
31.6912402251
 20
-2.9050592991
 10
31.998154358
 20
-2.7039272275
 10
32.3038667442
 20
-2.4898313802
 10
32.6071896616
 20
-2.2636035398
 10
32.9081138149
 20
-2.0251965115
 10
33.2066484995
 20
-1.7746574903
 10
33.5016338795
 20
-1.5129598443
 10
33.7930561476
 20
-1.2400601649
 10
34.0809291111
 20
-0.9560018607
 10
34.3641343559
 20
-0.6618885254
 10
34.6426537241
 20
-0.3576810437
 10
34.9165053736
 20
-0.0434185309
 10
35.1846253645
 20
0.2796780729
 10
35.4469913999
 20
0.6116431336
 10
35.7036257767
 20
0.9524422854
 10
35.9535314458
 20
1.3007514909
 10
36.1966822315
 20
1.6565999651
 10
36.4331043096
 20
2.0199584931
 10
36.6618791574
 20
2.389415392
 10
36.8829770264
 20
2.7649943854
 10
37.0964276651
 20
3.1466717497
 10
37.3014017975
 20
3.5329646319
 10
37.4978664488
 20
3.9238909868
 10
37.6858545937
 20
4.3194328596
 10
37.8646358802
 20
4.7180535321
 10
38.0341744926
 20
5.1197649812
 10
38.1945062465
 20
5.52455523
 10
38.3450082379
 20
5.9308516297
 10
38.4856422276
 20
6.3386600392
 10
38.6164464548
 20
6.7479745996
 10
38.7369127324
 20
7.1572050844
 10
38.8470008444
 20
7.5663511667
 10
38.946751007
 20
7.9754131734
 10
39.035775681
 20
8.3828018595
 10
39.114033143
 20
8.7885107155
 10
39.1815651165
 20
9.1925462509
 10
39.2381092333
 20
9.5933387488
 10
39.2835780373
 20
9.9903649704
 10
39.3180589847
 20
10.3841481545
 10
39.3415520754
 20
10.7746883013
  0
LWPOLYLINE
  5
351
100
AcDbEntity
  8
ASSI
100
AcDbPolyline
 62
7
  6
CONTINUOUS
 90
62
 70
0
 10
25.107237122
 20
-4.2221083143
 10
25.3549111984
 20
-4.3371953329
 10
25.6153120788
 20
-4.4401961749
 10
25.8827487437
 20
-4.528331504
 10
26.1561790485
 20
-4.6012578752
 10
26.4356263795
 20
-4.6589159453
 10
26.7210673504
 20
-4.7013650575
 10
27.0113896575
 20
-4.7284397966
 10
27.3066123472
 20
-4.7400801739
 10
27.6067163731
 20
-4.736346178
 10
27.9105322928
 20
-4.7172523596
 10
28.2180745896
 20
-4.6827387867
 10
28.5293287801
 20
-4.6328653913
 10
28.843081972
 20
-4.5678265195
 10
29.1593439162
 20
-4.4875629977
 10
29.4781048617
 20
-4.3921339996
 10
29.798122664
 20
-4.2819113919
 10
30.1194022273
 20
-4.156837452
 10
30.4419386474
 20
-4.0169699025
 10
30.7644750675
 20
-3.8628537779
 10
31.0870114876
 20
-3.6944334824
 10
31.4095479077
 20
-3.5117646118
 10
31.730827471
 20
-3.3155589884
 10
32.0508452733
 20
-3.1057637938
 10
32.3696062189
 20
-2.8824318464
 10
32.685868163
 20
-2.646433424
 10
32.9996213549
 20
-2.3977191039
 10
33.3108755454
 20
-2.1363383088
 10
33.6184178422
 20
-1.8633095849
 10
33.9222337619
 20
-1.5785874836
 10
34.2223377878
 20
-1.2822174536
 10
34.5175604775
 20
-0.9753543866
 10
34.8078827847
 20
-0.6579573404
 10
35.0933237555
 20
-0.3300672572
 10
35.3727710865
 20
0.0070381439
 10
35.6462013913
 20
0.3533948198
 10
35.9136380562
 20
0.7089668138
 10
36.1740389366
 20
1.0723685362
 10
36.4273765798
 20
1.4436305375
 10
36.6736784385
 20
1.8227222672
 10
36.9119847259
 20
2.2081664844
 10
37.1422642445
 20
2.5999879755
 10
37.3645481919
 20
2.9981619541
 10
37.5779703741
 20
3.4011368195
 10
37.7824962137
 20
3.8089313042
 10
37.9781602881
 20
4.2215266758
 10
38.1642001355
 20
4.6373151366
 10
38.3405782034
 20
5.0563091456
 10
38.5073320442
 20
5.4784962438
 10
38.6638118531
 20
5.9022312565
 10
38.8099775424
 20
6.3275202236
 10
38.9458691999
 20
6.7543571052
 10
39.0709572841
 20
7.1810786076
 10
39.1851996413
 20
7.6076842804
 10
39.2886384252
 20
8.034174574
 10
39.3808705568
 20
8.4588875449
 10
39.4618523091
 20
8.8818162584
 10
39.531627409
 20
9.3029676494
 10
39.5899239576
 20
9.7207005791
 10
39.6366513218
 20
10.1344680012
 10
39.6719001347
 20
10.5448169621
 10
39.6956703962
 20
10.9517474617
  0
LWPOLYLINE
  5
352
100
AcDbEntity
  8
ASSI
100
AcDbPolyline
 62
7
  6
CONTINUOUS
 90
3
 70
0
 10
36.4351574633
 20
-21.5210788221
 10
36.2048779447
 20
-21.3595368496
 10
36.0602060923
 20
-21.2702118172
  0
LWPOLYLINE
  5
353
100
AcDbEntity
  8
ASSI
100
AcDbPolyline
 62
7
  6
CONTINUOUS
 90
11
 70
0
 10
-15.7991177821
 20
73.2082678521
 10
-15.8107205017
 20
73.2555003199
 10
-15.8313811454
 20
73.3216002559
 10
-15.8556673633
 20
73.3842712302
 10
-15.883542803
 20
73.4435476238
 10
-15.9147260874
 20
73.4988310956
 10
-15.9492507189
 20
73.5500812046
 10
-15.9870831951
 20
73.5973383918
 10
-16.0278416318
 20
73.6401256391
 10
-16.0715556635
 20
73.6783976741
 10
-16.071716275
 20
73.6785140765
  0
LINE
  5
354
100
AcDbEntity
  8
0
100
AcDbLine
 62
7
  6
CONTINUOUS
 10
9.1977182413
 20
38.7799500977
 11
9.1977182413
 21
30.1196960598
  0
LINE
  5
355
100
AcDbEntity
  8
0
100
AcDbLine
 62
7
  6
CONTINUOUS
 10
9.1977182413
 20
-73.8033523943
 11
9.1977182413
 21
-82.4636064321
  0
LINE
  5
356
100
AcDbEntity
  8
0
100
AcDbLine
 62
7
  6
CONTINUOUS
 10
9.4098502757
 20
-73.6972863771
 11
9.4098502757
 21
-72.1197798756
  0
LINE
  5
357
100
AcDbEntity
  8
0
100
AcDbLine
 62
253
  6
CONTINUOUS
 10
9.4098502757
 20
29.6382050691
 11
9.4098502757
 21
-72.1197798756
  0
LINE
  5
358
100
AcDbEntity
  8
0
100
AcDbLine
 62
7
  6
CONTINUOUS
 10
9.4098502757
 20
29.6382050691
 11
9.4098502757
 21
30.0136300427
  0
LINE
  5
359
100
AcDbEntity
  8
0
100
AcDbLine
 62
7
  6
CONTINUOUS
 10
10.2583784131
 20
38.2496200118
 11
10.2583784131
 21
29.589365974
  0
LINE
  5
35A
100
AcDbEntity
  8
0
100
AcDbLine
 62
7
  6
CONTINUOUS
 10
10.2583784131
 20
29.589365974
 11
10.2583784131
 21
-74.3336824802
  0
LINE
  5
35B
100
AcDbEntity
  8
0
100
AcDbLine
 62
7
  6
CONTINUOUS
 10
10.2583784131
 20
-74.3336824802
 11
10.2583784131
 21
-82.993936518
  0
LINE
  5
35C
100
AcDbEntity
  8
0
100
AcDbLine
 62
7
  6
CONTINUOUS
 10
10.9301298552
 20
37.9137442907
 11
10.9301298552
 21
38.7797696945
  0
LINE
  5
35D
100
AcDbEntity
  8
0
100
AcDbLine
 62
7
  6
CONTINUOUS
 10
10.9301298552
 20
-83.3298122391
 11
10.9301298552
 21
-84.1958376429
  0
LINE
  5
35E
100
AcDbEntity
  8
0
100
AcDbLine
 62
7
  6
CONTINUOUS
 10
10.9654851943
 20
37.852765351
 11
10.9654851943
 21
-83.3041886384
  0
LINE
  5
35F
100
AcDbEntity
  8
0
100
AcDbLine
 62
253
  6
CONTINUOUS
 10
11.6725919755
 20
46.4695559399
 11
11.6725919755
 21
46.1160025493
  0
LINE
  5
360
100
AcDbEntity
  8
0
100
AcDbLine
 62
7
  6
CONTINUOUS
 10
12.9453841816
 20
18.5344191259
 11
12.9453841816
 21
14.204292107
  0
LINE
  5
361
100
AcDbEntity
  8
0
100
AcDbLine
 62
7
  6
CONTINUOUS
 10
12.9453841816
 20
-57.6758164071
 11
12.9453841816
 21
-62.005943426
  0
LWPOLYLINE
  5
362
100
AcDbEntity
  8
0
100
AcDbPolyline
 62
7
  6
CONTINUOUS
 90
25
 70
0
 10
12.9453841816
 20
18.5344191259
 10
12.9469518476
 20
18.5922421034
 10
12.9514808004
 20
18.6508243048
 10
12.9589710401
 20
18.7101657301
 10
12.9694798386
 20
18.7705262471
 10
12.9829499238
 20
18.8316459881
 10
12.9992094804
 20
18.8927453493
 10
13.0182942407
 20
18.9538240698
 10
13.0401684722
 20
19.0148824106
 10
13.0645531616
 20
19.0751415513
 10
13.0914804672
 20
19.1345912543
 10
13.1209182306
 20
19.1932417571
 10
13.1524909628
 20
19.2503449522
 10
13.1862260124
 20
19.3058810189
 10
13.2220960309
 20
19.3598697779
 10
13.2596434836
 20
19.4116225837
 10
13.2988898582
 20
19.4611107942
 10
13.339813667
 20
19.5083630515
 10
13.3818929127
 20
19.5527766367
 10
13.4251423961
 20
19.5943151868
 10
13.4695473163
 20
19.6330150648
 10
13.5145412731
 20
19.6683826402
 10
13.5599354665
 20
19.7002533695
 10
13.6059186963
 20
19.7287917962
 10
13.6524909628
 20
19.7539979203
  0
LWPOLYLINE
  5
363
100
AcDbEntity
  8
0
100
AcDbPolyline
 62
7
  6
CONTINUOUS
 90
12
 70
0
 10
11.8190089948
 20
46.2927792446
 10
11.8186629609
 20
46.2833968867
 10
11.8158946898
 20
46.2647881256
 10
11.8103118768
 20
46.2463379258
 10
11.8019607926
 20
46.2280436807
 10
11.79098025
 20
46.2102094791
 10
11.7773262984
 20
46.1928430108
 10
11.7610428883
 20
46.1759365861
 10
11.7424006845
 20
46.1597712255
 10
11.7214899085
 20
46.1444406026
 10
11.6982203389
 20
46.1298510439
 10
11.6725919755
 20
46.1160025493
  0
LINE
  5
364
100
AcDbEntity
  8
ASSI
100
AcDbLine
 62
7
  6
CONTINUOUS
 10
21.8332797388
 20
2.0205521329
 11
22.1873980596
 21
2.1976112933
  0
LINE
  5
365
100
AcDbEntity
  8
ASSI
100
AcDbLine
 62
7
  6
CONTINUOUS
 10
39.3415520754
 20
10.7746883013
 11
39.6956703962
 21
10.9517474617
  0
LINE
  5
366
100
AcDbEntity
  8
0
100
AcDbLine
 62
7
  6
CONTINUOUS
 10
-10.2864399055
 20
-17.7817207787
 11
-9.7333044494
 21
-17.5051530506
  0
LINE
  5
367
100
AcDbEntity
  8
ASSI
100
AcDbLine
 62
7
  6
CONTINUOUS
 10
24.623723101
 20
-3.4213694001
 11
25.3308298822
 21
-3.7749227907
  0
LINE
  5
368
100
AcDbEntity
  8
ASSI
100
AcDbLine
 62
7
  6
CONTINUOUS
 10
22.1873980596
 20
3.4100468586
 11
21.8533780457
 21
3.5770568656
  0
LWPOLYLINE
  5
369
100
AcDbEntity
  8
ASSI
100
AcDbPolyline
 62
7
  6
CONTINUOUS
 90
4
 70
0
 10
24.6459731086
 20
-3.3535075735
 10
24.8670709776
 20
-3.5079886979
 10
25.0958458254
 20
-3.648670749
 10
25.330843681
 20
-3.774895196
  0
LWPOLYLINE
  5
36A
100
AcDbEntity
  8
ASSI
100
AcDbPolyline
 62
7
  6
CONTINUOUS
 90
21
 70
0
 10
22.1873980596
 20
-37.6395572808
 10
22.2108911503
 20
-38.0066043368
 10
22.2453720977
 20
-38.3659065735
 10
22.2908409017
 20
-38.717463991
 10
22.3473850186
 20
-39.0617123722
 10
22.414916992
 20
-39.3982159341
 10
22.493174454
 20
-39.7256673281
 10
22.582199128
 20
-40.0440313402
 10
22.6819492906
 20
-40.3533431844
 10
22.7920374026
 20
-40.6524011545
 10
22.9125036802
 20
-40.9411653618
 10
23.0433079074
 20
-41.219675695
 10
23.1839418971
 20
-41.4868501148
 10
23.3344438885
 20
-41.7426445231
 10
23.4947756425
 20
-41.9871030179
 10
23.6643142548
 20
-42.2192758548
 10
23.8430955413
 20
-42.4391152407
 10
24.0310836862
 20
-42.6466689686
 10
24.2275483375
 20
-42.8411306722
 10
24.4325224699
 20
-43.022449422
 10
24.6459731086
 20
-43.1906761476
  0
LWPOLYLINE
  5
36B
100
AcDbEntity
  8
ASSI
100
AcDbPolyline
 62
7
  6
CONTINUOUS
 90
24
 70
0
 10
21.8332797388
 20
-37.8166164412
 10
21.8570500003
 20
-38.1997766792
 10
21.8922988132
 20
-38.5748768272
 10
21.9390261774
 20
-38.9419168851
 10
21.997322726
 20
-39.3013532662
 10
22.0670978259
 20
-39.6527295572
 10
22.1480795783
 20
-39.9946765184
 10
22.2403117098
 20
-40.3271573578
 10
22.3437504938
 20
-40.6502088674
 10
22.4579928509
 20
-40.9625721832
 10
22.5830809352
 20
-41.2642056012
 10
22.7189725926
 20
-41.5551508254
 10
22.8651382819
 20
-41.8342741032
 10
23.0216180908
 20
-42.101529307
 10
23.1883719317
 20
-42.3569625643
 10
23.3647499995
 20
-42.5995785054
 10
23.5507898469
 20
-42.8293271189
 10
23.7464539213
 20
-43.046258416
 10
23.950979761
 20
-43.2495270611
 10
24.1644019431
 20
-43.4390797444
 10
24.3866858905
 20
-43.6149697756
 10
24.6169654091
 20
-43.7765117481
 10
24.8552716966
 20
-43.9236496778
 10
25.107237122
 20
-44.0592768883
  0
LWPOLYLINE
  5
36C
100
AcDbEntity
  8
ASSI
100
AcDbPolyline
 62
7
  6
CONTINUOUS
 90
40
 70
0
 10
15.6130490684
 20
49.7929578168
 10
15.6132436425
 20
49.7808926044
 10
15.6177349079
 20
49.7323203104
 10
15.6281284401
 20
49.684159682
 10
15.6444912374
 20
49.636415392
 10
15.6667563017
 20
49.5890827675
 10
15.6946718488
 20
49.5426970686
 10
15.7283020189
 20
49.4972690439
 10
15.7675826719
 20
49.4527879448
 10
15.8120696035
 20
49.4097567846
 10
15.8618219113
 20
49.3681920222
 10
15.9167804976
 20
49.3280771988
 10
15.9763238644
 20
49.289865952
 10
16.0405040548
 20
49.25357989
 10
16.1092690257
 20
49.2191974045
 10
16.1818411498
 20
49.1871073094
 10
16.2582636433
 20
49.1573356259
 10
16.3384932901
 20
49.1298563328
 10
16.421622815
 20
49.1049801789
 10
16.5076851352
 20
49.0827367131
 10
16.5966473336
 20
49.0630963866
 10
16.6875033829
 20
49.0462813015
 10
16.7802747808
 20
49.032323528
 10
16.8749400297
 20
49.0211909959
 10
16.9704286097
 20
49.0130095972
 10
17.0667498666
 20
49.0078128311
 10
17.1638944545
 20
49.0055671984
 10
17.2607638161
 20
49.0062980938
 10
17.3573548271
 20
49.0100393048
 10
17.4536706117
 20
49.0167570439
 10
17.5486219849
 20
49.0263753437
 10
17.642193459
 20
49.0389271293
 10
17.7344005216
 20
49.0543794756
 10
17.8242004514
 20
49.0725576401
 10
17.9115659242
 20
49.0934925643
 10
17.9965242641
 20
49.1171533067
 10
18.0781147214
 20
49.1432723003
 10
18.1560170465
 20
49.1717603561
 10
18.230551489
 20
49.2027066631
 10
18.3017180491
 20
49.2361112213
  0
LWPOLYLINE
  5
36D
100
AcDbEntity
  8
ASSI
100
AcDbPolyline
 62
7
  6
CONTINUOUS
 90
40
 70
0
 10
18.7630006691
 20
49.7929578062
 10
18.7628060949
 20
49.8050230186
 10
18.7583148296
 20
49.8535953126
 10
18.7479212974
 20
49.901755941
 10
18.7315585
 20
49.949500231
 10
18.7092934358
 20
49.9968328555
 10
18.6813778887
 20
50.0432185544
 10
18.6477477185
 20
50.0886465791
 10
18.6084670655
 20
50.1331276782
 10
18.563980134
 20
50.1761588384
 10
18.5142278261
 20
50.2177236008
 10
18.4592692398
 20
50.2578384242
 10
18.399725873
 20
50.296049671
 10
18.3355456827
 20
50.332335733
 10
18.2667807118
 20
50.3667182185
 10
18.1942085876
 20
50.3988083136
 10
18.1177860941
 20
50.4285799971
 10
18.0375564473
 20
50.4560592902
 10
17.9544269225
 20
50.4809354441
 10
17.8683646022
 20
50.5031789099
 10
17.7794024039
 20
50.5228192364
 10
17.6885463546
 20
50.5396343215
 10
17.5957749566
 20
50.553592095
 10
17.5011097077
 20
50.5647246271
 10
17.4056211278
 20
50.5729060258
 10
17.3092998709
 20
50.5781027919
 10
17.2121552829
 20
50.5803484246
 10
17.1152859214
 20
50.5796175292
 10
17.0186949104
 20
50.5758763182
 10
16.9223791258
 20
50.5691585791
 10
16.8274277526
 20
50.5595402793
 10
16.7338562785
 20
50.5469884937
 10
16.6416492158
 20
50.5315361474
 10
16.551849286
 20
50.5133579829
 10
16.4644838132
 20
50.4924230587
 10
16.3795254734
 20
50.4687623163
 10
16.297935016
 20
50.4426433227
 10
16.220032691
 20
50.4141552669
 10
16.1454982484
 20
50.3832089599
 10
16.0743316884
 20
50.3498044017
  0
LINE
  5
36E
100
AcDbEntity
  8
0
100
AcDbLine
 62
7
  6
CONTINUOUS
 10
13.793912319
 20
-55.0864888289
 11
13.793912319
 21
-63.7467428668
  0
LINE
  5
36F
100
AcDbEntity
  8
0
100
AcDbLine
 62
7
  6
CONTINUOUS
 10
13.793912319
 20
12.4634926663
 11
13.793912319
 21
21.1237467041
  0
LINE
  5
370
100
AcDbEntity
  8
0
100
AcDbLine
 62
7
  6
CONTINUOUS
 10
14.5010191002
 20
-55.4400422195
 11
14.5010191002
 21
-64.1002962574
  0
LINE
  5
371
100
AcDbEntity
  8
0
100
AcDbLine
 62
7
  6
CONTINUOUS
 10
14.5010191002
 20
12.1099392757
 11
14.5010191002
 21
20.7701933135
  0
LINE
  5
372
100
AcDbEntity
  8
ASSI
100
AcDbLine
 62
253
  6
CONTINUOUS
 10
16.0743316884
 20
50.3498044017
 11
16.0743316884
 21
49.4837789979
  0
LINE
  5
373
100
AcDbEntity
  8
0
100
AcDbLine
 62
253
  6
CONTINUOUS
 10
19.4154112295
 20
43.0224103816
 11
19.4154112295
 21
42.1563849779
  0
LINE
  5
374
100
AcDbEntity
  8
0
100
AcDbLine
 62
253
  6
CONTINUOUS
 10
19.4154112295
 20
-79.9531969558
 11
19.4154112295
 21
-79.087171552
  0
LINE
  5
375
100
AcDbEntity
  8
0
100
AcDbLine
 62
7
  6
CONTINUOUS
 10
19.4507665685
 20
-62.6503665496
 11
19.4507665685
 21
-79.0615479513
  0
LINE
  5
376
100
AcDbEntity
  8
0
100
AcDbLine
 62
7
  6
CONTINUOUS
 10
19.4507665685
 20
25.6842246364
 11
19.4507665685
 21
42.0954060381
  0
LWPOLYLINE
  5
377
100
AcDbEntity
  8
0
100
AcDbPolyline
 62
7
  6
CONTINUOUS
 90
25
 70
0
 10
12.9453841816
 20
-57.6758164071
 10
12.9469518476
 20
-57.6179934296
 10
12.9514808004
 20
-57.5594112282
 10
12.9589710401
 20
-57.5000698029
 10
12.9694798386
 20
-57.4397092859
 10
12.9829499238
 20
-57.3785895449
 10
12.9992094804
 20
-57.3174901837
 10
13.0182942407
 20
-57.2564114632
 10
13.0401684722
 20
-57.1953531224
 10
13.0645531616
 20
-57.1350939817
 10
13.0914804672
 20
-57.0756442788
 10
13.1209182306
 20
-57.0169937759
 10
13.1524909628
 20
-56.9598905808
 10
13.1862260124
 20
-56.9043545141
 10
13.2220960309
 20
-56.8503657552
 10
13.2596434836
 20
-56.7986129494
 10
13.2988898582
 20
-56.7491247389
 10
13.339813667
 20
-56.7018724815
 10
13.3818929127
 20
-56.6574588964
 10
13.4251423961
 20
-56.6159203462
 10
13.4695473163
 20
-56.5772204682
 10
13.5145412731
 20
-56.5418528928
 10
13.5599354665
 20
-56.5099821635
 10
13.6059186963
 20
-56.4814437368
 10
13.6524909628
 20
-56.4562376127
  0
LWPOLYLINE
  5
378
100
AcDbEntity
  8
0
100
AcDbPolyline
 62
7
  6
CONTINUOUS
 90
13
 70
0
 10
45.5783621334
 20
6.8349862894
 10
45.6256169639
 20
6.8602597539
 10
45.6691439547
 20
6.8867786498
 10
45.708943106
 20
6.9145429772
 10
45.7451525223
 20
6.9436819237
 10
45.777634099
 20
6.9740663016
 10
45.8059735223
 20
7.0053085475
 10
45.8301177319
 20
7.0374196507
 10
45.850119788
 20
7.0703886219
 10
45.8657245575
 20
7.1037949304
 10
45.876875712
 20
7.1376441786
 10
45.8836295799
 20
7.171930764
 10
45.8859000131
 20
7.2062173495
  0
LWPOLYLINE
  5
379
100
AcDbEntity
  8
0
100
AcDbPolyline
 62
7
  6
CONTINUOUS
 90
13
 70
0
 10
45.5783621334
 20
5.2761405626
 10
45.6256169639
 20
5.3014140271
 10
45.6691439547
 20
5.327932923
 10
45.708943106
 20
5.3556972504
 10
45.7451525223
 20
5.3848361969
 10
45.777634099
 20
5.4152205747
 10
45.8059735223
 20
5.4464628207
 10
45.8301177319
 20
5.4785739239
 10
45.850119788
 20
5.5115428951
 10
45.8657245575
 20
5.5449492036
 10
45.876875712
 20
5.5787984518
 10
45.8836295799
 20
5.6130850372
 10
45.8859000131
 20
5.6473716227
  0
LINE
  5
37A
100
AcDbEntity
  8
0
100
AcDbLine
 62
7
  6
CONTINUOUS
 10
14.5010191002
 20
12.1099392757
 11
13.793912319
 21
12.4634926663
  0
LINE
  5
37B
100
AcDbEntity
  8
0
100
AcDbLine
 62
253
  6
CONTINUOUS
 10
13.6524909628
 20
13.6918200938
 11
12.9598080965
 21
14.038161527
  0
LWPOLYLINE
  5
37C
100
AcDbEntity
  8
0
100
AcDbPolyline
 62
7
  6
CONTINUOUS
 90
15
 70
0
 10
13.2052928771
 20
13.6634493246
 10
13.1862260124
 20
13.6736720448
 10
13.1524909628
 20
13.6954730619
 10
13.1209182306
 20
13.7210035248
 10
13.0914804672
 20
13.7502162643
 10
13.0645531616
 20
13.7827386616
 10
13.0401684722
 20
13.818613113
 10
13.0182942407
 20
13.8577972222
 10
12.9992094804
 20
13.8997911823
 10
12.9829499238
 20
13.9446309871
 10
12.9694798386
 20
13.9922806428
 10
12.9589710401
 20
14.0421323614
 10
12.9514808004
 20
14.093983547
 10
12.9469518476
 20
14.1480367955
 10
12.9453841816
 20
14.204292107
  0
LWPOLYLINE
  5
37D
100
AcDbEntity
  8
ASSI
100
AcDbPolyline
 62
7
  6
CONTINUOUS
 90
11
 70
0
 10
22.6762296242
 20
-1.6264691831
 10
22.7876688613
 20
-1.7963810533
 10
22.9572074736
 20
-2.0285538901
 10
23.1359887601
 20
-2.248393276
 10
23.323976905
 20
-2.4559470039
 10
23.5204415563
 20
-2.6504087076
 10
23.7254156887
 20
-2.8317274573
 10
23.9388663274
 20
-2.9999541829
 10
24.1599641964
 20
-3.1544353073
 10
24.3887390442
 20
-3.2951173584
 10
24.6237368998
 20
-3.4213418054
  0
LWPOLYLINE
  5
37E
100
AcDbEntity
  8
ASSI
100
AcDbPolyline
 62
7
  6
CONTINUOUS
 90
13
 70
0
 10
31.5097042801
 20
-66.3875791713
 10
31.5310435575
 20
-66.4744473172
 10
31.5568693623
 20
-66.5570722372
 10
31.5872271346
 20
-66.6354109551
 10
31.6220714342
 20
-66.7095064471
 10
31.6610505397
 20
-66.7786107868
 10
31.7042063291
 20
-66.8426734231
 10
31.7514969244
 20
-66.9017449071
 10
31.8024449702
 20
-66.9552289662
 10
31.8570875099
 20
-67.0030690101
 10
31.9153875001
 20
-67.045321629
 10
31.9767564557
 20
-67.0815603214
 10
31.9913697906
 20
-67.0890641872
  0
LINE
  5
37F
100
AcDbEntity
  8
ASSI
100
AcDbLine
 62
7
  6
CONTINUOUS
 10
31.4930669304
 20
-66.297344654
 11
31.5097042801
 21
-66.3875791713
  0
LWPOLYLINE
  5
380
100
AcDbEntity
  8
ASSI
100
AcDbPolyline
 62
7
  6
CONTINUOUS
 90
10
 70
0
 10
5.377108736
 20
67.5711499211
 10
5.3741243655
 20
67.5927921057
 10
5.3328673651
 20
67.7868397396
 10
5.2773321043
 20
67.9797234294
 10
5.2074595657
 20
68.1714383641
 10
5.1233087665
 20
68.3619893546
 10
5.0252270544
 20
68.5505898676
 10
4.9131568476
 20
68.7372318411
 10
4.7871557279
 20
68.9219233371
 10
4.692881674
 20
69.044982144
  0
LINE
  5
381
100
AcDbEntity
  8
0
100
AcDbLine
 62
7
  6
CONTINUOUS
 10
10.1438766523
 20
45.9611213954
 11
10.0090144056
 21
46.9652886006
  0
LINE
  5
382
100
AcDbEntity
  8
0
100
AcDbLine
 62
7
  6
CONTINUOUS
 10
11.0696745773
 20
47.4956186865
 11
11.2812403509
 21
45.9203267371
  0
LWPOLYLINE
  5
383
100
AcDbEntity
  8
ASSI
100
AcDbPolyline
 62
7
  6
CONTINUOUS
 90
8
 70
0
 10
26.2191352766
 20
-67.8419437323
 10
26.2128143623
 20
-67.7615600205
 10
26.2023512556
 20
-67.6841957371
 10
26.1876750205
 20
-67.609581004
 10
26.168856593
 20
-67.5379856994
 10
26.1461087808
 20
-67.4702194571
 10
26.1193869804
 20
-67.4063257418
 10
26.1031855858
 20
-67.3745771767
  0
LWPOLYLINE
  5
384
100
AcDbEntity
  8
ASSI
100
AcDbPolyline
 62
7
  6
CONTINUOUS
 90
21
 70
0
 10
22.1873980596
 20
2.1976112933
 10
22.2108911503
 20
1.8305642373
 10
22.2453720977
 20
1.4712620006
 10
22.2908409017
 20
1.119704583
 10
22.3473850186
 20
0.7754562019
 10
22.414916992
 20
0.43895264
 10
22.493174454
 20
0.111501246
 10
22.582199128
 20
-0.2068627661
 10
22.6819492906
 20
-0.5161746103
 10
22.7920374026
 20
-0.8152325805
 10
22.9125036802
 20
-1.1039967877
 10
23.0433079074
 20
-1.3825071209
 10
23.1839418971
 20
-1.6496815407
 10
23.3344438885
 20
-1.905475949
 10
23.4947756425
 20
-2.1499344439
 10
23.6643142548
 20
-2.3821072807
 10
23.8430955413
 20
-2.6019466666
 10
24.0310836862
 20
-2.8095003945
 10
24.2275483375
 20
-3.0039620982
 10
24.4325224699
 20
-3.1852808479
 10
24.6459731086
 20
-3.3535075735
  0
LWPOLYLINE
  5
385
100
AcDbEntity
  8
ASSI
100
AcDbPolyline
 62
7
  6
CONTINUOUS
 90
24
 70
0
 10
21.8332797388
 20
2.0205521329
 10
21.8570500003
 20
1.6373918949
 10
21.8922988132
 20
1.2622917469
 10
21.9390261774
 20
0.895251689
 10
21.997322726
 20
0.5358153079
 10
22.0670978259
 20
0.1844390169
 10
22.1480795783
 20
-0.1575079443
 10
22.2403117098
 20
-0.4899887838
 10
22.3437504938
 20
-0.8130402933
 10
22.4579928509
 20
-1.1254036091
 10
22.5830809352
 20
-1.4270370271
 10
22.7189725926
 20
-1.7179822513
 10
22.8651382819
 20
-1.9971055291
 10
23.0216180908
 20
-2.2643607329
 10
23.1883719317
 20
-2.5197939903
 10
23.3647499995
 20
-2.7624099313
 10
23.5507898469
 20
-2.9921585448
 10
23.7464539213
 20
-3.209089842
 10
23.950979761
 20
-3.412358487
 10
24.1644019431
 20
-3.6019111703
 10
24.3866858905
 20
-3.7778012015
 10
24.6169654091
 20
-3.939343174
 10
24.8552716966
 20
-4.0864811037
 10
25.107237122
 20
-4.2221083143
  0
LWPOLYLINE
  5
386
100
AcDbEntity
  8
0
100
AcDbPolyline
 62
7
  6
CONTINUOUS
 90
25
 70
0
 10
21.4306655558
 20
43.0853555318
 10
21.4305871725
 20
43.0882466807
 10
21.4303607249
 20
43.0911757907
 10
21.4299862129
 20
43.094142862
 10
21.429460773
 20
43.0971608879
 10
21.4287872687
 20
43.1002168749
 10
21.4279742909
 20
43.103271843
 10
21.4270200529
 20
43.106325779
 10
21.4259263413
 20
43.109378696
 10
21.4247071068
 20
43.1123916531
 10
21.4233607416
 20
43.1153641382
 10
21.4218888534
 20
43.1182966634
 10
21.4203102168
 20
43.1211518231
 10
21.4186234643
 20
43.1239286264
 10
21.4168299634
 20
43.1266280644
 10
21.4149525907
 20
43.1292157047
 10
21.412990272
 20
43.1316901152
 10
21.4109440816
 20
43.1340527281
 10
21.4088401193
 20
43.1362734073
 10
21.4066776451
 20
43.1383503348
 10
21.4044573991
 20
43.1402853287
 10
21.4022077013
 20
43.1420537075
 10
21.3999379916
 20
43.143647244
 10
21.3976388301
 20
43.1450741653
 10
21.3953102168
 20
43.1463344715
  0
LWPOLYLINE
  5
387
100
AcDbEntity
  8
0
100
AcDbPolyline
 62
7
  6
CONTINUOUS
 90
25
 70
0
 10
22.137772337
 20
42.7318021412
 10
22.1361262877
 20
42.7925162676
 10
22.1313708873
 20
42.854027579
 10
22.1235061356
 20
42.9163360756
 10
22.1124718972
 20
42.9797146185
 10
22.0983283077
 20
43.0438903465
 10
22.0812557733
 20
43.1080446758
 10
22.061216775
 20
43.1721773323
 10
22.0382488319
 20
43.2362885901
 10
22.0126449081
 20
43.2995606878
 10
21.9843712372
 20
43.3619828759
 10
21.9534615856
 20
43.4235659039
 10
21.9203102168
 20
43.4835242588
 10
21.8848884147
 20
43.5418371288
 10
21.8472248953
 20
43.5985253257
 10
21.8078000699
 20
43.6528657718
 10
21.7665913766
 20
43.7048283928
 10
21.7236213773
 20
43.7544432631
 10
21.6794381694
 20
43.8010775275
 10
21.6340262118
 20
43.8446930051
 10
21.5874010455
 20
43.885327877
 10
21.5401573909
 20
43.9224638312
 10
21.4924934879
 20
43.9559280969
 10
21.4442110966
 20
43.985893445
 10
21.3953102168
 20
44.0123598753
  0
LWPOLYLINE
  5
388
100
AcDbEntity
  8
0
100
AcDbPolyline
 62
7
  6
CONTINUOUS
 90
25
 70
0
 10
23.4105645432
 20
43.3681982443
 10
23.4089184939
 20
43.4289123706
 10
23.4041630934
 20
43.4904236821
 10
23.3962983417
 20
43.5527321786
 10
23.3852641034
 20
43.6161107215
 10
23.3711205138
 20
43.6802864495
 10
23.3540479795
 20
43.7444407789
 10
23.3340089811
 20
43.8085734354
 10
23.311041038
 20
43.8726846932
 10
23.2854371142
 20
43.9359567909
 10
23.2571634433
 20
43.998378979
 10
23.2262537918
 20
44.059962007
 10
23.1931024229
 20
44.1199203619
 10
23.1576806208
 20
44.1782332319
 10
23.1200171014
 20
44.2349214288
 10
23.0805922761
 20
44.2892618749
 10
23.0393835827
 20
44.3412244959
 10
22.9964135834
 20
44.3908393661
 10
22.9522303755
 20
44.4374736306
 10
22.9068184179
 20
44.4810891082
 10
22.8601932517
 20
44.5217239801
 10
22.812949597
 20
44.5588599342
 10
22.7652856941
 20
44.5923242
 10
22.7170033027
 20
44.6222895481
 10
22.6681024229
 20
44.6487559784
  0
LWPOLYLINE
  5
389
100
AcDbEntity
  8
ASSI
100
AcDbPolyline
 62
7
  6
CONTINUOUS
 90
16
 70
0
 10
24.7010344188
 20
-69.3925934435
 10
24.7032131406
 20
-69.4759965837
 10
24.7095340549
 20
-69.5563802955
 10
24.7199971616
 20
-69.6337445789
 10
24.7346733967
 20
-69.7083593119
 10
24.7534918242
 20
-69.7799546166
 10
24.7762396364
 20
-69.8477208589
 10
24.8029614368
 20
-69.9116145742
 10
24.8336126218
 20
-69.9716792271
 10
24.8678465733
 20
-70.0272355778
 10
24.9057039601
 20
-70.0782324515
 10
24.9471441133
 20
-70.124721023
 10
24.9916984079
 20
-70.1661755773
 10
25.0394021932
 20
-70.202538972
 10
25.0902201198
 20
-70.2338683495
 10
25.1103743859
 20
-70.2444532913
  0
LINE
  5
38A
100
AcDbEntity
  8
ASSI
100
AcDbLine
 62
7
  6
CONTINUOUS
 10
26.2213139984
 20
-67.9253468725
 11
26.2191352766
 21
-67.8419437323
  0
LWPOLYLINE
  5
38B
100
AcDbEntity
  8
ASSI
100
AcDbPolyline
 62
7
  6
CONTINUOUS
 90
16
 70
0
 10
26.9284207796
 20
-68.2789002631
 10
26.9262420578
 20
-68.1954971229
 10
26.9199211435
 20
-68.1151134111
 10
26.9094580368
 20
-68.0377491277
 10
26.8947818017
 20
-67.9631343946
 10
26.8759633742
 20
-67.89153909
 10
26.853215562
 20
-67.8237728477
 10
26.8264937616
 20
-67.7598791324
 10
26.7958425765
 20
-67.6998144795
 10
26.7616086251
 20
-67.6442581287
 10
26.7237512383
 20
-67.5932612551
 10
26.6823110851
 20
-67.5467726836
 10
26.6377567905
 20
-67.5053181293
 10
26.5900530052
 20
-67.4689547346
 10
26.5392350786
 20
-67.4376253571
 10
26.5190808125
 20
-67.4270404153
  0
LWPOLYLINE
  5
38C
100
AcDbEntity
  8
ASSI
100
AcDbPolyline
 62
7
  6
CONTINUOUS
 90
16
 70
0
 10
24.7010344188
 20
36.2625058182
 10
24.7032131406
 20
36.179102678
 10
24.7095340549
 20
36.0987189662
 10
24.7199971616
 20
36.0213546828
 10
24.7346733967
 20
35.9467399498
 10
24.7534918242
 20
35.8751446451
 10
24.7762396364
 20
35.8073784028
 10
24.8029614368
 20
35.7434846875
 10
24.8336126218
 20
35.6834200346
 10
24.8678465733
 20
35.6278636839
 10
24.9057039601
 20
35.5768668102
 10
24.9471441133
 20
35.5303782387
 10
24.9916984079
 20
35.4889236844
 10
25.0394021932
 20
35.4525602897
 10
25.0902201198
 20
35.4212309122
 10
25.1103743859
 20
35.4106459704
  0
LWPOLYLINE
  5
38D
100
AcDbEntity
  8
ASSI
100
AcDbPolyline
 62
7
  6
CONTINUOUS
 90
20
 70
0
 10
22.5918141778
 20
59.1621226631
 10
22.5892562478
 20
59.2755733527
 10
22.5731050415
 20
59.4676989069
 10
22.5421666009
 20
59.6596566557
 10
22.4965780068
 20
59.8505960806
 10
22.4362742519
 20
60.0405126629
 10
22.3613203435
 20
60.2294109212
 10
22.2720483844
 20
60.4164538929
 10
22.1683948407
 20
60.6016333455
 10
22.0504232463
 20
60.7849575115
 10
21.9186563049
 20
60.9656141256
 10
21.773032802
 20
61.1435913511
 10
21.6136139522
 20
61.3189010248
 10
21.4411061018
 20
61.4907663917
 10
21.2554511708
 20
61.6591721683
 10
21.0567072393
 20
61.8241336381
 10
20.8457548938
 20
61.9849198966
 10
20.622887663
 20
62.1412873089
 10
20.3878120182
 20
62.2934795099
 10
20.1405279594
 20
62.4414964996
  0
LWPOLYLINE
  5
38E
100
AcDbEntity
  8
ASSI
100
AcDbPolyline
 62
7
  6
CONTINUOUS
 90
40
 70
0
 10
22.6841168802
 20
53.3284917228
 10
22.6843114544
 20
53.3164265103
 10
22.6888027197
 20
53.2678542164
 10
22.699196252
 20
53.2196935879
 10
22.7155590493
 20
53.1719492979
 10
22.7378241135
 20
53.1246166735
 10
22.7657396606
 20
53.0782309745
 10
22.7993698308
 20
53.0328029499
 10
22.8386504838
 20
52.9883218507
 10
22.8831374153
 20
52.9452906906
 10
22.9328897232
 20
52.9037259281
 10
22.9878483095
 20
52.8636111047
 10
23.0473916763
 20
52.825399858
 10
23.1115718667
 20
52.7891137959
 10
23.1803368375
 20
52.7547313105
 10
23.2529089617
 20
52.7226412153
 10
23.3293314552
 20
52.6928695319
 10
23.409561102
 20
52.6653902387
 10
23.4926906268
 20
52.6405140848
 10
23.5787529471
 20
52.618270619
 10
23.6677151454
 20
52.5986302925
 10
23.7585711947
 20
52.5818152075
 10
23.8513425927
 20
52.5678574339
 10
23.9460078416
 20
52.5567249018
 10
24.0414964215
 20
52.5485435031
 10
24.1378176784
 20
52.543346737
 10
24.2349622664
 20
52.5411011043
 10
24.331831628
 20
52.5418319998
 10
24.4284226389
 20
52.5455732107
 10
24.5247384235
 20
52.5522909498
 10
24.6196897968
 20
52.5619092496
 10
24.7132612708
 20
52.5744610352
 10
24.8054683335
 20
52.5899133815
 10
24.8952682633
 20
52.608091546
 10
24.9826337361
 20
52.6290264702
 10
25.0675920759
 20
52.6526872126
 10
25.1491825333
 20
52.6788062062
 10
25.2270848583
 20
52.707294262
 10
25.3016193009
 20
52.738240569
 10
25.372785861
 20
52.7716451272
  0
LWPOLYLINE
  5
38F
100
AcDbEntity
  8
ASSI
100
AcDbPolyline
 62
7
  6
CONTINUOUS
 90
21
 70
0
 10
23.0917936469
 20
59.1621226627
 10
23.090902506
 20
59.2307970434
 10
23.0786023393
 20
59.4255721331
 10
23.0517938951
 20
59.6199827447
 10
23.0105368948
 20
59.8140303786
 10
22.955001634
 20
60.0069140684
 10
22.8851290953
 20
60.198629003
 10
22.8009782962
 20
60.3891799935
 10
22.702896584
 20
60.5777805066
 10
22.5908263773
 20
60.7644224801
 10
22.4648252576
 20
60.9491139761
 10
22.325413317
 20
61.1310926473
 10
22.1725351239
 20
61.3103472807
 10
22.0062461099
 20
61.4868890894
 10
21.8272326629
 20
61.6599893653
 10
21.635442188
 20
61.8296338834
 10
21.43092728
 20
61.9958368688
 10
21.2145321109
 20
62.1579122888
 10
20.9865380714
 20
62.315631466
 10
20.7466637707
 20
62.4692230778
 10
20.4949092088
 20
62.6186871243
  0
LINE
  5
390
100
AcDbEntity
  8
0
100
AcDbLine
 62
7
  6
CONTINUOUS
 10
20.1578733497
 20
-63.0039199402
 11
20.1578733497
 21
-79.4151013419
  0
LINE
  5
391
100
AcDbEntity
  8
0
100
AcDbLine
 62
7
  6
CONTINUOUS
 10
20.1578733497
 20
25.3306712458
 11
20.1578733497
 21
41.7418526475
  0
LINE
  5
392
100
AcDbEntity
  8
ASSI
100
AcDbLine
 62
7
  6
CONTINUOUS
 10
20.4949092088
 20
62.6186871243
 11
20.4949092088
 21
62.2241428623
  0
LINE
  5
393
100
AcDbEntity
  8
0
100
AcDbLine
 62
7
  6
CONTINUOUS
 10
21.3953102168
 20
44.0123598753
 11
21.3953102168
 21
43.1463344715
  0
LINE
  5
394
100
AcDbEntity
  8
0
100
AcDbLine
 62
7
  6
CONTINUOUS
 10
21.3953102168
 20
-78.9632474621
 11
21.3953102168
 21
-78.7963829084
  0
LINE
  5
395
100
AcDbEntity
  8
ASSI
100
AcDbLine
 62
7
  6
CONTINUOUS
 10
22.591830791
 20
58.2960972584
 11
22.591830791
 21
59.1621226622
  0
LINE
  5
396
100
AcDbEntity
  8
ASSI
100
AcDbLine
 62
253
  6
CONTINUOUS
 10
23.1453995002
 20
53.8853383076
 11
23.1453995002
 21
53.0193129038
  0
LINE
  5
397
100
AcDbEntity
  8
ASSI
100
AcDbLine
 62
7
  6
CONTINUOUS
 10
26.2191352766
 20
37.6441705272
 11
26.2213139984
 21
37.7297523892
  0
LWPOLYLINE
  5
398
100
AcDbEntity
  8
0
100
AcDbPolyline
 62
7
  6
CONTINUOUS
 90
15
 70
0
 10
22.137772337
 20
-78.4251518482
 10
22.1361262877
 20
-78.4842199253
 10
22.1313708873
 20
-78.5409758363
 10
22.1235061356
 20
-78.5954195812
 10
22.1124718972
 20
-78.6477638857
 10
22.0983283077
 20
-78.6977960242
 10
22.0812557733
 20
-78.7448778191
 10
22.061216775
 20
-78.7889714773
 10
22.0382488319
 20
-78.830114792
 10
22.0126449081
 20
-78.8677829659
 10
21.9843712372
 20
-78.9019314831
 10
21.9534615856
 20
-78.9326048596
 10
21.9203102168
 20
-78.9594118456
 10
21.8848884147
 20
-78.9823029135
 10
21.8648682067
 20
-78.9930367698
  0
LWPOLYLINE
  5
399
100
AcDbEntity
  8
0
100
AcDbPolyline
 62
7
  6
CONTINUOUS
 90
15
 70
0
 10
23.4105645432
 20
-77.7887557452
 10
23.4089184939
 20
-77.8478238222
 10
23.4041630934
 20
-77.9045797332
 10
23.3962983417
 20
-77.9590234781
 10
23.3852641034
 20
-78.0113677826
 10
23.3711205138
 20
-78.0613999211
 10
23.3540479795
 20
-78.1084817161
 10
23.3340089811
 20
-78.1525753742
 10
23.311041038
 20
-78.1937186889
 10
23.2854371142
 20
-78.2313868628
 10
23.2571634433
 20
-78.2655353801
 10
23.2262537918
 20
-78.2962087565
 10
23.1931024229
 20
-78.3230157425
 10
23.1576806208
 20
-78.3459068104
 10
23.1376604129
 20
-78.3566406667
  0
LINE
  5
39A
100
AcDbEntity
  8
0
100
AcDbLine
 62
7
  6
CONTINUOUS
 10
-45.1787932319
 20
-46.6150966577
 11
-43.3152704285
 21
-45.683335256
  0
LINE
  5
39B
100
AcDbEntity
  8
0
100
AcDbLine
 62
7
  6
CONTINUOUS
 10
-44.1181330602
 20
-47.1454267436
 11
-42.9160515321
 21
-46.5443859795
  0
LINE
  5
39C
100
AcDbEntity
  8
0
100
AcDbLine
 62
7
  6
CONTINUOUS
 10
14.5010191002
 20
20.7701933135
 11
13.793912319
 21
21.1237467041
  0
LINE
  5
39D
100
AcDbEntity
  8
0
100
AcDbLine
 62
7
  6
CONTINUOUS
 10
9.1977182413
 20
35.633243832
 11
7.2885299321
 21
38.9261065769
  0
LWPOLYLINE
  5
39E
100
AcDbEntity
  8
ASSI
100
AcDbPolyline
 62
7
  6
CONTINUOUS
 90
11
 70
0
 10
38.1456137296
 20
-23.6724108405
 10
38.1028707612
 20
-23.5808977723
 10
37.9567050719
 20
-23.3017744945
 10
37.800225263
 20
-23.0345192907
 10
37.6334714222
 20
-22.7790860333
 10
37.4570933543
 20
-22.5364700922
 10
37.2710535069
 20
-22.3067214788
 10
37.0753894325
 20
-22.0897901816
 10
36.8708635929
 20
-21.8865215366
 10
36.6574414107
 20
-21.6969688533
 10
36.4351574633
 20
-21.5210788221
  0
LWPOLYLINE
  5
39F
100
AcDbEntity
  8
ASSI
100
AcDbPolyline
 62
7
  6
CONTINUOUS
 90
8
 70
0
 10
26.2191352766
 20
37.8131555294
 10
26.2128143623
 20
37.8935392412
 10
26.2023512556
 20
37.9709035246
 10
26.1876750205
 20
38.0455182577
 10
26.168856593
 20
38.1171135623
 10
26.1461087808
 20
38.1848798046
 10
26.1193869804
 20
38.2487735199
 10
26.1031855858
 20
38.280522085
  0
LINE
  5
3A0
100
AcDbEntity
  8
ASSI
100
AcDbLine
 62
7
  6
CONTINUOUS
 10
26.2213139984
 20
37.7297523892
 11
26.2191352766
 21
37.8131555294
  0
LWPOLYLINE
  5
3A1
100
AcDbEntity
  8
ASSI
100
AcDbPolyline
 62
7
  6
CONTINUOUS
 90
16
 70
0
 10
26.9284207796
 20
37.3761989986
 10
26.9262420578
 20
37.4596021388
 10
26.9199211435
 20
37.5399858506
 10
26.9094580368
 20
37.617350134
 10
26.8947818017
 20
37.6919648671
 10
26.8759633742
 20
37.7635601717
 10
26.853215562
 20
37.831326414
 10
26.8264937616
 20
37.8952201293
 10
26.7958425765
 20
37.9552847822
 10
26.7616086251
 20
38.010841133
 10
26.7237512383
 20
38.0618380066
 10
26.6823110851
 20
38.1083265781
 10
26.6377567905
 20
38.1497811324
 10
26.5900530052
 20
38.1861445271
 10
26.5392350786
 20
38.2174739046
 10
26.5190808125
 20
38.2280588464
  0
LWPOLYLINE
  5
3A2
100
AcDbEntity
  8
ASSI
100
AcDbPolyline
 62
7
  6
CONTINUOUS
 90
5
 70
0
 10
32.5852750291
 20
-64.036259576
 10
32.5830963073
 20
-63.9528564358
 10
32.576775393
 20
-63.872472724
 10
32.5663122863
 20
-63.7951084405
 10
32.5625132802
 20
-63.7757940983
  0
LWPOLYLINE
  5
3A3
100
AcDbEntity
  8
ASSI
100
AcDbPolyline
 62
7
  6
CONTINUOUS
 90
15
 70
0
 10
33.2923818102
 20
-64.3898129666
 10
33.2902030884
 20
-64.3064098264
 10
33.2838821742
 20
-64.2260261146
 10
33.2734190675
 20
-64.1486618311
 10
33.2587428324
 20
-64.0740470981
 10
33.2399244049
 20
-64.0024517935
 10
33.2171765926
 20
-63.9346855512
 10
33.1904547923
 20
-63.8707918359
 10
33.1598036072
 20
-63.810727183
 10
33.1255696558
 20
-63.7551708322
 10
33.087712269
 20
-63.7041739585
 10
33.0462721158
 20
-63.657685387
 10
33.0017178212
 20
-63.6162308327
 10
32.9540140359
 20
-63.579867438
 10
32.913884618
 20
-63.5551275526
  0
LWPOLYLINE
  5
3A4
100
AcDbEntity
  8
ASSI
100
AcDbPolyline
 62
7
  6
CONTINUOUS
 90
4
 70
0
 10
31.4715818487
 20
-66.0073197285
 10
31.4740416148
 20
-66.1073610751
 10
31.4812033087
 20
-66.2040360502
 10
31.4930669304
 20
-66.297344654
  0
LWPOLYLINE
  5
3A5
100
AcDbEntity
  8
ASSI
100
AcDbPolyline
 62
7
  6
CONTINUOUS
 90
11
 70
0
 10
33.5929021923
 20
-64.2395527756
 10
33.5904424261
 20
-64.139511429
 10
33.5832807322
 20
-64.0428364539
 10
33.5714171105
 20
-63.9495278501
 10
33.5547797609
 20
-63.8592933328
 10
33.5334404834
 20
-63.7724251869
 10
33.5076146787
 20
-63.6898002669
 10
33.4772569063
 20
-63.611461549
 10
33.4424126068
 20
-63.537366057
 10
33.4034335013
 20
-63.4682617173
 10
33.3781032376
 20
-63.4306601929
  0
LWPOLYLINE
  5
3A6
100
AcDbEntity
  8
ASSI
100
AcDbPolyline
 62
7
  6
CONTINUOUS
 90
4
 70
0
 10
31.4715818487
 20
39.6477795332
 10
31.4740416148
 20
39.5477381866
 10
31.4812033087
 20
39.4510632115
 10
31.4930669304
 20
39.3577546077
  0
LWPOLYLINE
  5
3A7
100
AcDbEntity
  8
ASSI
100
AcDbPolyline
 62
7
  6
CONTINUOUS
 90
17
 70
0
 10
34.3000089734
 20
-64.5931061662
 10
34.2975492073
 20
-64.4930648196
 10
34.2903875134
 20
-64.3963898445
 10
34.2785238917
 20
-64.3030812407
 10
34.261886542
 20
-64.2128467234
 10
34.2405472646
 20
-64.1259785775
 10
34.2147214598
 20
-64.0433536575
 10
34.1843636875
 20
-63.9650149396
 10
34.1495193879
 20
-63.8909194476
 10
34.1105402825
 20
-63.8218151079
 10
34.0673844931
 20
-63.7577524716
 10
34.0200938978
 20
-63.6986809876
 10
33.9691458519
 20
-63.6451969285
 10
33.9145033122
 20
-63.5973568847
 10
33.856203322
 20
-63.5551042657
 10
33.7948343664
 20
-63.5188655733
 10
33.7802210316
 20
-63.5113617075
  0
LWPOLYLINE
  5
3A8
100
AcDbEntity
  8
ASSI
100
AcDbPolyline
 62
7
  6
CONTINUOUS
 90
40
 70
0
 10
25.8340684809
 20
53.3284917121
 10
25.8338739068
 20
53.3405569245
 10
25.8293826415
 20
53.3891292185
 10
25.8189891092
 20
53.437289847
 10
25.8026263119
 20
53.4850341369
 10
25.7803612477
 20
53.5323667614
 10
25.7524457005
 20
53.5787524604
 10
25.7188155304
 20
53.624180485
 10
25.6795348774
 20
53.6686615842
 10
25.6350479459
 20
53.7116927443
 10
25.585295638
 20
53.7532575067
 10
25.5303370517
 20
53.7933723301
 10
25.4707936849
 20
53.8315835769
 10
25.4066134945
 20
53.867869639
 10
25.3378485237
 20
53.9022521244
 10
25.2652763995
 20
53.9343422196
 10
25.188853906
 20
53.964113903
 10
25.1086242592
 20
53.9915931961
 10
25.0254947343
 20
54.0164693501
 10
24.9394324141
 20
54.0387128158
 10
24.8504702157
 20
54.0583531423
 10
24.7596141664
 20
54.0751682274
 10
24.6668427685
 20
54.089126001
 10
24.5721775196
 20
54.1002585331
 10
24.4766889396
 20
54.1084399317
 10
24.3803676827
 20
54.1136366979
 10
24.2832230948
 20
54.1158823305
 10
24.1863537332
 20
54.1151514351
 10
24.0897627222
 20
54.1114102241
 10
23.9934469376
 20
54.1046924851
 10
23.8984955644
 20
54.0950741852
 10
23.8049240904
 20
54.0825223997
 10
23.7127170277
 20
54.0670700534
 10
23.6229170979
 20
54.0488918889
 10
23.5355516251
 20
54.0279569647
 10
23.4505932852
 20
54.0042962223
 10
23.3690028279
 20
53.9781772287
 10
23.2911005028
 20
53.9496891729
 10
23.2165660603
 20
53.9187428658
 10
23.1453995002
 20
53.8853383076
  0
LWPOLYLINE
  5
3A9
100
AcDbEntity
  8
ASSI
100
AcDbPolyline
 62
7
  6
CONTINUOUS
 90
40
 70
0
 10
29.7551846921
 20
56.8640256287
 10
29.7553792662
 20
56.8519604163
 10
29.7598705316
 20
56.8033881223
 10
29.7702640638
 20
56.7552274938
 10
29.7866268612
 20
56.7074832039
 10
29.8088919254
 20
56.6601505794
 10
29.8368074725
 20
56.6137648804
 10
29.8704376426
 20
56.5683368558
 10
29.9097182957
 20
56.5238557566
 10
29.9542052272
 20
56.4808245965
 10
30.003957535
 20
56.4392598341
 10
30.0589161213
 20
56.3991450107
 10
30.1184594882
 20
56.3609337639
 10
30.1826396785
 20
56.3246477018
 10
30.2514046494
 20
56.2902652164
 10
30.3239767736
 20
56.2581751212
 10
30.400399267
 20
56.2284034378
 10
30.4806289138
 20
56.2009241447
 10
30.5637584387
 20
56.1760479907
 10
30.649820759
 20
56.153804525
 10
30.7387829573
 20
56.1341641985
 10
30.8296390066
 20
56.1173491134
 10
30.9224104045
 20
56.1033913398
 10
31.0170756534
 20
56.0922588077
 10
31.1125642334
 20
56.0840774091
 10
31.2088854903
 20
56.0788806429
 10
31.3060300783
 20
56.0766350103
 10
31.4028994398
 20
56.0773659057
 10
31.4994904508
 20
56.0811071167
 10
31.5958062354
 20
56.0878248557
 10
31.6907576086
 20
56.0974431556
 10
31.7843290827
 20
56.1099949411
 10
31.8765361454
 20
56.1254472874
 10
31.9663360751
 20
56.1436254519
 10
32.0537015479
 20
56.1645603761
 10
32.1386598878
 20
56.1882211185
 10
32.2202503452
 20
56.2143401121
 10
32.2981526702
 20
56.2428281679
 10
32.3726871128
 20
56.273774475
 10
32.4438536728
 20
56.3071790332
  0
LINE
  5
3AA
100
AcDbEntity
  8
0
100
AcDbLine
 62
7
  6
CONTINUOUS
 10
30.0573682863
 20
-53.4642378318
 11
30.0573682863
 21
-50.519751459
  0
LINE
  5
3AB
100
AcDbEntity
  8
0
100
AcDbLine
 62
7
  6
CONTINUOUS
 10
30.0573682863
 20
22.7459977012
 11
30.0573682863
 21
25.6904840741
  0
LINE
  5
3AC
100
AcDbEntity
  8
ASSI
100
AcDbLine
 62
253
  6
CONTINUOUS
 10
30.2164673121
 20
57.4208722135
 11
30.2164673121
 21
56.5548468098
  0
LINE
  5
3AD
100
AcDbEntity
  8
0
100
AcDbLine
 62
7
  6
CONTINUOUS
 10
30.7644750675
 20
30.6339721047
 11
30.7644750675
 21
29.6090280783
  0
LINE
  5
3AE
100
AcDbEntity
  8
0
100
AcDbLine
 62
7
  6
CONTINUOUS
 10
30.7644750675
 20
26.7368577877
 11
30.7644750675
 21
23.806657873
  0
LINE
  5
3AF
100
AcDbEntity
  8
0
100
AcDbLine
 62
7
  6
CONTINUOUS
 10
30.7644750675
 20
-49.4733777453
 11
30.7644750675
 21
-52.40357766
  0
LINE
  5
3B0
100
AcDbEntity
  8
0
100
AcDbLine
 62
7
  6
CONTINUOUS
 10
30.7644750675
 20
-55.9685682737
 11
30.7644750675
 21
-56.9935123001
  0
LINE
  5
3B1
100
AcDbEntity
  8
0
100
AcDbLine
 62
7
  6
CONTINUOUS
 10
31.4715818487
 20
30.9875254953
 11
31.4715818487
 21
29.2554746877
  0
LINE
  5
3B2
100
AcDbEntity
  8
0
100
AcDbLine
 62
7
  6
CONTINUOUS
 10
31.4715818487
 20
26.3975908553
 11
31.4715818487
 21
23.4531044824
  0
LINE
  5
3B3
100
AcDbEntity
  8
0
100
AcDbLine
 62
7
  6
CONTINUOUS
 10
31.4715818487
 20
-49.8126446778
 11
31.4715818487
 21
-52.7571310506
  0
LINE
  5
3B4
100
AcDbEntity
  8
0
100
AcDbLine
 62
7
  6
CONTINUOUS
 10
31.4715818487
 20
-55.6150148831
 11
31.4715818487
 21
-57.3470656907
  0
LINE
  5
3B5
100
AcDbEntity
  8
0
100
AcDbLine
 62
7
  6
CONTINUOUS
 10
31.5069371878
 20
49.0681733608
 11
31.5069371878
 21
48.202147957
  0
LINE
  5
3B6
100
AcDbEntity
  8
0
100
AcDbLine
 62
7
  6
CONTINUOUS
 10
31.5069371878
 20
-73.9074339766
 11
31.5069371878
 21
-73.7405694229
  0
LINE
  5
3B7
100
AcDbEntity
  8
ASSI
100
AcDbLine
 62
7
  6
CONTINUOUS
 10
26.2191352766
 20
-68.0109287345
 11
26.2213139984
 21
-67.9253468725
  0
LWPOLYLINE
  5
3B8
100
AcDbEntity
  8
0
100
AcDbPolyline
 62
7
  6
CONTINUOUS
 90
25
 70
0
 10
30.0573682863
 20
25.6904840741
 10
30.0586224191
 20
25.7367424561
 10
30.0622455814
 20
25.7836082172
 10
30.0682377731
 20
25.8310813574
 10
30.0766448119
 20
25.879369771
 10
30.0874208801
 20
25.9282655638
 10
30.1004285253
 20
25.9771450528
 10
30.1156963336
 20
26.0260080292
 10
30.1331957188
 20
26.0748547018
 10
30.1527034703
 20
26.1230620144
 10
30.1742453148
 20
26.1706217767
 10
30.1977955255
 20
26.217542179
 10
30.2230537113
 20
26.2632247351
 10
30.250041751
 20
26.3076535884
 10
30.2787377657
 20
26.3508445956
 10
30.3087757279
 20
26.3922468403
 10
30.3401728276
 20
26.4318374087
 10
30.3729118747
 20
26.4696392145
 10
30.4065752712
 20
26.5051700827
 10
30.4411748579
 20
26.5384009228
 10
30.4766987941
 20
26.5693608252
 10
30.5126939596
 20
26.5976548855
 10
30.5490093142
 20
26.6231514689
 10
30.5857958981
 20
26.6459822103
 10
30.6230537113
 20
26.6661471096
  0
LWPOLYLINE
  5
3B9
100
AcDbEntity
  8
0
100
AcDbPolyline
 62
7
  6
CONTINUOUS
 90
25
 70
0
 10
31.4715818487
 20
23.4531044824
 10
31.4703277159
 20
23.4068461004
 10
31.4667045536
 20
23.3599803393
 10
31.4607123619
 20
23.3125071991
 10
31.4523053231
 20
23.2642187854
 10
31.4415292549
 20
23.2153229927
 10
31.4285216097
 20
23.1664435037
 10
31.4132538014
 20
23.1175805273
 10
31.3957544162
 20
23.0687338546
 10
31.3762466647
 20
23.0205265421
 10
31.3547048202
 20
22.9729667797
 10
31.3311546095
 20
22.9260463775
 10
31.3058964237
 20
22.8803638214
 10
31.278908384
 20
22.835934968
 10
31.2502123693
 20
22.7927439609
 10
31.2201744071
 20
22.7513417162
 10
31.1887773074
 20
22.7117511478
 10
31.1560382603
 20
22.6739493419
 10
31.1223748638
 20
22.6384184738
 10
31.0877752771
 20
22.6051876337
 10
31.0522513409
 20
22.5742277313
 10
31.0162561755
 20
22.545933671
 10
30.9799408208
 20
22.5204370875
 10
30.9431542369
 20
22.4976063462
 10
30.9058964237
 20
22.4774414469
  0
LWPOLYLINE
  5
3BA
100
AcDbEntity
  8
0
100
AcDbPolyline
 62
7
  6
CONTINUOUS
 90
25
 70
0
 10
30.0573682863
 20
-50.519751459
 10
30.0586224191
 20
-50.473493077
 10
30.0622455814
 20
-50.4266273159
 10
30.0682377731
 20
-50.3791541756
 10
30.0766448119
 20
-50.330865762
 10
30.0874208801
 20
-50.2819699692
 10
30.1004285253
 20
-50.2330904802
 10
30.1156963336
 20
-50.1842275038
 10
30.1331957188
 20
-50.1353808312
 10
30.1527034703
 20
-50.0871735187
 10
30.1742453148
 20
-50.0396137563
 10
30.1977955255
 20
-49.992693354
 10
30.2230537113
 20
-49.9470107979
 10
30.250041751
 20
-49.9025819446
 10
30.2787377657
 20
-49.8593909374
 10
30.3087757279
 20
-49.8179886928
 10
30.3401728276
 20
-49.7783981244
 10
30.3729118747
 20
-49.7405963185
 10
30.4065752712
 20
-49.7050654504
 10
30.4411748579
 20
-49.6718346102
 10
30.4766987941
 20
-49.6408747079
 10
30.5126939596
 20
-49.6125806475
 10
30.5490093142
 20
-49.5870840641
 10
30.5857958981
 20
-49.5642533227
 10
30.6230537113
 20
-49.5440884235
  0
LINE
  5
3BB
100
AcDbEntity
  8
0
100
AcDbLine
 62
7
  6
CONTINUOUS
 10
-45.8505446741
 20
-54.9394749744
 11
-45.8072434039
 21
-54.9178243394
  0
LINE
  5
3BC
100
AcDbEntity
  8
0
100
AcDbLine
 62
7
  6
CONTINUOUS
 10
-41.2895073078
 20
-54.3913679052
 11
-44.1181330602
 21
-55.8056807814
  0
LWPOLYLINE
  5
3BD
100
AcDbEntity
  8
ASSI
100
AcDbPolyline
 62
7
  6
CONTINUOUS
 90
30
 70
0
 10
24.8191628314
 20
35.7117361225
 10
24.8692851286
 20
35.721378097
 10
24.9368792452
 20
35.7396998545
 10
25.0048621753
 20
35.7633550076
 10
25.0732383326
 20
35.7924040973
 10
25.1420033034
 20
35.8267865827
 10
25.2103794607
 20
35.8661136503
 10
25.2783623909
 20
35.9104414273
 10
25.3459565074
 20
35.9597137864
 10
25.4123974238
 20
36.0133735323
 10
25.4776720497
 20
36.0714704673
 10
25.5417934753
 20
36.1339547891
 10
25.6040365851
 20
36.200119895
 10
25.6643800576
 20
36.2700075665
 10
25.7228452141
 20
36.3435760223
 10
25.7787709028
 20
36.4199933148
 10
25.8321282974
 20
36.4992917821
 10
25.882946224
 20
36.5814390863
 10
25.9306500094
 20
36.6655062663
 10
25.9752043039
 20
36.7515151152
 10
26.0166444571
 20
36.8394438399
 10
26.0545018439
 20
36.9282981003
 10
26.0887357954
 20
37.0180884026
 10
26.1193869804
 20
37.1088042405
 10
26.1461087808
 20
37.1994197562
 10
26.168856593
 20
37.2899338107
 10
26.1876750205
 20
37.3803475429
 10
26.2023512556
 20
37.469638511
 10
26.2128143623
 20
37.5574659011
 10
26.2191352766
 20
37.6441705272
  0
LWPOLYLINE
  5
3BE
100
AcDbEntity
  8
0
100
AcDbPolyline
 62
7
  6
CONTINUOUS
 90
9
 70
0
 10
10.2583784131
 20
29.3746274023
 10
10.1531110524
 20
29.3937844953
 10
10.0357250185
 20
29.4190839627
 10
9.9215096974
 20
29.447783238
 10
9.8104332978
 20
29.4798482326
 10
9.7036170343
 20
29.5149552797
 10
9.6014346453
 20
29.5529964904
 10
9.5035123924
 20
29.5940797535
 10
9.4098502757
 20
29.6382050691
  0
LWPOLYLINE
  5
3BF
100
AcDbEntity
  8
ASSI
100
AcDbPolyline
 62
7
  6
CONTINUOUS
 90
59
 70
0
 10
35.4469913999
 20
18.2556083586
 10
35.1846253645
 20
18.3252073839
 10
34.9165053736
 20
18.3801839969
 10
34.6426537241
 20
18.4205948602
 10
34.3641343559
 20
18.4462829738
 10
34.0809291111
 20
18.4571910642
 10
33.7930561476
 20
18.4533764048
 10
33.5016338795
 20
18.4348538161
 10
33.2066484995
 20
18.4015660822
 10
32.9081138149
 20
18.3535704188
 10
32.6071896616
 20
18.2910532938
 10
32.3038667442
 20
18.2139582167
 10
31.998154358
 20
18.122341678
 10
31.6912402251
 20
18.0165596166
 10
31.3831196705
 20
17.8965569269
 10
31.073797369
 20
17.7623887145
 10
30.7644750675
 20
17.6145762359
 10
30.455152766
 20
17.4530664131
 10
30.1458304646
 20
17.2779123239
 10
29.8377099099
 20
17.089794459
 10
29.530795777
 20
16.8886623874
 10
29.2250833908
 20
16.67456654
 10
28.9217604734
 20
16.4483386997
 10
28.6208363201
 20
16.2099316714
 10
28.3223016355
 20
15.9593926502
 10
28.0273162556
 20
15.6976950042
 10
27.7358939874
 20
15.4247953248
 10
27.4480210239
 20
15.1407370206
 10
27.1648157791
 20
14.8466236853
 10
26.8862964109
 20
14.5424162036
 10
26.6124447615
 20
14.2281536908
 10
26.3443247706
 20
13.905057087
 10
26.0819587352
 20
13.5730920263
 10
25.8253243583
 20
13.2322928745
 10
25.5754186892
 20
12.883983669
 10
25.3322679035
 20
12.5281351948
 10
25.0958458254
 20
12.1647766668
 10
24.8670709776
 20
11.7953197679
 10
24.6459731086
 20
11.4197407745
 10
24.4325224699
 20
11.0380634102
 10
24.2275483375
 20
10.651770528
 10
24.0310836862
 20
10.2608441731
 10
23.8430955413
 20
9.8653023003
 10
23.6643142548
 20
9.4666816278
 10
23.4947756425
 20
9.0649701787
 10
23.3344438885
 20
8.6601799299
 10
23.1839418971
 20
8.2538835302
 10
23.0433079074
 20
7.8460751207
 10
22.9125036802
 20
7.4367605603
 10
22.7920374026
 20
7.0275300755
 10
22.6819492906
 20
6.6183839932
 10
22.582199128
 20
6.2093219865
 10
22.493174454
 20
5.8019333004
 10
22.414916992
 20
5.3962244444
 10
22.3473850186
 20
4.992188909
 10
22.2908409017
 20
4.5913964111
 10
22.2453720977
 20
4.1943701895
 10
22.2108911503
 20
3.8005870054
 10
22.1873980596
 20
3.4100468586
  0
LINE
  5
3C0
100
AcDbEntity
  8
ASSI
100
AcDbLine
 62
7
  6
CONTINUOUS
 10
35.7036257767
 20
18.1714435837
 11
35.4469913999
 21
18.2556083586
  0
LWPOLYLINE
  5
3C1
100
AcDbEntity
  8
ASSI
100
AcDbPolyline
 62
7
  6
CONTINUOUS
 90
3
 70
0
 10
36.198106454
 20
17.9596303559
 10
35.9535314458
 20
18.0730400473
 10
35.7036257767
 20
18.1714435837
  0
LWPOLYLINE
  5
3C2
100
AcDbEntity
  8
ASSI
100
AcDbPolyline
 62
7
  6
CONTINUOUS
 90
11
 70
0
 10
35.4909996728
 20
18.3131837465
 10
35.2464246646
 20
18.4265934379
 10
34.9965189955
 20
18.5249969743
 10
34.7398846187
 20
18.6091617492
 10
34.4775185833
 20
18.6787607745
 10
34.2093985924
 20
18.7337373875
 10
33.9355469429
 20
18.7741482508
 10
33.6570275748
 20
18.7998363644
 10
33.3738223299
 20
18.8107444548
 10
33.0859493664
 20
18.8069297954
 10
32.8872073005
 20
18.7942978934
  0
LWPOLYLINE
  5
3C3
100
AcDbEntity
  8
ASSI
100
AcDbPolyline
 62
7
  6
CONTINUOUS
 90
62
 70
0
 10
36.421713013
 20
18.4068434742
 10
36.1740389366
 20
18.5219304928
 10
35.9136380562
 20
18.6249313348
 10
35.6462013913
 20
18.7130666639
 10
35.3727710865
 20
18.7859930351
 10
35.0933237555
 20
18.8436511052
 10
34.8078827847
 20
18.8861002174
 10
34.5175604775
 20
18.9131749565
 10
34.2223377878
 20
18.9248153338
 10
33.9222337619
 20
18.9210813379
 10
33.6184178422
 20
18.9019875195
 10
33.3108755454
 20
18.8674739466
 10
32.9996213549
 20
18.8176005512
 10
32.685868163
 20
18.7525616794
 10
32.3696062189
 20
18.6722981576
 10
32.0508452733
 20
18.5768691595
 10
31.730827471
 20
18.4666465518
 10
31.4095479077
 20
18.3415726119
 10
31.0870114876
 20
18.2017050624
 10
30.7644750675
 20
18.0475889378
 10
30.4419386474
 20
17.8791686423
 10
30.1194022273
 20
17.6964997717
 10
29.798122664
 20
17.5002941483
 10
29.4781048617
 20
17.2904989537
 10
29.1593439162
 20
17.0671670063
 10
28.843081972
 20
16.8311685839
 10
28.5293287801
 20
16.5824542638
 10
28.2180745896
 20
16.3210734687
 10
27.9105322928
 20
16.0480447448
 10
27.6067163731
 20
15.7633226435
 10
27.3066123472
 20
15.4669526135
 10
27.0113896575
 20
15.1600895465
 10
26.7210673504
 20
14.8426925003
 10
26.4356263795
 20
14.5148024171
 10
26.1561790485
 20
14.177697016
 10
25.8827487437
 20
13.8313403401
 10
25.6153120788
 20
13.4757683461
 10
25.3549111984
 20
13.1123666237
 10
25.1015735552
 20
12.7411046224
 10
24.8552716966
 20
12.3620128927
 10
24.6169654091
 20
11.9765686755
 10
24.3866858905
 20
11.5847471844
 10
24.1644019431
 20
11.1865732058
 10
23.950979761
 20
10.7835983404
 10
23.7464539213
 20
10.3758038557
 10
23.5507898469
 20
9.9632084841
 10
23.3647499995
 20
9.5474200233
 10
23.1883719317
 20
9.1284260143
 10
23.0216180908
 20
8.7062389161
 10
22.8651382819
 20
8.2825039034
 10
22.7189725926
 20
7.8572149363
 10
22.5830809352
 20
7.4303780547
 10
22.4579928509
 20
7.0036565523
 10
22.3437504938
 20
6.5770508795
 10
22.2403117098
 20
6.1505605859
 10
22.1480795783
 20
5.725847615
 10
22.0670978259
 20
5.3029189014
 10
21.997322726
 20
4.8817675105
 10
21.9390261774
 20
4.4640345808
 10
21.8922988132
 20
4.0502671587
 10
21.8570500003
 20
3.6399181978
 10
21.8332797388
 20
3.2329876982
  0
LINE
  5
3C4
100
AcDbEntity
  8
ASSI
100
AcDbLine
 62
7
  6
CONTINUOUS
 10
39.6956703962
 20
12.164183027
 11
39.3181371532
 21
12.3529496485
  0
LINE
  5
3C5
100
AcDbEntity
  8
0
100
AcDbLine
 62
253
  6
CONTINUOUS
 10
20.1578733497
 20
23.5986204383
 11
19.4507665685
 21
23.9521738289
  0
LINE
  5
3C6
100
AcDbEntity
  8
0
100
AcDbLine
 62
7
  6
CONTINUOUS
 10
-45.1787932319
 20
57.3079517965
 11
-44.1181330602
 21
56.7776217106
  0
LINE
  5
3C7
100
AcDbEntity
  8
0
100
AcDbLine
 62
7
  6
CONTINUOUS
 10
10.2583784131
 20
29.589365974
 11
9.1977182413
 21
30.1196960598
  0
LINE
  5
3C8
100
AcDbEntity
  8
0
100
AcDbLine
 62
7
  6
CONTINUOUS
 10
20.1578733497
 20
25.3306712458
 11
19.4507665685
 21
25.6842246364
  0
LINE
  5
3C9
100
AcDbEntity
  8
ASSI
100
AcDbLine
 62
7
  6
CONTINUOUS
 10
35.4910134716
 20
18.3132113412
 11
36.1981202528
 21
17.9596579506
  0
LWPOLYLINE
  5
3CA
100
AcDbEntity
  8
ASSI
100
AcDbPolyline
 62
7
  6
CONTINUOUS
 90
10
 70
0
 10
23.0547782657
 20
58.7323151562
 10
23.0517938951
 20
58.7539573409
 10
23.0105368948
 20
58.9480049748
 10
22.955001634
 20
59.1408886646
 10
22.8851290953
 20
59.3326035992
 10
22.8009782962
 20
59.5231545898
 10
22.702896584
 20
59.7117551028
 10
22.5908263773
 20
59.8983970763
 10
22.4648252576
 20
60.0830885723
 10
22.3705512037
 20
60.2061473792
  0
LWPOLYLINE
  5
3CB
100
AcDbEntity
  8
ASSI
100
AcDbPolyline
 62
7
  6
CONTINUOUS
 90
8
 70
0
 10
40.3612709003
 20
-60.7708759204
 10
40.3549499861
 20
-60.6904922086
 10
40.3444868793
 20
-60.6131279252
 10
40.3298106443
 20
-60.5385131922
 10
40.3109922167
 20
-60.4669178875
 10
40.2882444045
 20
-60.3991516452
 10
40.2615226041
 20
-60.33525793
 10
40.2453212095
 20
-60.3035093649
  0
LWPOLYLINE
  5
3CC
100
AcDbEntity
  8
ASSI
100
AcDbPolyline
 62
7
  6
CONTINUOUS
 90
24
 70
0
 10
39.3415520754
 20
-27.8500447075
 10
39.3180589847
 20
-27.4829976515
 10
39.2835780373
 20
-27.1236954147
 10
39.2381092333
 20
-26.7721379972
 10
39.1815651165
 20
-26.4278896161
 10
39.114033143
 20
-26.0913860542
 10
39.035775681
 20
-25.7639346602
 10
38.946751007
 20
-25.4455706481
 10
38.8470008444
 20
-25.1362588039
 10
38.7369127324
 20
-24.8372008337
 10
38.6164464548
 20
-24.5484366265
 10
38.4856422276
 20
-24.2699262933
 10
38.3450082379
 20
-24.0027518735
 10
38.1945062465
 20
-23.7469574652
 10
38.0341744926
 20
-23.5024989703
 10
37.8646358802
 20
-23.2703261335
 10
37.6858545937
 20
-23.0504867476
 10
37.4978664488
 20
-22.8429330197
 10
37.3014017975
 20
-22.648471316
 10
37.0964276651
 20
-22.4671525663
 10
36.8829770264
 20
-22.2989258407
 10
36.6618791574
 20
-22.1444447163
 10
36.4331043096
 20
-22.0037626652
 10
36.198106454
 20
-21.8775382182
  0
LWPOLYLINE
  5
3CD
100
AcDbEntity
  8
ASSI
100
AcDbPolyline
 62
7
  6
CONTINUOUS
 90
24
 70
0
 10
39.6956703962
 20
-27.6729855471
 10
39.6719001347
 20
-27.2898253091
 10
39.6366513218
 20
-26.9147251611
 10
39.5899239576
 20
-26.5476851031
 10
39.531627409
 20
-26.1882487221
 10
39.4618523091
 20
-25.836872431
 10
39.3808705568
 20
-25.4949254699
 10
39.2886384252
 20
-25.1624446304
 10
39.1851996413
 20
-24.8393931208
 10
39.0709572841
 20
-24.5270298051
 10
38.9458691999
 20
-24.2253963871
 10
38.8099775424
 20
-23.9344511629
 10
38.6638118531
 20
-23.6553278851
 10
38.5073320442
 20
-23.3880726813
 10
38.3405782034
 20
-23.1326394239
 10
38.1642001355
 20
-22.8900234828
 10
37.9781602881
 20
-22.6602748694
 10
37.7824962137
 20
-22.4433435722
 10
37.5779703741
 20
-22.2400749272
 10
37.3645481919
 20
-22.0505222439
 10
37.1422642445
 20
-21.8746322127
 10
36.9119847259
 20
-21.7130902402
 10
36.6736784385
 20
-21.5659523105
 10
36.421713013
 20
-21.4303250999
  0
LWPOLYLINE
  5
3CE
100
AcDbEntity
  8
0
100
AcDbPolyline
 62
7
  6
CONTINUOUS
 90
25
 70
0
 10
31.5422925268
 20
48.1411690173
 10
31.5422141435
 20
48.1440601662
 10
31.5419876959
 20
48.1469892762
 10
31.5416131839
 20
48.1499563475
 10
31.541087744
 20
48.1529743733
 10
31.5404142397
 20
48.1560303604
 10
31.5396012619
 20
48.1590853285
 10
31.5386470239
 20
48.1621392645
 10
31.5375533123
 20
48.1651921815
 10
31.5363340778
 20
48.1682051385
 10
31.5349877125
 20
48.1711776237
 10
31.5335158244
 20
48.1741101488
 10
31.5319371878
 20
48.1769653086
 10
31.5302504353
 20
48.1797421119
 10
31.5284569343
 20
48.1824415499
 10
31.5265795617
 20
48.1850291902
 10
31.524617243
 20
48.1875036007
 10
31.5225710525
 20
48.1898662136
 10
31.5204670903
 20
48.1920868928
 10
31.5183046161
 20
48.1941638203
 10
31.5160843701
 20
48.1960988142
 10
31.5138346722
 20
48.197867193
 10
31.5115649626
 20
48.1994607295
 10
31.5092658011
 20
48.2008876508
 10
31.5069371878
 20
48.202147957
  0
LWPOLYLINE
  5
3CF
100
AcDbEntity
  8
0
100
AcDbPolyline
 62
7
  6
CONTINUOUS
 90
25
 70
0
 10
32.249399308
 20
47.7876156267
 10
32.2477532587
 20
47.848329753
 10
32.2429978582
 20
47.9098410645
 10
32.2351331065
 20
47.9721495611
 10
32.2240988682
 20
48.035528104
 10
32.2099552786
 20
48.099703832
 10
32.1928827443
 20
48.1638581613
 10
32.172843746
 20
48.2279908178
 10
32.1498758028
 20
48.2921020756
 10
32.124271879
 20
48.3553741733
 10
32.0959982081
 20
48.4177963614
 10
32.0650885566
 20
48.4793793894
 10
32.0319371878
 20
48.5393377443
 10
31.9965153856
 20
48.5976506143
 10
31.9588518663
 20
48.6543388112
 10
31.9194270409
 20
48.7086792573
 10
31.8782183476
 20
48.7606418783
 10
31.8352483483
 20
48.8102567485
 10
31.7910651403
 20
48.856891013
 10
31.7456531827
 20
48.9005064906
 10
31.6990280165
 20
48.9411413625
 10
31.6517843619
 20
48.9782773167
 10
31.6041204589
 20
49.0117415824
 10
31.5558380675
 20
49.0417069305
 10
31.5069371878
 20
49.0681733608
  0
LWPOLYLINE
  5
3D0
100
AcDbEntity
  8
0
100
AcDbPolyline
 62
7
  6
CONTINUOUS
 90
25
 70
0
 10
33.5221915141
 20
48.4240117298
 10
33.5205454648
 20
48.4847258561
 10
33.5157900644
 20
48.5462371676
 10
33.5079253127
 20
48.6085456641
 10
33.4968910743
 20
48.671924207
 10
33.4827474848
 20
48.736099935
 10
33.4656749504
 20
48.8002542643
 10
33.4456359521
 20
48.8643869209
 10
33.422668009
 20
48.9284981787
 10
33.3970640852
 20
48.9917702764
 10
33.3687904143
 20
49.0541924645
 10
33.3378807627
 20
49.1157754925
 10
33.3047293939
 20
49.1757338474
 10
33.2693075918
 20
49.2340467174
 10
33.2316440724
 20
49.2907349143
 10
33.192219247
 20
49.3450753604
 10
33.1510105537
 20
49.3970379814
 10
33.1080405544
 20
49.4466528516
 10
33.0638573465
 20
49.493287116
 10
33.0184453889
 20
49.5369025937
 10
32.9718202227
 20
49.5775374656
 10
32.924576568
 20
49.6146734197
 10
32.876912665
 20
49.6481376855
 10
32.8286302737
 20
49.6781030335
 10
32.7797293939
 20
49.7045694639
  0
LWPOLYLINE
  5
3D1
100
AcDbEntity
  8
ASSI
100
AcDbPolyline
 62
7
  6
CONTINUOUS
 90
5
 70
0
 10
32.5852750291
 20
41.6188396857
 10
32.5830963073
 20
41.7022428259
 10
32.576775393
 20
41.7826265377
 10
32.5663122863
 20
41.8599908212
 10
32.5625132802
 20
41.8793051634
  0
LWPOLYLINE
  5
3D2
100
AcDbEntity
  8
ASSI
100
AcDbPolyline
 62
7
  6
CONTINUOUS
 90
15
 70
0
 10
33.2923818102
 20
41.2652862951
 10
33.2902030884
 20
41.3486894353
 10
33.2838821742
 20
41.4290731471
 10
33.2734190675
 20
41.5064374306
 10
33.2587428324
 20
41.5810521636
 10
33.2399244049
 20
41.6526474682
 10
33.2171765926
 20
41.7204137106
 10
33.1904547923
 20
41.7843074258
 10
33.1598036072
 20
41.8443720787
 10
33.1255696558
 20
41.8999284295
 10
33.087712269
 20
41.9509253032
 10
33.0462721158
 20
41.9974138747
 10
33.0017178212
 20
42.038868429
 10
32.9540140359
 20
42.0752318237
 10
32.913884618
 20
42.0999717091
  0
LWPOLYLINE
  5
3D3
100
AcDbEntity
  8
ASSI
100
AcDbPolyline
 62
7
  6
CONTINUOUS
 90
16
 70
0
 10
38.8431700426
 20
-62.3215256316
 10
38.8453487644
 20
-62.4049287718
 10
38.8516696786
 20
-62.4853124836
 10
38.8621327853
 20
-62.562676767
 10
38.8768090204
 20
-62.6372915001
 10
38.8956274479
 20
-62.7088868047
 10
38.9183752602
 20
-62.776653047
 10
38.9450970605
 20
-62.8405467623
 10
38.9757482456
 20
-62.9006114152
 10
39.009982197
 20
-62.956167766
 10
39.0478395838
 20
-63.0071646396
 10
39.089279737
 20
-63.0536532111
 10
39.1338340316
 20
-63.0951077655
 10
39.1815378169
 20
-63.1314711601
 10
39.2323557436
 20
-63.1628005376
 10
39.2525100096
 20
-63.1733854794
  0
LINE
  5
3D4
100
AcDbEntity
  8
ASSI
100
AcDbLine
 62
7
  6
CONTINUOUS
 10
40.3634496221
 20
-60.8542790606
 11
40.3612709003
 21
-60.7708759204
  0
LWPOLYLINE
  5
3D5
100
AcDbEntity
  8
ASSI
100
AcDbPolyline
 62
7
  6
CONTINUOUS
 90
11
 70
0
 10
33.5929021923
 20
41.4155464861
 10
33.5904424261
 20
41.5155878327
 10
33.5832807322
 20
41.6122628078
 10
33.5714171105
 20
41.7055714116
 10
33.5547797609
 20
41.7958059289
 10
33.5334404834
 20
41.8826740748
 10
33.5076146787
 20
41.9652989948
 10
33.4772569063
 20
42.0436377127
 10
33.4424126068
 20
42.1177332047
 10
33.4034335013
 20
42.1868375444
 10
33.3781032376
 20
42.2244390688
  0
LWPOLYLINE
  5
3D6
100
AcDbEntity
  8
ASSI
100
AcDbPolyline
 62
7
  6
CONTINUOUS
 90
17
 70
0
 10
34.3000089734
 20
41.0619930955
 10
34.2975492073
 20
41.1620344421
 10
34.2903875134
 20
41.2587094172
 10
34.2785238917
 20
41.352018021
 10
34.261886542
 20
41.4422525383
 10
34.2405472646
 20
41.5291206842
 10
34.2147214598
 20
41.6117456042
 10
34.1843636875
 20
41.6900843221
 10
34.1495193879
 20
41.7641798141
 10
34.1105402825
 20
41.8332841538
 10
34.0673844931
 20
41.8973467901
 10
34.0200938978
 20
41.9564182741
 10
33.9691458519
 20
42.0099023332
 10
33.9145033122
 20
42.057742377
 10
33.856203322
 20
42.099994996
 10
33.7948343664
 20
42.1362336884
 10
33.7802210316
 20
42.1437375542
  0
LWPOLYLINE
  5
3D7
100
AcDbEntity
  8
ASSI
100
AcDbPolyline
 62
7
  6
CONTINUOUS
 90
40
 70
0
 10
32.9051362928
 20
56.864025618
 10
32.9049417187
 20
56.8760908305
 10
32.9004504533
 20
56.9246631244
 10
32.8900569211
 20
56.9728237529
 10
32.8736941237
 20
57.0205680429
 10
32.8514290595
 20
57.0679006673
 10
32.8235135124
 20
57.1142863663
 10
32.7898833423
 20
57.1597143909
 10
32.7506026892
 20
57.2041954901
 10
32.7061157577
 20
57.2472266502
 10
32.6563634499
 20
57.2887914127
 10
32.6014048636
 20
57.3289062361
 10
32.5418614968
 20
57.3671174828
 10
32.4776813064
 20
57.4034035449
 10
32.4089163355
 20
57.4377860303
 10
32.3363442114
 20
57.4698761255
 10
32.2599217179
 20
57.4996478089
 10
32.1796920711
 20
57.5271271021
 10
32.0965625462
 20
57.552003256
 10
32.0105002259
 20
57.5742467218
 10
31.9215380276
 20
57.5938870483
 10
31.8306819783
 20
57.6107021333
 10
31.7379105804
 20
57.6246599069
 10
31.6432453315
 20
57.635792439
 10
31.5477567515
 20
57.6439738377
 10
31.4514354946
 20
57.6491706038
 10
31.3542909066
 20
57.6514162365
 10
31.2574215451
 20
57.650685341
 10
31.1608305341
 20
57.6469441301
 10
31.0645147495
 20
57.640226391
 10
30.9695633763
 20
57.6306080912
 10
30.8759919022
 20
57.6180563056
 10
30.7837848395
 20
57.6026039593
 10
30.6939849098
 20
57.5844257948
 10
30.606619437
 20
57.5634908706
 10
30.5216610971
 20
57.5398301282
 10
30.4400706397
 20
57.5137111346
 10
30.3621683147
 20
57.4852230788
 10
30.2876338721
 20
57.4542767718
 10
30.2164673121
 20
57.4208722135
  0
LINE
  5
3D8
100
AcDbEntity
  8
ASSI
100
AcDbLine
 62
7
  6
CONTINUOUS
 10
40.3612709003
 20
44.7152383391
 11
40.3634496221
 21
44.8008202011
  0
LWPOLYLINE
  5
3D9
100
AcDbEntity
  8
0
100
AcDbPolyline
 62
7
  6
CONTINUOUS
 90
25
 70
0
 10
31.4715818487
 20
-52.7571310506
 10
31.4703277159
 20
-52.8033894326
 10
31.4667045536
 20
-52.8502551937
 10
31.4607123619
 20
-52.897728334
 10
31.4523053231
 20
-52.9460167476
 10
31.4415292549
 20
-52.9949125404
 10
31.4285216097
 20
-53.0437920294
 10
31.4132538014
 20
-53.0926550058
 10
31.3957544162
 20
-53.1415016784
 10
31.3762466647
 20
-53.1897089909
 10
31.3547048202
 20
-53.2372687533
 10
31.3311546095
 20
-53.2841891556
 10
31.3058964237
 20
-53.3298717117
 10
31.278908384
 20
-53.374300565
 10
31.2502123693
 20
-53.4174915722
 10
31.2201744071
 20
-53.4588938168
 10
31.1887773074
 20
-53.4984843852
 10
31.1560382603
 20
-53.5362861911
 10
31.1223748638
 20
-53.5718170592
 10
31.0877752771
 20
-53.6050478994
 10
31.0522513409
 20
-53.6360078017
 10
31.0162561755
 20
-53.664301862
 10
30.9799408208
 20
-53.6897984455
 10
30.9431542369
 20
-53.7126291869
 10
30.9058964237
 20
-53.7327940861
  0
LWPOLYLINE
  5
3DA
100
AcDbEntity
  8
0
100
AcDbPolyline
 62
7
  6
CONTINUOUS
 90
15
 70
0
 10
32.249399308
 20
-73.3693383628
 10
32.2477532587
 20
-73.4284064398
 10
32.2429978582
 20
-73.4851623508
 10
32.2351331065
 20
-73.5396060957
 10
32.2240988682
 20
-73.5919504002
 10
32.2099552786
 20
-73.6419825387
 10
32.1928827443
 20
-73.6890643337
 10
32.172843746
 20
-73.7331579918
 10
32.1498758028
 20
-73.7743013065
 10
32.124271879
 20
-73.8119694804
 10
32.0959982081
 20
-73.8461179976
 10
32.0650885566
 20
-73.8767913741
 10
32.0319371878
 20
-73.9035983601
 10
31.9965153856
 20
-73.926489428
 10
31.9764951777
 20
-73.9372232843
  0
LWPOLYLINE
  5
3DB
100
AcDbEntity
  8
0
100
AcDbPolyline
 62
7
  6
CONTINUOUS
 90
15
 70
0
 10
33.5221915141
 20
-72.7329422597
 10
33.5205454648
 20
-72.7920103368
 10
33.5157900644
 20
-72.8487662477
 10
33.5079253127
 20
-72.9032099926
 10
33.4968910743
 20
-72.9555542972
 10
33.4827474848
 20
-73.0055864356
 10
33.4656749504
 20
-73.0526682306
 10
33.4456359521
 20
-73.0967618887
 10
33.422668009
 20
-73.1379052034
 10
33.3970640852
 20
-73.1755733774
 10
33.3687904143
 20
-73.2097218946
 10
33.3378807627
 20
-73.240395271
 10
33.3047293939
 20
-73.267202257
 10
33.2693075918
 20
-73.290093325
 10
33.2492873838
 20
-73.3008271813
  0
LWPOLYLINE
  5
3DC
100
AcDbEntity
  8
0
100
AcDbPolyline
 62
7
  6
CONTINUOUS
 90
13
 70
0
 10
45.5783621334
 20
-16.1146869109
 10
45.6256169639
 20
-16.0894134464
 10
45.6691439547
 20
-16.0628945504
 10
45.708943106
 20
-16.0351302231
 10
45.7451525223
 20
-16.0059912766
 10
45.777634099
 20
-15.9756068987
 10
45.8059735223
 20
-15.9443646528
 10
45.8301177319
 20
-15.9122535496
 10
45.850119788
 20
-15.8792845784
 10
45.8657245575
 20
-15.8458782698
 10
45.876875712
 20
-15.8120290217
 10
45.8836295799
 20
-15.7777424362
 10
45.8859000131
 20
-15.7434558508
  0
LWPOLYLINE
  5
3DD
100
AcDbEntity
  8
0
100
AcDbPolyline
 62
7
  6
CONTINUOUS
 90
13
 70
0
 10
45.5783621334
 20
-17.6735326377
 10
45.6256169639
 20
-17.6482591732
 10
45.6691439547
 20
-17.6217402773
 10
45.708943106
 20
-17.5939759499
 10
45.7451525223
 20
-17.5648370034
 10
45.777634099
 20
-17.5344526255
 10
45.8059735223
 20
-17.5032103796
 10
45.8301177319
 20
-17.4710992764
 10
45.850119788
 20
-17.4381303052
 10
45.8657245575
 20
-17.4047239967
 10
45.876875712
 20
-17.3708747485
 10
45.8836295799
 20
-17.3365881631
 10
45.8859000131
 20
-17.3023015776
  0
LWPOLYLINE
  5
3DE
100
AcDbEntity
  8
ASSI
100
AcDbPolyline
 62
7
  6
CONTINUOUS
 90
30
 70
0
 10
38.9612984551
 20
42.7828039343
 10
39.0114207523
 20
42.7924459089
 10
39.0790148689
 20
42.8107676663
 10
39.146997799
 20
42.8344228195
 10
39.2153739563
 20
42.8634719092
 10
39.2841389272
 20
42.8978543946
 10
39.3525150844
 20
42.9371814622
 10
39.4204980146
 20
42.9815092392
 10
39.4880921311
 20
43.0307815983
 10
39.5545330475
 20
43.0844413442
 10
39.6198076734
 20
43.1425382792
 10
39.6839290991
 20
43.2050226009
 10
39.7461722088
 20
43.2711877068
 10
39.8065156813
 20
43.3410753784
 10
39.8649808379
 20
43.4146438341
 10
39.9209065265
 20
43.4910611267
 10
39.9742639211
 20
43.570359594
 10
40.0250818478
 20
43.6525068982
 10
40.0727856331
 20
43.7365740782
 10
40.1173399276
 20
43.822582927
 10
40.1587800808
 20
43.9105116518
 10
40.1966374676
 20
43.9993659122
 10
40.2308714191
 20
44.0891562144
 10
40.2615226041
 20
44.1798720524
 10
40.2882444045
 20
44.270487568
 10
40.3109922167
 20
44.3610016226
 10
40.3298106443
 20
44.4514153547
 10
40.3444868793
 20
44.5407063229
 10
40.3549499861
 20
44.628533713
 10
40.3612709003
 20
44.7152383391
  0
LWPOLYLINE
  5
3DF
100
AcDbEntity
  8
ASSI
100
AcDbPolyline
 62
7
  6
CONTINUOUS
 90
35
 70
0
 10
31.6863808033
 20
38.8388869505
 10
31.6949991046
 20
38.8389995796
 10
31.7730054099
 20
38.8463727103
 10
31.8526446775
 20
38.8600571735
 10
31.9331130219
 20
38.8799148371
 10
32.0144188401
 20
38.9060082241
 10
32.096553735
 20
38.9382748114
 10
32.1786886299
 20
38.9763888974
 10
32.2608235248
 20
39.0204097063
 10
32.3429584197
 20
39.0702780139
 10
32.4242642378
 20
39.125490445
 10
32.5047325822
 20
39.1861011259
 10
32.5843718499
 20
39.2520559303
 10
32.6623781552
 20
39.3226891049
 10
32.7387349592
 20
39.3980480328
 10
32.8134588008
 20
39.4780853308
 10
32.8857954111
 20
39.5619930955
 10
32.9557206118
 20
39.6498105276
 10
33.0232585812
 20
39.7414984264
 10
33.0877275852
 20
39.8361312863
 10
33.1490965408
 20
39.9337389343
 10
33.2073965311
 20
40.0342915434
 10
33.2620390707
 20
40.1367741269
 10
33.3129871166
 20
40.2412062319
 10
33.3602777119
 20
40.3475683112
 10
33.4034335013
 20
40.4547867369
 10
33.4424126068
 20
40.5628701821
 10
33.4772569063
 20
40.6718099736
 10
33.5076146787
 20
40.7805064639
 10
33.5334404834
 20
40.8889571886
 10
33.5547797609
 20
40.997164612
 10
33.5714171105
 20
41.1040364789
 10
33.5832807322
 20
41.2092087044
 10
33.5904424261
 20
41.3130453735
 10
33.5929021923
 20
41.4155464861
  0
LINE
  5
3E0
100
AcDbEntity
  8
0
100
AcDbLine
 62
253
  6
CONTINUOUS
 10
30.6230537113
 20
22.3360200907
 11
30.0689074182
 21
22.6130932372
  0
LINE
  5
3E1
100
AcDbEntity
  8
0
100
AcDbLine
 62
253
  6
CONTINUOUS
 10
30.9058964237
 20
22.4774414469
 11
30.1987896426
 21
22.8309948375
  0
LINE
  5
3E2
100
AcDbEntity
  8
0
100
AcDbLine
 62
253
  6
CONTINUOUS
 10
31.4715818487
 20
23.4531044824
 11
30.7644750675
 21
23.806657873
  0
LINE
  5
3E3
100
AcDbEntity
  8
0
100
AcDbLine
 62
7
  6
CONTINUOUS
 10
-30.895236252
 20
57.5273892386
 11
-21.7028480965
 21
52.9311951609
  0
LINE
  5
3E4
100
AcDbEntity
  8
0
100
AcDbLine
 62
7
  6
CONTINUOUS
 10
-13.2175667223
 20
48.6885544738
 11
-4.0251785669
 21
44.0923603961
  0
LINE
  5
3E5
100
AcDbEntity
  8
0
100
AcDbLine
 62
253
  6
CONTINUOUS
 10
31.4715818487
 20
26.3975908553
 11
30.7787615257
 21
26.7440010168
  0
LINE
  5
3E6
100
AcDbEntity
  8
0
100
AcDbLine
 62
7
  6
CONTINUOUS
 10
7.2885299321
 20
38.9261065769
 11
-3.5345781366
 21
44.3376606112
  0
LINE
  5
3E7
100
AcDbEntity
  8
0
100
AcDbLine
 62
7
  6
CONTINUOUS
 10
-13.2175667223
 20
49.1791549041
 11
-21.2122476663
 21
53.1764953761
  0
LINE
  5
3E8
100
AcDbEntity
  8
0
100
AcDbLine
 62
7
  6
CONTINUOUS
 10
-30.895236252
 20
58.0179896689
 11
-40.7947311886
 21
62.9677371372
  0
LINE
  5
3E9
100
AcDbEntity
  8
0
100
AcDbLine
 62
7
  6
CONTINUOUS
 10
-45.8859000131
 20
66.2784579547
 11
-45.1787932319
 21
65.9249045641
  0
LINE
  5
3EA
100
AcDbEntity
  8
0
100
AcDbLine
 62
7
  6
CONTINUOUS
 10
10.9654851943
 20
37.852765351
 11
10.2583784131
 21
38.2063187416
  0
LINE
  5
3EB
100
AcDbEntity
  8
0
100
AcDbLine
 62
7
  6
CONTINUOUS
 10
-45.8505446741
 20
66.3040815554
 11
-30.895236252
 21
58.8264273443
  0
LINE
  5
3EC
100
AcDbEntity
  8
0
100
AcDbLine
 62
7
  6
CONTINUOUS
 10
-13.2175667223
 20
49.9875925795
 11
-4.0251785669
 21
45.3913985018
  0
LINE
  5
3ED
100
AcDbEntity
  8
0
100
AcDbLine
 62
7
  6
CONTINUOUS
 10
-21.7028480965
 20
54.2302332666
 11
-13.2175667223
 21
49.9875925795
  0
LINE
  5
3EE
100
AcDbEntity
  8
0
100
AcDbLine
 62
7
  6
CONTINUOUS
 10
-4.0251785669
 20
45.3913985018
 11
10.9301298552
 21
37.9137442907
  0
LINE
  5
3EF
100
AcDbEntity
  8
0
100
AcDbLine
 62
7
  6
CONTINUOUS
 10
-21.7028480965
 20
54.2302332666
 11
-30.895236252
 21
58.8264273443
  0
LWPOLYLINE
  5
3F0
100
AcDbEntity
  8
0
100
AcDbPolyline
 62
7
  6
CONTINUOUS
 90
15
 70
0
 10
30.2652952427
 20
22.3133234752
 10
30.250041751
 20
22.3215016515
 10
30.2230537113
 20
22.3389424651
 10
30.1977955255
 20
22.3593668354
 10
30.1742453148
 20
22.382737027
 10
30.1527034703
 20
22.4087549449
 10
30.1331957188
 20
22.437454506
 10
30.1156963336
 20
22.4688017934
 10
30.1004285253
 20
22.5023969615
 10
30.0874208801
 20
22.5382688053
 10
30.0766448119
 20
22.5763885298
 10
30.0682377731
 20
22.6162699047
 10
30.0622455814
 20
22.6577508532
 10
30.0586224191
 20
22.700993452
 10
30.0573682863
 20
22.7459977012
  0
LWPOLYLINE
  5
3F1
100
AcDbEntity
  8
0
100
AcDbPolyline
 62
7
  6
CONTINUOUS
 90
15
 70
0
 10
31.2636548923
 20
26.8302650812
 10
31.278908384
 20
26.822086905
 10
31.3058964237
 20
26.8046460913
 10
31.3311546095
 20
26.784221721
 10
31.3547048202
 20
26.7608515295
 10
31.3762466647
 20
26.7348336116
 10
31.3957544162
 20
26.7061340505
 10
31.4132538014
 20
26.6747867631
 10
31.4285216097
 20
26.641191595
 10
31.4415292549
 20
26.6053197512
 10
31.4523053231
 20
26.5672000267
 10
31.4607123619
 20
26.5273186518
 10
31.4667045536
 20
26.4858377033
 10
31.4703277159
 20
26.4425951045
 10
31.4715818487
 20
26.3975908553
  0
LWPOLYLINE
  5
3F2
100
AcDbEntity
  8
ASSI
100
AcDbPolyline
 62
7
  6
CONTINUOUS
 90
3
 70
0
 10
36.4351574633
 20
18.316089752
 10
36.2048779447
 20
18.4776317245
 10
36.0602060923
 20
18.5669567569
  0
LINE
  5
3F3
100
AcDbEntity
  8
ASSI
100
AcDbLine
 62
7
  6
CONTINUOUS
 10
31.4930669304
 20
39.3577546077
 11
31.5097042801
 21
39.2675200904
  0
LWPOLYLINE
  5
3F4
100
AcDbEntity
  8
ASSI
100
AcDbPolyline
 62
7
  6
CONTINUOUS
 90
8
 70
0
 10
40.3612709003
 20
44.8842233413
 10
40.3549499861
 20
44.9646070531
 10
40.3444868793
 20
45.0419713365
 10
40.3298106443
 20
45.1165860695
 10
40.3109922167
 20
45.1881813742
 10
40.2882444045
 20
45.2559476165
 10
40.2615226041
 20
45.3198413317
 10
40.2453212095
 20
45.3515898968
  0
LINE
  5
3F5
100
AcDbEntity
  8
0
100
AcDbLine
 62
7
  6
CONTINUOUS
 10
45.5487604538
 20
-66.7196577899
 11
43.6340750002
 21
-40.8735142695
  0
LWPOLYLINE
  5
3F6
100
AcDbEntity
  8
0
100
AcDbPolyline
 62
7
  6
CONTINUOUS
 90
13
 70
0
 10
45.8859000131
 20
-61.6428022514
 10
45.8836295799
 20
-61.6085156659
 10
45.876875712
 20
-61.5742290804
 10
45.8657245575
 20
-61.5403798323
 10
45.850119788
 20
-61.5069735237
 10
45.8301177319
 20
-61.4740045525
 10
45.8059735223
 20
-61.4418934494
 10
45.777634099
 20
-61.4106512034
 10
45.7451525223
 20
-61.3802668255
 10
45.708943106
 20
-61.351127879
 10
45.6691439547
 20
-61.3233635517
 10
45.6256169639
 20
-61.2968446558
 10
45.5783621334
 20
-61.2715711912
  0
LWPOLYLINE
  5
3F7
100
AcDbEntity
  8
0
100
AcDbPolyline
 62
7
  6
CONTINUOUS
 90
13
 70
0
 10
45.8859000131
 20
-38.6931290511
 10
45.8836295799
 20
-38.6588424656
 10
45.876875712
 20
-38.6245558801
 10
45.8657245575
 20
-38.590706632
 10
45.850119788
 20
-38.5573003234
 10
45.8301177319
 20
-38.5243313522
 10
45.8059735223
 20
-38.4922202491
 10
45.777634099
 20
-38.4609780031
 10
45.7451525223
 20
-38.4305936252
 10
45.708943106
 20
-38.4014546787
 10
45.6691439547
 20
-38.3736903514
 10
45.6256169639
 20
-38.3471714555
 10
45.5783621334
 20
-38.3218979909
  0
LWPOLYLINE
  5
3F8
100
AcDbEntity
  8
0
100
AcDbPolyline
 62
7
  6
CONTINUOUS
 90
13
 70
0
 10
45.8859000131
 20
-15.7434558508
 10
45.8836295799
 20
-15.7091692653
 10
45.876875712
 20
-15.6748826798
 10
45.8657245575
 20
-15.6410334317
 10
45.850119788
 20
-15.6076271232
 10
45.8301177319
 20
-15.5746581519
 10
45.8059735223
 20
-15.5425470488
 10
45.777634099
 20
-15.5113048028
 10
45.7451525223
 20
-15.4809204249
 10
45.708943106
 20
-15.4517814784
 10
45.6691439547
 20
-15.4240171511
 10
45.6256169639
 20
-15.3974982552
 10
45.5783621334
 20
-15.3722247907
  0
LWPOLYLINE
  5
3F9
100
AcDbEntity
  8
ASSI
100
AcDbPolyline
 62
7
  6
CONTINUOUS
 90
24
 70
0
 10
39.3415520754
 20
11.9871238666
 10
39.3180589847
 20
12.3541709226
 10
39.2835780373
 20
12.7134731593
 10
39.2381092333
 20
13.0650305769
 10
39.1815651165
 20
13.409278958
 10
39.114033143
 20
13.7457825199
 10
39.035775681
 20
14.0732339139
 10
38.946751007
 20
14.391597926
 10
38.8470008444
 20
14.7009097702
 10
38.7369127324
 20
14.9999677404
 10
38.6164464548
 20
15.2887319476
 10
38.4856422276
 20
15.5672422808
 10
38.3450082379
 20
15.8344167006
 10
38.1945062465
 20
16.0902111089
 10
38.0341744926
 20
16.3346696038
 10
37.8646358802
 20
16.5668424406
 10
37.6858545937
 20
16.7866818265
 10
37.4978664488
 20
16.9942355544
 10
37.3014017975
 20
17.1886972581
 10
37.0964276651
 20
17.3700160078
 10
36.8829770264
 20
17.5382427334
 10
36.6618791574
 20
17.6927238578
 10
36.4331043096
 20
17.8334059089
 10
36.198106454
 20
17.9596303559
  0
LWPOLYLINE
  5
3FA
100
AcDbEntity
  8
ASSI
100
AcDbPolyline
 62
7
  6
CONTINUOUS
 90
24
 70
0
 10
39.6956703962
 20
12.164183027
 10
39.6719001347
 20
12.547343265
 10
39.6366513218
 20
12.922443413
 10
39.5899239576
 20
13.2894834709
 10
39.531627409
 20
13.648919852
 10
39.4618523091
 20
14.000296143
 10
39.3808705568
 20
14.3422431042
 10
39.2886384252
 20
14.6747239437
 10
39.1851996413
 20
14.9977754532
 10
39.0709572841
 20
15.310138769
 10
38.9458691999
 20
15.611772187
 10
38.8099775424
 20
15.9027174112
 10
38.6638118531
 20
16.181840689
 10
38.5073320442
 20
16.4490958928
 10
38.3405782034
 20
16.7045291502
 10
38.1642001355
 20
16.9471450912
 10
37.9781602881
 20
17.1768937047
 10
37.7824962137
 20
17.3938250019
 10
37.5779703741
 20
17.5970936469
 10
37.3645481919
 20
17.7866463302
 10
37.1422642445
 20
17.9625363614
 10
36.9119847259
 20
18.1240783339
 10
36.6736784385
 20
18.2712162636
 10
36.421713013
 20
18.4068434742
  0
LWPOLYLINE
  5
3FB
100
AcDbEntity
  8
0
100
AcDbPolyline
 62
7
  6
CONTINUOUS
 90
25
 70
0
 10
41.6539194978
 20
53.1969825028
 10
41.6538411145
 20
53.1998736516
 10
41.6536146668
 20
53.2028027617
 10
41.6532401549
 20
53.205769833
 10
41.6527147149
 20
53.2087878588
 10
41.6520412107
 20
53.2118438459
 10
41.6512282328
 20
53.2148988139
 10
41.6502739948
 20
53.21795275
 10
41.6491802832
 20
53.221005667
 10
41.6479610488
 20
53.224018624
 10
41.6466146835
 20
53.2269911092
 10
41.6451427953
 20
53.2299236343
 10
41.6435641587
 20
53.2327787941
 10
41.6418774062
 20
53.2355555974
 10
41.6400839053
 20
53.2382550354
 10
41.6382065327
 20
53.2408426756
 10
41.6362442139
 20
53.2433170862
 10
41.6341980235
 20
53.245679699
 10
41.6320940612
 20
53.2479003783
 10
41.6299315871
 20
53.2499773058
 10
41.627711341
 20
53.2519122997
 10
41.6254616432
 20
53.2536806785
 10
41.6231919335
 20
53.2552742149
 10
41.620892772
 20
53.2567011363
 10
41.6185641587
 20
53.2579614425
  0
LWPOLYLINE
  5
3FC
100
AcDbEntity
  8
0
100
AcDbPolyline
 62
7
  6
CONTINUOUS
 90
25
 70
0
 10
42.361026279
 20
52.8434291122
 10
42.3593802297
 20
52.9041432385
 10
42.3546248292
 20
52.96565455
 10
42.3467600775
 20
53.0279630465
 10
42.3357258392
 20
53.0913415894
 10
42.3215822496
 20
53.1555173174
 10
42.3045097153
 20
53.2196716468
 10
42.2844707169
 20
53.2838043033
 10
42.2615027738
 20
53.3479155611
 10
42.23589885
 20
53.4111876588
 10
42.2076251791
 20
53.4736098469
 10
42.1767155276
 20
53.5351928749
 10
42.1435641587
 20
53.5951512298
 10
42.1081423566
 20
53.6534640998
 10
42.0704788372
 20
53.7101522967
 10
42.0310540119
 20
53.7644927428
 10
41.9898453185
 20
53.8164553638
 10
41.9468753192
 20
53.866070234
 10
41.9026921113
 20
53.9127044985
 10
41.8572801537
 20
53.9563199761
 10
41.8106549875
 20
53.996954848
 10
41.7634113328
 20
54.0340908021
 10
41.7157474299
 20
54.0675550679
 10
41.6674650385
 20
54.097520416
 10
41.6185641587
 20
54.1239868463
  0
LWPOLYLINE
  5
3FD
100
AcDbEntity
  8
0
100
AcDbPolyline
 62
7
  6
CONTINUOUS
 90
25
 70
0
 10
43.6338184851
 20
53.4798252152
 10
43.6321724358
 20
53.5405393416
 10
43.6274170353
 20
53.6020506531
 10
43.6195522836
 20
53.6643591496
 10
43.6085180453
 20
53.7277376925
 10
43.5943744557
 20
53.7919134205
 10
43.5773019214
 20
53.8560677498
 10
43.5572629231
 20
53.9202004063
 10
43.5342949799
 20
53.9843116642
 10
43.5086910561
 20
54.0475837619
 10
43.4804173852
 20
54.11000595
 10
43.4495077337
 20
54.171588978
 10
43.4163563649
 20
54.2315473328
 10
43.3809345628
 20
54.2898602029
 10
43.3432710434
 20
54.3465483998
 10
43.303846218
 20
54.4008888458
 10
43.2626375247
 20
54.4528514669
 10
43.2196675254
 20
54.5024663371
 10
43.1754843174
 20
54.5491006015
 10
43.1300723599
 20
54.5927160792
 10
43.0834471936
 20
54.6333509511
 10
43.036203539
 20
54.6704869052
 10
42.988539636
 20
54.703951171
 10
42.9402572446
 20
54.733916519
 10
42.8913563649
 20
54.7603829493
  0
LWPOLYLINE
  5
3FE
100
AcDbEntity
  8
ASSI
100
AcDbPolyline
 62
7
  6
CONTINUOUS
 90
16
 70
0
 10
41.0705564033
 20
-61.2078324512
 10
41.0683776815
 20
-61.124429311
 10
41.0620567672
 20
-61.0440455992
 10
41.0515936605
 20
-60.9666813158
 10
41.0369174254
 20
-60.8920665828
 10
41.0180989979
 20
-60.8204712781
 10
40.9953511857
 20
-60.7527050358
 10
40.9686293853
 20
-60.6888113205
 10
40.9379782003
 20
-60.6287466676
 10
40.9037442488
 20
-60.5731903169
 10
40.865886862
 20
-60.5221934432
 10
40.8244467088
 20
-60.4757048717
 10
40.7798924143
 20
-60.4342503174
 10
40.7321886289
 20
-60.3978869227
 10
40.6813707023
 20
-60.3665575452
 10
40.6612164362
 20
-60.3559726034
  0
LWPOLYLINE
  5
3FF
100
AcDbEntity
  8
ASSI
100
AcDbPolyline
 62
7
  6
CONTINUOUS
 90
16
 70
0
 10
38.8431700426
 20
43.3335736301
 10
38.8453487644
 20
43.2501704899
 10
38.8516696786
 20
43.1697867781
 10
38.8621327853
 20
43.0924224947
 10
38.8768090204
 20
43.0178077616
 10
38.8956274479
 20
42.946212457
 10
38.9183752602
 20
42.8784462147
 10
38.9450970605
 20
42.8145524994
 10
38.9757482456
 20
42.7544878465
 10
39.009982197
 20
42.6989314957
 10
39.0478395838
 20
42.6479346221
 10
39.089279737
 20
42.6014460506
 10
39.1338340316
 20
42.5599914963
 10
39.1815378169
 20
42.5236281016
 10
39.2323557436
 20
42.4922987241
 10
39.2525100096
 20
42.4817137823
  0
LINE
  5
400
100
AcDbEntity
  8
ASSI
100
AcDbLine
 62
7
  6
CONTINUOUS
 10
40.3634496221
 20
44.8008202011
 11
40.3612709003
 21
44.8842233413
  0
LWPOLYLINE
  5
401
100
AcDbEntity
  8
ASSI
100
AcDbPolyline
 62
7
  6
CONTINUOUS
 90
16
 70
0
 10
41.0705564033
 20
44.4472668105
 10
41.0683776815
 20
44.5306699507
 10
41.0620567672
 20
44.6110536625
 10
41.0515936605
 20
44.6884179459
 10
41.0369174254
 20
44.7630326789
 10
41.0180989979
 20
44.8346279836
 10
40.9953511857
 20
44.9023942259
 10
40.9686293853
 20
44.9662879412
 10
40.9379782003
 20
45.0263525941
 10
40.9037442488
 20
45.0819089448
 10
40.865886862
 20
45.1329058185
 10
40.8244467088
 20
45.17939439
 10
40.7798924143
 20
45.2208489443
 10
40.7321886289
 20
45.257212339
 10
40.6813707023
 20
45.2885417165
 10
40.6612164362
 20
45.2991266583
  0
LINE
  5
402
100
AcDbEntity
  8
0
100
AcDbLine
 62
7
  6
CONTINUOUS
 10
41.6185641587
 20
54.1239868463
 11
41.6185641587
 21
53.2579614425
  0
LINE
  5
403
100
AcDbEntity
  8
0
100
AcDbLine
 62
7
  6
CONTINUOUS
 10
41.6185641587
 20
-68.8516204911
 11
41.6185641587
 21
-68.6847559374
  0
LINE
  5
404
100
AcDbEntity
  8
0
100
AcDbLine
 62
253
  6
CONTINUOUS
 10
44.8359000131
 20
56.4397615547
 11
44.8359000131
 21
55.7680101125
  0
LINE
  5
405
100
AcDbEntity
  8
0
100
AcDbLine
 62
7
  6
CONTINUOUS
 10
44.8712553522
 20
55.750332443
 11
44.8712553522
 21
54.8843070392
  0
LINE
  5
406
100
AcDbEntity
  8
0
100
AcDbLine
 62
7
  6
CONTINUOUS
 10
44.8712553522
 20
-67.2252748944
 11
44.8712553522
 21
-67.0584103407
  0
LINE
  5
407
100
AcDbEntity
  8
0
100
AcDbLine
 62
253
  6
CONTINUOUS
 10
45.5783621334
 20
-63.5728790383
 11
45.5783621334
 21
-62.0140333115
  0
LINE
  5
408
100
AcDbEntity
  8
0
100
AcDbLine
 62
7
  6
CONTINUOUS
 10
45.5783621334
 20
28.2258137629
 11
45.5783621334
 21
6.8349862894
  0
LINE
  5
409
100
AcDbEntity
  8
0
100
AcDbLine
 62
253
  6
CONTINUOUS
 10
45.5783621334
 20
-40.623205838
 11
45.5783621334
 21
-39.0643601112
  0
LINE
  5
40A
100
AcDbEntity
  8
0
100
AcDbLine
 62
7
  6
CONTINUOUS
 10
45.5783621334
 20
5.2761405626
 11
45.5783621334
 21
-16.1146869109
  0
LINE
  5
40B
100
AcDbEntity
  8
0
100
AcDbLine
 62
253
  6
CONTINUOUS
 10
45.5783621334
 20
-17.6735326377
 11
45.5783621334
 21
-16.1146869109
  0
LINE
  5
40C
100
AcDbEntity
  8
0
100
AcDbLine
 62
7
  6
CONTINUOUS
 10
45.5783621334
 20
-17.6735326377
 11
45.5783621334
 21
-39.0643601112
  0
LINE
  5
40D
100
AcDbEntity
  8
0
100
AcDbLine
 62
253
  6
CONTINUOUS
 10
45.5783621334
 20
5.2761405626
 11
45.5783621334
 21
6.8349862894
  0
LINE
  5
40E
100
AcDbEntity
  8
0
100
AcDbLine
 62
7
  6
CONTINUOUS
 10
45.5783621334
 20
-40.623205838
 11
45.5783621334
 21
-62.0140333115
  0
LINE
  5
40F
100
AcDbEntity
  8
0
100
AcDbLine
 62
7
  6
CONTINUOUS
 10
45.5783621334
 20
-63.5728790383
 11
45.5783621334
 21
-65.564737467
  0
LINE
  5
410
100
AcDbEntity
  8
0
100
AcDbLine
 62
253
  6
CONTINUOUS
 10
45.5783621334
 20
28.2258137629
 11
45.5783621334
 21
29.7846594897
  0
LINE
  5
411
100
AcDbEntity
  8
0
100
AcDbLine
 62
7
  6
CONTINUOUS
 10
45.5783621334
 20
29.7846594897
 11
45.5783621334
 21
51.1754869631
  0
LINE
  5
412
100
AcDbEntity
  8
0
100
AcDbLine
 62
253
  6
CONTINUOUS
 10
45.5783621334
 20
51.1754869631
 11
45.5783621334
 21
52.73433269
  0
LINE
  5
413
100
AcDbEntity
  8
0
100
AcDbLine
 62
7
  6
CONTINUOUS
 10
45.5783621334
 20
52.73433269
 11
45.5783621334
 21
55.9016659408
  0
LINE
  5
414
100
AcDbEntity
  8
ASSI
100
AcDbLine
 62
7
  6
CONTINUOUS
 10
40.3612709003
 20
-60.9398609226
 11
40.3634496221
 21
-60.8542790606
  0
LWPOLYLINE
  5
415
100
AcDbEntity
  8
0
100
AcDbPolyline
 62
7
  6
CONTINUOUS
 90
15
 70
0
 10
42.361026279
 20
-68.3135248773
 10
42.3593802297
 20
-68.3725929543
 10
42.3546248292
 20
-68.4293488653
 10
42.3467600775
 20
-68.4837926102
 10
42.3357258392
 20
-68.5361369147
 10
42.3215822496
 20
-68.5861690532
 10
42.3045097153
 20
-68.6332508482
 10
42.2844707169
 20
-68.6773445063
 10
42.2615027738
 20
-68.718487821
 10
42.23589885
 20
-68.7561559949
 10
42.2076251791
 20
-68.7903045122
 10
42.1767155276
 20
-68.8209778886
 10
42.1435641587
 20
-68.8477848746
 10
42.1081423566
 20
-68.8706759425
 10
42.0881221487
 20
-68.8814097988
  0
LWPOLYLINE
  5
416
100
AcDbEntity
  8
0
100
AcDbPolyline
 62
7
  6
CONTINUOUS
 90
15
 70
0
 10
43.6338184851
 20
-67.6771287742
 10
43.6321724358
 20
-67.7361968513
 10
43.6274170353
 20
-67.7929527623
 10
43.6195522836
 20
-67.8473965071
 10
43.6085180453
 20
-67.8997408117
 10
43.5943744557
 20
-67.9497729501
 10
43.5773019214
 20
-67.9968547451
 10
43.5572629231
 20
-68.0409484033
 10
43.5342949799
 20
-68.082091718
 10
43.5086910561
 20
-68.1197598919
 10
43.4804173852
 20
-68.1539084091
 10
43.4495077337
 20
-68.1845817855
 10
43.4163563649
 20
-68.2113887716
 10
43.3809345628
 20
-68.2342798395
 10
43.3609143548
 20
-68.2450136958
  0
LINE
  5
417
100
AcDbEntity
  8
0
100
AcDbLine
 62
7
  6
CONTINUOUS
 10
45.5487604538
 20
54.4372961996
 11
43.6340750002
 21
26.6764672257
  0
LINE
  5
418
100
AcDbEntity
  8
0
100
AcDbLine
 62
7
  6
CONTINUOUS
 10
-30.895236252
 20
-61.1180910798
 11
-29.9716231198
 21
-60.6562845138
  0
LINE
  5
419
100
AcDbEntity
  8
ASSI
100
AcDbLine
 62
7
  6
CONTINUOUS
 10
39.6956703962
 20
-27.6729855471
 11
39.3415520754
 21
-27.8500447075
  0
LINE
  5
41A
100
AcDbEntity
  8
ASSI
100
AcDbLine
 62
7
  6
CONTINUOUS
 10
22.1873980596
 20
-36.4271217155
 11
21.8332797388
 21
-36.6041808759
  0
LINE
  5
41B
100
AcDbEntity
  8
ASSI
100
AcDbLine
 62
7
  6
CONTINUOUS
 10
21.8332797388
 20
-37.8166164412
 11
22.1873980596
 21
-37.6395572808
  0
LINE
  5
41C
100
AcDbEntity
  8
ASSI
100
AcDbLine
 62
7
  6
CONTINUOUS
 10
39.3415520754
 20
-29.0624802728
 11
39.6956703962
 21
-28.8854211124
  0
LWPOLYLINE
  5
41D
100
AcDbEntity
  8
ASSI
100
AcDbPolyline
 62
7
  6
CONTINUOUS
 90
38
 70
0
 10
25.1103743859
 20
35.4106459704
 10
25.1435775144
 20
35.3952898394
 10
25.1995032031
 20
35.3747982355
 10
25.2579683596
 20
35.3596949364
 10
25.3183118321
 20
35.3501507373
 10
25.3805549419
 20
35.3462287412
 10
25.4446763676
 20
35.3478658451
 10
25.5099509934
 20
35.355043536
 10
25.5763919098
 20
35.3678247064
 10
25.6439860264
 20
35.3861464639
 10
25.7119689565
 20
35.409801617
 10
25.7803451138
 20
35.4388507067
 10
25.8491100846
 20
35.4732331922
 10
25.9174862419
 20
35.5125602597
 10
25.985469172
 20
35.5568880367
 10
26.0530632886
 20
35.6061603959
 10
26.119504205
 20
35.6598201417
 10
26.1847788308
 20
35.7179170767
 10
26.2489002565
 20
35.7804013985
 10
26.3111433663
 20
35.8465665044
 10
26.3714868388
 20
35.9164541759
 10
26.4299519953
 20
35.9900226317
 10
26.485877684
 20
36.0664399242
 10
26.5392350786
 20
36.1457383915
 10
26.5900530052
 20
36.2278856957
 10
26.6377567905
 20
36.3119528757
 10
26.6823110851
 20
36.3979617246
 10
26.7237512383
 20
36.4858904493
 10
26.7616086251
 20
36.5747447098
 10
26.7958425765
 20
36.664535012
 10
26.8264937616
 20
36.7552508499
 10
26.853215562
 20
36.8458663656
 10
26.8759633742
 20
36.9363804201
 10
26.8947818017
 20
37.0267941523
 10
26.9094580368
 20
37.1160851204
 10
26.9199211435
 20
37.2039125105
 10
26.9262420578
 20
37.2906171366
 10
26.9284207796
 20
37.3761989986
  0
LINE
  5
41E
100
AcDbEntity
  8
0
100
AcDbLine
 62
7
  6
CONTINUOUS
 10
-45.8505446741
 20
67.1701069592
 11
10.9301298552
 21
38.7797696945
  0
LINE
  5
41F
100
AcDbEntity
  8
0
100
AcDbLine
 62
7
  6
CONTINUOUS
 10
31.4715818487
 20
29.2554746877
 11
30.7644750675
 21
29.6090280783
  0
LINE
  5
420
100
AcDbEntity
  8
ASSI
100
AcDbLine
 62
253
  6
CONTINUOUS
 10
26.9284207796
 20
37.3761989986
 11
26.2213139984
 21
37.7297523892
  0
LINE
  5
421
100
AcDbEntity
  8
ASSI
100
AcDbLine
 62
253
  6
CONTINUOUS
 10
26.2208460971
 20
37.7476640094
 11
25.606781144
 21
38.0546964859
  0
LWPOLYLINE
  5
422
100
AcDbEntity
  8
0
100
AcDbPolyline
 62
7
  6
CONTINUOUS
 90
12
 70
0
 10
-31.7437643894
 20
66.9049419162
 10
-31.7693927528
 20
66.9187904108
 10
-31.7926623225
 20
66.9333799695
 10
-31.8135730984
 20
66.9487105924
 10
-31.8322153022
 20
66.9648759529
 10
-31.8484987123
 20
66.9817823777
 10
-31.8621526639
 20
66.999148846
 10
-31.8731332065
 20
67.0169830475
 10
-31.8814842907
 20
67.0352772927
 10
-31.8870671037
 20
67.0537274925
 10
-31.8898353748
 20
67.0723362536
 10
-31.8901814087
 20
67.0817186115
  0
LWPOLYLINE
  5
423
100
AcDbEntity
  8
0
100
AcDbPolyline
 62
7
  6
CONTINUOUS
 90
12
 70
0
 10
-13.7832521472
 20
57.9246857951
 10
-13.8088805106
 20
57.9385342897
 10
-13.8321500803
 20
57.9531238484
 10
-13.8530608563
 20
57.9684544713
 10
-13.8717030601
 20
57.9846198319
 10
-13.8879864701
 20
58.0015262566
 10
-13.9016404218
 20
58.018892725
 10
-13.9126209644
 20
58.0367269265
 10
-13.9209720485
 20
58.0550211716
 10
-13.9265548616
 20
58.0734713714
 10
-13.9293231327
 20
58.0920801326
 10
-13.9296691666
 20
58.1014624904
  0
LWPOLYLINE
  5
424
100
AcDbEntity
  8
0
100
AcDbPolyline
 62
7
  6
CONTINUOUS
 90
12
 70
0
 10
3.8944173824
 20
49.0858510303
 10
3.868789019
 20
49.0996995249
 10
3.8455194493
 20
49.1142890836
 10
3.8246086734
 20
49.1296197065
 10
3.8059664696
 20
49.145785067
 10
3.7896830595
 20
49.1626914918
 10
3.7760291079
 20
49.1800579601
 10
3.7650485653
 20
49.1978921616
 10
3.7566974811
 20
49.2161864068
 10
3.7511146681
 20
49.2346366066
 10
3.748346397
 20
49.2532453677
 10
3.7480003631
 20
49.2626277256
  0
LWPOLYLINE
  5
425
100
AcDbEntity
  8
0
100
AcDbPolyline
 62
7
  6
CONTINUOUS
 90
12
 70
0
 10
-23.9655897963
 20
64.2886468258
 10
-23.9399614329
 20
64.2747983313
 10
-23.9166918633
 20
64.2602087725
 10
-23.8957810873
 20
64.2448781497
 10
-23.8771388835
 20
64.2287127891
 10
-23.8608554734
 20
64.2118063644
 10
-23.8472015218
 20
64.194439896
 10
-23.8362209792
 20
64.1766056945
 10
-23.827869895
 20
64.1583114493
 10
-23.822287082
 20
64.1398612496
 10
-23.8195188109
 20
64.1212524884
 10
-23.819172777
 20
64.1118701305
  0
LWPOLYLINE
  5
426
100
AcDbEntity
  8
ASSI
100
AcDbPolyline
 62
7
  6
CONTINUOUS
 90
30
 70
0
 10
-22.5093292617
 20
69.8660893878
 10
-22.552924069
 20
69.8979096748
 10
-22.6124674358
 20
69.9361209216
 10
-22.6766476262
 20
69.9724069837
 10
-22.745412597
 20
70.0067894691
 10
-22.8179847212
 20
70.0388795643
 10
-22.8944072147
 20
70.0686512477
 10
-22.9746368615
 20
70.0961305408
 10
-23.0577663864
 20
70.1210066948
 10
-23.1438287066
 20
70.1432501605
 10
-23.2327909049
 20
70.162890487
 10
-23.3236469543
 20
70.1797055721
 10
-23.4164183522
 20
70.1936633457
 10
-23.5110836011
 20
70.2047958778
 10
-23.606572181
 20
70.2129772764
 10
-23.7028934379
 20
70.2181740426
 10
-23.8000380259
 20
70.2204196752
 10
-23.8969073875
 20
70.2196887798
 10
-23.9934983985
 20
70.2159475688
 10
-24.089814183
 20
70.2092298297
 10
-24.1847655563
 20
70.1996115299
 10
-24.2783370303
 20
70.1870597444
 10
-24.370544093
 20
70.1716073981
 10
-24.4603440228
 20
70.1534292336
 10
-24.5477094956
 20
70.1324943094
 10
-24.6326678354
 20
70.108833567
 10
-24.7142582928
 20
70.0827145734
 10
-24.7921606179
 20
70.0542265176
 10
-24.8666950604
 20
70.0232802105
 10
-24.9378616205
 20
69.9898756523
  0
LWPOLYLINE
  5
427
100
AcDbEntity
  8
ASSI
100
AcDbPolyline
 62
7
  6
CONTINUOUS
 90
11
 70
0
 10
38.1456137296
 20
16.1647577336
 10
38.1028707612
 20
16.2562708018
 10
37.9567050719
 20
16.5353940796
 10
37.800225263
 20
16.8026492834
 10
37.6334714222
 20
17.0580825407
 10
37.4570933543
 20
17.3006984818
 10
37.2710535069
 20
17.5304470953
 10
37.0753894325
 20
17.7473783924
 10
36.8708635929
 20
17.9506470375
 10
36.6574414107
 20
18.1401997208
 10
36.4351574633
 20
18.316089752
  0
LWPOLYLINE
  5
428
100
AcDbEntity
  8
ASSI
100
AcDbPolyline
 62
7
  6
CONTINUOUS
 90
13
 70
0
 10
31.5097042801
 20
39.2675200904
 10
31.5310435575
 20
39.1806519445
 10
31.5568693623
 20
39.0980270245
 10
31.5872271346
 20
39.0196883066
 10
31.6220714342
 20
38.9455928146
 10
31.6610505397
 20
38.8764884749
 10
31.7042063291
 20
38.8124258386
 10
31.7514969244
 20
38.7533543546
 10
31.8024449702
 20
38.6998702955
 10
31.8570875099
 20
38.6520302517
 10
31.9153875001
 20
38.6097776327
 10
31.9767564557
 20
38.5735389403
 10
31.9913697906
 20
38.5660350745
  0
LWPOLYLINE
  5
429
100
AcDbEntity
  8
0
100
AcDbPolyline
 62
7
  6
CONTINUOUS
 90
13
 70
0
 10
45.8859000131
 20
7.2062173495
 10
45.8836295799
 20
7.240503935
 10
45.876875712
 20
7.2747905204
 10
45.8657245575
 20
7.3086397686
 10
45.850119788
 20
7.3420460771
 10
45.8301177319
 20
7.3750150483
 10
45.8059735223
 20
7.4071261515
 10
45.777634099
 20
7.4383683975
 10
45.7451525223
 20
7.4687527753
 10
45.708943106
 20
7.4978917218
 10
45.6691439547
 20
7.5256560492
 10
45.6256169639
 20
7.5521749451
 10
45.5783621334
 20
7.5774484096
  0
LWPOLYLINE
  5
42A
100
AcDbEntity
  8
0
100
AcDbPolyline
 62
7
  6
CONTINUOUS
 90
13
 70
0
 10
45.8859000131
 20
30.1558905498
 10
45.8836295799
 20
30.1901771353
 10
45.876875712
 20
30.2244637207
 10
45.8657245575
 20
30.2583129689
 10
45.850119788
 20
30.2917192774
 10
45.8301177319
 20
30.3246882486
 10
45.8059735223
 20
30.3567993518
 10
45.777634099
 20
30.3880415977
 10
45.7451525223
 20
30.4184259756
 10
45.708943106
 20
30.4475649221
 10
45.6691439547
 20
30.4753292495
 10
45.6256169639
 20
30.5018481454
 10
45.5783621334
 20
30.5271216099
  0
LWPOLYLINE
  5
42B
100
AcDbEntity
  8
0
100
AcDbPolyline
 62
7
  6
CONTINUOUS
 90
13
 70
0
 10
45.8859000131
 20
53.1055637501
 10
45.8836295799
 20
53.1398503356
 10
45.876875712
 20
53.174136921
 10
45.8657245575
 20
53.2079861691
 10
45.850119788
 20
53.2413924777
 10
45.8301177319
 20
53.2743614489
 10
45.8059735223
 20
53.3064725521
 10
45.777634099
 20
53.337714798
 10
45.7451525223
 20
53.3680991759
 10
45.708943106
 20
53.3972381224
 10
45.6691439547
 20
53.4250024497
 10
45.6256169639
 20
53.4515213457
 10
45.5783621334
 20
53.4767948102
  0
LINE
  5
42C
100
AcDbEntity
  8
0
100
AcDbLine
 62
7
  6
CONTINUOUS
 10
45.8859000131
 20
-63.2016479782
 11
45.8859000131
 21
-61.6428022514
  0
LINE
  5
42D
100
AcDbEntity
  8
0
100
AcDbLine
 62
7
  6
CONTINUOUS
 10
45.8859000131
 20
-40.2519747779
 11
45.8859000131
 21
-38.6931290511
  0
LINE
  5
42E
100
AcDbEntity
  8
0
100
AcDbLine
 62
7
  6
CONTINUOUS
 10
45.8859000131
 20
-17.3023015776
 11
45.8859000131
 21
-15.7434558508
  0
LINE
  5
42F
100
AcDbEntity
  8
0
100
AcDbLine
 62
7
  6
CONTINUOUS
 10
45.8859000131
 20
5.6473716227
 11
45.8859000131
 21
7.2062173495
  0
LINE
  5
430
100
AcDbEntity
  8
0
100
AcDbLine
 62
7
  6
CONTINUOUS
 10
45.8859000131
 20
28.597044823
 11
45.8859000131
 21
30.1558905498
  0
LINE
  5
431
100
AcDbEntity
  8
0
100
AcDbLine
 62
7
  6
CONTINUOUS
 10
45.8859000131
 20
51.5467180233
 11
45.8859000131
 21
53.1055637501
  0
LINE
  5
432
100
AcDbEntity
  8
0
100
AcDbLine
 62
7
  6
CONTINUOUS
 10
-20.7792349644
 20
-65.2524785915
 11
-21.7028480965
 21
-65.7142851575
  0
LINE
  5
433
100
AcDbEntity
  8
0
100
AcDbLine
 62
7
  6
CONTINUOUS
 10
-19.4801968587
 20
-65.9019976443
 11
-21.7028480965
 21
-67.0133232632
  0
LWPOLYLINE
  5
434
100
AcDbEntity
  8
ASSI
100
AcDbPolyline
 62
7
  6
CONTINUOUS
 90
40
 70
0
 10
31.9913697906
 20
38.5660350745
 10
32.0412254597
 20
38.5433750845
 10
32.1087634292
 20
38.5192251551
 10
32.1786886299
 20
38.5013329238
 10
32.2510252402
 20
38.4897617694
 10
32.3257490818
 20
38.4844483129
 10
32.4021058858
 20
38.485446189
 10
32.4801121911
 20
38.4928193197
 10
32.5597514587
 20
38.506503783
 10
32.6402198031
 20
38.5263614465
 10
32.7215256213
 20
38.5524548335
 10
32.8036605162
 20
38.5847214208
 10
32.8857954111
 20
38.6228355068
 10
32.967930306
 20
38.6668563157
 10
33.0500652008
 20
38.7167246233
 10
33.131371019
 20
38.7719370544
 10
33.2118393634
 20
38.8325477353
 10
33.2914786311
 20
38.8985025398
 10
33.3694849364
 20
38.9691357143
 10
33.4458417403
 20
39.0444946422
 10
33.520565582
 20
39.1245319402
 10
33.5929021923
 20
39.2084397049
 10
33.662827393
 20
39.296257137
 10
33.7303653624
 20
39.3879450358
 10
33.7948343664
 20
39.4825778957
 10
33.856203322
 20
39.5801855437
 10
33.9145033122
 20
39.6807381528
 10
33.9691458519
 20
39.7832207363
 10
34.0200938978
 20
39.8876528413
 10
34.0673844931
 20
39.9940149206
 10
34.1105402825
 20
40.1012333463
 10
34.1495193879
 20
40.2093167915
 10
34.1843636875
 20
40.3182565831
 10
34.2147214598
 20
40.4269530733
 10
34.2405472646
 20
40.535403798
 10
34.261886542
 20
40.6436112214
 10
34.2785238917
 20
40.7504830883
 10
34.2903875134
 20
40.8556553138
 10
34.2975492073
 20
40.9594919829
 10
34.3000089734
 20
41.0619930955
  0
LWPOLYLINE
  5
435
100
AcDbEntity
  8
ASSI
100
AcDbPolyline
 62
7
  6
CONTINUOUS
 90
38
 70
0
 10
26.5190808125
 20
38.2280588464
 10
26.485877684
 20
38.2434149774
 10
26.4299519953
 20
38.2639065813
 10
26.3714868388
 20
38.2790098805
 10
26.3111433663
 20
38.2885540795
 10
26.2489002565
 20
38.2924760757
 10
26.1847788308
 20
38.2908389717
 10
26.119504205
 20
38.2836612809
 10
26.0530632886
 20
38.2708801104
 10
25.985469172
 20
38.252558353
 10
25.9174862419
 20
38.2289031998
 10
25.8491100846
 20
38.1998541101
 10
25.7803451138
 20
38.1654716247
 10
25.7119689565
 20
38.1261445571
 10
25.6439860264
 20
38.0818167801
 10
25.5763919098
 20
38.032544421
 10
25.5099509934
 20
37.9788846751
 10
25.4446763676
 20
37.9207877401
 10
25.3805549419
 20
37.8583034184
 10
25.3183118321
 20
37.7921383125
 10
25.2579683596
 20
37.7222506409
 10
25.1995032031
 20
37.6486821852
 10
25.1435775144
 20
37.5722648926
 10
25.0902201198
 20
37.4929664253
 10
25.0394021932
 20
37.4108191211
 10
24.9916984079
 20
37.3267519411
 10
24.9471441133
 20
37.2407430922
 10
24.9057039601
 20
37.1528143675
 10
24.8678465733
 20
37.0639601071
 10
24.8336126218
 20
36.9741698049
 10
24.8029614368
 20
36.8834539669
 10
24.7762396364
 20
36.7928384513
 10
24.7534918242
 20
36.7023243967
 10
24.7346733967
 20
36.6119106646
 10
24.7199971616
 20
36.5226196964
 10
24.7095340549
 20
36.4347923063
 10
24.7032131406
 20
36.3480876802
 10
24.7010344188
 20
36.2625058182
  0
LWPOLYLINE
  5
436
100
AcDbEntity
  8
ASSI
100
AcDbPolyline
 62
7
  6
CONTINUOUS
 90
38
 70
0
 10
31.5065083463
 20
39.2848535931
 10
31.5075385451
 20
39.284377136
 10
31.5634642337
 20
39.2638855321
 10
31.6219293903
 20
39.2487822329
 10
31.6822728628
 20
39.2392380338
 10
31.7445159726
 20
39.2353160377
 10
31.8086373982
 20
39.2369531416
 10
31.8739120241
 20
39.2441308325
 10
31.9403529405
 20
39.256912003
 10
32.007947057
 20
39.2752337604
 10
32.0759299872
 20
39.2988889136
 10
32.1443061444
 20
39.3279380032
 10
32.2130711153
 20
39.3623204887
 10
32.2814472726
 20
39.4016475563
 10
32.3494302027
 20
39.4459753332
 10
32.4170243193
 20
39.4952476924
 10
32.4834652356
 20
39.5489074383
 10
32.5487398615
 20
39.6070043733
 10
32.6128612872
 20
39.669488695
 10
32.6751043969
 20
39.7356538009
 10
32.7354478694
 20
39.8055414725
 10
32.793913026
 20
39.8791099282
 10
32.8498387147
 20
39.9555272208
 10
32.9031961092
 20
40.0348256881
 10
32.9540140359
 20
40.1169729922
 10
33.0017178212
 20
40.2010401723
 10
33.0462721158
 20
40.2870490211
 10
33.087712269
 20
40.3749777458
 10
33.1255696558
 20
40.4638320063
 10
33.1598036072
 20
40.5536223085
 10
33.1904547923
 20
40.6443381465
 10
33.2171765926
 20
40.7349536621
 10
33.2399244049
 20
40.8254677166
 10
33.2587428324
 20
40.9158814488
 10
33.2734190675
 20
41.0051724169
 10
33.2838821742
 20
41.0929998071
 10
33.2902030884
 20
41.1797044331
 10
33.2923818102
 20
41.2652862951
  0
LINE
  5
437
100
AcDbEntity
  8
0
100
AcDbLine
 62
7
  6
CONTINUOUS
 10
10.3997997693
 20
45.8331598369
 11
3.8944173824
 21
49.0858510303
  0
LINE
  5
438
100
AcDbEntity
  8
0
100
AcDbLine
 62
7
  6
CONTINUOUS
 10
-7.5607124728
 20
54.8134159579
 11
-13.7832521472
 21
57.9246857951
  0
LINE
  5
439
100
AcDbEntity
  8
0
100
AcDbLine
 62
7
  6
CONTINUOUS
 10
-25.2383820025
 20
63.6522507228
 11
-31.7437643894
 21
66.9049419162
  0
LINE
  5
43A
100
AcDbEntity
  8
0
100
AcDbLine
 62
253
  6
CONTINUOUS
 10
19.4507665685
 20
42.0954060381
 11
19.3721099593
 21
42.1347343428
  0
LINE
  5
43B
100
AcDbEntity
  8
0
100
AcDbLine
 62
7
  6
CONTINUOUS
 10
20.1578733497
 20
41.7418526475
 11
19.4507665685
 21
42.0954060381
  0
LINE
  5
43C
100
AcDbEntity
  8
0
100
AcDbLine
 62
7
  6
CONTINUOUS
 10
-31.2115576694
 20
67.5755746381
 11
-25.5956886613
 21
64.7676401341
  0
LINE
  5
43D
100
AcDbEntity
  8
0
100
AcDbLine
 62
7
  6
CONTINUOUS
 10
4.3931453975
 20
49.7732231047
 11
10.0090144056
 21
46.9652886006
  0
LINE
  5
43E
100
AcDbEntity
  8
0
100
AcDbLine
 62
7
  6
CONTINUOUS
 10
-7.9180191316
 20
55.9288053692
 11
-13.2845241322
 21
58.6120578695
  0
LINE
  5
43F
100
AcDbEntity
  8
0
100
AcDbLine
 62
7
  6
CONTINUOUS
 10
-24.4307069717
 20
64.5212054135
 11
-23.9655897963
 21
64.2886468258
  0
LINE
  5
440
100
AcDbEntity
  8
0
100
AcDbLine
 62
7
  6
CONTINUOUS
 10
-6.753037442
 20
55.6823706487
 11
-6.2879202667
 21
55.449812061
  0
LINE
  5
441
100
AcDbEntity
  8
0
100
AcDbLine
 62
7
  6
CONTINUOUS
 10
11.1739960952
 20
46.7188538801
 11
11.6725919755
 21
46.4695559399
  0
LINE
  5
442
100
AcDbEntity
  8
0
100
AcDbLine
 62
7
  6
CONTINUOUS
 10
20.4053607231
 20
42.5727031154
 11
20.3267041139
 21
42.6120314201
  0
LINE
  5
443
100
AcDbEntity
  8
0
100
AcDbLine
 62
7
  6
CONTINUOUS
 10
-30.1508974976
 20
68.105904724
 11
-24.5350284895
 21
65.29797022
  0
LINE
  5
444
100
AcDbEntity
  8
0
100
AcDbLine
 62
7
  6
CONTINUOUS
 10
5.4538055693
 20
50.3035531906
 11
11.0696745773
 21
47.4956186865
  0
LINE
  5
445
100
AcDbEntity
  8
0
100
AcDbLine
 62
7
  6
CONTINUOUS
 10
-6.8573589598
 20
56.4591354551
 11
-12.2238639604
 21
59.1423879554
  0
LINE
  5
446
100
AcDbEntity
  8
0
100
AcDbLine
 62
7
  6
CONTINUOUS
 10
22.137772337
 20
42.7318021412
 11
21.4306655558
 21
43.0853555318
  0
LINE
  5
447
100
AcDbEntity
  8
ASSI
100
AcDbLine
 62
253
  6
CONTINUOUS
 10
-23.5590033972
 20
69.6909788988
 11
-23.2929257886
 21
69.5579400945
  0
LINE
  5
448
100
AcDbEntity
  8
ASSI
100
AcDbLine
 62
253
  6
CONTINUOUS
 10
33.2923818102
 20
41.2652862951
 11
32.5852750291
 21
41.6188396857
  0
LWPOLYLINE
  5
449
100
AcDbEntity
  8
0
100
AcDbPolyline
 62
7
  6
CONTINUOUS
 90
12
 70
0
 10
-6.2879202667
 20
55.449812061
 10
-6.2622919033
 20
55.4359635664
 10
-6.2390223336
 20
55.4213740077
 10
-6.2181115576
 20
55.4060433848
 10
-6.1994693539
 20
55.3898780243
 10
-6.1831859438
 20
55.3729715995
 10
-6.1695319921
 20
55.3556051312
 10
-6.1585514495
 20
55.3377709297
 10
-6.1502003654
 20
55.3194766845
 10
-6.1446175523
 20
55.3010264847
 10
-6.1418492812
 20
55.2824177236
 10
-6.1415032473
 20
55.2730353657
  0
LWPOLYLINE
  5
44A
100
AcDbEntity
  8
0
100
AcDbPolyline
 62
7
  6
CONTINUOUS
 90
12
 70
0
 10
11.6725919755
 20
46.4695559399
 10
11.6982203389
 20
46.4557074454
 10
11.7214899085
 20
46.4411178866
 10
11.7424006845
 20
46.4257872638
 10
11.7610428883
 20
46.4096219032
 10
11.7773262984
 20
46.3927154785
 10
11.79098025
 20
46.3753490101
 10
11.8019607926
 20
46.3575148086
 10
11.8103118768
 20
46.3392205634
 10
11.8158946898
 20
46.3207703637
 10
11.8186629609
 20
46.3021616025
 10
11.8190089948
 20
46.2927792446
  0
LWPOLYLINE
  5
44B
100
AcDbEntity
  8
ASSI
100
AcDbPolyline
 62
7
  6
CONTINUOUS
 90
30
 70
0
 10
-15.4382614499
 20
73.4016232937
 10
-15.4818562571
 20
73.4334435808
 10
-15.5413996239
 20
73.4716548275
 10
-15.6055798143
 20
73.5079408896
 10
-15.6743447852
 20
73.542323375
 10
-15.7469169093
 20
73.5744134702
 10
-15.8233394028
 20
73.6041851536
 10
-15.9035690496
 20
73.6316644468
 10
-15.9866985745
 20
73.6565406007
 10
-16.0727608947
 20
73.6787840664
 10
-16.1617230931
 20
73.698424393
 10
-16.2525791424
 20
73.715239478
 10
-16.3453505403
 20
73.7291972516
 10
-16.4400157892
 20
73.7403297837
 10
-16.5355043692
 20
73.7485111824
 10
-16.6318256261
 20
73.7537079485
 10
-16.728970214
 20
73.7559535812
 10
-16.8258395756
 20
73.7552226857
 10
-16.9224305866
 20
73.7514814748
 10
-17.0187463712
 20
73.7447637357
 10
-17.1136977444
 20
73.7351454359
 10
-17.2072692185
 20
73.7225936503
 10
-17.2994762812
 20
73.707141304
 10
-17.3892762109
 20
73.6889631395
 10
-17.4766416837
 20
73.6680282153
 10
-17.5616000236
 20
73.6443674729
 10
-17.6431904809
 20
73.6182484793
 10
-17.721092806
 20
73.5897604235
 10
-17.7956272485
 20
73.5588141165
 10
-17.8667938086
 20
73.5254095582
  0
LWPOLYLINE
  5
44C
100
AcDbEntity
  8
ASSI
100
AcDbPolyline
 62
7
  6
CONTINUOUS
 90
30
 70
0
 10
18.5028640471
 20
49.3599927333
 10
18.4592692398
 20
49.3918130204
 10
18.399725873
 20
49.4300242672
 10
18.3355456827
 20
49.4663103292
 10
18.2667807118
 20
49.5006928147
 10
18.1942085876
 20
49.5327829099
 10
18.1177860941
 20
49.5625545933
 10
18.0375564473
 20
49.5900338864
 10
17.9544269225
 20
49.6149100403
 10
17.8683646022
 20
49.6371535061
 10
17.7794024039
 20
49.6567938326
 10
17.6885463546
 20
49.6736089177
 10
17.5957749566
 20
49.6875666912
 10
17.5011097077
 20
49.6986992234
 10
17.4056211278
 20
49.706880622
 10
17.3092998709
 20
49.7120773881
 10
17.2121552829
 20
49.7143230208
 10
17.1152859214
 20
49.7135921254
 10
17.0186949104
 20
49.7098509144
 10
16.9223791258
 20
49.7031331753
 10
16.8274277526
 20
49.6935148755
 10
16.7338562785
 20
49.6809630899
 10
16.6416492158
 20
49.6655107437
 10
16.551849286
 20
49.6473325791
 10
16.4644838132
 20
49.626397655
 10
16.3795254734
 20
49.6027369126
 10
16.297935016
 20
49.576617919
 10
16.220032691
 20
49.5481298631
 10
16.1454982484
 20
49.5171835561
 10
16.0743316884
 20
49.4837789979
  0
LWPOLYLINE
  5
44D
100
AcDbEntity
  8
0
100
AcDbPolyline
 62
7
  6
CONTINUOUS
 90
13
 70
0
 10
45.5783621334
 20
-39.0643601112
 10
45.6256169639
 20
-39.0390866467
 10
45.6691439547
 20
-39.0125677507
 10
45.708943106
 20
-38.9848034234
 10
45.7451525223
 20
-38.9556644769
 10
45.777634099
 20
-38.925280099
 10
45.8059735223
 20
-38.8940378531
 10
45.8301177319
 20
-38.8619267499
 10
45.850119788
 20
-38.8289577787
 10
45.8657245575
 20
-38.7955514701
 10
45.876875712
 20
-38.761702222
 10
45.8836295799
 20
-38.7274156365
 10
45.8859000131
 20
-38.6931290511
  0
LWPOLYLINE
  5
44E
100
AcDbEntity
  8
0
100
AcDbPolyline
 62
7
  6
CONTINUOUS
 90
13
 70
0
 10
45.5783621334
 20
-40.623205838
 10
45.6256169639
 20
-40.5979323735
 10
45.6691439547
 20
-40.5714134775
 10
45.708943106
 20
-40.5436491502
 10
45.7451525223
 20
-40.5145102037
 10
45.777634099
 20
-40.4841258258
 10
45.8059735223
 20
-40.4528835799
 10
45.8301177319
 20
-40.4207724767
 10
45.850119788
 20
-40.3878035055
 10
45.8657245575
 20
-40.3543971969
 10
45.876875712
 20
-40.3205479488
 10
45.8836295799
 20
-40.2862613633
 10
45.8859000131
 20
-40.2519747779
  0
LINE
  5
44F
100
AcDbEntity
  8
0
100
AcDbLine
 62
7
  6
CONTINUOUS
 10
42.926968219
 20
-40.5199608789
 11
13.793912319
 21
-55.0864888289
  0
LINE
  5
450
100
AcDbEntity
  8
0
100
AcDbLine
 62
7
  6
CONTINUOUS
 10
43.6340750002
 20
-40.8735142695
 11
14.5010191002
 21
-55.4400422195
  0
LINE
  5
451
100
AcDbEntity
  8
0
100
AcDbLine
 62
7
  6
CONTINUOUS
 10
13.793912319
 20
-56.3855269346
 11
13.6524909628
 21
-56.4562376127
  0
LINE
  5
452
100
AcDbEntity
  8
0
100
AcDbLine
 62
7
  6
CONTINUOUS
 10
-13.2175667223
 20
-69.9569258447
 11
-12.2939535902
 21
-69.4951192786
  0
LINE
  5
453
100
AcDbEntity
  8
0
100
AcDbLine
 62
7
  6
CONTINUOUS
 10
30.6230537113
 20
-49.5440884235
 11
30.9058964237
 21
-49.4026670672
  0
LWPOLYLINE
  5
454
100
AcDbEntity
  8
0
100
AcDbPolyline
 62
7
  6
CONTINUOUS
 90
12
 70
0
 10
30.9058964237
 20
-49.4026670672
 10
30.9431542369
 20
-49.3855741533
 10
30.9799408208
 20
-49.3716183108
 10
31.0162561755
 20
-49.3607995396
 10
31.0522513409
 20
-49.3530984345
 10
31.0877752771
 20
-49.3485344007
 10
31.1223748638
 20
-49.3471656541
 10
31.1560382603
 20
-49.3490331257
 10
31.1887773074
 20
-49.3540958845
 10
31.2201744071
 20
-49.3622893532
 10
31.2502123693
 20
-49.3736536356
 10
31.2636548923
 20
-49.3799704518
  0
LWPOLYLINE
  5
455
100
AcDbEntity
  8
ASSI
100
AcDbPolyline
 62
7
  6
CONTINUOUS
 90
61
 70
0
 10
6.0330831163
 20
55.387774078
 10
6.3291170956
 20
55.2641320486
 10
6.6335014976
 20
55.1465942262
 10
6.9462363223
 20
55.0351606108
 10
7.2678088393
 20
54.9296844381
 10
7.5977317789
 20
54.8303124723
 10
7.9345433321
 20
54.7374850068
 10
8.2782740659
 20
54.6512310816
 10
8.6288934132
 20
54.5715216567
 10
8.9848478642
 20
54.4987099053
 10
9.3461610925
 20
54.4328264346
 10
9.7128094244
 20
54.3738406374
 10
10.0831683296
 20
54.3220138655
 10
10.457254273
 20
54.277377886
 10
10.8350507897
 20
54.2399009318
 10
11.2148839543
 20
54.2097490543
 10
11.596762804
 20
54.1869547573
 10
11.9806783016
 20
54.171485537
 10
12.36492941
 20
54.1634099338
 10
12.7495176184
 20
54.1627607556
 10
13.1344414376
 20
54.1695051945
 10
13.5179953629
 20
54.1836133676
 10
13.9001733156
 20
54.20511795
 10
14.2809813743
 20
54.2339862666
 10
14.6587322703
 20
54.2700904088
 10
15.033412438
 20
54.3134624842
 10
15.405035443
 20
54.3640703852
 10
15.7719547133
 20
54.4216898803
 10
16.1341493769
 20
54.4863520823
 10
16.4916403057
 20
54.5580258784
 10
16.8428435436
 20
54.6363936995
 10
17.18773119
 20
54.7214852488
 10
17.5263311456
 20
54.813270823
 10
17.8571431553
 20
54.9113437422
 10
18.1801326617
 20
55.0157319055
 10
18.4953342224
 20
55.1264074138
 10
18.801351255
 20
55.2428798907
 10
19.0981430051
 20
55.3651750592
 10
19.3857502271
 20
55.4932671962
 10
19.6628986029
 20
55.6265887563
 10
19.9295417231
 20
55.7651629442
 10
20.1857259971
 20
55.9089665552
 10
20.430316334
 20
56.0573624302
 10
20.6632612878
 20
56.2103709465
 10
20.8846123044
 20
56.3679717269
 10
21.093388631
 20
56.5294664801
 10
21.2895344695
 20
56.6948724849
 10
21.4731056179
 20
56.8641724627
 10
21.6432887165
 20
57.036616286
 10
21.8000243586
 20
57.2122179049
 10
21.9433719509
 20
57.3909633693
 10
22.0726963548
 20
57.5720607011
 10
22.1879353451
 20
57.7555203362
 10
22.2891511471
 20
57.9413318387
 10
22.3758952979
 20
58.1286719226
 10
22.4481035822
 20
58.3175473706
 10
22.5058402154
 20
58.5079513999
 10
22.5488493802
 20
58.6990403763
 10
22.5770657264
 20
58.8908173389
 10
22.5905546042
 20
59.0832792485
 10
22.5918141778
 20
59.1621226631
  0
LWPOLYLINE
  5
456
100
AcDbEntity
  8
ASSI
100
AcDbPolyline
 62
7
  6
CONTINUOUS
 90
61
 70
0
 10
-11.6445864134
 20
64.2266088429
 10
-11.348552434
 20
64.1029668134
 10
-11.044168032
 20
63.985428991
 10
-10.7314332074
 20
63.8739953757
 10
-10.4098606904
 20
63.7685192029
 10
-10.0799377508
 20
63.6691472372
 10
-9.7431261975
 20
63.5763197717
 10
-9.3993954638
 20
63.4900658465
 10
-9.0487761165
 20
63.4103564215
 10
-8.6928216655
 20
63.3375446701
 10
-8.3315084372
 20
63.2716611994
 10
-7.9648601053
 20
63.2126754022
 10
-7.5945012001
 20
63.1608486304
 10
-7.2204152566
 20
63.1162126508
 10
-6.8426187399
 20
63.0787356966
 10
-6.4627855753
 20
63.0485838192
 10
-6.0809067256
 20
63.0257895221
 10
-5.696991228
 20
63.0103203018
 10
-5.3127401196
 20
63.0022446987
 10
-4.9281519112
 20
63.0015955205
 10
-4.543228092
 20
63.0083399594
 10
-4.1596741668
 20
63.0224481325
 10
-3.7774962141
 20
63.0439527149
 10
-3.3966881553
 20
63.0728210314
 10
-3.0189372593
 20
63.1089251736
 10
-2.6442570916
 20
63.152297249
 10
-2.2726340866
 20
63.20290515
 10
-1.9057148164
 20
63.2605246452
 10
-1.5435201528
 20
63.3251868471
 10
-1.186029224
 20
63.3968606433
 10
-0.8348259861
 20
63.4752284643
 10
-0.4899383396
 20
63.5603200136
 10
-0.1513383841
 20
63.6521055878
 10
0.1794736257
 20
63.7501785071
 10
0.5024631321
 20
63.8545666703
 10
0.8176646927
 20
63.9652421787
 10
1.1236817254
 20
64.0817146556
 10
1.4204734754
 20
64.204009824
 10
1.7080806975
 20
64.332101961
 10
1.9852290732
 20
64.4654235211
 10
2.2518721935
 20
64.603997709
 10
2.5080564675
 20
64.74780132
 10
2.7526468043
 20
64.896197195
 10
2.9855917581
 20
65.0492057114
 10
3.2069427748
 20
65.2068064917
 10
3.4157191013
 20
65.3683012449
 10
3.6118649398
 20
65.5337072498
 10
3.7954360882
 20
65.7030072275
 10
3.9656191869
 20
65.8754510508
 10
4.1223548289
 20
66.0510526697
 10
4.2657024212
 20
66.2297981341
 10
4.3950268252
 20
66.4108954659
 10
4.5102658155
 20
66.594355101
 10
4.6114816174
 20
66.7801666035
 10
4.6982257682
 20
66.9675066874
 10
4.7704340526
 20
67.1563821354
 10
4.8281706857
 20
67.3467861648
 10
4.8711798506
 20
67.5378751411
 10
4.8993961967
 20
67.7296521037
 10
4.9128850745
 20
67.9221140133
 10
4.9141446482
 20
68.000957428
  0
LWPOLYLINE
  5
457
100
AcDbEntity
  8
ASSI
100
AcDbPolyline
 62
7
  6
CONTINUOUS
 90
63
 70
0
 10
5.6787018669
 20
55.2105834533
 10
5.9776299598
 20
55.0847061724
 10
6.2848131835
 20
54.964769022
 10
6.6002515378
 20
54.8507720023
 10
6.9244023779
 20
54.7425744177
 10
7.2568083487
 20
54.6403169637
 10
7.5960973848
 20
54.5444217263
 10
7.9422979367
 20
54.4549150028
 10
8.295381554
 20
54.3717704958
 10
8.6538908208
 20
54.2953313992
 10
9.0178481633
 20
54.2256254289
 10
9.3872311553
 20
54.1626248691
 10
9.7605151023
 20
54.1065897657
 10
10.1377161284
 20
54.0575489096
 10
10.5188181094
 20
54.0154735101
 10
10.9022479787
 20
53.9805372407
 10
11.2880153583
 20
53.9527696103
 10
11.6761106261
 20
53.9321411102
 10
12.0649318493
 20
53.9187368881
 10
12.4544820287
 20
53.9125868047
 10
12.8447581635
 20
53.9136609994
 10
13.234149319
 20
53.9219550383
 10
13.6226518373
 20
53.9374987635
 10
14.0102693764
 20
53.960262333
 10
14.3954019753
 20
53.9901517859
 10
14.7780393629
 20
54.0271965761
 10
15.1581918104
 20
54.0713672498
 10
15.5342901703
 20
54.1224814845
 10
15.9063176857
 20
54.1805679806
 10
16.2742911136
 20
54.2455980377
 10
16.6366915777
 20
54.3173032328
 10
16.9934960428
 20
54.3957111564
 10
17.3447275442
 20
54.4807942179
 10
17.6889363107
 20
54.5722012217
 10
18.026093315
 20
54.6699583069
 10
18.3562275844
 20
54.7740393344
 10
18.6779764306
 20
54.884014691
 10
18.9913051937
 20
54.9999087402
 10
19.2962485335
 20
55.1216971186
 10
19.5915477419
 20
55.2488771228
 10
19.8771629561
 20
55.3814710383
 10
20.1531340388
 20
55.5194565797
 10
20.4183218699
 20
55.6622641868
 10
20.6726818782
 20
55.809913791
 10
20.916258635
 20
55.9623854609
 10
21.1480467334
 20
56.1190498424
 10
21.3679974467
 20
56.2799242655
 10
21.5761595016
 20
56.4449914002
 10
21.7716736721
 20
56.6135699024
 10
21.9544876796
 20
56.7856742856
 10
22.1246538026
 20
56.9612900363
 10
22.2814696499
 20
57.1396922689
 10
22.42488004
 20
57.3208925009
 10
22.5549401543
 20
57.5048792149
 10
22.6711131465
 20
57.6908929726
 10
22.7733416159
 20
57.8789421525
 10
22.8616829633
 20
58.0690183763
 10
22.9357725437
 20
58.2603370701
 10
22.9955514495
 20
58.4529033695
 10
23.0410785884
 20
58.6467121391
 10
23.0721660389
 20
58.8409633982
 10
23.0887541166
 20
59.035658976
 10
23.0917936469
 20
59.1621226627
  0
LWPOLYLINE
  5
458
100
AcDbEntity
  8
ASSI
100
AcDbPolyline
 62
7
  6
CONTINUOUS
 90
63
 70
0
 10
-11.9989676628
 20
64.0494182181
 10
-11.7000395698
 20
63.9235409372
 10
-11.3928563462
 20
63.8036037869
 10
-11.0774179918
 20
63.6896067671
 10
-10.7532671518
 20
63.5814091825
 10
-10.420861181
 20
63.4791517286
 10
-10.0815721448
 20
63.3832564911
 10
-9.735371593
 20
63.2937497676
 10
-9.3822879757
 20
63.2106052606
 10
-9.0237787089
 20
63.134166164
 10
-8.6598213664
 20
63.0644601938
 10
-8.2904383744
 20
63.0014596339
 10
-7.9171544274
 20
62.9454245305
 10
-7.5399534013
 20
62.8963836745
 10
-7.1588514202
 20
62.8543082749
 10
-6.7754215509
 20
62.8193720056
 10
-6.3896541714
 20
62.7916043752
 10
-6.0015589036
 20
62.770975875
 10
-5.6127376803
 20
62.7575716529
 10
-5.223187501
 20
62.7514215695
 10
-4.8329113662
 20
62.7524957642
 10
-4.4435202107
 20
62.7607898031
 10
-4.0550176923
 20
62.7763335284
 10
-3.6674001533
 20
62.7990970978
 10
-3.2822675544
 20
62.8289865507
 10
-2.8996301668
 20
62.8660313409
 10
-2.5194777193
 20
62.9102020146
 10
-2.1433793593
 20
62.9613162493
 10
-1.7713518439
 20
63.0194027454
 10
-1.4033784161
 20
63.0844328026
 10
-1.040977952
 20
63.1561379976
 10
-0.6841734868
 20
63.2345459212
 10
-0.3329419855
 20
63.3196289828
 10
0.0112667811
 20
63.4110359865
 10
0.3484237853
 20
63.5087930717
 10
0.6785580547
 20
63.6128740992
 10
1.000306901
 20
63.7228494558
 10
1.313635664
 20
63.8387435051
 10
1.6185790039
 20
63.9605318834
 10
1.9138782122
 20
64.0877118876
 10
2.1994934264
 20
64.2203058032
 10
2.4754645091
 20
64.3582913445
 10
2.7406523402
 20
64.5010989516
 10
2.9950123486
 20
64.6487485558
 10
3.2385891053
 20
64.8012202257
 10
3.4703772038
 20
64.9578846072
 10
3.690327917
 20
65.1187590304
 10
3.898489972
 20
65.2838261651
 10
4.0940041424
 20
65.4524046672
 10
4.2768181499
 20
65.6245090505
 10
4.446984273
 20
65.8001248011
 10
4.6038001203
 20
65.9785270337
 10
4.7472105103
 20
66.1597272658
 10
4.8772706246
 20
66.3437139797
 10
4.9934436168
 20
66.5297277374
 10
5.0956720863
 20
66.7177769174
 10
5.1840134336
 20
66.9078531411
 10
5.258103014
 20
67.0991718349
 10
5.3178819198
 20
67.2917381344
 10
5.3634090587
 20
67.4855469039
 10
5.3944965093
 20
67.6797981631
 10
5.411084587
 20
67.8744937408
 10
5.4141241172
 20
68.0009574275
  0
LWPOLYLINE
  5
459
100
AcDbEntity
  8
ASSI
100
AcDbPolyline
 62
7
  6
CONTINUOUS
 90
14
 70
0
 10
33.7802210316
 20
42.1437375542
 10
33.7303653624
 20
42.1663975442
 10
33.662827393
 20
42.1905474736
 10
33.5929021923
 20
42.2084397049
 10
33.520565582
 20
42.2200108593
 10
33.4458417403
 20
42.2253243158
 10
33.3694849364
 20
42.2243264397
 10
33.2914786311
 20
42.216953309
 10
33.2118393634
 20
42.2032688457
 10
33.131371019
 20
42.1834111822
 10
33.0500652008
 20
42.1573177952
 10
32.967930306
 20
42.1250512079
 10
32.8857954111
 20
42.0869371219
 10
32.8036605162
 20
42.042916313
  0
LWPOLYLINE
  5
45A
100
AcDbEntity
  8
ASSI
100
AcDbPolyline
 62
7
  6
CONTINUOUS
 90
38
 70
0
 10
39.2525100096
 20
42.4817137823
 10
39.2857131381
 20
42.4663576513
 10
39.3416388268
 20
42.4458660474
 10
39.4001039834
 20
42.4307627482
 10
39.4604474559
 20
42.4212185492
 10
39.5226905656
 20
42.417296553
 10
39.5868119913
 20
42.418933657
 10
39.6520866172
 20
42.4261113478
 10
39.7185275335
 20
42.4388925183
 10
39.7861216501
 20
42.4572142757
 10
39.8541045802
 20
42.4808694289
 10
39.9224807375
 20
42.5099185186
 10
39.9912457084
 20
42.544301004
 10
40.0596218656
 20
42.5836280716
 10
40.1276047958
 20
42.6279558486
 10
40.1951989123
 20
42.6772282077
 10
40.2616398287
 20
42.7308879536
 10
40.3269144546
 20
42.7889848886
 10
40.3910358803
 20
42.8514692103
 10
40.45327899
 20
42.9176343162
 10
40.5136224625
 20
42.9875219878
 10
40.5720876191
 20
43.0610904435
 10
40.6280133077
 20
43.1375077361
 10
40.6813707023
 20
43.2168062034
 10
40.7321886289
 20
43.2989535076
 10
40.7798924143
 20
43.3830206876
 10
40.8244467088
 20
43.4690295365
 10
40.865886862
 20
43.5569582612
 10
40.9037442488
 20
43.6458125216
 10
40.9379782003
 20
43.7356028238
 10
40.9686293853
 20
43.8263186618
 10
40.9953511857
 20
43.9169341774
 10
41.0180989979
 20
44.007448232
 10
41.0369174254
 20
44.0978619641
 10
41.0515936605
 20
44.1871529323
 10
41.0620567672
 20
44.2749803224
 10
41.0683776815
 20
44.3616849485
 10
41.0705564033
 20
44.4472668105
  0
LWPOLYLINE
  5
45B
100
AcDbEntity
  8
ASSI
100
AcDbPolyline
 62
7
  6
CONTINUOUS
 90
38
 70
0
 10
40.6612164362
 20
45.2991266583
 10
40.6280133077
 20
45.3144827893
 10
40.5720876191
 20
45.3349743932
 10
40.5136224625
 20
45.3500776923
 10
40.45327899
 20
45.3596218914
 10
40.3910358803
 20
45.3635438875
 10
40.3269144546
 20
45.3619067836
 10
40.2616398287
 20
45.3547290927
 10
40.1951989123
 20
45.3419479222
 10
40.1276047958
 20
45.3236261648
 10
40.0596218656
 20
45.2999710117
 10
39.9912457084
 20
45.270921922
 10
39.9224807375
 20
45.2365394365
 10
39.8541045802
 20
45.197212369
 10
39.7861216501
 20
45.152884592
 10
39.7185275335
 20
45.1036122328
 10
39.6520866172
 20
45.049952487
 10
39.5868119913
 20
44.991855552
 10
39.5226905656
 20
44.9293712302
 10
39.4604474559
 20
44.8632061243
 10
39.4001039834
 20
44.7933184528
 10
39.3416388268
 20
44.719749997
 10
39.2857131381
 20
44.6433327045
 10
39.2323557436
 20
44.5640342371
 10
39.1815378169
 20
44.481886933
 10
39.1338340316
 20
44.397819753
 10
39.089279737
 20
44.3118109041
 10
39.0478395838
 20
44.2238821794
 10
39.009982197
 20
44.1350279189
 10
38.9757482456
 20
44.0452376167
 10
38.9450970605
 20
43.9545217788
 10
38.9183752602
 20
43.8639062631
 10
38.8956274479
 20
43.7733922086
 10
38.8768090204
 20
43.6829784764
 10
38.8621327853
 20
43.5936875083
 10
38.8516696786
 20
43.5058601182
 10
38.8453487644
 20
43.4191554921
 10
38.8431700426
 20
43.3335736301
  0
LINE
  5
45C
100
AcDbEntity
  8
ASSI
100
AcDbLine
 62
253
  6
CONTINUOUS
 10
-23.9133441396
 20
70.168669652
 11
-23.5931186913
 21
70.0085569279
  0
LINE
  5
45D
100
AcDbEntity
  8
ASSI
100
AcDbLine
 62
253
  6
CONTINUOUS
 10
34.3000089734
 20
41.0619930955
 11
33.5929021923
 21
41.4155464861
  0
LINE
  5
45E
100
AcDbEntity
  8
0
100
AcDbLine
 62
7
  6
CONTINUOUS
 10
32.249399308
 20
47.7876156267
 11
31.5422925268
 21
48.1411690173
  0
LINE
  5
45F
100
AcDbEntity
  8
ASSI
100
AcDbLine
 62
253
  6
CONTINUOUS
 10
-17.1344192294
 20
73.5497546268
 11
-16.4879355853
 21
73.2265128048
  0
LINE
  5
460
100
AcDbEntity
  8
ASSI
100
AcDbLine
 62
253
  6
CONTINUOUS
 10
41.0705564033
 20
44.4472668105
 11
40.3634496221
 21
44.8008202011
  0
LINE
  5
461
100
AcDbEntity
  8
ASSI
100
AcDbLine
 62
253
  6
CONTINUOUS
 10
-16.4702579158
 20
73.2353516395
 11
-16.1959407867
 21
73.098193075
  0
LINE
  5
462
100
AcDbEntity
  8
ASSI
100
AcDbLine
 62
253
  6
CONTINUOUS
 10
40.3629817208
 20
44.8187318212
 11
39.7489167677
 21
45.1257642978
  0
LWPOLYLINE
  5
463
100
AcDbEntity
  8
ASSI
100
AcDbPolyline
 62
7
  6
CONTINUOUS
 90
30
 70
0
 10
-8.367193638
 20
76.9371571996
 10
-8.4107884453
 20
76.9689774867
 10
-8.4703318121
 20
77.0071887334
 10
-8.5345120024
 20
77.0434747955
 10
-8.6032769733
 20
77.077857281
 10
-8.6758490975
 20
77.1099473761
 10
-8.752271591
 20
77.1397190595
 10
-8.8325012377
 20
77.1671983527
 10
-8.9156307626
 20
77.1920745066
 10
-9.0016930829
 20
77.2143179724
 10
-9.0906552812
 20
77.2339582989
 10
-9.1815113305
 20
77.250773384
 10
-9.2742827284
 20
77.2647311575
 10
-9.3689479773
 20
77.2758636896
 10
-9.4644365573
 20
77.2840450883
 10
-9.5607578142
 20
77.2892418544
 10
-9.6579024022
 20
77.2914874871
 10
-9.7547717637
 20
77.2907565916
 10
-9.8513627747
 20
77.2870153807
 10
-9.9476785593
 20
77.2802976416
 10
-10.0426299325
 20
77.2706793418
 10
-10.1362014066
 20
77.2581275562
 10
-10.2284084693
 20
77.2426752099
 10
-10.318208399
 20
77.2244970454
 10
-10.4055738718
 20
77.2035621212
 10
-10.4905322117
 20
77.1799013788
 10
-10.5721226691
 20
77.1537823852
 10
-10.6500249941
 20
77.1252943294
 10
-10.7245594367
 20
77.0943480224
 10
-10.7957259967
 20
77.0609434642
  0
LWPOLYLINE
  5
464
100
AcDbEntity
  8
ASSI
100
AcDbPolyline
 62
7
  6
CONTINUOUS
 90
30
 70
0
 10
25.5739318589
 20
52.8955266393
 10
25.5303370517
 20
52.9273469264
 10
25.4707936849
 20
52.9655581731
 10
25.4066134945
 20
53.0018442352
 10
25.3378485237
 20
53.0362267206
 10
25.2652763995
 20
53.0683168158
 10
25.188853906
 20
53.0980884992
 10
25.1086242592
 20
53.1255677924
 10
25.0254947343
 20
53.1504439463
 10
24.9394324141
 20
53.172687412
 10
24.8504702157
 20
53.1923277386
 10
24.7596141664
 20
53.2091428236
 10
24.6668427685
 20
53.2231005972
 10
24.5721775196
 20
53.2342331293
 10
24.4766889396
 20
53.242414528
 10
24.3803676827
 20
53.2476112941
 10
24.2832230948
 20
53.2498569268
 10
24.1863537332
 20
53.2491260313
 10
24.0897627222
 20
53.2453848204
 10
23.9934469376
 20
53.2386670813
 10
23.8984955644
 20
53.2290487815
 10
23.8049240904
 20
53.2164969959
 10
23.7127170277
 20
53.2010446496
 10
23.6229170979
 20
53.1828664851
 10
23.5355516251
 20
53.1619315609
 10
23.4505932852
 20
53.1382708185
 10
23.3690028279
 20
53.1121518249
 10
23.2911005028
 20
53.0836637691
 10
23.2165660603
 20
53.0527174621
 10
23.1453995002
 20
53.0193129038
  0
LINE
  5
465
100
AcDbEntity
  8
0
100
AcDbLine
 62
7
  6
CONTINUOUS
 10
45.5218455697
 20
-65.6315305832
 11
45.5336742321
 21
-65.5870814176
  0
LWPOLYLINE
  5
466
100
AcDbEntity
  8
CURVE
100
AcDbPolyline
 62
7
  6
HIDDEN
 90
17
 70
0
 10
41.0175233947
 20
-43.4808281779
 10
40.6741623275
 20
-43.6937420098
 10
40.3438797766
 20
-43.9810126163
 10
40.0392561019
 20
-44.3316979493
 10
39.7675233947
 20
-44.7399605982
 10
39.5485365115
 20
-45.1759697914
 10
39.3855028823
 20
-45.6298781637
 10
39.2846324073
 20
-46.0843964861
 10
39.2497564417
 20
-46.5297751639
 10
39.2834232887
 20
-46.9334714465
 10
39.38314147
 20
-47.2881242161
 10
39.545112751
 20
-47.580224859
 10
39.7675233947
 20
-47.8018227766
 10
40.0341223895
 20
-47.9367263413
 10
40.3381788231
 20
-47.9843727258
 10
40.6681112804
 20
-47.9429470941
 10
41.0175235493
 20
-47.8109551196
  0
LWPOLYLINE
  5
467
100
AcDbEntity
  8
CURVE
100
AcDbPolyline
 62
7
  6
HIDDEN
 90
17
 70
0
 10
41.0175233947
 20
-47.8109551969
 10
41.3608844619
 20
-47.5980413651
 10
41.6911670128
 20
-47.3107707586
 10
41.9957906875
 20
-46.9600854255
 10
42.2675233947
 20
-46.5518227766
 10
42.4865102779
 20
-46.1158135834
 10
42.6495439072
 20
-45.6619052111
 10
42.7504143822
 20
-45.2073868887
 10
42.7852903477
 20
-44.7620082109
 10
42.7516235007
 20
-44.3583119283
 10
42.6519053194
 20
-44.0036591587
 10
42.4899340385
 20
-43.7115585158
 10
42.2675233947
 20
-43.4899605982
 10
42.0009243999
 20
-43.3550570335
 10
41.6968679663
 20
-43.307410649
 10
41.366935509
 20
-43.3488362807
 10
41.0175232402
 20
-43.4808282552
  0
LWPOLYLINE
  5
468
100
AcDbEntity
  8
0
100
AcDbPolyline
 62
7
  6
CONTINUOUS
 90
25
 70
0
 10
30.1987896426
 20
-53.3792406955
 10
30.2360474557
 20
-53.3590757963
 10
30.2728340396
 20
-53.3362450549
 10
30.3091493943
 20
-53.3107484715
 10
30.3451445597
 20
-53.2824544111
 10
30.3806684959
 20
-53.2514945088
 10
30.4152680826
 20
-53.2182636686
 10
30.4489314791
 20
-53.1827328005
 10
30.4816705262
 20
-53.1449309946
 10
30.5130676259
 20
-53.1053404262
 10
30.5431055881
 20
-53.0639381816
 10
30.5718016029
 20
-53.0207471744
 10
30.5987896426
 20
-52.9763183211
 10
30.6240478283
 20
-52.930635765
 10
30.647598039
 20
-52.8837153627
 10
30.6691398835
 20
-52.8361556003
 10
30.688647635
 20
-52.7879482878
 10
30.7061470202
 20
-52.7391016152
 10
30.7214148285
 20
-52.6902386388
 10
30.7344224737
 20
-52.6413591498
 10
30.7451985419
 20
-52.592463357
 10
30.7536055807
 20
-52.5441749434
 10
30.7595977724
 20
-52.4967018031
 10
30.7632209347
 20
-52.449836042
 10
30.7644750675
 20
-52.40357766
  0
LINE
  5
469
100
AcDbEntity
  8
0
100
AcDbLine
 62
7
  6
CONTINUOUS
 10
30.1987896426
 20
-53.3792406955
 11
30.0573682863
 21
-53.4499513737
  0
LINE
  5
46A
100
AcDbEntity
  8
0
100
AcDbLine
 62
7
  6
CONTINUOUS
 10
12.9576191301
 20
-62.1587445744
 11
13.793912319
 21
-61.7405979799
  0
LINE
  5
46B
100
AcDbEntity
  8
0
100
AcDbLine
 62
7
  6
CONTINUOUS
 10
30.9058964237
 20
-53.7327940861
 11
30.6230537113
 21
-53.8742154424
  0
LINE
  5
46C
100
AcDbEntity
  8
0
100
AcDbLine
 62
7
  6
CONTINUOUS
 10
13.6524909628
 20
-62.5184154392
 11
13.793912319
 21
-62.4477047611
  0
LINE
  5
46D
100
AcDbEntity
  8
0
100
AcDbLine
 62
7
  6
CONTINUOUS
 10
14.5010191002
 20
-64.1002962574
 11
31.4715818487
 21
-55.6150148831
  0
LINE
  5
46E
100
AcDbEntity
  8
0
100
AcDbLine
 62
7
  6
CONTINUOUS
 10
30.7644750675
 20
-56.9935123001
 11
19.4507665685
 21
-62.6503665496
  0
LWPOLYLINE
  5
46F
100
AcDbEntity
  8
0
100
AcDbPolyline
 62
7
  6
CONTINUOUS
 90
12
 70
0
 10
30.6230537113
 20
-53.8742154424
 10
30.5857958981
 20
-53.8913083563
 10
30.5490093142
 20
-53.9052641988
 10
30.5126939596
 20
-53.91608297
 10
30.4766987941
 20
-53.9237840751
 10
30.4411748579
 20
-53.9283481089
 10
30.4065752712
 20
-53.9297168555
 10
30.3729118747
 20
-53.9278493839
 10
30.3401728276
 20
-53.9227866251
 10
30.3087757279
 20
-53.9145931564
 10
30.2787377657
 20
-53.9032288739
 10
30.2652952427
 20
-53.8969120578
  0
LWPOLYLINE
  5
470
100
AcDbEntity
  8
0
100
AcDbPolyline
 62
7
  6
CONTINUOUS
 90
12
 70
0
 10
13.6524909628
 20
-62.5184154392
 10
13.6059186963
 20
-62.5397815816
 10
13.5599354665
 20
-62.5572263847
 10
13.5145412731
 20
-62.5707498487
 10
13.4695473163
 20
-62.5803762302
 10
13.4251423961
 20
-62.5860812724
 10
13.3818929127
 20
-62.5877922057
 10
13.339813667
 20
-62.5854578661
 10
13.2988898582
 20
-62.5791294177
 10
13.2596434836
 20
-62.5688875818
 10
13.2220960309
 20
-62.5546822287
 10
13.2052928771
 20
-62.5467862085
  0
LWPOLYLINE
  5
471
100
AcDbEntity
  8
0
100
AcDbPolyline
 62
7
  6
CONTINUOUS
 90
4
 70
0
 10
45.4778357716
 20
-65.7622527442
 10
45.4788386282
 20
-65.7597744976
 10
45.5018065713
 20
-65.6956632397
 10
45.5218455697
 20
-65.6315305832
  0
LWPOLYLINE
  5
472
100
AcDbEntity
  8
ASSI
100
AcDbPolyline
 62
7
  6
CONTINUOUS
 90
22
 70
0
 10
24.7250606128
 20
-69.2937470918
 10
24.7874656571
 20
-69.2372405521
 10
24.8485511003
 20
-69.1769534098
 10
24.9083301735
 20
-69.1129235714
 10
24.9661994618
 20
-69.0457973596
 10
25.0221396224
 20
-68.9755434139
 10
25.0761699979
 20
-68.9021930949
 10
25.1277452011
 20
-68.826486807
 10
25.1768403656
 20
-68.7484006886
 10
25.2234803578
 20
-68.6679586013
 10
25.2671943895
 20
-68.5859725345
 10
25.3079528262
 20
-68.5024268506
 10
25.3457853024
 20
-68.4173371871
 10
25.3803099339
 20
-68.3315624466
 10
25.4114932183
 20
-68.2450956904
 10
25.439368658
 20
-68.1579438571
 10
25.4636548758
 20
-68.0709866649
 10
25.4843155196
 20
-67.9842260852
 10
25.5013869416
 20
-67.8976601465
 10
25.5146968213
 20
-67.8121626529
 10
25.5241877187
 20
-67.7280248725
 10
25.5288117106
 20
-67.6609820861
  0
LINE
  5
473
100
AcDbEntity
  8
ASSI
100
AcDbLine
 62
7
  6
CONTINUOUS
 10
24.7030875596
 20
-69.3119445021
 11
24.7250606128
 21
-69.2937470918
  0
LINE
  5
474
100
AcDbEntity
  8
0
100
AcDbLine
 62
7
  6
CONTINUOUS
 10
7.2885299321
 20
-79.2863610397
 11
9.1977182413
 21
-77.9026866041
  0
LINE
  5
475
100
AcDbEntity
  8
0
100
AcDbLine
 62
7
  6
CONTINUOUS
 10
9.1977182413
 20
-78.2205238493
 11
8.7027434945
 21
-78.5792542585
  0
LWPOLYLINE
  5
476
100
AcDbEntity
  8
CURVE
100
AcDbPolyline
 62
7
  6
HIDDEN
 90
17
 70
0
 10
22.9863004745
 20
-62.8887444835
 10
22.6429394072
 20
-63.1016583153
 10
22.3126568564
 20
-63.3889289218
 10
22.0080331816
 20
-63.7396142548
 10
21.7363004745
 20
-64.1478769037
 10
21.5173135912
 20
-64.583886097
 10
21.354279962
 20
-65.0377944692
 10
21.253409487
 20
-65.4923127916
 10
21.2185335215
 20
-65.9376914694
 10
21.2522003685
 20
-66.341387752
 10
21.3519185497
 20
-66.6960405217
 10
21.5138898307
 20
-66.9881411645
 10
21.7363004745
 20
-67.2097390822
 10
22.0028994693
 20
-67.3446426469
 10
22.3069559029
 20
-67.3922890314
 10
22.6368883601
 20
-67.3508633997
 10
22.986300629
 20
-67.2188714251
  0
LWPOLYLINE
  5
477
100
AcDbEntity
  8
CURVE
100
AcDbPolyline
 62
7
  6
HIDDEN
 90
17
 70
0
 10
22.9863004745
 20
-67.2188715024
 10
23.3296615417
 20
-67.0059576706
 10
23.6599440925
 20
-66.7186870641
 10
23.9645677673
 20
-66.3680017311
 10
24.2363004745
 20
-65.9597390822
 10
24.4552873577
 20
-65.5237298889
 10
24.6183209869
 20
-65.0698215167
 10
24.7191914619
 20
-64.6153031943
 10
24.7540674274
 20
-64.1699245165
 10
24.7204005804
 20
-63.7662282339
 10
24.6206823992
 20
-63.4115754642
 10
24.4587111182
 20
-63.1194748214
 10
24.2363004745
 20
-62.8978769037
 10
23.9697014796
 20
-62.762973339
 10
23.665645046
 20
-62.7153269545
 10
23.3357125888
 20
-62.7567525862
 10
22.9863003199
 20
-62.8887445608
  0
LINE
  5
478
100
AcDbEntity
  8
0
100
AcDbLine
 62
7
  6
CONTINUOUS
 10
-3.1015654347
 20
-74.0913133563
 11
-4.0251785669
 21
-74.5531199224
  0
LINE
  5
479
100
AcDbEntity
  8
0
100
AcDbLine
 62
7
  6
CONTINUOUS
 10
31.4715818487
 20
-57.3470656907
 11
20.1578733497
 21
-63.0039199402
  0
LINE
  5
47A
100
AcDbEntity
  8
0
100
AcDbLine
 62
7
  6
CONTINUOUS
 10
-4.0251785669
 20
-75.852158028
 11
-1.8025273291
 21
-74.7408324091
  0
LINE
  5
47B
100
AcDbEntity
  8
0
100
AcDbLine
 62
7
  6
CONTINUOUS
 10
10.2583784131
 20
-73.2730223084
 11
9.1977182413
 21
-73.8033523943
  0
LWPOLYLINE
  5
47C
100
AcDbEntity
  8
ASSI
100
AcDbPolyline
 62
7
  6
CONTINUOUS
 90
61
 70
0
 10
19.1505784657
 20
62.9364712464
 10
18.8545444864
 20
63.0601132758
 10
18.5501600844
 20
63.1776510982
 10
18.2374252598
 20
63.2890847136
 10
17.9158527428
 20
63.3945608864
 10
17.5859298031
 20
63.4939328521
 10
17.2491182499
 20
63.5867603176
 10
16.9053875161
 20
63.6730142428
 10
16.5547681688
 20
63.7527236677
 10
16.1988137178
 20
63.8255354191
 10
15.8375004896
 20
63.8914188899
 10
15.4708521576
 20
63.9504046871
 10
15.1004932524
 20
64.0022314589
 10
14.726407309
 20
64.0468674385
 10
14.3486107923
 20
64.0843443927
 10
13.9687776277
 20
64.1144962701
 10
13.586898778
 20
64.1372905672
 10
13.2029832804
 20
64.1527597874
 10
12.818732172
 20
64.1608353906
 10
12.4341439636
 20
64.1614845688
 10
12.0492201444
 20
64.1547401299
 10
11.6656662191
 20
64.1406319568
 10
11.2834882664
 20
64.1191273744
 10
10.9026802077
 20
64.0902590578
 10
10.5249293117
 20
64.0541549157
 10
10.150249144
 20
64.0107828403
 10
9.778626139
 20
63.9601749393
 10
9.4117068687
 20
63.9025554441
 10
9.0495122052
 20
63.8378932421
 10
8.6920212763
 20
63.766219446
 10
8.3408180385
 20
63.687851625
 10
7.995930392
 20
63.6027600757
 10
7.6573304364
 20
63.5109745015
 10
7.3265184267
 20
63.4129015822
 10
7.0035289203
 20
63.3085134189
 10
6.6883273596
 20
63.1978379106
 10
6.382310327
 20
63.0813654337
 10
6.085518577
 20
62.9590702653
 10
5.7979113549
 20
62.8309781283
 10
5.5207629791
 20
62.6976565682
 10
5.2541198589
 20
62.5590823803
 10
4.9979355849
 20
62.4152787692
 10
4.7533452481
 20
62.2668828942
 10
4.5204002943
 20
62.1138743779
 10
4.2990492776
 20
61.9562735976
 10
4.0902729511
 20
61.7947788444
 10
3.8941271125
 20
61.6293728395
 10
3.7105559641
 20
61.4600728617
 10
3.5403728655
 20
61.2876290385
 10
3.3836372235
 20
61.1120274196
 10
3.2402896312
 20
60.9332819551
 10
3.1109652272
 20
60.7521846234
 10
2.9957262369
 20
60.5687249882
 10
2.8945104349
 20
60.3829134857
 10
2.8077662841
 20
60.1955734019
 10
2.7355579998
 20
60.0066979539
 10
2.6778213666
 20
59.8162939245
 10
2.6348122018
 20
59.6252049482
 10
2.6065958557
 20
59.4334279855
 10
2.5931069778
 20
59.2409660759
 10
2.5918474042
 20
59.1621226613
  0
LWPOLYLINE
  5
47D
100
AcDbEntity
  8
ASSI
100
AcDbPolyline
 62
7
  6
CONTINUOUS
 90
61
 70
0
 10
1.472908936
 20
71.7753060112
 10
1.1768749567
 20
71.8989480407
 10
0.8724905547
 20
72.0164858631
 10
0.5597557301
 20
72.1279194784
 10
0.2381832131
 20
72.2333956512
 10
-0.0917397265
 20
72.332767617
 10
-0.4285512798
 20
72.4255950824
 10
-0.7722820135
 20
72.5118490076
 10
-1.1229013608
 20
72.5915584326
 10
-1.4788558119
 20
72.664370184
 10
-1.8401690401
 20
72.7302536547
 10
-2.206817372
 20
72.7892394519
 10
-2.5771762773
 20
72.8410662237
 10
-2.9512622207
 20
72.8857022033
 10
-3.3290587374
 20
72.9231791575
 10
-3.708891902
 20
72.953331035
 10
-4.0907707517
 20
72.976125332
 10
-4.4746862493
 20
72.9915945523
 10
-4.8589373577
 20
72.9996701554
 10
-5.2435255661
 20
73.0003193336
 10
-5.6284493853
 20
72.9935748947
 10
-6.0120033105
 20
72.9794667217
 10
-6.3941812632
 20
72.9579621392
 10
-6.774989322
 20
72.9290938227
 10
-7.152740218
 20
72.8929896805
 10
-7.5274203857
 20
72.8496176051
 10
-7.8990433907
 20
72.7990097041
 10
-8.2659626609
 20
72.741390209
 10
-8.6281573245
 20
72.676728007
 10
-8.9856482533
 20
72.6050542108
 10
-9.3368514912
 20
72.5266863898
 10
-9.6817391377
 20
72.4415948405
 10
-10.0203390932
 20
72.3498092663
 10
-10.351151103
 20
72.251736347
 10
-10.6741406094
 20
72.1473481838
 10
-10.98934217
 20
72.0366726754
 10
-11.2953592027
 20
71.9202001985
 10
-11.5921509527
 20
71.7979050301
 10
-11.8797581748
 20
71.6698128931
 10
-12.1569065505
 20
71.536491333
 10
-12.4235496708
 20
71.3979171451
 10
-12.6797339448
 20
71.2541135341
 10
-12.9243242816
 20
71.1057176591
 10
-13.1572692354
 20
70.9527091427
 10
-13.3786202521
 20
70.7951083624
 10
-13.5873965786
 20
70.6336136092
 10
-13.7835424171
 20
70.4682076043
 10
-13.9671135655
 20
70.2989076266
 10
-14.1372966642
 20
70.1264638033
 10
-14.2940323062
 20
69.9508621844
 10
-14.4373798985
 20
69.77211672
 10
-14.5667043025
 20
69.5910193882
 10
-14.6819432928
 20
69.4075597531
 10
-14.7831590948
 20
69.2217482506
 10
-14.8699032455
 20
69.0344081667
 10
-14.9421115299
 20
68.8455327187
 10
-14.999848163
 20
68.6551286893
 10
-15.0428573279
 20
68.464039713
 10
-15.071073674
 20
68.2722627504
 10
-15.0845625518
 20
68.0798008408
 10
-15.0858221255
 20
68.0009574261
  0
LWPOLYLINE
  5
47E
100
AcDbEntity
  8
ASSI
100
AcDbPolyline
 62
7
  6
CONTINUOUS
 90
63
 70
0
 10
19.5049597152
 20
63.1136618711
 10
19.2060316222
 20
63.239539152
 10
18.8988483985
 20
63.3594763024
 10
18.5834100442
 20
63.4734733222
 10
18.2592592041
 20
63.5816709067
 10
17.9268532334
 20
63.6839283607
 10
17.5875641972
 20
63.7798235981
 10
17.2413636453
 20
63.8693303217
 10
16.888280028
 20
63.9524748286
 10
16.5297707612
 20
64.0289139252
 10
16.1658134187
 20
64.0986198955
 10
15.7964304267
 20
64.1616204554
 10
15.4231464797
 20
64.2176555587
 10
15.0459454537
 20
64.2666964148
 10
14.6648434726
 20
64.3087718144
 10
14.2814136033
 20
64.3437080837
 10
13.8956462237
 20
64.3714757141
 10
13.5075509559
 20
64.3921042143
 10
13.1187297327
 20
64.4055084363
 10
12.7291795533
 20
64.4116585197
 10
12.3389034186
 20
64.410584325
 10
11.949512263
 20
64.4022902862
 10
11.5610097447
 20
64.3867465609
 10
11.1733922056
 20
64.3639829915
 10
10.7882596067
 20
64.3340935386
 10
10.4056222191
 20
64.2970487484
 10
10.0254697716
 20
64.2528780747
 10
9.6493714117
 20
64.20176384
 10
9.2773438963
 20
64.1436773439
 10
8.9093704684
 20
64.0786472867
 10
8.5469700043
 20
64.0069420917
 10
8.1901655392
 20
63.928534168
 10
7.8389340378
 20
63.8434511065
 10
7.4947252713
 20
63.7520441027
 10
7.1575682671
 20
63.6542870175
 10
6.8274339976
 20
63.5502059901
 10
6.5056851514
 20
63.4402306334
 10
6.1923563884
 20
63.3243365842
 10
5.8874130485
 20
63.2025482058
 10
5.5921138401
 20
63.0753682016
 10
5.3064986259
 20
62.9427742861
 10
5.0305275433
 20
62.8047887448
 10
4.7653397122
 20
62.6619811377
 10
4.5109797038
 20
62.5143315335
 10
4.267402947
 20
62.3618598635
 10
4.0356148486
 20
62.205195482
 10
3.8156641353
 20
62.0443210589
 10
3.6075020804
 20
61.8792539242
 10
3.41198791
 20
61.7106754221
 10
3.2291739024
 20
61.5385710388
 10
3.0590077794
 20
61.3629552881
 10
2.9021919321
 20
61.1845530556
 10
2.7587815421
 20
61.0033528235
 10
2.6287214277
 20
60.8193661096
 10
2.5125484356
 20
60.6333523519
 10
2.4103199661
 20
60.4453031719
 10
2.3219786187
 20
60.2552269482
 10
2.2478890383
 20
60.0639082544
 10
2.1881101325
 20
59.8713419549
 10
2.1425829937
 20
59.6775331854
 10
2.1114955431
 20
59.4832819262
 10
2.0949074654
 20
59.2885863484
 10
2.0918679351
 20
59.1621226618
  0
LWPOLYLINE
  5
47F
100
AcDbEntity
  8
ASSI
100
AcDbPolyline
 62
7
  6
CONTINUOUS
 90
63
 70
0
 10
1.8272901855
 20
71.952496636
 10
1.5283620925
 20
72.0783739169
 10
1.2211788689
 20
72.1983110672
 10
0.9057405145
 20
72.312308087
 10
0.5815896745
 20
72.4205056716
 10
0.2491837037
 20
72.5227631255
 10
-0.0901053325
 20
72.618658363
 10
-0.4363058843
 20
72.7081650865
 10
-0.7893895016
 20
72.7913095935
 10
-1.1478987684
 20
72.8677486901
 10
-1.5118561109
 20
72.9374546603
 10
-1.8812391029
 20
73.0004552202
 10
-2.2545230499
 20
73.0564903236
 10
-2.631724076
 20
73.1055311796
 10
-3.0128260571
 20
73.1476065792
 10
-3.3962559264
 20
73.1825428485
 10
-3.7820233059
 20
73.210310479
 10
-4.1701185737
 20
73.2309389791
 10
-4.558939797
 20
73.2443432012
 10
-4.9484899763
 20
73.2504932846
 10
-5.3387661111
 20
73.2494190899
 10
-5.7281572666
 20
73.241125051
 10
-6.116659785
 20
73.2255813257
 10
-6.504277324
 20
73.2028177563
 10
-6.8894099229
 20
73.1729283034
 10
-7.2720473106
 20
73.1358835132
 10
-7.652199758
 20
73.0917128395
 10
-8.028298118
 20
73.0405986048
 10
-8.4003256334
 20
72.9825121087
 10
-8.7682990612
 20
72.9174820515
 10
-9.1306995253
 20
72.8457768565
 10
-9.4875039905
 20
72.7673689329
 10
-9.8387354918
 20
72.6822858714
 10
-10.1829442584
 20
72.5908788676
 10
-10.5201012626
 20
72.4931217824
 10
-10.850235532
 20
72.3890407549
 10
-11.1719843783
 20
72.2790653983
 10
-11.4853131413
 20
72.163171349
 10
-11.7902564812
 20
72.0413829707
 10
-12.0855556895
 20
71.9142029665
 10
-12.3711709037
 20
71.7816090509
 10
-12.6471419864
 20
71.6436235096
 10
-12.9123298175
 20
71.5008159025
 10
-13.1666898259
 20
71.3531662983
 10
-13.4102665826
 20
71.2006946284
 10
-13.6420546811
 20
71.0440302469
 10
-13.8620053943
 20
70.8831558237
 10
-14.0701674493
 20
70.718088689
 10
-14.2656816197
 20
70.5495101869
 10
-14.4484956272
 20
70.3774058036
 10
-14.6186617503
 20
70.201790053
 10
-14.7754775976
 20
70.0233878204
 10
-14.9188879876
 20
69.8421875884
 10
-15.0489481019
 20
69.6582008744
 10
-15.1651210941
 20
69.4721871167
 10
-15.2673495636
 20
69.2841379367
 10
-15.3556909109
 20
69.094061713
 10
-15.4297804914
 20
68.9027430192
 10
-15.4895593971
 20
68.7101767197
 10
-15.535086536
 20
68.5163679502
 10
-15.5661739866
 20
68.322116691
 10
-15.5827620643
 20
68.1274211133
 10
-15.5858015945
 20
68.0009574266
  0
LINE
  5
480
100
AcDbEntity
  8
0
100
AcDbLine
 62
7
  6
CONTINUOUS
 10
42.361026279
 20
52.8434291122
 11
41.6539194978
 21
53.1969825028
  0
LINE
  5
481
100
AcDbEntity
  8
0
100
AcDbLine
 62
7
  6
CONTINUOUS
 10
45.5487604538
 20
54.4372961996
 11
44.8416536726
 21
54.7908495902
  0
LINE
  5
482
100
AcDbEntity
  8
0
100
AcDbLine
 62
7
  6
CONTINUOUS
 10
45.5783621334
 20
54.7261911187
 11
44.8712553522
 21
55.0797445093
  0
LINE
  5
483
100
AcDbEntity
  8
0
100
AcDbLine
 62
7
  6
CONTINUOUS
 10
44.8712553522
 20
55.750332443
 11
44.164148571
 21
56.1038858336
  0
LINE
  5
484
100
AcDbEntity
  8
0
100
AcDbLine
 62
7
  6
CONTINUOUS
 10
-11.2023123959
 20
83.787116317
 11
-11.9094191771
 21
84.1406697076
  0
LINE
  5
485
100
AcDbEntity
  8
0
100
AcDbLine
 62
253
  6
CONTINUOUS
 10
44.8359000131
 20
56.4397615547
 11
43.563107807
 21
57.0761576577
  0
LINE
  5
486
100
AcDbEntity
  8
0
100
AcDbLine
 62
7
  6
CONTINUOUS
 10
43.563107807
 20
57.0761576577
 11
26.8046770929
 21
65.4553730148
  0
LINE
  5
487
100
AcDbEntity
  8
0
100
AcDbLine
 62
253
  6
CONTINUOUS
 10
26.8046770929
 20
65.4553730148
 11
25.5318848867
 21
66.0917691178
  0
LINE
  5
488
100
AcDbEntity
  8
0
100
AcDbLine
 62
7
  6
CONTINUOUS
 10
25.5318848867
 20
66.0917691178
 11
8.7734541726
 21
74.4709844749
  0
LINE
  5
489
100
AcDbEntity
  8
0
100
AcDbLine
 62
253
  6
CONTINUOUS
 10
8.7734541726
 20
74.4709844749
 11
7.5006619665
 21
75.107380578
  0
LINE
  5
48A
100
AcDbEntity
  8
0
100
AcDbLine
 62
7
  6
CONTINUOUS
 10
7.5006619665
 20
75.107380578
 11
-9.2577687477
 21
83.486595935
  0
LINE
  5
48B
100
AcDbEntity
  8
0
100
AcDbLine
 62
253
  6
CONTINUOUS
 10
-9.2577687477
 20
83.486595935
 11
-10.5305609538
 21
84.1229920381
  0
LINE
  5
48C
100
AcDbEntity
  8
0
100
AcDbLine
 62
7
  6
CONTINUOUS
 10
45.3054742884
 20
56.4695834312
 11
44.0326820823
 21
57.1059795343
  0
LINE
  5
48D
100
AcDbEntity
  8
0
100
AcDbLine
 62
7
  6
CONTINUOUS
 10
27.2742513681
 20
65.4851948914
 11
26.001459162
 21
66.1215909944
  0
LINE
  5
48E
100
AcDbEntity
  8
0
100
AcDbLine
 62
7
  6
CONTINUOUS
 10
9.2430284479
 20
74.5008063515
 11
7.9702362417
 21
75.1372024546
  0
LINE
  5
48F
100
AcDbEntity
  8
0
100
AcDbLine
 62
7
  6
CONTINUOUS
 10
-8.7881944724
 20
83.5164178116
 11
-10.0609866785
 21
84.1528139147
  0
LWPOLYLINE
  5
490
100
AcDbEntity
  8
0
100
AcDbPolyline
 62
7
  6
CONTINUOUS
 90
12
 70
0
 10
-8.7882107577
 20
83.5163852428
 10
-8.7681905498
 20
83.5056513865
 10
-8.7327687477
 20
83.4827603185
 10
-8.6996173788
 20
83.4559533325
 10
-8.6687077273
 20
83.4252799561
 10
-8.6404340564
 20
83.3911314389
 10
-8.6148301326
 20
83.3534632649
 10
-8.5918621894
 20
83.3123199502
 10
-8.5718231911
 20
83.2682262921
 10
-8.5547506568
 20
83.2211444971
 10
-8.5406070672
 20
83.1711123587
 10
-8.530451738
 20
83.1229374302
  0
LWPOLYLINE
  5
491
100
AcDbEntity
  8
0
100
AcDbPolyline
 62
7
  6
CONTINUOUS
 90
12
 70
0
 10
9.2430121626
 20
74.5007737826
 10
9.2630323705
 20
74.4900399263
 10
9.2984541726
 20
74.4671488584
 10
9.3316055414
 20
74.4403418724
 10
9.362515193
 20
74.4096684959
 10
9.3907888639
 20
74.3755199787
 10
9.4163927877
 20
74.3378518048
 10
9.4393607308
 20
74.2967084901
 10
9.4593997292
 20
74.252614832
 10
9.4764722635
 20
74.205533037
 10
9.490615853
 20
74.1555008985
 10
9.5007711822
 20
74.1073259701
  0
LWPOLYLINE
  5
492
100
AcDbEntity
  8
0
100
AcDbPolyline
 62
7
  6
CONTINUOUS
 90
12
 70
0
 10
27.2742350828
 20
65.4851623225
 10
27.2942552908
 20
65.4744284662
 10
27.3296770929
 20
65.4515373983
 10
27.3628284617
 20
65.4247304122
 10
27.3937381132
 20
65.3940570358
 10
27.4220117841
 20
65.3599085186
 10
27.4476157079
 20
65.3222403447
 10
27.4705836511
 20
65.28109703
 10
27.4906226494
 20
65.2370033718
 10
27.5076951838
 20
65.1899215768
 10
27.5218387733
 20
65.1398894384
 10
27.5319941025
 20
65.09171451
  0
LWPOLYLINE
  5
493
100
AcDbEntity
  8
ASSI
100
AcDbPolyline
 62
7
  6
CONTINUOUS
 90
30
 70
0
 10
32.6449996708
 20
56.4310605452
 10
32.6014048636
 20
56.4628808323
 10
32.5418614968
 20
56.501092079
 10
32.4776813064
 20
56.5373781411
 10
32.4089163355
 20
56.5717606265
 10
32.3363442114
 20
56.6038507217
 10
32.2599217179
 20
56.6336224051
 10
32.1796920711
 20
56.6611016983
 10
32.0965625462
 20
56.6859778522
 10
32.0105002259
 20
56.708221318
 10
31.9215380276
 20
56.7278616445
 10
31.8306819783
 20
56.7446767296
 10
31.7379105804
 20
56.7586345031
 10
31.6432453315
 20
56.7697670352
 10
31.5477567515
 20
56.7779484339
 10
31.4514354946
 20
56.7831452
 10
31.3542909066
 20
56.7853908327
 10
31.2574215451
 20
56.7846599372
 10
31.1608305341
 20
56.7809187263
 10
31.0645147495
 20
56.7742009872
 10
30.9695633763
 20
56.7645826874
 10
30.8759919022
 20
56.7520309018
 10
30.7837848395
 20
56.7365785555
 10
30.6939849098
 20
56.718400391
 10
30.606619437
 20
56.6974654668
 10
30.5216610971
 20
56.6738047244
 10
30.4400706397
 20
56.6476857308
 10
30.3621683147
 20
56.619197675
 10
30.2876338721
 20
56.588251368
 10
30.2164673121
 20
56.5548468098
  0
LWPOLYLINE
  5
494
100
AcDbEntity
  8
ASSI
100
AcDbPolyline
 62
7
  6
CONTINUOUS
 90
22
 70
0
 10
38.8671962366
 20
-62.2226792799
 10
38.9296012808
 20
-62.1661727403
 10
38.990686724
 20
-62.1058855979
 10
39.0504657973
 20
-62.0418557595
 10
39.1083350855
 20
-61.9747295478
 10
39.1642752461
 20
-61.9044756021
 10
39.2183056216
 20
-61.8311252831
 10
39.2698808248
 20
-61.7554189952
 10
39.3189759893
 20
-61.6773328767
 10
39.3656159815
 20
-61.5968907895
 10
39.4093300132
 20
-61.5149047227
 10
39.4500884499
 20
-61.4313590387
 10
39.4879209262
 20
-61.3462693752
 10
39.5224455577
 20
-61.2604946347
 10
39.5536288421
 20
-61.1740278785
 10
39.5815042817
 20
-61.0868760453
 10
39.6057904996
 20
-60.9999188531
 10
39.6264511434
 20
-60.9131582733
 10
39.6435225653
 20
-60.8265923346
 10
39.6568324451
 20
-60.7410948411
 10
39.6663233424
 20
-60.6569570607
 10
39.6709473343
 20
-60.5899142743
  0
LINE
  5
495
100
AcDbEntity
  8
ASSI
100
AcDbLine
 62
7
  6
CONTINUOUS
 10
38.8452231833
 20
-62.2408766902
 11
38.8671962366
 21
-62.2226792799
  0
LWPOLYLINE
  5
496
100
AcDbEntity
  8
ASSI
100
AcDbPolyline
 62
7
  6
CONTINUOUS
 90
27
 70
0
 10
32.8036605162
 20
-63.6121829487
 10
32.7215256213
 20
-63.6620512563
 10
32.6402198031
 20
-63.7172636874
 10
32.5597514587
 20
-63.7778743683
 10
32.4801121911
 20
-63.8438291728
 10
32.4021058858
 20
-63.9144623473
 10
32.3257490818
 20
-63.9898212752
 10
32.2510252402
 20
-64.0698585733
 10
32.1786886299
 20
-64.1537663379
 10
32.1087634292
 20
-64.24158377
 10
32.0412254597
 20
-64.3332716688
 10
31.9767564557
 20
-64.4279045287
 10
31.9153875001
 20
-64.5255121767
 10
31.8570875099
 20
-64.6260647858
 10
31.8024449702
 20
-64.7285473693
 10
31.7514969244
 20
-64.8329794743
 10
31.7042063291
 20
-64.9393415536
 10
31.6610505397
 20
-65.0465599793
 10
31.6220714342
 20
-65.1546434245
 10
31.5872271346
 20
-65.2635832161
 10
31.5568693623
 20
-65.3722797063
 10
31.5310435575
 20
-65.480730431
 10
31.5097042801
 20
-65.5889378544
 10
31.4930669304
 20
-65.6958097213
 10
31.4812033087
 20
-65.8009819468
 10
31.4740416148
 20
-65.9048186159
 10
31.4715818487
 20
-66.0073197285
  0
LWPOLYLINE
  5
497
100
AcDbEntity
  8
ASSI
100
AcDbPolyline
 62
7
  6
CONTINUOUS
 90
26
 70
0
 10
31.5059643341
 20
-65.9392253824
 10
31.5743404914
 20
-65.8998983149
 10
31.6423234215
 20
-65.8555705379
 10
31.7099175381
 20
-65.8062981787
 10
31.7763584545
 20
-65.7526384329
 10
31.8416330803
 20
-65.6945414979
 10
31.905754506
 20
-65.6320571761
 10
31.9679976157
 20
-65.5658920702
 10
32.0283410883
 20
-65.4960043986
 10
32.0868062448
 20
-65.4224359429
 10
32.1427319335
 20
-65.3460186504
 10
32.196089328
 20
-65.266720183
 10
32.2469072547
 20
-65.1845728789
 10
32.29461104
 20
-65.1005056989
 10
32.3391653346
 20
-65.01449685
 10
32.3806054878
 20
-64.9265681253
 10
32.4184628746
 20
-64.8377138648
 10
32.452696826
 20
-64.7479235626
 10
32.4833480111
 20
-64.6572077246
 10
32.5100698115
 20
-64.566592209
 10
32.5328176237
 20
-64.4760781545
 10
32.5516360512
 20
-64.3856644223
 10
32.5663122863
 20
-64.2963734542
 10
32.576775393
 20
-64.208546064
 10
32.5830963073
 20
-64.121841438
 10
32.5852750291
 20
-64.036259576
  0
LWPOLYLINE
  5
498
100
AcDbEntity
  8
0
100
AcDbPolyline
 62
7
  6
CONTINUOUS
 90
13
 70
0
 10
45.5783621334
 20
-62.0140333115
 10
45.6256169639
 20
-61.9887598469
 10
45.6691439547
 20
-61.962240951
 10
45.708943106
 20
-61.9344766237
 10
45.7451525223
 20
-61.9053376772
 10
45.777634099
 20
-61.8749532993
 10
45.8059735223
 20
-61.8437110533
 10
45.8301177319
 20
-61.8115999502
 10
45.850119788
 20
-61.778630979
 10
45.8657245575
 20
-61.7452246704
 10
45.876875712
 20
-61.7113754223
 10
45.8836295799
 20
-61.6770888368
 10
45.8859000131
 20
-61.6428022514
  0
LWPOLYLINE
  5
499
100
AcDbEntity
  8
0
100
AcDbPolyline
 62
7
  6
CONTINUOUS
 90
13
 70
0
 10
45.5783621334
 20
-63.5728790383
 10
45.6256169639
 20
-63.5476055738
 10
45.6691439547
 20
-63.5210866778
 10
45.708943106
 20
-63.4933223505
 10
45.7451525223
 20
-63.464183404
 10
45.777634099
 20
-63.4337990261
 10
45.8059735223
 20
-63.4025567802
 10
45.8301177319
 20
-63.370445677
 10
45.850119788
 20
-63.3374767058
 10
45.8657245575
 20
-63.3040703972
 10
45.876875712
 20
-63.2702211491
 10
45.8836295799
 20
-63.2359345636
 10
45.8859000131
 20
-63.2016479782
  0
LINE
  5
49A
100
AcDbEntity
  8
ASSI
100
AcDbLine
 62
7
  6
CONTINUOUS
 10
31.4728182288
 20
-65.9557984351
 11
31.5059643341
 21
-65.9392253824
  0
LINE
  5
49B
100
AcDbEntity
  8
0
100
AcDbLine
 62
7
  6
CONTINUOUS
 10
8.7027434945
 20
-78.5792542585
 11
7.2885299321
 21
-79.2863610397
  0
LWPOLYLINE
  5
49C
100
AcDbEntity
  8
ASSI
100
AcDbPolyline
 62
7
  6
CONTINUOUS
 90
15
 70
0
 10
-23.772701842
 20
70.2197877612
 10
-23.7948482235
 20
70.2137848626
 10
-23.8628311536
 20
70.1901297094
 10
-23.9312073109
 20
70.1610806197
 10
-23.9999722818
 20
70.1266981343
 10
-24.068348439
 20
70.0873710667
 10
-24.1363313692
 20
70.0430432897
 10
-24.2039254857
 20
69.9937709306
 10
-24.2703664021
 20
69.9401111847
 10
-24.335641028
 20
69.8820142497
 10
-24.3997624537
 20
69.819529928
 10
-24.4620055634
 20
69.7533648221
 10
-24.5223490359
 20
69.6834771505
 10
-24.5808141925
 20
69.6099086948
 10
-24.5816471552
 20
69.6087705281
  0
LWPOLYLINE
  5
49D
100
AcDbEntity
  8
0
100
AcDbPolyline
 62
7
  6
CONTINUOUS
 90
15
 70
0
 10
45.3054580031
 20
56.4695508624
 10
45.325478211
 20
56.4588170061
 10
45.3609000131
 20
56.4359259382
 10
45.394051382
 20
56.4091189521
 10
45.4249610335
 20
56.3784455757
 10
45.4532347044
 20
56.3442970585
 10
45.4788386282
 20
56.3066288846
 10
45.5018065713
 20
56.2654855699
 10
45.5218455697
 20
56.2213919117
 10
45.538918104
 20
56.1743101167
 10
45.5530616936
 20
56.1242779783
 10
45.5640959319
 20
56.0719336737
 10
45.5719606836
 20
56.0174899289
 10
45.5767160841
 20
55.9607340179
 10
45.5783621334
 20
55.9016659408
  0
LINE
  5
49E
100
AcDbEntity
  8
0
100
AcDbLine
 62
7
  6
CONTINUOUS
 10
10.2583784131
 20
-82.993936518
 11
10.3016796833
 21
-82.9722858829
  0
LINE
  5
49F
100
AcDbEntity
  8
0
100
AcDbLine
 62
7
  6
CONTINUOUS
 10
45.4673169367
 20
-65.6202600653
 11
45.5783621334
 21
-65.564737467
  0
LINE
  5
4A0
100
AcDbEntity
  8
0
100
AcDbLine
 62
7
  6
CONTINUOUS
 10
10.9654851943
 20
-83.3041886384
 11
19.4507665685
 21
-79.0615479513
  0
LINE
  5
4A1
100
AcDbEntity
  8
0
100
AcDbLine
 62
7
  6
CONTINUOUS
 10
10.9301298552
 20
-83.3298122391
 11
19.453944941
 21
-79.0679046962
  0
LINE
  5
4A2
100
AcDbEntity
  8
0
100
AcDbLine
 62
7
  6
CONTINUOUS
 10
45.5487604538
 20
-66.7196577899
 11
43.6338184851
 21
-67.6771287742
  0
LINE
  5
4A3
100
AcDbEntity
  8
0
100
AcDbLine
 62
7
  6
CONTINUOUS
 10
42.361026279
 20
-68.3135248773
 11
33.5221915141
 21
-72.7329422597
  0
LINE
  5
4A4
100
AcDbEntity
  8
0
100
AcDbLine
 62
7
  6
CONTINUOUS
 10
32.249399308
 20
-73.3693383628
 11
23.4105645432
 21
-77.7887557452
  0
LINE
  5
4A5
100
AcDbEntity
  8
0
100
AcDbLine
 62
253
  6
CONTINUOUS
 10
22.137772337
 20
-78.4251518482
 11
23.4105645432
 21
-77.7887557452
  0
LINE
  5
4A6
100
AcDbEntity
  8
0
100
AcDbLine
 62
7
  6
CONTINUOUS
 10
22.137772337
 20
-78.4251518482
 11
20.1578733497
 21
-79.4151013419
  0
LINE
  5
4A7
100
AcDbEntity
  8
0
100
AcDbLine
 62
253
  6
CONTINUOUS
 10
32.249399308
 20
-73.3693383628
 11
33.5221915141
 21
-72.7329422597
  0
LINE
  5
4A8
100
AcDbEntity
  8
0
100
AcDbLine
 62
253
  6
CONTINUOUS
 10
42.361026279
 20
-68.3135248773
 11
43.6338184851
 21
-67.6771287742
  0
LINE
  5
4A9
100
AcDbEntity
  8
0
100
AcDbLine
 62
7
  6
CONTINUOUS
 10
44.8712553522
 20
-67.2252748944
 11
43.6186733745
 21
-67.8515658833
  0
LINE
  5
4AA
100
AcDbEntity
  8
0
100
AcDbLine
 62
7
  6
CONTINUOUS
 10
41.6185641587
 20
-68.8516204911
 11
33.5070464035
 21
-72.9073793687
  0
LINE
  5
4AB
100
AcDbEntity
  8
0
100
AcDbLine
 62
7
  6
CONTINUOUS
 10
10.9301298552
 20
-84.1958376429
 11
21.3953102168
 21
-78.9632474621
  0
LINE
  5
4AC
100
AcDbEntity
  8
0
100
AcDbLine
 62
7
  6
CONTINUOUS
 10
31.5069371878
 20
-73.9074339766
 11
23.3954194325
 21
-77.9631928542
  0
LINE
  5
4AD
100
AcDbEntity
  8
0
100
AcDbLine
 62
7
  6
CONTINUOUS
 10
21.8648844921
 20
-78.9930693387
 11
23.1376766982
 21
-78.3566732356
  0
LINE
  5
4AE
100
AcDbEntity
  8
0
100
AcDbLine
 62
7
  6
CONTINUOUS
 10
31.976511463
 20
-73.9372558532
 11
33.2493036692
 21
-73.3008597501
  0
LINE
  5
4AF
100
AcDbEntity
  8
0
100
AcDbLine
 62
7
  6
CONTINUOUS
 10
42.088138434
 20
-68.8814423677
 11
43.3609306401
 21
-68.2450462646
  0
LWPOLYLINE
  5
4B0
100
AcDbEntity
  8
0
100
AcDbPolyline
 62
7
  6
CONTINUOUS
 90
12
 70
0
 10
42.0881221487
 20
-68.8814097988
 10
42.0704788372
 20
-68.8897006201
 10
42.0310540119
 20
-68.9046162408
 10
41.9898453185
 20
-68.9153701685
 10
41.9468753192
 20
-68.9220150394
 10
41.9026921113
 20
-68.9244660959
 10
41.8572801537
 20
-68.922669616
 10
41.8106549875
 20
-68.9166793216
 10
41.7634113328
 20
-68.9065716211
 10
41.7157474299
 20
-68.8923719839
 10
41.6674650385
 20
-68.8740549406
 10
41.6185641587
 20
-68.8516204911
  0
LWPOLYLINE
  5
4B1
100
AcDbEntity
  8
0
100
AcDbPolyline
 62
7
  6
CONTINUOUS
 90
12
 70
0
 10
31.9764951777
 20
-73.9372232843
 10
31.9588518663
 20
-73.9455141055
 10
31.9194270409
 20
-73.9604297263
 10
31.8782183476
 20
-73.971183654
 10
31.8352483483
 20
-73.9778285249
 10
31.7910651403
 20
-73.9802795814
 10
31.7456531827
 20
-73.9784831014
 10
31.6990280165
 20
-73.9724928071
 10
31.6517843619
 20
-73.9623851066
 10
31.6041204589
 20
-73.9481854694
 10
31.5558380675
 20
-73.9298684261
 10
31.5069371878
 20
-73.9074339766
  0
LWPOLYLINE
  5
4B2
100
AcDbEntity
  8
0
100
AcDbPolyline
 62
7
  6
CONTINUOUS
 90
12
 70
0
 10
21.8648682067
 20
-78.9930367698
 10
21.8472248953
 20
-79.001327591
 10
21.8078000699
 20
-79.0162432118
 10
21.7665913766
 20
-79.0269971395
 10
21.7236213773
 20
-79.0336420104
 10
21.6794381694
 20
-79.0360930669
 10
21.6340262118
 20
-79.0342965869
 10
21.5874010455
 20
-79.0283062926
 10
21.5401573909
 20
-79.0181985921
 10
21.4924934879
 20
-79.0039989549
 10
21.4442110966
 20
-78.9856819116
 10
21.3953102168
 20
-78.9632474621
  0
ENDSEC
  0
SECTION
  2
OBJECTS
  0
DICTIONARY
  5
C
100
AcDbDictionary
280
0
281
1
  3
ACAD_GROUP
350
D
  3
ACAD_MLINESTYLE
350
17
  3
ACAD_LAYOUT
350
1A
  3
ACAD_PLOTSETTINGS
350
19
  3
ACAD_PLOTSTYLENAME
350
E
  0
DICTIONARY
  5
D
102
{ACAD_REACTORS
330
C
102
}
100
AcDbDictionary
280
0
281
1
  0
ACDBDICTIONARYWDFLT
  5
E
102
{ACAD_REACTORS
330
C
102
}
100
AcDbDictionary
281
1
  3
Normal
350
F
100
AcDbDictionaryWithDefault
340
F
  0
DICTIONARY
  5
17
102
{ACAD_REACTORS
330
C
102
}
100
AcDbDictionary
280
0
281
1
  3
Standard
350
18
  0
DICTIONARY
  5
19
102
{ACAD_REACTORS
330
C
102
}
100
AcDbDictionary
281
1
  0
DICTIONARY
  5
1A
102
{ACAD_REACTORS
330
C
102
}
100
AcDbDictionary
281
1
  3
Model
350
4B3
  3
Layout1
350
4B4
  0
ACDBPLACEHOLDER
  5
F
102
{ACAD_REACTORS
330
E
102
}
  0
MLINESTYLE
  5
18
102
{ACAD_REACTORS
330
17
102
}
100
AcDbMlineStyle
  2
STANDARD
 70
0
  3

 62
256
 51
90.0
 52
90.0
 71
2
 49
0.5
 62
256
  6
BYLAYER
 49
-0.5
 62
256
  6
BYLAYER
  0
LAYOUT
  5
4B3
102
{ACAD_REACTORS
330
1A
102
}
100
AcDbPlotSettings
  1

  2
none_device
  4
ISO_A4_(297.00_x_210.00_MM)
  6

 40
0.0
 41
0.0
 42
0.0
 43
0.0
 44
297.0
 45
210.0
 46
0.0
 47
0.0
 48
0.0
 49
0.0
140
0.0
141
0.0
142
1.0
143
1.0
 70
1024
 72
1
 73
0
 74
0
  7

 75
0
147
1.0
148
0.0
149
0.0
100
AcDbLayout
  1
Model
 70
0
 71
0
 10
0.0
 20
0.0
 11
297.0
 21
210.0
 12
0.0
 22
0.0
 32
0.0
 14
0.0
 24
0.0
 34
0.0
 15
0.0
 25
0.0
 35
0.0
146
0.0
 13
0.0
 23
0.0
 33
0.0
 16
1.0
 26
0.0
 36
0.0
 17
0.0
 27
1.0
 37
0.0
 76
0
330
212
345
0
346
0
  0
LAYOUT
  5
4B4
102
{ACAD_REACTORS
330
1A
102
}
100
AcDbPlotSettings
  1

  2
none_device
  4
ISO_A4_(297.00_x_210.00_MM)
  6

 40
0.0
 41
0.0
 42
0.0
 43
0.0
 44
297.0
 45
210.0
 46
0.0
 47
0.0
 48
0.0
 49
0.0
140
0.0
141
0.0
142
1.0
143
1.0
 70
0
 72
1
 73
0
 74
0
  7

 75
0
147
1.0
148
0.0
149
0.0
100
AcDbLayout
  1
Layout1
 70
0
 71
1
 10
0.0
 20
0.0
 11
297.0
 21
210.0
 12
0.0
 22
0.0
 32
0.0
 14
0.0
 24
0.0
 34
0.0
 15
0.0
 25
0.0
 35
0.0
146
0.0
 13
0.0
 23
0.0
 33
0.0
 16
1.0
 26
0.0
 36
0.0
 17
0.0
 27
1.0
 37
0.0
 76
0
330
213
345
0
346
0
  0
ENDSEC
  0
EOF
