  0
SECTION
  2
HEADER
  9
$ACADVER
  1
AC1021
  9
$DWGCODEPAGE
  3
ANSI_1252
  9
$EXTMAX
 10
297.0
 20
210.0
 30
0.0
  9
$EXTMIN
 10
0.0
 20
0.0
 30
0.0
  9
$LIMMIN
 10
0.0
 20
0.0
  9
$LIMMAX
 10
297.0
 20
210.0
  9
$VIEWCTR
 10
148.5
 20
105.0
  9
$VIEWSIZE
 40
210.0
  9
$CLAYER
  8
0
  9
$LTSCALE
 40
16.335
  9
$CELTYPE
  6
BYLAYER
  9
$DIMSCALE
 40
1.0
  9
$DIMASZ
 40
3.0
  9
$DIMEXO
 40
0.5
  9
$DIMDLI
 40
11.286
  9
$DIMEXE
 40
1.5
  9
$DIMCEN
 40
2.673
  9
$DIMLFAC
 40
1.0
  9
$DIMBLK
  1
_FILLED
  9
$DIMALT
 70
0
  9
$DIMALTF
 40
0.0393700787
  9
$DIMTXT
 40
3.0
  9
$DIMTOL
 70
1
  9
$DIMLIM
 70
0
  9
$DIMTFAC
 40
1.0
  9
$DIMTP
 40
0.01
  9
$DIMTM
 40
0.01
  9
$DIMGAP
 40
0.625
  9
$DIMDSEP
 70
44
  9
$AUNITS
 70
0
  9
$PDMODE
 70
3
  9
$PDSIZE
 40
3.0
  9
$HANDSEED
  5
4AF
  9
$TILEMODE
 70
1
  9
$MEASUREMENT
 70
1
  9
$INSUNITS
 70
4
  0
ENDSEC
  0
SECTION
  2
CLASSES
  0
CLASS
  1
ACDBDICTIONARYWDFLT
  2
AcDbDictionaryWithDefault
  3
AutoCAD 2000
 90
0
 91
1
280
0
281
0
  0
CLASS
  1
ACDBPLACEHOLDER
  2
AcDbPlaceHolder
  3
AutoCAD 2000
 90
0
 91
1
280
0
281
0
  0
CLASS
  1
LAYOUT
  2
AcDbLayout
  3
AutoCAD 2000
 90
0
 91
0
280
0
281
0
  0
ENDSEC
  0
SECTION
  2
TABLES
  0
TABLE
  2
VPORT
  5
8
100
AcDbSymbolTable
 70
2
  0
VPORT
  5
1F4
100
AcDbSymbolTableRecord
100
AcDbViewportTableRecord
  2
*ACTIVE
 70
0
 10
0.0
 20
0.0
 11
1.0
 21
1.0
 12
148.5
 22
105.0
 13
0.0
 23
0.0
 14
1.0
 24
1.0
 15
0.0
 25
0.0
 16
0.0
 26
0.0
 36
1.0
 17
0.0
 27
0.0
 37
0.0
 40
210.0
 41
1.4142857143
 42
50.0
 43
0.0
 44
0.0
 50
0.0
 51
0.0
 71
0
 72
100
 73
1
 74
1
 75
0
 76
0
 77
0
 78
0
  0
ENDTAB
  0
TABLE
  2
LTYPE
  5
5
100
AcDbSymbolTable
 70
6
  0
LTYPE
  5
14
100
AcDbSymbolTableRecord
100
AcDbLinetypeTableRecord
  2
BYBLOCK
 70
0
  3

 72
65
 73
0
 40
0.0
  0
LTYPE
  5
15
100
AcDbSymbolTableRecord
100
AcDbLinetypeTableRecord
  2
BYLAYER
 70
0
  3

 72
65
 73
0
 40
0.0
  0
LTYPE
  5
16
100
AcDbSymbolTableRecord
100
AcDbLinetypeTableRecord
  2
CONTINUOUS
 70
64
  3
Solid line
 72
65
 73
0
 40
0.0
  0
LTYPE
  5
1F5
100
AcDbSymbolTableRecord
100
AcDbLinetypeTableRecord
  2
CENTER
 70
64
  3
____ _ ____ _ ____ _ ____ _ ____ _ ____ _ ____
 72
65
 73
4
 40
0.6
 49
0.375
 74
0
 49
-0.075
 74
0
 49
0.075
 74
0
 49
-0.075
 74
0
  0
LTYPE
  5
1F6
100
AcDbSymbolTableRecord
100
AcDbLinetypeTableRecord
  2
HIDDEN
 70
64
  3
- - - - - - - - - - - - - - - - - - - -
 72
65
 73
2
 40
0.2
 49
0.1
 74
0
 49
-0.1
 74
0
  0
LTYPE
  5
1F7
100
AcDbSymbolTableRecord
100
AcDbLinetypeTableRecord
  2
PHANTOM
 70
64
  3
_____ _ _ _____ _ _ _____ _ _ _____
 72
65
 73
6
 40
0.8
 49
0.45
 74
0
 49
-0.05
 74
0
 49
0.1
 74
0
 49
-0.05
 74
0
 49
0.1
 74
0
 49
-0.05
 74
0
  0
LTYPE
  5
1F8
100
AcDbSymbolTableRecord
100
AcDbLinetypeTableRecord
  2
DOT
 70
64
  3
. . . . . . . . . . . . . . . . . . . .
 72
65
 73
2
 40
0.2
 49
0.1
 74
0
 49
-0.1
 74
0
  0
LTYPE
  5
1F9
100
AcDbSymbolTableRecord
100
AcDbLinetypeTableRecord
  2
DASHED
 70
64
  3
- - - - - - - - - - - - - - - - - - - -
 72
65
 73
2
 40
0.2
 49
0.1
 74
0
 49
-0.1
 74
0
  0
ENDTAB
  0
TABLE
  2
LAYER
  5
2
100
AcDbSymbolTable
 70
36
  0
LAYER
  5
10
100
AcDbSymbolTableRecord
100
AcDbLayerTableRecord
  2
0
 70
0
 62
7
  6
CONTINUOUS
370
-3
390
F
  0
LAYER
  5
1FA
100
AcDbSymbolTableRecord
100
AcDbLayerTableRecord
  2
DEFAULT_1
 70
0
 62
7
  6
CENTER
370
-3
390
F
  0
LAYER
  5
1FB
100
AcDbSymbolTableRecord
100
AcDbLayerTableRecord
  2
DEFAULT_2
 70
0
 62
7
  6
HIDDEN
370
-3
390
F
  0
LAYER
  5
1FC
100
AcDbSymbolTableRecord
100
AcDbLayerTableRecord
  2
DEFAULT_3
 70
0
 62
7
  6
PHANTOM
370
-3
390
F
  0
LAYER
  5
1FD
100
AcDbSymbolTableRecord
100
AcDbLayerTableRecord
  2
ASSI
 70
0
 62
7
  6
CONTINUOUS
370
-3
390
F
  0
LAYER
  5
1FE
100
AcDbSymbolTableRecord
100
AcDbLayerTableRecord
  2
COLOR5
 70
0
 62
7
  6
CONTINUOUS
370
-3
390
F
  0
LAYER
  5
1FF
100
AcDbSymbolTableRecord
100
AcDbLayerTableRecord
  2
COLOR7
 70
0
 62
7
  6
CONTINUOUS
370
-3
390
F
  0
LAYER
  5
200
100
AcDbSymbolTableRecord
100
AcDbLayerTableRecord
  2
COORDINATE
 70
0
 62
7
  6
CONTINUOUS
370
-3
390
F
  0
LAYER
  5
201
100
AcDbSymbolTableRecord
100
AcDbLayerTableRecord
  2
COPY_PUBLISH
 70
0
 62
7
  6
CONTINUOUS
370
-3
390
F
  0
LAYER
  5
202
100
AcDbSymbolTableRecord
100
AcDbLayerTableRecord
  2
COSMETIC
 70
0
 62
7
  6
CONTINUOUS
370
-3
390
F
  0
LAYER
  5
203
100
AcDbSymbolTableRecord
100
AcDbLayerTableRecord
  2
COSMETICI
 70
0
 62
7
  6
CONTINUOUS
370
-3
390
F
  0
LAYER
  5
204
100
AcDbSymbolTableRecord
100
AcDbLayerTableRecord
  2
CURVE
 70
0
 62
7
  6
CONTINUOUS
370
-3
390
F
  0
LAYER
  5
205
100
AcDbSymbolTableRecord
100
AcDbLayerTableRecord
  2
DRAFT
 70
0
 62
7
  6
CONTINUOUS
370
-3
390
F
  0
LAYER
  5
206
100
AcDbSymbolTableRecord
100
AcDbLayerTableRecord
  2
IMPORT_IGES
 70
0
 62
7
  6
CONTINUOUS
370
-3
390
F
  0
LAYER
  5
207
100
AcDbSymbolTableRecord
100
AcDbLayerTableRecord
  2
NOTE
 70
0
 62
7
  6
CONTINUOUS
370
-3
390
F
  0
LAYER
  5
208
100
AcDbSymbolTableRecord
100
AcDbLayerTableRecord
  2
PIANI
 70
0
 62
7
  6
CONTINUOUS
370
-3
390
F
  0
LAYER
  5
209
100
AcDbSymbolTableRecord
100
AcDbLayerTableRecord
  2
PUNTI
 70
0
 62
7
  6
CONTINUOUS
370
-3
390
F
  0
LAYER
  5
20A
100
AcDbSymbolTableRecord
100
AcDbLayerTableRecord
  2
RACCORDO
 70
0
 62
7
  6
CONTINUOUS
370
-3
390
F
  0
LAYER
  5
20B
100
AcDbSymbolTableRecord
100
AcDbLayerTableRecord
  2
SIMBOLI
 70
0
 62
7
  6
CONTINUOUS
370
-3
390
F
  0
LAYER
  5
20C
100
AcDbSymbolTableRecord
100
AcDbLayerTableRecord
  2
SMUSSO
 70
0
 62
7
  6
CONTINUOUS
370
-3
390
F
  0
LAYER
  5
20D
100
AcDbSymbolTableRecord
100
AcDbLayerTableRecord
  2
SNAPLINE
 70
0
 62
7
  6
CONTINUOUS
370
-3
390
F
  0
LAYER
  5
20E
100
AcDbSymbolTableRecord
100
AcDbLayerTableRecord
  2
SUPERFICI
 70
0
 62
7
  6
CONTINUOUS
370
-3
390
F
  0
LAYER
  5
20F
100
AcDbSymbolTableRecord
100
AcDbLayerTableRecord
  2
TRASH
 70
0
 62
7
  6
CONTINUOUS
370
-3
390
F
  0
ENDTAB
  0
TABLE
  2
STYLE
  5
3
100
AcDbSymbolTable
 70
1
  0
STYLE
  5
11
100
AcDbSymbolTableRecord
100
AcDbTextStyleTableRecord
  2
STANDARD
 70
0
 40
0.0
 41
0.8
 50
0.0
 71
0
 42
0.2
  3
txt
  4

  0
STYLE
  5
210
100
AcDbSymbolTableRecord
100
AcDbTextStyleTableRecord
  2
TEXTSTYLE_1
 70
0
 40
0.0
 41
0.8
 50
0.0
 71
0
 42
0.2
  3
gdt
  4

  0
ENDTAB
  0
TABLE
  2
VIEW
  5
6
100
AcDbSymbolTable
 70
0
  0
ENDTAB
  0
TABLE
  2
UCS
  5
7
100
AcDbSymbolTable
 70
0
  0
ENDTAB
  0
TABLE
  2
APPID
  5
9
100
AcDbSymbolTable
 70
1
  0
APPID
  5
211
100
AcDbSymbolTableRecord
100
AcDbRegAppTableRecord
  2
ACAD
 70
0
  0
ENDTAB
  0
TABLE
  2
BLOCK_RECORD
  5
1
100
AcDbSymbolTable
 70
0
  0
BLOCK_RECORD
  5
212
100
AcDbSymbolTableRecord
100
AcDbBlockTableRecord
  2
*Model_Space
  0
BLOCK_RECORD
  5
213
100
AcDbSymbolTableRecord
100
AcDbBlockTableRecord
  2
*Paper_Space
  0
ENDTAB
  0
TABLE
  2
DIMSTYLE
  5
A
100
AcDbSymbolTable
 70
1
100
AcDbDimStyleTable
 71
0
  0
DIMSTYLE
105
214
100
AcDbSymbolTableRecord
100
AcDbDimStyleTableRecord
  2
STANDARD
 70
0
  3

  4

 40
1.0
 41
3.0
 42
0.5
 43
0.38
 44
1.5
 45
0.0
 46
0.0
 47
0.01
 48
0.01
140
3.0
141
0.09
142
0.0
143
25.4
144
1.0
145
0.0
146
1.0
147
0.625
 71
1.0
 72
0.0
 73
0
 74
0
 75
0
 76
0
 77
1
 78
8
170
0
171
2
172
0
173
0
174
0
175
0
176
0
177
0
178
0
270
2
271
2
272
2
273
2
274
2
275
0
280
0
281
0
282
0
283
1
284
8
285
0
286
0
287
3
288
0
340
11
278
44
  0
ENDTAB
  0
ENDSEC
  0
SECTION
  2
BLOCKS
  0
BLOCK
  5
20
100
AcDbEntity
  8
0
100
AcDbBlockBegin
  2
*Model_Space
 70
0
 10
0.0
 20
0.0
 30
0.0
  3
*Model_Space
  1

  0
ENDBLK
  5
21
100
AcDbEntity
  8
0
100
AcDbBlockEnd
  0
BLOCK
  5
1C
100
AcDbEntity
  8
0
100
AcDbBlockBegin
  2
*Paper_Space
 70
0
 10
0.0
 20
0.0
 30
0.0
  3
*Paper_Space
  1

  0
ENDBLK
  5
1D
100
AcDbEntity
  8
0
100
AcDbBlockEnd
  0
ENDSEC
  0
SECTION
  2
ENTITIES
  0
LINE
  5
215
100
AcDbEntity
  8
0
100
AcDbLine
 62
7
  6
CONTINUOUS
 10
-36.0650728386
 20
121.0407400687
 11
-34.7922806325
 21
121.6771361717
  0
LINE
  5
216
100
AcDbEntity
  8
0
100
AcDbLine
 62
7
  6
CONTINUOUS
 10
-25.7413138333
 20
126.2026195713
 11
-24.4685216272
 21
126.8390156744
  0
LINE
  5
217
100
AcDbEntity
  8
0
100
AcDbLine
 62
7
  6
CONTINUOUS
 10
-15.417554828
 20
131.364499074
 11
-14.1447626218
 21
132.0008951771
  0
LINE
  5
218
100
AcDbEntity
  8
0
100
AcDbLine
 62
7
  6
CONTINUOUS
 10
-11.9074213936
 20
132.854956777
 11
-13.6751883466
 21
131.9710733005
  0
LINE
  5
219
100
AcDbEntity
  8
0
100
AcDbLine
 62
7
  6
CONTINUOUS
 10
-14.9479805527
 20
131.3346771974
 11
-23.9989473519
 21
126.8091937978
  0
LINE
  5
21A
100
AcDbEntity
  8
0
100
AcDbLine
 62
7
  6
CONTINUOUS
 10
-25.271739558
 20
126.1727976948
 11
-34.3227063572
 21
121.6473142952
  0
LINE
  5
21B
100
AcDbEntity
  8
0
100
AcDbLine
 62
7
  6
CONTINUOUS
 10
-45.8485468906
 20
115.8843940285
 11
-35.5954985634
 21
121.0109181921
  0
LINE
  5
21C
100
AcDbEntity
  8
0
100
AcDbLine
 62
253
  6
CONTINUOUS
 10
-35.5954985634
 20
121.0109181921
 11
-34.3227063572
 21
121.6473142952
  0
LINE
  5
21D
100
AcDbEntity
  8
0
100
AcDbLine
 62
253
  6
CONTINUOUS
 10
-25.271739558
 20
126.1727976948
 11
-23.9989473519
 21
126.8091937978
  0
LINE
  5
21E
100
AcDbEntity
  8
0
100
AcDbLine
 62
253
  6
CONTINUOUS
 10
-14.9479805527
 20
131.3346771974
 11
-13.6751883466
 21
131.9710733005
  0
LINE
  5
21F
100
AcDbEntity
  8
0
100
AcDbLine
 62
7
  6
CONTINUOUS
 10
-10.5285631703
 20
132.8372791074
 11
-11.2003146124
 21
132.5014033864
  0
LINE
  5
220
100
AcDbEntity
  8
0
100
AcDbLine
 62
7
  6
CONTINUOUS
 10
-45.8839022296
 20
114.9927450241
 11
-45.8453685181
 21
115.0120118798
  0
LWPOLYLINE
  5
221
100
AcDbEntity
  8
0
100
AcDbPolyline
 62
7
  6
CONTINUOUS
 90
13
 70
0
 10
-10.5285631703
 20
132.8372791074
 10
-10.4851521736
 20
132.8574029982
 10
-10.4421764422
 20
132.8742859587
 10
-10.3996359761
 20
132.8879279891
 10
-10.3573900953
 20
132.8983532625
 10
-10.3155794798
 20
132.9055376056
 10
-10.2746261695
 20
132.9094084993
 10
-10.2345388474
 20
132.9099323842
 10
-10.1953088306
 20
132.9071428196
 10
-10.1573321102
 20
132.9010679635
 10
-10.1206213798
 20
132.8916745421
 10
-10.0851639458
 20
132.8789958292
 10
-10.0589897195
 20
132.8670993344
  0
LWPOLYLINE
  5
222
100
AcDbEntity
  8
0
100
AcDbPolyline
 62
7
  6
CONTINUOUS
 90
13
 70
0
 10
-9.2557709642
 20
132.2008830044
 10
-9.2123599675
 20
132.2210068951
 10
-9.1693842361
 20
132.2378898557
 10
-9.12684377
 20
132.251531886
 10
-9.0845978892
 20
132.2619571594
 10
-9.0427872736
 20
132.2691415026
 10
-9.0018339634
 20
132.2730123962
 10
-8.9617466413
 20
132.2735362811
 10
-8.9225166244
 20
132.2707467165
 10
-8.884539904
 20
132.2646718605
 10
-8.8478291736
 20
132.255278439
 10
-8.8123717397
 20
132.2425997261
 10
-8.7861975134
 20
132.2307032313
  0
LWPOLYLINE
  5
223
100
AcDbEntity
  8
0
100
AcDbPolyline
 62
7
  6
CONTINUOUS
 90
13
 70
0
 10
-14.1447617973
 20
132.0008935274
 10
-14.118587571
 20
132.0127900222
 10
-14.0831301371
 20
132.0254687351
 10
-14.0464194067
 20
132.0348621566
 10
-14.0084426863
 20
132.0409370126
 10
-13.9692126694
 20
132.0437265773
 10
-13.9291253473
 20
132.0432026923
 10
-13.8881720371
 20
132.0393317987
 10
-13.8463614215
 20
132.0321474555
 10
-13.8041155407
 20
132.0217221822
 10
-13.7615750746
 20
132.0080801518
 10
-13.7185993432
 20
131.9911971912
 10
-13.6751883466
 20
131.9710733005
  0
LWPOLYLINE
  5
224
100
AcDbEntity
  8
0
100
AcDbPolyline
 62
7
  6
CONTINUOUS
 90
13
 70
0
 10
-15.4175540035
 20
131.3644974244
 10
-15.3913797772
 20
131.3763939191
 10
-15.3559223432
 20
131.389072632
 10
-15.3192116128
 20
131.3984660535
 10
-15.2812348924
 20
131.4045409096
 10
-15.2420048756
 20
131.4073304742
 10
-15.2019175535
 20
131.4068065893
 10
-15.1609642432
 20
131.4029356956
 10
-15.1191536277
 20
131.3957513524
 10
-15.0769077469
 20
131.3853260791
 10
-15.0343672808
 20
131.3716840487
 10
-14.9913915494
 20
131.3548010881
 10
-14.9479805527
 20
131.3346771974
  0
LWPOLYLINE
  5
225
100
AcDbEntity
  8
0
100
AcDbPolyline
 62
7
  6
CONTINUOUS
 90
13
 70
0
 10
-24.4685208027
 20
126.8390140248
 10
-24.4423465763
 20
126.8509105195
 10
-24.4068891424
 20
126.8635892324
 10
-24.370178412
 20
126.8729826539
 10
-24.3322016916
 20
126.87905751
 10
-24.2929716748
 20
126.8818470746
 10
-24.2528843527
 20
126.8813231897
 10
-24.2119310424
 20
126.877452296
 10
-24.1701204269
 20
126.8702679528
 10
-24.1278745461
 20
126.8598426795
 10
-24.08533408
 20
126.8462006491
 10
-24.0423583486
 20
126.8293176886
 10
-23.9989473519
 20
126.8091937978
  0
LWPOLYLINE
  5
226
100
AcDbEntity
  8
0
100
AcDbPolyline
 62
7
  6
CONTINUOUS
 90
13
 70
0
 10
-25.7413130088
 20
126.2026179217
 10
-25.7151387825
 20
126.2145144165
 10
-25.6796813485
 20
126.2271931294
 10
-25.6429706182
 20
126.2365865509
 10
-25.6049938977
 20
126.2426614069
 10
-25.5657638809
 20
126.2454509715
 10
-25.5256765588
 20
126.2449270866
 10
-25.4847232485
 20
126.241056193
 10
-25.442912633
 20
126.2338718498
 10
-25.4006667522
 20
126.2234465764
 10
-25.3581262861
 20
126.209804546
 10
-25.3151505547
 20
126.1929215855
 10
-25.271739558
 20
126.1727976948
  0
LWPOLYLINE
  5
227
100
AcDbEntity
  8
0
100
AcDbPolyline
 62
7
  6
CONTINUOUS
 90
13
 70
0
 10
-34.792279808
 20
121.6771345221
 10
-34.7661055817
 20
121.6890310169
 10
-34.7306481477
 20
121.7017097298
 10
-34.6939374173
 20
121.7111031513
 10
-34.6559606969
 20
121.7171780073
 10
-34.6167306801
 20
121.7199675719
 10
-34.576643358
 20
121.719443687
 10
-34.5356900477
 20
121.7155727934
 10
-34.4938794322
 20
121.7083884502
 10
-34.4516335514
 20
121.6979631768
 10
-34.4090930853
 20
121.6843211464
 10
-34.3661173539
 20
121.6674381859
 10
-34.3227063572
 20
121.6473142952
  0
LWPOLYLINE
  5
228
100
AcDbEntity
  8
0
100
AcDbPolyline
 62
7
  6
CONTINUOUS
 90
13
 70
0
 10
-36.0650720141
 20
121.0407384191
 10
-36.0388977878
 20
121.0526349138
 10
-36.0034403539
 20
121.0653136267
 10
-35.9667296235
 20
121.0747070482
 10
-35.9287529031
 20
121.0807819042
 10
-35.8895228862
 20
121.0835714689
 10
-35.8494355641
 20
121.0830475839
 10
-35.8084822539
 20
121.0791766903
 10
-35.7666716383
 20
121.0719923471
 10
-35.7244257575
 20
121.0615670738
 10
-35.6818852914
 20
121.0479250434
 10
-35.63890956
 20
121.0310420828
 10
-35.5954985634
 20
121.0109181921
  0
LWPOLYLINE
  5
229
100
AcDbEntity
  8
ASSI
100
AcDbPolyline
 62
7
  6
CONTINUOUS
 90
8
 70
0
 10
24.9535677292
 20
-118.2017058188
 10
24.9761255012
 20
-118.1963287104
 10
25.0485162055
 20
-118.1766672851
 10
25.118950628
 20
-118.1550861503
 10
25.1868522365
 20
-118.1317619557
 10
25.2520288533
 20
-118.1067535845
 10
25.3146726559
 20
-118.0800021535
 10
25.3747836445
 20
-118.0515076628
  0
LWPOLYLINE
  5
22A
100
AcDbEntity
  8
ASSI
100
AcDbPolyline
 62
7
  6
CONTINUOUS
 90
36
 70
0
 10
24.8209083345
 20
-119.739981489
 10
24.8213252597
 20
-119.739924175
 10
24.8781236058
 20
-119.7282257166
 10
24.9353986046
 20
-119.7126031028
 10
24.9931541684
 20
-119.6930241249
 10
25.051386385
 20
-119.6695209916
 10
25.1096186015
 20
-119.6422860848
 10
25.1678508181
 20
-119.611288775
 10
25.2260830346
 20
-119.5765596918
 10
25.2838385984
 20
-119.5383831059
 10
25.3411135972
 20
-119.4967307209
 10
25.3979119433
 20
-119.4516308331
 10
25.4537687208
 20
-119.4034526023
 10
25.5086762013
 20
-119.352170762
 10
25.5626421132
 20
-119.2978105786
 10
25.615224725
 20
-119.2408170108
 10
25.6664126829
 20
-119.1811684443
 10
25.7162173407
 20
-119.1188864934
 10
25.7642310285
 20
-119.0544809594
 10
25.8104390463
 20
-118.9879344124
 10
25.8548560941
 20
-118.9192642823
 10
25.8971186015
 20
-118.8490326601
 10
25.9372088845
 20
-118.7772267294
 10
25.9751446271
 20
-118.7038593066
 10
26.010615311
 20
-118.6295309318
 10
26.0436007033
 20
-118.5542337178
 10
26.0741210369
 20
-118.4779755518
 10
26.1019264912
 20
-118.4013806357
 10
26.1269947831
 20
-118.3244462056
 10
26.1493481957
 20
-118.2471750255
 10
26.1688037579
 20
-118.1701995892
 10
26.1853376847
 20
-118.0935223241
 10
26.1989737612
 20
-118.0171408028
 10
26.2096003708
 20
-117.9416802369
 10
26.217180308
 20
-117.8673490304
 10
26.2217507784
 20
-117.7939387793
  0
LINE
  5
22B
100
AcDbEntity
  8
0
100
AcDbLine
 62
7
  6
CONTINUOUS
 10
-41.4998401863
 20
112.0355775971
 11
-42.9140537486
 21
111.0106335707
  0
LWPOLYLINE
  5
22C
100
AcDbEntity
  8
ASSI
100
AcDbPolyline
 62
7
  6
CONTINUOUS
 90
16
 70
0
 10
-24.935863837
 20
119.5701881254
 10
-24.9928528185
 20
119.5401326312
 10
-25.0463556804
 20
119.5088107298
 10
-25.0963724227
 20
119.4762224214
 10
-25.143020812
 20
119.4422716172
 10
-25.1861830816
 20
119.4070544059
 10
-25.2255059322
 20
119.3708590538
 10
-25.2609578506
 20
119.3336775324
 10
-25.2925703498
 20
119.2955178702
 10
-25.3200846698
 20
119.2566924183
 10
-25.3434671734
 20
119.2171957122
 10
-25.3627514976
 20
119.1770332165
 10
-25.377779793
 20
119.1365336765
 10
-25.3885171271
 20
119.0956943256
 10
-25.3949984322
 20
119.0545179304
 10
-25.3971706566
 20
119.0133415352
  0
LWPOLYLINE
  5
22D
100
AcDbEntity
  8
ASSI
100
AcDbPolyline
 62
7
  6
CONTINUOUS
 90
16
 70
0
 10
-17.8647960251
 20
123.1057220314
 10
-17.9217850066
 20
123.0756665371
 10
-17.9752878685
 20
123.0443446358
 10
-18.0253046109
 20
123.0117563274
 10
-18.0719530001
 20
122.9778055232
 10
-18.1151152698
 20
122.9425883119
 10
-18.1544381203
 20
122.9063929597
 10
-18.1898900387
 20
122.8692114383
 10
-18.221502538
 20
122.8310517761
 10
-18.2490168579
 20
122.7922263243
 10
-18.2723993615
 20
122.7527296182
 10
-18.2916836858
 20
122.7125671225
 10
-18.3067119812
 20
122.6720675824
 10
-18.3174493152
 20
122.6312282316
 10
-18.3239306204
 20
122.5900518364
 10
-18.3261028447
 20
122.5488754412
  0
LWPOLYLINE
  5
22E
100
AcDbEntity
  8
ASSI
100
AcDbPolyline
 62
7
  6
CONTINUOUS
 90
16
 70
0
 10
-10.7937282132
 20
126.6412559373
 10
-10.8507171947
 20
126.611200443
 10
-10.9042200567
 20
126.5798785417
 10
-10.954236799
 20
126.5472902333
 10
-11.0008851882
 20
126.5133394291
 10
-11.0440474579
 20
126.4781222178
 10
-11.0833703085
 20
126.4419268657
 10
-11.1188222268
 20
126.4047453443
 10
-11.1504347261
 20
126.366585682
 10
-11.177949046
 20
126.3277602302
 10
-11.2013315496
 20
126.2882635241
 10
-11.2206158739
 20
126.2481010284
 10
-11.2356441693
 20
126.2076014883
 10
-11.2463815033
 20
126.1667621375
 10
-11.2528628085
 20
126.1255857423
 10
-11.2550350329
 20
126.0844093471
  0
LWPOLYLINE
  5
22F
100
AcDbEntity
  8
ASSI
100
AcDbPolyline
 62
7
  6
CONTINUOUS
 90
5
 70
0
 10
-24.935863837
 20
118.7041627216
 10
-24.9928528185
 20
118.6741072274
 10
-25.0463556804
 20
118.6427853261
 10
-25.0963724227
 20
118.6101970176
 10
-25.1374112941
 20
118.5803288334
  0
LWPOLYLINE
  5
230
100
AcDbEntity
  8
ASSI
100
AcDbPolyline
 62
7
  6
CONTINUOUS
 90
5
 70
0
 10
-17.8647960251
 20
122.2396966276
 10
-17.9217850066
 20
122.2096411333
 10
-17.9752878685
 20
122.178319232
 10
-18.0253046109
 20
122.1457309236
 10
-18.0663434822
 20
122.1158627393
  0
LWPOLYLINE
  5
231
100
AcDbEntity
  8
ASSI
100
AcDbPolyline
 62
7
  6
CONTINUOUS
 90
5
 70
0
 10
-10.7937282132
 20
125.7752305335
 10
-10.8507171947
 20
125.7451750393
 10
-10.9042200567
 20
125.7138531379
 10
-10.954236799
 20
125.6812648295
 10
-10.9952756704
 20
125.6513966452
  0
LWPOLYLINE
  5
232
100
AcDbEntity
  8
ASSI
100
AcDbPolyline
 62
7
  6
CONTINUOUS
 90
16
 70
0
 10
-22.7084774762
 20
118.4564949451
 10
-22.6514884947
 20
118.4865504393
 10
-22.5979856328
 20
118.5178723407
 10
-22.5479688905
 20
118.5504606491
 10
-22.5013205012
 20
118.5844114533
 10
-22.4581582316
 20
118.6196286646
 10
-22.418835381
 20
118.6558240167
 10
-22.3833834626
 20
118.6930055381
 10
-22.3517709633
 20
118.7311652003
 10
-22.3242566434
 20
118.7699906522
 10
-22.3008741398
 20
118.8094873583
 10
-22.2815898156
 20
118.849649854
 10
-22.2665615202
 20
118.890149394
 10
-22.2558241861
 20
118.9309887449
 10
-22.249342881
 20
118.9721651401
 10
-22.2471706566
 20
119.0133415352
  0
LWPOLYLINE
  5
233
100
AcDbEntity
  8
ASSI
100
AcDbPolyline
 62
7
  6
CONTINUOUS
 90
16
 70
0
 10
-15.6374096644
 20
121.992028851
 10
-15.5804206828
 20
122.0220843453
 10
-15.5269178209
 20
122.0534062466
 10
-15.4769010786
 20
122.085994555
 10
-15.4302526893
 20
122.1199453592
 10
-15.3870904197
 20
122.1551625705
 10
-15.3477675691
 20
122.1913579226
 10
-15.3123156508
 20
122.228539444
 10
-15.2807031515
 20
122.2666991063
 10
-15.2531888316
 20
122.3055245581
 10
-15.2298063279
 20
122.3450212642
 10
-15.2105220037
 20
122.3851837599
 10
-15.1954937083
 20
122.4256833
 10
-15.1847563743
 20
122.4665226508
 10
-15.1782750691
 20
122.507699046
 10
-15.1761028447
 20
122.5488754412
  0
LWPOLYLINE
  5
234
100
AcDbEntity
  8
ASSI
100
AcDbPolyline
 62
7
  6
CONTINUOUS
 90
16
 70
0
 10
-8.5663418525
 20
125.5275627569
 10
-8.509352871
 20
125.5576182512
 10
-8.4558500091
 20
125.5889401525
 10
-8.4058332667
 20
125.6215284609
 10
-8.3591848775
 20
125.6554792651
 10
-8.3160226078
 20
125.6906964764
 10
-8.2766997573
 20
125.7268918286
 10
-8.2412478389
 20
125.7640733499
 10
-8.2096353396
 20
125.8022330122
 10
-8.1821210197
 20
125.841058464
 10
-8.1587385161
 20
125.8805551701
 10
-8.1394541918
 20
125.9207176658
 10
-8.1244258964
 20
125.9612172059
 10
-8.1136885624
 20
126.0020565567
 10
-8.1072072572
 20
126.0432329519
 10
-8.1050350329
 20
126.0844093471
  0
LWPOLYLINE
  5
235
100
AcDbEntity
  8
0
100
AcDbPolyline
 62
7
  6
CONTINUOUS
 90
18
 70
0
 10
-42.9140537486
 20
106.071077961
 10
-42.9865559929
 20
106.0330316769
 10
-43.0550745967
 20
105.9934943348
 10
-43.1196095601
 20
105.9524659348
 10
-43.1802888334
 20
105.9098469294
 10
-43.2369844663
 20
105.865736866
 10
-43.2893126071
 20
105.8204343871
 10
-43.3372436192
 20
105.7739314012
 10
-43.3808071392
 20
105.7262359997
 10
-43.419708225
 20
105.6776710992
 10
-43.4539152387
 20
105.6282307996
 10
-43.4834598182
 20
105.5779210009
 10
-43.5081419352
 20
105.5270823202
 10
-43.5279285943
 20
105.4757111687
 10
-43.5428527908
 20
105.4238111351
 10
-43.5528134822
 20
105.3717336032
 10
-43.5577769874
 20
105.3194773683
 10
-43.5583974255
 20
105.2932605017
  0
LINE
  5
236
100
AcDbEntity
  8
0
100
AcDbLine
 62
7
  6
CONTINUOUS
 10
-40.6914025108
 20
112.4397964348
 11
-41.4998401863
 21
112.0355775971
  0
LINE
  5
237
100
AcDbEntity
  8
0
100
AcDbLine
 62
7
  6
CONTINUOUS
 10
-31.2095598859
 20
116.2898617075
 11
-30.1488997141
 21
116.8201917933
  0
LINE
  5
238
100
AcDbEntity
  8
0
100
AcDbLine
 62
7
  6
CONTINUOUS
 10
-31.7417666059
 20
115.9727823761
 11
-31.2181332221
 21
116.234599068
  0
LINE
  5
239
100
AcDbEntity
  8
0
100
AcDbLine
 62
7
  6
CONTINUOUS
 10
-42.9140537486
 20
106.0929495439
 11
-44.1161352766
 21
105.4919087799
  0
LINE
  5
23A
100
AcDbEntity
  8
0
100
AcDbLine
 62
7
  6
CONTINUOUS
 10
-25.5936908778
 20
113.4819272034
 11
-24.533030706
 21
114.0122572893
  0
LINE
  5
23B
100
AcDbEntity
  8
0
100
AcDbLine
 62
7
  6
CONTINUOUS
 10
-23.9635920128
 20
112.6493805046
 11
-24.5292774378
 21
112.3665377921
  0
LWPOLYLINE
  5
23C
100
AcDbEntity
  8
0
100
AcDbPolyline
 62
7
  6
CONTINUOUS
 90
25
 70
0
 10
-24.5292774378
 20
112.3665377921
 10
-24.553347404
 20
112.355286642
 10
-24.5786034954
 20
112.3449230727
 10
-24.6050457119
 20
112.3354470843
 10
-24.6327970895
 20
112.3268257947
 10
-24.6617345922
 20
112.319092086
 10
-24.6914891122
 20
112.3123446043
 10
-24.7220711152
 20
112.3065959829
 10
-24.7534701354
 20
112.3018335886
 10
-24.7852856674
 20
112.2981181673
 10
-24.8175230465
 20
112.2954631305
 10
-24.8501769375
 20
112.2938550667
 10
-24.8828308284
 20
112.2933144874
 10
-24.9154847193
 20
112.2938550667
 10
-24.9481386102
 20
112.2954631305
 10
-24.9803759894
 20
112.2981181673
 10
-25.0121915213
 20
112.3018335886
 10
-25.0435905416
 20
112.3065959829
 10
-25.0741725446
 20
112.3123446043
 10
-25.1039270645
 20
112.319092086
 10
-25.1328645673
 20
112.3268257947
 10
-25.1606159449
 20
112.3354470843
 10
-25.1870581614
 20
112.3449230727
 10
-25.2123142527
 20
112.355286642
 10
-25.236384219
 20
112.3665377921
  0
LWPOLYLINE
  5
23D
100
AcDbEntity
  8
ASSI
100
AcDbPolyline
 62
7
  6
CONTINUOUS
 90
36
 70
0
 10
38.9630439582
 20
-112.6689136772
 10
38.9634608834
 20
-112.6688563631
 10
39.0202592295
 20
-112.6571579047
 10
39.0775342284
 20
-112.6415352909
 10
39.1352897922
 20
-112.621956313
 10
39.1935220087
 20
-112.5984531797
 10
39.2517542252
 20
-112.5712182729
 10
39.3099864418
 20
-112.5402209632
 10
39.3682186583
 20
-112.50549188
 10
39.4259742221
 20
-112.467315294
 10
39.483249221
 20
-112.425662909
 10
39.5400475671
 20
-112.3805630213
 10
39.5959043445
 20
-112.3323847904
 10
39.6508118251
 20
-112.2811029501
 10
39.704777737
 20
-112.2267427667
 10
39.7573603488
 20
-112.1697491989
 10
39.8085483067
 20
-112.1101006324
 10
39.8583529645
 20
-112.0478186815
 10
39.9063666522
 20
-111.9834131475
 10
39.9525746701
 20
-111.9168666005
 10
39.9969917179
 20
-111.8481964704
 10
40.0392542252
 20
-111.7779648482
 10
40.0793445083
 20
-111.7061589175
 10
40.1172802509
 20
-111.6327914947
 10
40.1527509347
 20
-111.55846312
 10
40.185736327
 20
-111.4831659059
 10
40.2162566606
 20
-111.4069077399
 10
40.2440621149
 20
-111.3303128239
 10
40.2691304068
 20
-111.2533783938
 10
40.2914838194
 20
-111.1761072137
 10
40.3109393816
 20
-111.0991317773
 10
40.3274733085
 20
-111.0224545122
 10
40.3411093849
 20
-110.9460729909
 10
40.3517359945
 20
-110.870612425
 10
40.3593159317
 20
-110.7962812185
 10
40.3638864021
 20
-110.7228709674
  0
LWPOLYLINE
  5
23E
100
AcDbEntity
  8
ASSI
100
AcDbPolyline
 62
7
  6
CONTINUOUS
 90
12
 70
0
 10
31.7116790299
 20
-114.7231590471
 10
31.7398666299
 20
-114.719775425
 10
31.8188600421
 20
-114.7080841732
 10
31.8965109458
 20
-114.6943270133
 10
31.9728302703
 20
-114.6785207636
 10
32.047193313
 20
-114.6607948044
 10
32.1195840173
 20
-114.6411333792
 10
32.1900184399
 20
-114.6195522443
 10
32.2579200483
 20
-114.5962280497
 10
32.3230966651
 20
-114.5712196786
 10
32.3857404678
 20
-114.5444682476
 10
32.4458514563
 20
-114.5159737568
  0
LWPOLYLINE
  5
23F
100
AcDbEntity
  8
ASSI
100
AcDbPolyline
 62
7
  6
CONTINUOUS
 90
40
 70
0
 10
31.6877273604
 20
-116.6121266436
 10
31.7302269285
 20
-116.6098121935
 10
31.7977200706
 20
-116.6015634355
 10
31.8659942907
 20
-116.5887329069
 10
31.9350554048
 20
-116.5712864911
 10
32.0048975969
 20
-116.5492583048
 10
32.0750021015
 20
-116.522811966
 10
32.1453708719
 20
-116.4919145769
 10
32.2160019548
 20
-116.4565990354
 10
32.2863707252
 20
-116.4171276542
 10
32.3564752299
 20
-116.3734694883
 10
32.426317422
 20
-116.3256554825
 10
32.4953785361
 20
-116.2740407842
 10
32.5636527562
 20
-116.2185970927
 10
32.6311458983
 20
-116.1593527086
 10
32.6973566449
 20
-116.0967476802
 10
32.7622754472
 20
-116.0307569837
 10
32.8259118541
 20
-115.9614056429
 10
32.8877931946
 20
-115.8892087773
 10
32.9479064003
 20
-115.8141451989
 10
33.0062645397
 20
-115.7362360957
 10
33.0624341472
 20
-115.6560601516
 10
33.1163989267
 20
-115.5736004875
 10
33.1681751742
 20
-115.4888739826
 10
33.2173783124
 20
-115.4025099581
 10
33.2639891817
 20
-115.314496221
 10
33.3080269416
 20
-115.2248449644
 10
33.3491644938
 20
-115.1342220892
 10
33.387380243
 20
-115.0426203605
 10
33.4226957844
 20
-114.9500470132
 10
33.4548488056
 20
-114.8571896525
 10
33.4838157581
 20
-114.7640461635
 10
33.5096201903
 20
-114.6706186611
 10
33.5320704352
 20
-114.5776010949
 10
33.551141517
 20
-114.4849965172
 10
33.5668584116
 20
-114.3928018757
 10
33.5791043787
 20
-114.3017019627
 10
33.5878405051
 20
-114.2119250423
 10
33.5931057041
 20
-114.1232428503
 10
33.5948999758
 20
-114.0356553867
  0
LWPOLYLINE
  5
240
100
AcDbEntity
  8
0
100
AcDbPolyline
 62
7
  6
CONTINUOUS
 90
11
 70
0
 10
10.2603761966
 20
-121.0968527932
 10
10.1986617827
 20
-121.0861779702
 10
10.1015319817
 20
-121.0667274272
 10
10.0061411788
 20
-121.0449456672
 10
9.913135207
 20
-121.0209801612
 10
9.8225302491
 20
-120.9948160908
 10
9.7343101223
 20
-120.9664682744
 10
9.6490721115
 20
-120.9361286377
 10
9.5670153114
 20
-120.903861156
 10
9.4879406274
 20
-120.8696018541
 10
9.4118480592
 20
-120.833350732
  0
LINE
  5
241
100
AcDbEntity
  8
0
100
AcDbLine
 62
7
  6
CONTINUOUS
 10
-45.8485468906
 20
-104.5190712346
 11
10.9321276387
 21
-132.9094084993
  0
LINE
  5
242
100
AcDbEntity
  8
0
100
AcDbLine
 62
7
  6
CONTINUOUS
 10
10.9321276387
 20
-132.0433830955
 11
-4.0231807834
 21
-124.5657288844
  0
LINE
  5
243
100
AcDbEntity
  8
0
100
AcDbLine
 62
7
  6
CONTINUOUS
 10
-21.700850313
 20
-115.7268941196
 11
-30.8932384685
 21
-111.1307000419
  0
LINE
  5
244
100
AcDbEntity
  8
0
100
AcDbLine
 62
7
  6
CONTINUOUS
 10
-13.2155689388
 20
-119.9695348067
 11
-21.700850313
 21
-115.7268941196
  0
LINE
  5
245
100
AcDbEntity
  8
0
100
AcDbLine
 62
7
  6
CONTINUOUS
 10
-30.8932384685
 20
-111.1307000419
 11
-45.8485468906
 21
-103.6530458309
  0
LINE
  5
246
100
AcDbEntity
  8
0
100
AcDbLine
 62
7
  6
CONTINUOUS
 10
-13.2155689388
 20
-119.9695348067
 11
-4.0231807834
 21
-124.5657288844
  0
LINE
  5
247
100
AcDbEntity
  8
0
100
AcDbLine
 62
7
  6
CONTINUOUS
 10
10.9674829778
 20
-132.0177594948
 11
10.2603761966
 21
-131.6642061042
  0
LINE
  5
248
100
AcDbEntity
  8
0
100
AcDbLine
 62
7
  6
CONTINUOUS
 10
-45.8839022296
 20
-103.5920668911
 11
-45.1767954484
 21
-103.9456202817
  0
LINE
  5
249
100
AcDbEntity
  8
0
100
AcDbLine
 62
7
  6
CONTINUOUS
 10
-4.0231807834
 20
-123.2666907788
 11
-13.2155689388
 21
-118.6704967011
  0
LINE
  5
24A
100
AcDbEntity
  8
0
100
AcDbLine
 62
7
  6
CONTINUOUS
 10
-21.700850313
 20
-114.4278560139
 11
-30.8932384685
 21
-109.8316619362
  0
LINE
  5
24B
100
AcDbEntity
  8
ASSI
100
AcDbLine
 62
7
  6
CONTINUOUS
 10
1.829287969
 20
120.6667837053
 11
1.4749067195
 21
120.4895930806
  0
LINE
  5
24C
100
AcDbEntity
  8
ASSI
100
AcDbLine
 62
7
  6
CONTINUOUS
 10
-12.6325381235
 20
113.435870659
 11
-12.986919373
 21
113.2586800343
  0
LINE
  5
24D
100
AcDbEntity
  8
ASSI
100
AcDbLine
 62
7
  6
CONTINUOUS
 10
-11.9969698793
 20
112.7637052875
 11
-11.6425886299
 21
112.9408959122
  0
LINE
  5
24E
100
AcDbEntity
  8
ASSI
100
AcDbLine
 62
7
  6
CONTINUOUS
 10
2.4648562132
 20
119.9946183337
 11
2.8192374627
 21
120.1718089585
  0
LINE
  5
24F
100
AcDbEntity
  8
0
100
AcDbLine
 62
7
  6
CONTINUOUS
 10
-13.2825263487
 20
107.3263449389
 11
-12.2218661769
 21
107.8566750247
  0
LINE
  5
250
100
AcDbEntity
  8
0
100
AcDbLine
 62
7
  6
CONTINUOUS
 10
-13.7812543637
 20
106.9925262551
 11
-13.2967302632
 21
107.2347883054
  0
LWPOLYLINE
  5
251
100
AcDbEntity
  8
0
100
AcDbPolyline
 62
7
  6
CONTINUOUS
 90
13
 70
0
 10
7.50265975
 20
123.8216676473
 10
7.5460707466
 20
123.841791538
 10
7.589046478
 20
123.8586744986
 10
7.6315869441
 20
123.872316529
 10
7.6738328249
 20
123.8827418023
 10
7.7156434405
 20
123.8899261455
 10
7.7565967507
 20
123.8937970392
 10
7.7966840728
 20
123.8943209241
 10
7.8359140897
 20
123.8915313595
 10
7.8738908101
 20
123.8854565034
 10
7.9106015405
 20
123.8760630819
 10
7.9460589744
 20
123.863384369
 10
7.9722332007
 20
123.8514878743
  0
LWPOLYLINE
  5
252
100
AcDbEntity
  8
0
100
AcDbPolyline
 62
7
  6
CONTINUOUS
 90
13
 70
0
 10
8.7754519561
 20
123.1852715443
 10
8.8188629528
 20
123.205395435
 10
8.8618386842
 20
123.2222783955
 10
8.9043791503
 20
123.2359204259
 10
8.9466250311
 20
123.2463456993
 10
8.9884356466
 20
123.2535300424
 10
9.0293889569
 20
123.2574009361
 10
9.069476279
 20
123.257924821
 10
9.1087062958
 20
123.2551352564
 10
9.1466830162
 20
123.2490604003
 10
9.1833937466
 20
123.2396669789
 10
9.2188511806
 20
123.226988266
 10
9.2450254069
 20
123.2150917712
  0
LINE
  5
253
100
AcDbEntity
  8
0
100
AcDbLine
 62
7
  6
CONTINUOUS
 10
-41.4998401863
 20
-103.6047479452
 11
7.9976344968
 21
-128.3534852867
  0
LINE
  5
254
100
AcDbEntity
  8
0
100
AcDbLine
 62
7
  6
CONTINUOUS
 10
20.1598711332
 20
-128.1286721983
 11
19.452764352
 21
-127.7751188077
  0
LINE
  5
255
100
AcDbEntity
  8
0
100
AcDbLine
 62
7
  6
CONTINUOUS
 10
10.2603761966
 20
-123.0472533366
 11
9.1997160248
 21
-122.5169232507
  0
LINE
  5
256
100
AcDbEntity
  8
0
100
AcDbLine
 62
7
  6
CONTINUOUS
 10
-45.1767954484
 20
-95.3286675141
 11
-44.1161352766
 21
-95.8589976
  0
LINE
  5
257
100
AcDbEntity
  8
0
100
AcDbLine
 62
7
  6
CONTINUOUS
 10
-21.700850313
 20
101.6454822303
 11
-20.4018122074
 21
102.2950012831
  0
LINE
  5
258
100
AcDbEntity
  8
0
100
AcDbLine
 62
7
  6
CONTINUOUS
 10
-7.9160213481
 20
104.6430924386
 11
-6.8553611763
 21
105.1734225245
  0
LINE
  5
259
100
AcDbEntity
  8
0
100
AcDbLine
 62
7
  6
CONTINUOUS
 10
-6.2859224832
 20
103.8105457397
 11
-6.8516079081
 21
103.5277030273
  0
LWPOLYLINE
  5
25A
100
AcDbEntity
  8
0
100
AcDbPolyline
 62
7
  6
CONTINUOUS
 90
25
 70
0
 10
-6.8516079081
 20
103.5277030273
 10
-6.8756778743
 20
103.5164518771
 10
-6.9009339657
 20
103.5060883079
 10
-6.9273761822
 20
103.4966123195
 10
-6.9551275598
 20
103.4879910299
 10
-6.9840650626
 20
103.4802573212
 10
-7.0138195825
 20
103.4735098394
 10
-7.0444015855
 20
103.4677612181
 10
-7.0758006057
 20
103.4629988238
 10
-7.1076161377
 20
103.4592834025
 10
-7.1398535169
 20
103.4566283657
 10
-7.1725074078
 20
103.4550203019
 10
-7.2051612987
 20
103.4544797226
 10
-7.2378151896
 20
103.4550203019
 10
-7.2704690806
 20
103.4566283657
 10
-7.3027064597
 20
103.4592834025
 10
-7.3345219917
 20
103.4629988238
 10
-7.3659210119
 20
103.4677612181
 10
-7.3965030149
 20
103.4735098394
 10
-7.4262575349
 20
103.4802573212
 10
-7.4551950376
 20
103.4879910299
 10
-7.4829464152
 20
103.4966123195
 10
-7.5093886317
 20
103.5060883079
 10
-7.5346447231
 20
103.5164518771
 10
-7.5587146893
 20
103.5277030273
  0
LWPOLYLINE
  5
25B
100
AcDbEntity
  8
0
100
AcDbPolyline
 62
7
  6
CONTINUOUS
 90
13
 70
0
 10
25.5338826702
 20
114.8060561872
 10
25.5772936669
 20
114.8261800779
 10
25.6202693983
 20
114.8430630385
 10
25.6628098644
 20
114.8567050689
 10
25.7050557452
 20
114.8671303422
 10
25.7468663607
 20
114.8743146854
 10
25.787819671
 20
114.878185579
 10
25.8279069931
 20
114.878709464
 10
25.8671370099
 20
114.8759198993
 10
25.9051137303
 20
114.8698450433
 10
25.9418244607
 20
114.8604516218
 10
25.9772818947
 20
114.8477729089
 10
26.003456121
 20
114.8358764141
  0
LWPOLYLINE
  5
25C
100
AcDbEntity
  8
ASSI
100
AcDbPolyline
 62
7
  6
CONTINUOUS
 90
44
 70
0
 10
25.1123724751
 20
-120.0405552844
 10
25.1621129557
 20
-120.0626467769
 10
25.2101266435
 20
-120.0790386232
 10
25.2599313013
 20
-120.0915159163
 10
25.3111192592
 20
-120.0999765249
 10
25.363701871
 20
-120.1043874809
 10
25.4176677829
 20
-120.1047817524
 10
25.4725752634
 20
-120.1011561121
 10
25.5284320409
 20
-120.0934775656
 10
25.585230387
 20
-120.0817791072
 10
25.6425053858
 20
-120.0661564934
 10
25.7002609496
 20
-120.0465775155
 10
25.7584931662
 20
-120.0230743822
 10
25.8167253827
 20
-119.9958394754
 10
25.8749575992
 20
-119.9648421656
 10
25.9331898158
 20
-119.9301130824
 10
25.9909453796
 20
-119.8919364965
 10
26.0482203784
 20
-119.8502841115
 10
26.1050187245
 20
-119.8051842237
 10
26.160875502
 20
-119.7570059929
 10
26.2157829825
 20
-119.7057241526
 10
26.2697488944
 20
-119.6513639692
 10
26.3223315062
 20
-119.5943704014
 10
26.3735194641
 20
-119.5347218349
 10
26.4233241219
 20
-119.472439884
 10
26.4713378097
 20
-119.4080343499
 10
26.5175458275
 20
-119.3414878029
 10
26.5619628753
 20
-119.2728176728
 10
26.6042253827
 20
-119.2025860506
 10
26.6443156657
 20
-119.13078012
 10
26.6822514083
 20
-119.0574126972
 10
26.7177220921
 20
-118.9830843224
 10
26.7507074845
 20
-118.9077871084
 10
26.7812278181
 20
-118.8315289424
 10
26.8090332724
 20
-118.7549340263
 10
26.8341015642
 20
-118.6779995962
 10
26.8564549769
 20
-118.6007284161
 10
26.875910539
 20
-118.5237529798
 10
26.8924444659
 20
-118.4470757147
 10
26.9060805424
 20
-118.3706941934
 10
26.916707152
 20
-118.2952336275
 10
26.9242870892
 20
-118.2209024209
 10
26.9288575596
 20
-118.1474921699
 10
26.9304185631
 20
-118.0750028742
  0
LWPOLYLINE
  5
25D
100
AcDbEntity
  8
ASSI
100
AcDbPolyline
 62
7
  6
CONTINUOUS
 90
44
 70
0
 10
26.5210782903
 20
-117.2231436444
 10
26.4713378097
 20
-117.2010521519
 10
26.4233241219
 20
-117.1846603056
 10
26.3735194641
 20
-117.1721830126
 10
26.3223315062
 20
-117.163722404
 10
26.2697488944
 20
-117.1593114479
 10
26.2157829825
 20
-117.1589171764
 10
26.160875502
 20
-117.1625428167
 10
26.1050187245
 20
-117.1702213633
 10
26.0482203784
 20
-117.1819198216
 10
25.9909453796
 20
-117.1975424355
 10
25.9331898158
 20
-117.2171214133
 10
25.8749575992
 20
-117.2406245467
 10
25.8167253827
 20
-117.2678594535
 10
25.7584931662
 20
-117.2988567632
 10
25.7002609496
 20
-117.3335858464
 10
25.6425053858
 20
-117.3717624324
 10
25.585230387
 20
-117.4134148174
 10
25.5284320409
 20
-117.4585147051
 10
25.4725752634
 20
-117.506692936
 10
25.4176677829
 20
-117.5579747763
 10
25.363701871
 20
-117.6123349597
 10
25.3111192592
 20
-117.6693285275
 10
25.2599313013
 20
-117.728977094
 10
25.2101266435
 20
-117.7912590449
 10
25.1621129557
 20
-117.8556645789
 10
25.1159049379
 20
-117.9222111259
 10
25.0714878901
 20
-117.990881256
 10
25.0292253827
 20
-118.0611128782
 10
24.9891350997
 20
-118.1329188089
 10
24.9511993571
 20
-118.2062862317
 10
24.9157286733
 20
-118.2806146064
 10
24.8827432809
 20
-118.3559118205
 10
24.8522229473
 20
-118.4321699865
 10
24.824417493
 20
-118.5087649025
 10
24.7993492012
 20
-118.5856993326
 10
24.7769957885
 20
-118.6629705127
 10
24.7575402264
 20
-118.7399459491
 10
24.7410062995
 20
-118.8166232142
 10
24.727370223
 20
-118.8930047355
 10
24.7167436135
 20
-118.9684653014
 10
24.7091636762
 20
-119.0427965079
 10
24.7045932058
 20
-119.116206759
 10
24.7030322023
 20
-119.1886960546
  0
LWPOLYLINE
  5
25E
100
AcDbEntity
  8
ASSI
100
AcDbPolyline
 62
7
  6
CONTINUOUS
 90
44
 70
0
 10
31.5084445982
 20
-116.1657296506
 10
31.5260739864
 20
-116.1735594804
 10
31.5740876741
 20
-116.1899513267
 10
31.623892332
 20
-116.2024286198
 10
31.6750802899
 20
-116.2108892283
 10
31.7276629017
 20
-116.2153001844
 10
31.7816288136
 20
-116.2156944559
 10
31.8365362941
 20
-116.2120688156
 10
31.8923930716
 20
-116.204390269
 10
31.9491914177
 20
-116.1926918107
 10
32.0064664165
 20
-116.1770691969
 10
32.0642219803
 20
-116.157490219
 10
32.1224541968
 20
-116.1339870856
 10
32.1806864134
 20
-116.1067521789
 10
32.2389186299
 20
-116.0757548691
 10
32.2971508465
 20
-116.0410257859
 10
32.3549064103
 20
-116.0028492
 10
32.4121814091
 20
-115.961196815
 10
32.4689797552
 20
-115.9160969272
 10
32.5248365326
 20
-115.8679186964
 10
32.5797440132
 20
-115.8166368561
 10
32.6337099251
 20
-115.7622766727
 10
32.6862925369
 20
-115.7052831048
 10
32.7374804948
 20
-115.6456345384
 10
32.7872851526
 20
-115.5833525874
 10
32.8352988404
 20
-115.5189470534
 10
32.8815068582
 20
-115.4524005064
 10
32.925923906
 20
-115.3837303763
 10
32.9681864134
 20
-115.3134987541
 10
33.0082766964
 20
-115.2416928234
 10
33.046212439
 20
-115.1683254007
 10
33.0816831228
 20
-115.0939970259
 10
33.1146685152
 20
-115.0186998119
 10
33.1451888487
 20
-114.9424416458
 10
33.172994303
 20
-114.8658467298
 10
33.1980625949
 20
-114.7889122997
 10
33.2204160075
 20
-114.7116411196
 10
33.2398715697
 20
-114.6346656833
 10
33.2564054966
 20
-114.5579884181
 10
33.270041573
 20
-114.4816068968
 10
33.2806681826
 20
-114.406146331
 10
33.2882481199
 20
-114.3318151244
 10
33.2928185902
 20
-114.2584048733
 10
33.2943795937
 20
-114.1859155777
  0
LINE
  5
25F
100
AcDbEntity
  8
0
100
AcDbLine
 62
7
  6
CONTINUOUS
 10
14.5030168837
 20
-112.8138671138
 11
13.7959101025
 21
-112.4603137232
  0
LINE
  5
260
100
AcDbEntity
  8
ASSI
100
AcDbLine
 62
253
  6
CONTINUOUS
 10
26.9304185631
 20
-118.0750028742
 11
26.2233117819
 21
-117.7214494836
  0
LINE
  5
261
100
AcDbEntity
  8
ASSI
100
AcDbLine
 62
253
  6
CONTINUOUS
 10
26.2229183995
 20
-117.7035751229
 11
25.6086030093
 21
-117.3964174278
  0
LINE
  5
262
100
AcDbEntity
  8
0
100
AcDbLine
 62
253
  6
CONTINUOUS
 10
13.6544887463
 20
-111.2319862956
 11
12.962039809
 21
-110.885761827
  0
LWPOLYLINE
  5
263
100
AcDbEntity
  8
0
100
AcDbPolyline
 62
7
  6
CONTINUOUS
 90
17
 70
0
 10
13.207275936
 20
-111.2603865118
 10
13.1999692686
 20
-111.2566345788
 10
13.1692847908
 20
-111.2385152326
 10
13.1401347957
 20
-111.2173889232
 10
13.1128135259
 20
-111.1934689013
 10
13.0873395029
 20
-111.1667268717
 10
13.0636942053
 20
-111.1371911297
 10
13.0421163106
 20
-111.1051598116
 10
13.0226267578
 20
-111.0706076417
 10
13.0052046081
 20
-111.0335598957
 10
12.9900257219
 20
-110.9943905368
 10
12.9771128195
 20
-110.9530780768
 10
12.9664431808
 20
-110.9096440038
 10
12.958124506
 20
-110.8645267452
 10
12.9521926951
 20
-110.8178724433
 10
12.9486118482
 20
-110.7695349557
 10
12.9473819651
 20
-110.7195142824
  0
LWPOLYLINE
  5
264
100
AcDbEntity
  8
ASSI
100
AcDbPolyline
 62
7
  6
CONTINUOUS
 90
11
 70
0
 10
-23.9647145303
 20
118.2292962179
 10
-23.9254613014
 20
118.2899829243
 10
-23.883198794
 20
118.3602145465
 10
-23.843108511
 20
118.4320204772
 10
-23.8051727684
 20
118.5053878999
 10
-23.7697020846
 20
118.5797162747
 10
-23.7367166922
 20
118.6550134887
 10
-23.7061963586
 20
118.7312716548
 10
-23.6783909044
 20
118.8078665708
 10
-23.6533226125
 20
118.8848010009
 10
-23.6404295632
 20
118.9293696379
  0
LWPOLYLINE
  5
265
100
AcDbEntity
  8
ASSI
100
AcDbPolyline
 62
7
  6
CONTINUOUS
 90
11
 70
0
 10
-14.8622761426
 20
117.7599781518
 10
-14.9439967845
 20
117.6538599579
 10
-15.0591854377
 20
117.4879754842
 10
-15.1631233106
 20
117.3204487823
 10
-15.2557727278
 20
117.1512743528
 10
-15.3371713647
 20
116.9804576951
 10
-15.4070469467
 20
116.8085701826
 10
-15.4653608869
 20
116.6356082292
 10
-15.5121517723
 20
116.461575421
 10
-15.5472630896
 20
116.2870538892
 10
-15.5478860505
 20
116.2823932107
  0
LWPOLYLINE
  5
266
100
AcDbEntity
  8
ASSI
100
AcDbPolyline
 62
7
  6
CONTINUOUS
 90
8
 70
0
 10
-17.7360803728
 20
121.9345024682
 10
-17.7001390241
 20
121.9794480097
 10
-17.6521253363
 20
122.0438535437
 10
-17.6059173185
 20
122.1104000907
 10
-17.5615002707
 20
122.1790702208
 10
-17.5192377633
 20
122.249301843
 10
-17.4791474803
 20
122.3211077737
 10
-17.4435801099
 20
122.3898947836
  0
LINE
  5
267
100
AcDbEntity
  8
ASSI
100
AcDbLine
 62
7
  6
CONTINUOUS
 10
19.5069574987
 20
111.8279489405
 11
19.1525762492
 21
111.6507583157
  0
LINE
  5
268
100
AcDbEntity
  8
ASSI
100
AcDbLine
 62
7
  6
CONTINUOUS
 10
5.0451314062
 20
104.5970358942
 11
4.6907501567
 21
104.4198452695
  0
LINE
  5
269
100
AcDbEntity
  8
ASSI
100
AcDbLine
 62
7
  6
CONTINUOUS
 10
5.6806996504
 20
103.9248705227
 11
6.0350808998
 21
104.1020611474
  0
LINE
  5
26A
100
AcDbEntity
  8
ASSI
100
AcDbLine
 62
7
  6
CONTINUOUS
 10
20.1425257429
 20
111.1557835689
 11
20.4969069923
 21
111.3329741936
  0
LINE
  5
26B
100
AcDbEntity
  8
0
100
AcDbLine
 62
7
  6
CONTINUOUS
 10
4.395143181
 20
98.487510174
 11
5.4558033528
 21
99.0178402599
  0
LINE
  5
26C
100
AcDbEntity
  8
0
100
AcDbLine
 62
7
  6
CONTINUOUS
 10
3.8964151659
 20
98.1536914902
 11
4.3809392665
 21
98.3959535405
  0
LINE
  5
26D
100
AcDbEntity
  8
0
100
AcDbLine
 62
7
  6
CONTINUOUS
 10
-4.0231807834
 20
92.8066474654
 11
-2.7241426777
 21
93.4561665183
  0
LWPOLYLINE
  5
26E
100
AcDbEntity
  8
0
100
AcDbPolyline
 62
7
  6
CONTINUOUS
 90
13
 70
0
 10
26.8066748764
 20
114.1696600841
 10
26.850085873
 20
114.1897839748
 10
26.8930616044
 20
114.2066669354
 10
26.9356020705
 20
114.2203089658
 10
26.9778479513
 20
114.2307342391
 10
27.0196585669
 20
114.2379185823
 10
27.0606118771
 20
114.241789476
 10
27.1006991992
 20
114.2423133609
 10
27.1399292161
 20
114.2395237963
 10
27.1779059365
 20
114.2334489402
 10
27.2146166669
 20
114.2240555187
 10
27.2500741008
 20
114.2113768058
 10
27.2762483271
 20
114.1994803111
  0
LWPOLYLINE
  5
26F
100
AcDbEntity
  8
ASSI
100
AcDbPolyline
 62
7
  6
CONTINUOUS
 90
44
 70
0
 10
39.2545080989
 20
-112.9694874726
 10
39.3042485794
 20
-112.9915789651
 10
39.3522622672
 20
-113.0079708113
 10
39.402066925
 20
-113.0204481044
 10
39.4532548829
 20
-113.028908713
 10
39.5058374947
 20
-113.033319669
 10
39.5598034066
 20
-113.0337139405
 10
39.6147108872
 20
-113.0300883003
 10
39.6705676646
 20
-113.0224097537
 10
39.7273660107
 20
-113.0107112953
 10
39.7846410095
 20
-112.9950886815
 10
39.8423965734
 20
-112.9755097036
 10
39.9006287899
 20
-112.9520065703
 10
39.9588610064
 20
-112.9247716635
 10
40.017093223
 20
-112.8937743538
 10
40.0753254395
 20
-112.8590452706
 10
40.1330810033
 20
-112.8208686846
 10
40.1903560022
 20
-112.7792162996
 10
40.2471543483
 20
-112.7341164119
 10
40.3030111257
 20
-112.685938181
 10
40.3579186063
 20
-112.6346563407
 10
40.4118845181
 20
-112.5802961573
 10
40.4644671299
 20
-112.5233025895
 10
40.5156550878
 20
-112.463654023
 10
40.5654597457
 20
-112.4013720721
 10
40.6134734334
 20
-112.3369665381
 10
40.6596814513
 20
-112.2704199911
 10
40.704098499
 20
-112.201749861
 10
40.7463610064
 20
-112.1315182388
 10
40.7864512894
 20
-112.0597123081
 10
40.8243870321
 20
-111.9863448853
 10
40.8598577159
 20
-111.9120165106
 10
40.8928431082
 20
-111.8367192965
 10
40.9233634418
 20
-111.7604611305
 10
40.9511688961
 20
-111.6838662144
 10
40.976237188
 20
-111.6069317844
 10
40.9985906006
 20
-111.5296606043
 10
41.0180461628
 20
-111.4526851679
 10
41.0345800896
 20
-111.3760079028
 10
41.0482161661
 20
-111.2996263815
 10
41.0588427757
 20
-111.2241658156
 10
41.0664227129
 20
-111.1498346091
 10
41.0709931833
 20
-111.076424358
 10
41.0725541868
 20
-111.0039350624
  0
LWPOLYLINE
  5
270
100
AcDbEntity
  8
ASSI
100
AcDbPolyline
 62
7
  6
CONTINUOUS
 90
44
 70
0
 10
40.663213914
 20
-110.1520758326
 10
40.6134734334
 20
-110.12998434
 10
40.5654597457
 20
-110.1135924938
 10
40.5156550878
 20
-110.1011152007
 10
40.4644671299
 20
-110.0926545921
 10
40.4118845181
 20
-110.0882436361
 10
40.3579186063
 20
-110.0878493646
 10
40.3030111257
 20
-110.0914750048
 10
40.2471543483
 20
-110.0991535514
 10
40.1903560022
 20
-110.1108520098
 10
40.1330810033
 20
-110.1264746236
 10
40.0753254395
 20
-110.1460536015
 10
40.017093223
 20
-110.1695567348
 10
39.9588610064
 20
-110.1967916416
 10
39.9006287899
 20
-110.2277889514
 10
39.8423965734
 20
-110.2625180346
 10
39.7846410095
 20
-110.3006946205
 10
39.7273660107
 20
-110.3423470055
 10
39.6705676646
 20
-110.3874468932
 10
39.6147108872
 20
-110.4356251241
 10
39.5598034066
 20
-110.4869069644
 10
39.5058374947
 20
-110.5412671478
 10
39.4532548829
 20
-110.5982607156
 10
39.402066925
 20
-110.6579092821
 10
39.3522622672
 20
-110.720191233
 10
39.3042485794
 20
-110.784596767
 10
39.2580405616
 20
-110.851143314
 10
39.2136235138
 20
-110.9198134441
 10
39.1713610064
 20
-110.9900450663
 10
39.1312707234
 20
-111.061850997
 10
39.0933349808
 20
-111.1352184198
 10
39.057864297
 20
-111.2095467946
 10
39.0248789046
 20
-111.2848440086
 10
38.9943585711
 20
-111.3611021746
 10
38.9665531168
 20
-111.4376970907
 10
38.9414848249
 20
-111.5146315207
 10
38.9191314123
 20
-111.5919027009
 10
38.8996758501
 20
-111.6688781372
 10
38.8831419232
 20
-111.7455554023
 10
38.8695058468
 20
-111.8219369236
 10
38.8588792372
 20
-111.8973974895
 10
38.8512992999
 20
-111.971728696
 10
38.8467288296
 20
-112.0451389471
 10
38.8451678261
 20
-112.1176282427
  0
LWPOLYLINE
  5
271
100
AcDbEntity
  8
ASSI
100
AcDbPolyline
 62
7
  6
CONTINUOUS
 90
47
 70
0
 10
31.9933668543
 20
-116.8851682394
 10
32.0060454608
 20
-116.891361276
 10
32.0622150682
 20
-116.9153676126
 10
32.1205732076
 20
-116.9349185764
 10
32.1806864134
 20
-116.9498689491
 10
32.2425677539
 20
-116.9601844742
 10
32.3062041607
 20
-116.9658994082
 10
32.371122963
 20
-116.9669713024
 10
32.4373337097
 20
-116.9633655841
 10
32.5048268518
 20
-116.9551168261
 10
32.5731010719
 20
-116.9422862975
 10
32.642162186
 20
-116.9248398817
 10
32.7120043781
 20
-116.9028116954
 10
32.7821088827
 20
-116.8763653566
 10
32.8524776531
 20
-116.8454679675
 10
32.923108736
 20
-116.810152426
 10
32.9934775064
 20
-116.7706810448
 10
33.0635820111
 20
-116.7270228789
 10
33.1334242032
 20
-116.6792088731
 10
33.2024853173
 20
-116.6275941748
 10
33.2707595374
 20
-116.5721504833
 10
33.3382526795
 20
-116.5129060992
 10
33.4044634261
 20
-116.4503010708
 10
33.4693822284
 20
-116.3843103743
 10
33.5330186353
 20
-116.3149590335
 10
33.5948999758
 20
-116.2427621679
 10
33.6550131815
 20
-116.1676985895
 10
33.7133713209
 20
-116.0897894863
 10
33.7695409284
 20
-116.0096135422
 10
33.8235057078
 20
-115.9271538781
 10
33.8752819554
 20
-115.8424273731
 10
33.9244850936
 20
-115.7560633487
 10
33.9710959629
 20
-115.6680496116
 10
34.0151337228
 20
-115.578398355
 10
34.056271275
 20
-115.4877754798
 10
34.0944870242
 20
-115.3961737511
 10
34.1298025656
 20
-115.3036004038
 10
34.1619555868
 20
-115.2107430431
 10
34.1909225393
 20
-115.1175995541
 10
34.2167269715
 20
-115.0241720517
 10
34.2391772163
 20
-114.9311544855
 10
34.2582482982
 20
-114.8385499078
 10
34.2739651928
 20
-114.7463552663
 10
34.2862111599
 20
-114.6552553533
 10
34.2949472863
 20
-114.5654784328
 10
34.3002124853
 20
-114.4767962408
 10
34.3020067569
 20
-114.3892087773
  0
LWPOLYLINE
  5
272
100
AcDbEntity
  8
ASSI
100
AcDbPolyline
 62
7
  6
CONTINUOUS
 90
15
 70
0
 10
33.7822195348
 20
-113.3074628776
 10
33.7695409284
 20
-113.301269841
 10
33.7133713209
 20
-113.2772635044
 10
33.6550131815
 20
-113.2577125406
 10
33.5948999758
 20
-113.2427621679
 10
33.5330186353
 20
-113.2324466428
 10
33.4693822284
 20
-113.2267317088
 10
33.4044634261
 20
-113.2256598146
 10
33.3382526795
 20
-113.2292655328
 10
33.2707595374
 20
-113.2375142909
 10
33.2024853173
 20
-113.2503448195
 10
33.1334242032
 20
-113.2677912352
 10
33.0635820111
 20
-113.2898194216
 10
32.9934775064
 20
-113.3162657603
 10
32.923108736
 20
-113.3471631495
  0
LINE
  5
273
100
AcDbEntity
  8
0
100
AcDbLine
 62
7
  6
CONTINUOUS
 10
20.1598711332
 20
-111.7174907966
 11
19.452764352
 21
-111.363937406
  0
LINE
  5
274
100
AcDbEntity
  8
ASSI
100
AcDbLine
 62
253
  6
CONTINUOUS
 10
33.2943795937
 20
-114.1859155777
 11
32.5872728126
 21
-113.8323621871
  0
LINE
  5
275
100
AcDbEntity
  8
ASSI
100
AcDbLine
 62
253
  6
CONTINUOUS
 10
34.3020067569
 20
-114.3892087773
 11
33.5948999758
 21
-114.0356553867
  0
LINE
  5
276
100
AcDbEntity
  8
0
100
AcDbLine
 62
7
  6
CONTINUOUS
 10
14.5030168837
 20
-104.1536130759
 11
13.7959101025
 21
-103.8000596853
  0
LWPOLYLINE
  5
277
100
AcDbEntity
  8
ASSI
100
AcDbPolyline
 62
7
  6
CONTINUOUS
 90
6
 70
0
 10
25.4683097664
 20
-117.855285128
 10
25.4314798664
 20
-117.8337239917
 10
25.3747836445
 20
-117.8038398862
 10
25.3150154333
 20
-117.7754917752
 10
25.252200242
 20
-117.7486671544
 10
25.2460679922
 20
-117.7463135034
  0
LINE
  5
278
100
AcDbEntity
  8
0
100
AcDbLine
 62
7
  6
CONTINUOUS
 10
-42.9140537486
 20
-101.1655903564
 11
-41.4998401863
 21
-103.6047479452
  0
LWPOLYLINE
  5
279
100
AcDbEntity
  8
ASSI
100
AcDbPolyline
 62
7
  6
CONTINUOUS
 90
11
 70
0
 10
-16.8936467184
 20
121.7648301239
 10
-16.8543934895
 20
121.8255168302
 10
-16.8121309822
 20
121.8957484524
 10
-16.7720406991
 20
121.9675543831
 10
-16.7341049565
 20
122.0409218059
 10
-16.6986342727
 20
122.1152501806
 10
-16.6656488803
 20
122.1905473947
 10
-16.6351285468
 20
122.2668055607
 10
-16.6073230925
 20
122.3434004768
 10
-16.5822548006
 20
122.4203349068
 10
-16.5693617513
 20
122.4649035438
  0
LWPOLYLINE
  5
27A
100
AcDbEntity
  8
ASSI
100
AcDbPolyline
 62
7
  6
CONTINUOUS
 90
11
 70
0
 10
-16.8756937205
 20
121.7641236581
 10
-16.842564323
 20
121.8153427317
 10
-16.7996309822
 20
121.8866891415
 10
-16.7589043454
 20
121.9596348489
 10
-16.7203664482
 20
122.0341668339
 10
-16.6843327376
 20
122.1096750242
 10
-16.6508237676
 20
122.1861674321
 10
-16.6198189843
 20
122.2636360452
 10
-16.5915721736
 20
122.3414467536
 10
-16.5661059723
 20
122.4196023651
 10
-16.5533062953
 20
122.4638482333
  0
LWPOLYLINE
  5
27B
100
AcDbEntity
  8
ASSI
100
AcDbPolyline
 62
7
  6
CONTINUOUS
 90
16
 70
0
 10
16.0763294719
 20
99.064091471
 10
16.0193404903
 20
99.0340359768
 10
15.9658376284
 20
99.0027140754
 10
15.9158208861
 20
98.970125767
 10
15.8691724968
 20
98.9361749628
 10
15.8260102272
 20
98.9009577515
 10
15.7866873766
 20
98.8647623994
 10
15.7512354583
 20
98.827580878
 10
15.719622959
 20
98.7894212158
 10
15.6921086391
 20
98.7505957639
 10
15.6687261354
 20
98.7110990578
 10
15.6494418112
 20
98.6709365621
 10
15.6344135158
 20
98.6304370221
 10
15.6236761818
 20
98.5895976712
 10
15.6171948766
 20
98.548421276
 10
15.6150226522
 20
98.5072448808
  0
LWPOLYLINE
  5
27C
100
AcDbEntity
  8
ASSI
100
AcDbPolyline
 62
7
  6
CONTINUOUS
 90
16
 70
0
 10
23.1473972837
 20
102.599625377
 10
23.0904083022
 20
102.5695698827
 10
23.0369054403
 20
102.5382479814
 10
22.9868886979
 20
102.505659673
 10
22.9402403087
 20
102.4717088687
 10
22.897078039
 20
102.4364916575
 10
22.8577551885
 20
102.4002963053
 10
22.8223032701
 20
102.3631147839
 10
22.7906907708
 20
102.3249551217
 10
22.7631764509
 20
102.2861296698
 10
22.7397939473
 20
102.2466329637
 10
22.7205096231
 20
102.2064704681
 10
22.7054813277
 20
102.165970928
 10
22.6947439936
 20
102.1251315772
 10
22.6882626885
 20
102.083955182
 10
22.6860904641
 20
102.0427787868
  0
LWPOLYLINE
  5
27D
100
AcDbEntity
  8
ASSI
100
AcDbPolyline
 62
7
  6
CONTINUOUS
 90
16
 70
0
 10
30.2184650956
 20
106.1351592829
 10
30.1614761141
 20
106.1051037886
 10
30.1079732521
 20
106.0737818873
 10
30.0579565098
 20
106.0411935789
 10
30.0113081206
 20
106.0072427747
 10
29.9681458509
 20
105.9720255634
 10
29.9288230004
 20
105.9358302113
 10
29.893371082
 20
105.8986486899
 10
29.8617585827
 20
105.8604890276
 10
29.8342442628
 20
105.8216635758
 10
29.8108617592
 20
105.7821668697
 10
29.7915774349
 20
105.742004374
 10
29.7765491395
 20
105.7015048339
 10
29.7658118055
 20
105.6606654831
 10
29.7593305003
 20
105.6194890879
 10
29.757158276
 20
105.5783126927
  0
LWPOLYLINE
  5
27E
100
AcDbEntity
  8
ASSI
100
AcDbPolyline
 62
7
  6
CONTINUOUS
 90
5
 70
0
 10
16.0763294719
 20
98.1980660672
 10
16.0193404903
 20
98.168010573
 10
15.9658376284
 20
98.1366886716
 10
15.9158208861
 20
98.1041003632
 10
15.8747820147
 20
98.0742321789
  0
LWPOLYLINE
  5
27F
100
AcDbEntity
  8
ASSI
100
AcDbPolyline
 62
7
  6
CONTINUOUS
 90
5
 70
0
 10
23.1473972837
 20
101.7335999732
 10
23.0904083022
 20
101.7035444789
 10
23.0369054403
 20
101.6722225776
 10
22.9868886979
 20
101.6396342692
 10
22.9458498266
 20
101.6097660849
  0
LWPOLYLINE
  5
280
100
AcDbEntity
  8
ASSI
100
AcDbPolyline
 62
7
  6
CONTINUOUS
 90
5
 70
0
 10
30.2184650956
 20
105.2691338791
 10
30.1614761141
 20
105.2390783848
 10
30.1079732521
 20
105.2077564835
 10
30.0579565098
 20
105.1751681751
 10
30.0169176384
 20
105.1452999908
  0
LWPOLYLINE
  5
281
100
AcDbEntity
  8
ASSI
100
AcDbPolyline
 62
7
  6
CONTINUOUS
 90
16
 70
0
 10
18.3037158326
 20
97.9503982907
 10
18.3607048141
 20
97.9804537849
 10
18.414207676
 20
98.0117756863
 10
18.4642244184
 20
98.0443639947
 10
18.5108728076
 20
98.0783147989
 10
18.5540350773
 20
98.1135320101
 10
18.5933579278
 20
98.1497273623
 10
18.6288098462
 20
98.1869088837
 10
18.6604223455
 20
98.2250685459
 10
18.6879366654
 20
98.2638939978
 10
18.711319169
 20
98.3033907039
 10
18.7306034933
 20
98.3435531996
 10
18.7456317887
 20
98.3840527396
 10
18.7563691227
 20
98.4248920904
 10
18.7628504279
 20
98.4660684856
 10
18.7650226522
 20
98.5072448808
  0
LWPOLYLINE
  5
282
100
AcDbEntity
  8
ASSI
100
AcDbPolyline
 62
7
  6
CONTINUOUS
 90
16
 70
0
 10
25.3747836445
 20
101.4859321966
 10
25.431772626
 20
101.5159876909
 10
25.4852754879
 20
101.5473095922
 10
25.5352922302
 20
101.5798979006
 10
25.5819406195
 20
101.6138487048
 10
25.6251028891
 20
101.6490659161
 10
25.6644257397
 20
101.6852612682
 10
25.6998776581
 20
101.7224427896
 10
25.7314901573
 20
101.7606024519
 10
25.7590044773
 20
101.7994279037
 10
25.7823869809
 20
101.8389246098
 10
25.8016713051
 20
101.8790871055
 10
25.8166996005
 20
101.9195866456
 10
25.8274369346
 20
101.9604259964
 10
25.8339182397
 20
102.0016023916
 10
25.8360904641
 20
102.0427787868
  0
LWPOLYLINE
  5
283
100
AcDbEntity
  8
ASSI
100
AcDbPolyline
 62
7
  6
CONTINUOUS
 90
16
 70
0
 10
32.4458514563
 20
105.0214661025
 10
32.5028404378
 20
105.0515215968
 10
32.5563432998
 20
105.0828434981
 10
32.6063600421
 20
105.1154318065
 10
32.6530084313
 20
105.1493826107
 10
32.696170701
 20
105.184599822
 10
32.7354935516
 20
105.2207951742
 10
32.7709454699
 20
105.2579766955
 10
32.8025579692
 20
105.2961363578
 10
32.8300722891
 20
105.3349618096
 10
32.8534547927
 20
105.3744585157
 10
32.872739117
 20
105.4146210114
 10
32.8877674124
 20
105.4551205515
 10
32.8985047464
 20
105.4959599023
 10
32.9049860516
 20
105.5371362975
 10
32.907158276
 20
105.5783126927
  0
LINE
  5
284
100
AcDbEntity
  8
0
100
AcDbLine
 62
7
  6
CONTINUOUS
 10
10.0110121891
 20
95.67957567
 11
11.0716723608
 21
96.2099057559
  0
LINE
  5
285
100
AcDbEntity
  8
0
100
AcDbLine
 62
7
  6
CONTINUOUS
 10
11.674589759
 20
94.8302896187
 11
11.108904334
 21
94.5474469062
  0
LINE
  5
286
100
AcDbEntity
  8
0
100
AcDbLine
 62
7
  6
CONTINUOUS
 10
8.8060721722
 20
87.6910590933
 11
7.9976344968
 21
87.2868402556
  0
LINE
  5
287
100
AcDbEntity
  8
0
100
AcDbLine
 62
7
  6
CONTINUOUS
 10
44.1661463545
 20
104.8181729029
 11
44.8378977966
 21
105.154048624
  0
LWPOLYLINE
  5
288
100
AcDbEntity
  8
0
100
AcDbPolyline
 62
7
  6
CONTINUOUS
 90
25
 70
0
 10
11.108904334
 20
94.5474469062
 10
11.0848343678
 20
94.5361957561
 10
11.0595782764
 20
94.5258321868
 10
11.0331360599
 20
94.5163561984
 10
11.0053846823
 20
94.5077349088
 10
10.9764471796
 20
94.5000012001
 10
10.9466926596
 20
94.4932537184
 10
10.9161106566
 20
94.487505097
 10
10.8847116364
 20
94.4827427027
 10
10.8528961044
 20
94.4790272814
 10
10.8206587253
 20
94.4763722446
 10
10.7880048343
 20
94.4747641808
 10
10.7553509434
 20
94.4742236015
 10
10.7226970525
 20
94.4747641808
 10
10.6900431616
 20
94.4763722446
 10
10.6578057824
 20
94.4790272814
 10
10.6259902505
 20
94.4827427027
 10
10.5945912302
 20
94.487505097
 10
10.5640092272
 20
94.4932537184
 10
10.5342547073
 20
94.5000012001
 10
10.5053172045
 20
94.5077349088
 10
10.4775658269
 20
94.5163561984
 10
10.4511236104
 20
94.5258321868
 10
10.4258675191
 20
94.5361957561
 10
10.4017975528
 20
94.5474469062
  0
LWPOLYLINE
  5
289
100
AcDbEntity
  8
0
100
AcDbPolyline
 62
7
  6
CONTINUOUS
 90
13
 70
0
 10
43.5651055905
 20
105.7904447271
 10
43.6085165872
 20
105.8105686178
 10
43.6514923185
 20
105.8274515783
 10
43.6940327847
 20
105.8410936087
 10
43.7362786655
 20
105.8515188821
 10
43.778089281
 20
105.8587032253
 10
43.8190425913
 20
105.8625741189
 10
43.8591299134
 20
105.8630980038
 10
43.8983599302
 20
105.8603084392
 10
43.9363366506
 20
105.8542335831
 10
43.973047381
 20
105.8448401617
 10
44.0085048149
 20
105.8321614488
 10
44.0346790412
 20
105.820264954
  0
LWPOLYLINE
  5
28A
100
AcDbEntity
  8
0
100
AcDbPolyline
 62
7
  6
CONTINUOUS
 90
13
 70
0
 10
44.8378977966
 20
105.154048624
 10
44.8813087933
 20
105.1741725147
 10
44.9242845247
 20
105.1910554753
 10
44.9668249908
 20
105.2046975057
 10
45.0090708716
 20
105.215122779
 10
45.0508814871
 20
105.2223071222
 10
45.0918347974
 20
105.2261780158
 10
45.1319221195
 20
105.2267019008
 10
45.1711521363
 20
105.2239123361
 10
45.2091288567
 20
105.2178374801
 10
45.2458395871
 20
105.2084440586
 10
45.2812970211
 20
105.1957653457
 10
45.3074712474
 20
105.1838688509
  0
LINE
  5
28B
100
AcDbEntity
  8
0
100
AcDbLine
 62
7
  6
CONTINUOUS
 10
39.2472313942
 20
-111.5880580342
 11
38.963745097
 21
-111.4463148856
  0
LINE
  5
28C
100
AcDbEntity
  8
0
100
AcDbLine
 62
7
  6
CONTINUOUS
 10
39.2861593037
 20
-111.5288653797
 11
38.987641201
 21
-111.3796063283
  0
LINE
  5
28D
100
AcDbEntity
  8
ASSI
100
AcDbLine
 62
253
  6
CONTINUOUS
 10
41.0725541868
 20
-111.0039350624
 11
40.3654474056
 21
-110.6503816718
  0
LINE
  5
28E
100
AcDbEntity
  8
ASSI
100
AcDbLine
 62
253
  6
CONTINUOUS
 10
40.3650540232
 20
-110.6325073111
 11
39.7507386331
 21
-110.325349616
  0
LINE
  5
28F
100
AcDbEntity
  8
0
100
AcDbLine
 62
7
  6
CONTINUOUS
 10
31.4735796322
 20
-106.0606365471
 11
30.766472851
 21
-105.7070831565
  0
LINE
  5
290
100
AcDbEntity
  8
0
100
AcDbLine
 62
253
  6
CONTINUOUS
 10
30.6250514948
 20
-102.5877862988
 11
30.071092345
 21
-102.3108067239
  0
LINE
  5
291
100
AcDbEntity
  8
0
100
AcDbLine
 62
253
  6
CONTINUOUS
 10
30.9078942072
 20
-102.4463649425
 11
30.2007874261
 21
-102.092811552
  0
LINE
  5
292
100
AcDbEntity
  8
0
100
AcDbLine
 62
253
  6
CONTINUOUS
 10
31.4735796322
 20
-101.470701907
 11
30.766472851
 21
-101.1171485165
  0
LINE
  5
293
100
AcDbEntity
  8
0
100
AcDbLine
 62
253
  6
CONTINUOUS
 10
31.4735796322
 20
-98.5262155342
 11
30.7807593092
 21
-98.1798053727
  0
LWPOLYLINE
  5
294
100
AcDbEntity
  8
0
100
AcDbPolyline
 62
7
  6
CONTINUOUS
 90
17
 70
0
 10
30.2672812466
 20
-102.6105064717
 10
30.2614359126
 20
-102.6075049254
 10
30.2368883304
 20
-102.5930094484
 10
30.2135683343
 20
-102.5761084008
 10
30.1917113184
 20
-102.5569723833
 10
30.1713321001
 20
-102.5355787597
 10
30.152415862
 20
-102.5119501661
 10
30.1351535462
 20
-102.4863251115
 10
30.119561904
 20
-102.4586833757
 10
30.1056241842
 20
-102.4290451789
 10
30.0934810753
 20
-102.3977096917
 10
30.0831507534
 20
-102.3646597237
 10
30.0746150424
 20
-102.3299124653
 10
30.0679601025
 20
-102.2938186584
 10
30.0632146538
 20
-102.2564952169
 10
30.0603499763
 20
-102.2178252268
 10
30.0593660698
 20
-102.1778086882
  0
LWPOLYLINE
  5
295
100
AcDbEntity
  8
ASSI
100
AcDbPolyline
 62
7
  6
CONTINUOUS
 90
9
 70
0
 10
32.5251099208
 20
-114.3113985818
 10
32.5025476783
 20
-114.2981900858
 10
32.4458514563
 20
-114.2683059802
 10
32.3860832452
 20
-114.2399578693
 10
32.3232680538
 20
-114.2131332484
 10
32.2579200483
 20
-114.1880516874
 10
32.1900184399
 20
-114.1647274927
 10
32.1195840173
 20
-114.1431463579
 10
32.0476633586
 20
-114.1236125977
  0
LWPOLYLINE
  5
296
100
AcDbEntity
  8
ASSI
100
AcDbPolyline
 62
7
  6
CONTINUOUS
 90
8
 70
0
 10
-23.015264245
 20
118.3373042078
 10
-22.9990895775
 20
118.3777182642
 10
-22.9712841232
 20
118.4543131802
 10
-22.9462158313
 20
118.5312476103
 10
-22.9238624187
 20
118.6085187904
 10
-22.9044068565
 20
118.6854942267
 10
-22.8878729296
 20
118.7621714919
 10
-22.8847035867
 20
118.7799243428
  0
LWPOLYLINE
  5
297
100
AcDbEntity
  8
ASSI
100
AcDbPolyline
 62
7
  6
CONTINUOUS
 90
9
 70
0
 10
-24.2016914105
 20
118.9113480119
 10
-24.2093274948
 20
118.893044602
 10
-24.250465047
 20
118.8024217268
 10
-24.2945028069
 20
118.7127704702
 10
-24.3411136761
 20
118.6247567331
 10
-24.3903168144
 20
118.5383927087
 10
-24.4420930619
 20
118.4536662037
 10
-24.4960578414
 20
118.3712065396
 10
-24.5376757392
 20
118.3118015625
  0
LWPOLYLINE
  5
298
100
AcDbEntity
  8
0
100
AcDbPolyline
 62
7
  6
CONTINUOUS
 90
15
 70
0
 10
45.5803599169
 20
101.4486197593
 10
45.6224795363
 20
101.4709709462
 10
45.6616953784
 20
101.4943387566
 10
45.6980074431
 20
101.5187231903
 10
45.7315187154
 20
101.544213435
 10
45.7621262102
 20
101.5707203031
 10
45.789520973
 20
101.597976232
 10
45.8136704646
 20
101.6259888083
 10
45.8346072242
 20
101.6547504453
 10
45.8521199142
 20
101.6839708207
 10
45.8661738552
 20
101.7136545807
 10
45.8768037266
 20
101.7437970789
 10
45.8839022296
 20
101.7740940545
 10
45.887433598
 20
101.804547072
 10
45.887875019
 20
101.8198508194
  0
LWPOLYLINE
  5
299
100
AcDbEntity
  8
0
100
AcDbPolyline
 62
7
  6
CONTINUOUS
 90
15
 70
0
 10
45.5803599169
 20
99.8897740325
 10
45.6224795363
 20
99.9121252194
 10
45.6616953784
 20
99.9354930298
 10
45.6980074431
 20
99.9598774635
 10
45.7315187154
 20
99.9853677082
 10
45.7621262102
 20
100.0118745763
 10
45.789520973
 20
100.0391305052
 10
45.8136704646
 20
100.0671430815
 10
45.8346072242
 20
100.0959047185
 10
45.8521199142
 20
100.1251250939
 10
45.8661738552
 20
100.1548088538
 10
45.8768037266
 20
100.1849513521
 10
45.8839022296
 20
100.2152483277
 10
45.887433598
 20
100.2457013452
 10
45.887875019
 20
100.2610050926
  0
LINE
  5
29A
100
AcDbEntity
  8
0
100
AcDbLine
 62
7
  6
CONTINUOUS
 10
10.9321276387
 20
87.4940567639
 11
21.1851759659
 21
92.6205809275
  0
LINE
  5
29B
100
AcDbEntity
  8
0
100
AcDbLine
 62
253
  6
CONTINUOUS
 10
21.1851759659
 20
92.6205809275
 11
22.4579681721
 21
93.2569770305
  0
LINE
  5
29C
100
AcDbEntity
  8
0
100
AcDbLine
 62
7
  6
CONTINUOUS
 10
22.4579681721
 20
93.2569770305
 11
31.5089349713
 21
97.7824604301
  0
LINE
  5
29D
100
AcDbEntity
  8
0
100
AcDbLine
 62
253
  6
CONTINUOUS
 10
31.5089349713
 20
97.7824604301
 11
32.7817271774
 21
98.4188565332
  0
LINE
  5
29E
100
AcDbEntity
  8
0
100
AcDbLine
 62
7
  6
CONTINUOUS
 10
32.7817271774
 20
98.4188565332
 11
41.8326939766
 21
102.9443399328
  0
LINE
  5
29F
100
AcDbEntity
  8
0
100
AcDbLine
 62
253
  6
CONTINUOUS
 10
41.8326939766
 20
102.9443399328
 11
43.1054861827
 21
103.5807360359
  0
LINE
  5
2A0
100
AcDbEntity
  8
0
100
AcDbLine
 62
7
  6
CONTINUOUS
 10
43.1054861827
 20
103.5807360359
 11
44.8732531357
 21
104.4646195123
  0
LINE
  5
2A1
100
AcDbEntity
  8
0
100
AcDbLine
 62
253
  6
CONTINUOUS
 10
45.5803599169
 20
104.6159530101
 11
44.8732531357
 21
104.2623996195
  0
LINE
  5
2A2
100
AcDbEntity
  8
0
100
AcDbLine
 62
7
  6
CONTINUOUS
 10
10.3036774668
 20
86.942256446
 11
10.2603761966
 21
86.9206058109
  0
LINE
  5
2A3
100
AcDbEntity
  8
0
100
AcDbLine
 62
7
  6
CONTINUOUS
 10
10.9321276387
 20
86.6280313601
 11
21.1851759659
 21
91.7545555237
  0
LINE
  5
2A4
100
AcDbEntity
  8
0
100
AcDbLine
 62
7
  6
CONTINUOUS
 10
23.0151269741
 20
92.6695310278
 11
31.5089349713
 21
96.9164350263
  0
LINE
  5
2A5
100
AcDbEntity
  8
0
100
AcDbLine
 62
7
  6
CONTINUOUS
 10
33.3388859794
 20
97.8314105304
 11
41.8326939766
 21
102.078314529
  0
LINE
  5
2A6
100
AcDbEntity
  8
0
100
AcDbLine
 62
7
  6
CONTINUOUS
 10
43.6626449847
 20
102.9932900331
 11
44.8732531357
 21
103.5985941086
  0
LINE
  5
2A7
100
AcDbEntity
  8
0
100
AcDbLine
 62
7
  6
CONTINUOUS
 10
44.8436514561
 20
103.5051366595
 11
43.6942862453
 21
102.9304540541
  0
LINE
  5
2A8
100
AcDbEntity
  8
0
100
AcDbLine
 62
7
  6
CONTINUOUS
 10
41.8680493156
 20
102.0173355893
 11
33.3705272399
 21
97.7685745514
  0
LINE
  5
2A9
100
AcDbEntity
  8
0
100
AcDbLine
 62
7
  6
CONTINUOUS
 10
10.9674829778
 20
86.5670524204
 11
20.4073585066
 21
91.2869901848
  0
LINE
  5
2AA
100
AcDbEntity
  8
0
100
AcDbLine
 62
7
  6
CONTINUOUS
 10
20.4073585066
 20
91.2869901848
 11
21.220531305
 21
91.693576584
  0
LINE
  5
2AB
100
AcDbEntity
  8
0
100
AcDbLine
 62
7
  6
CONTINUOUS
 10
23.0467682346
 20
92.6066950488
 11
31.5442903103
 21
96.8554560866
  0
LINE
  5
2AC
100
AcDbEntity
  8
0
100
AcDbLine
 62
7
  6
CONTINUOUS
 10
45.5803599169
 20
103.440478188
 11
45.276664158
 21
103.2886303086
  0
LINE
  5
2AD
100
AcDbEntity
  8
0
100
AcDbLine
 62
7
  6
CONTINUOUS
 10
45.5507582373
 20
103.1515832689
 11
43.847948303
 21
102.3001783018
  0
LINE
  5
2AE
100
AcDbEntity
  8
0
100
AcDbLine
 62
7
  6
CONTINUOUS
 10
42.5751560968
 20
101.6637821987
 11
33.5241892976
 21
97.1382987991
  0
LINE
  5
2AF
100
AcDbEntity
  8
0
100
AcDbLine
 62
7
  6
CONTINUOUS
 10
20.1598711332
 20
90.4561397169
 11
21.9276380862
 21
91.3400231934
  0
LINE
  5
2B0
100
AcDbEntity
  8
0
100
AcDbLine
 62
253
  6
CONTINUOUS
 10
21.9276380862
 20
91.3400231934
 11
23.2004302923
 21
91.9764192964
  0
LINE
  5
2B1
100
AcDbEntity
  8
0
100
AcDbLine
 62
7
  6
CONTINUOUS
 10
23.2004302923
 20
91.9764192964
 11
32.2513970915
 21
96.501902696
  0
LINE
  5
2B2
100
AcDbEntity
  8
0
100
AcDbLine
 62
253
  6
CONTINUOUS
 10
32.2513970915
 20
96.501902696
 11
33.5241892976
 21
97.1382987991
  0
LINE
  5
2B3
100
AcDbEntity
  8
0
100
AcDbLine
 62
253
  6
CONTINUOUS
 10
42.5751560968
 20
101.6637821987
 11
43.847948303
 21
102.3001783018
  0
LINE
  5
2B4
100
AcDbEntity
  8
ASSI
100
AcDbLine
 62
7
  6
CONTINUOUS
 10
32.923108736
 20
91.9008575474
 11
32.8524776531
 21
91.865542006
  0
LINE
  5
2B5
100
AcDbEntity
  8
0
100
AcDbLine
 62
7
  6
CONTINUOUS
 10
9.4118480592
 20
78.3524921385
 11
9.7872730327
 21
78.5402046252
  0
LWPOLYLINE
  5
2B6
100
AcDbEntity
  8
ASSI
100
AcDbPolyline
 62
7
  6
CONTINUOUS
 90
13
 70
0
 10
24.9871285981
 20
-84.6537868502
 10
25.2300670878
 20
-84.7300819027
 10
25.4778677303
 20
-84.7939603645
 10
25.7305460056
 20
-84.8453827041
 10
25.9880864337
 20
-84.8843884531
 10
26.2496699331
 20
-84.9108535577
 10
26.5153093762
 20
-84.9247380912
 10
26.7849918906
 20
-84.9260819802
 10
27.0578597783
 20
-84.9148809507
 10
27.3339231807
 20
-84.8910950624
 10
27.6131719563
 20
-84.8547642556
 10
27.8947179826
 20
-84.8060040766
 10
27.9386757992
 20
-84.7965219806
  0
LINE
  5
2B7
100
AcDbEntity
  8
ASSI
100
AcDbLine
 62
7
  6
CONTINUOUS
 10
24.7637225281
 20
-84.5704990182
 11
24.9871285981
 21
-84.6537868502
  0
LWPOLYLINE
  5
2B8
100
AcDbEntity
  8
ASSI
100
AcDbPolyline
 62
7
  6
CONTINUOUS
 90
69
 70
0
 10
25.3328392051
 20
-84.3149041572
 10
25.4510840603
 20
-84.3719185796
 10
25.6734104961
 20
-84.4681251336
 10
25.9011428467
 20
-84.5526342423
 10
26.1342640066
 20
-84.6254829182
 10
26.3720347836
 20
-84.686440169
 10
26.6144699364
 20
-84.735468249
 10
26.8615547062
 20
-84.7726049038
 10
27.1125056241
 20
-84.7977323788
 10
27.3673349619
 20
-84.8108125544
 10
27.6260304479
 20
-84.8118835501
 10
27.887771797
 20
-84.8009419699
 10
28.1525686776
 20
-84.7779496836
 10
28.4204114215
 20
-84.7429448214
 10
28.6904507391
 20
-84.6960383786
 10
28.9626936031
 20
-84.6371925771
 10
29.2371330408
 20
-84.5664451949
 10
29.5128988459
 20
-84.4840205616
 10
29.7899952284
 20
-84.389881611
 10
30.0684179783
 20
-84.2840654091
 10
30.3472842584
 20
-84.1669074835
 10
30.6265954767
 20
-84.038371833
 10
30.9063502253
 20
-83.8984944587
 10
31.1856614436
 20
-83.7477188909
 10
31.4645277238
 20
-83.5860105364
 10
31.7429504736
 20
-83.4134039884
 10
32.0200468561
 20
-83.2304465564
 10
32.2958126612
 20
-83.0371053847
 10
32.570252099
 20
-82.8334133291
 10
32.8424949629
 20
-82.6200162667
 10
33.1125342805
 20
-82.3968833918
 10
33.3803770244
 20
-82.1640455102
 10
33.645173905
 20
-81.9222409159
 10
33.9069152541
 20
-81.6714411469
 10
34.1656107401
 20
-81.4116746653
 10
34.4204400779
 20
-81.1437651519
 10
34.6713909958
 20
-80.867686759
 10
34.9184757656
 20
-80.5834653343
 10
35.1609109184
 20
-80.2920021016
 10
35.3986816954
 20
-79.9932740738
 10
35.6318028554
 20
-79.6873042379
 10
35.8595352059
 20
-79.3750627788
 10
36.0818616418
 20
-79.0565297888
 10
36.2987992682
 20
-78.7317251755
 10
36.5096602083
 20
-78.4016788459
 10
36.7144251735
 20
-78.0663741616
 10
36.9131134524
 20
-77.725827761
 10
37.1050950341
 20
-77.3811194659
 10
37.2903486301
 20
-77.0322360656
 10
37.468895529
 20
-76.6791907708
 10
37.640169585
 20
-76.3231030355
 10
37.8041477127
 20
-75.9639632023
 10
37.9608529977
 20
-75.6017809287
 10
38.1097885508
 20
-75.2377046405
 10
38.2509297092
 20
-74.8717283257
 10
38.3843011358
 20
-74.5038579965
 10
38.5094799296
 20
-74.1352601146
 10
38.6264400854
 20
-73.7659323708
 10
38.7352076085
 20
-73.3958770744
 10
38.8354376133
 20
-73.0262676156
 10
38.9271029997
 20
-72.6571054095
 10
39.0102308678
 20
-72.288389041
 10
39.0845576315
 20
-71.9212876547
 10
39.1500553542
 20
-71.5558063769
 10
39.2067519724
 20
-71.1919400813
 10
39.2544677096
 20
-70.8308425337
 10
39.2931426404
 20
-70.4728983226
 10
39.3228366901
 20
-70.1177228594
 10
39.3435498589
 20
-69.7653161442
  0
LWPOLYLINE
  5
2B9
100
AcDbEntity
  8
ASSI
100
AcDbPolyline
 62
7
  6
CONTINUOUS
 90
69
 70
0
 10
25.1092329725
 20
-84.7621166225
 10
25.2252807226
 20
-84.8181895513
 10
25.4569316839
 20
-84.9188712466
 10
25.6942353793
 20
-85.0073402408
 10
25.937173869
 20
-85.0836352933
 10
26.1849745115
 20
-85.1475137551
 10
26.4376527868
 20
-85.1989360947
 10
26.6951932149
 20
-85.2379418437
 10
26.9567767143
 20
-85.2644069483
 10
27.2224161574
 20
-85.2782914818
 10
27.4920986718
 20
-85.2796353708
 10
27.7649665595
 20
-85.2684343413
 10
28.0410299619
 20
-85.244648453
 10
28.3202787375
 20
-85.2083176462
 10
28.6018247638
 20
-85.1595574672
 10
28.8856753545
 20
-85.0983283439
 10
29.1718231959
 20
-85.0246698485
 10
29.4593582234
 20
-84.9388162444
 10
29.7482848535
 20
-84.8407287052
 10
30.0385986698
 20
-84.7304460574
 10
30.3293763584
 20
-84.6083190438
 10
30.6206193961
 20
-84.4743099546
 10
30.912326306
 20
-84.3284564996
 10
31.2035693436
 20
-84.1712225512
 10
31.4943470322
 20
-84.0025718762
 10
31.7846608485
 20
-83.8225407078
 10
32.0735874786
 20
-83.6317016168
 10
32.3611225061
 20
-83.4300201934
 10
32.6472703475
 20
-83.2175308474
 10
32.9311209382
 20
-82.99490938
 10
33.2126669645
 20
-82.7621235327
 10
33.4919157401
 20
-82.5192055639
 10
33.7679791426
 20
-82.2669280497
 10
34.0408470302
 20
-82.0052611916
 10
34.3105295446
 20
-81.7342347881
 10
34.5761689877
 20
-81.4547108116
 10
34.8377524871
 20
-81.1666622076
 10
35.0952929152
 20
-80.8701160305
 10
35.3479711905
 20
-80.5660154156
 10
35.595771833
 20
-80.2543363113
 10
35.8387103227
 20
-79.9351027691
 10
36.0760140181
 20
-79.6093300794
 10
36.3076649794
 20
-79.2769974229
 10
36.5336811465
 20
-78.9381256188
 10
36.7533436976
 20
-78.5937924148
 10
36.9666324043
 20
-78.2439804229
 10
37.173567495
 20
-77.8887070312
 10
37.3734908336
 20
-77.5291021509
 10
37.5663800961
 20
-77.1651519915
 10
37.7522576065
 20
-76.7968703434
 10
37.9305321999
 20
-76.4254284895
 10
38.1011796705
 20
-76.0508163684
 10
38.2642242241
 20
-75.6730440414
 10
38.419147314
 20
-75.2933129754
 10
38.5659230833
 20
-74.9116169344
 10
38.7045773888
 20
-74.5279621543
 10
38.8346692545
 20
-74.1435688108
 10
38.9561714196
 20
-73.7584345523
 10
39.0691111448
 20
-73.3725617303
 10
39.1731292368
 20
-72.9871775746
 10
39.2681972911
 20
-72.6022836408
 10
39.3543437121
 20
-72.2178783733
 10
39.4312945198
 20
-71.8351843343
 10
39.4990204376
 20
-71.454206972
 10
39.557550742
 20
-71.0749408381
 10
39.6066992834
 20
-70.6985921506
 10
39.6464040119
 20
-70.325562982
 10
39.6767269773
 20
-69.9554512598
 10
39.6976681797
 20
-69.5882569838
  0
LWPOLYLINE
  5
2BA
100
AcDbEntity
  8
0
100
AcDbPolyline
 62
7
  6
CONTINUOUS
 90
17
 70
0
 10
31.2656644554
 20
-98.0935177507
 10
31.2715097894
 20
-98.096519297
 10
31.2960573716
 20
-98.111014774
 10
31.3193773677
 20
-98.1279158216
 10
31.3412343836
 20
-98.1470518391
 10
31.3616136019
 20
-98.1684454627
 10
31.38052984
 20
-98.1920740564
 10
31.3977921558
 20
-98.2176991109
 10
31.413383798
 20
-98.2453408468
 10
31.4273215178
 20
-98.2749790435
 10
31.4394646268
 20
-98.3063145307
 10
31.4497949487
 20
-98.3393644987
 10
31.4583306596
 20
-98.3741117571
 10
31.4649855995
 20
-98.410205564
 10
31.4697310482
 20
-98.4475290055
 10
31.4725957257
 20
-98.4861989956
 10
31.4735796322
 20
-98.5262155342
  0
LWPOLYLINE
  5
2BB
100
AcDbEntity
  8
0
100
AcDbPolyline
 62
7
  6
CONTINUOUS
 90
14
 70
0
 10
-36.3225699475
 20
120.6473825
 10
-36.3179464071
 20
120.6724587857
 10
-36.3067432864
 20
120.7180645623
 10
-36.293184739
 20
120.7614426453
 10
-36.2772469085
 20
120.8025704722
 10
-36.2589536512
 20
120.8414706055
 10
-36.2384896208
 20
120.8777503839
 10
-36.2158328314
 20
120.9113832679
 10
-36.1910052689
 20
120.942395797
 10
-36.1642575448
 20
120.970474928
 10
-36.1355702115
 20
120.995590951
 10
-36.1049627166
 20
121.017773576
 10
-36.0727440149
 20
121.0367988895
 10
-36.0650720141
 20
121.0407384191
  0
LWPOLYLINE
  5
2BC
100
AcDbEntity
  8
ASSI
100
AcDbPolyline
 62
7
  6
CONTINUOUS
 90
3
 70
0
 10
-24.9809681944
 20
118.6235478739
 10
-25.003321607
 20
118.5462766938
 10
-25.0151223015
 20
118.4995875466
  0
LINE
  5
2BD
100
AcDbEntity
  8
ASSI
100
AcDbLine
 62
7
  6
CONTINUOUS
 10
-24.9586093859
 20
118.6921669166
 11
-24.9809681944
 21
118.6235478739
  0
LWPOLYLINE
  5
2BE
100
AcDbEntity
  8
ASSI
100
AcDbPolyline
 62
7
  6
CONTINUOUS
 90
8
 70
0
 10
-15.9253012645
 20
121.8786276008
 10
-15.9127122031
 20
121.9100826546
 10
-15.8844653924
 20
121.987893363
 10
-15.8589991911
 20
122.0660489745
 10
-15.8362909625
 20
122.1445466813
 10
-15.8165265818
 20
122.2227439499
 10
-15.7997302117
 20
122.3006383145
 10
-15.7981458542
 20
122.309512981
  0
LWPOLYLINE
  5
2BF
100
AcDbEntity
  8
ASSI
100
AcDbPolyline
 62
7
  6
CONTINUOUS
 90
11
 70
0
 10
2.815393387
 20
108.921143387
 10
2.7336727451
 20
108.815025193
 10
2.6184840919
 20
108.6491407194
 10
2.5145462191
 20
108.4816140174
 10
2.4218968018
 20
108.312439588
 10
2.340498165
 20
108.1416229303
 10
2.2706225829
 20
107.9697354177
 10
2.2123086428
 20
107.7967734644
 10
2.1655177574
 20
107.6227406562
 10
2.1304064401
 20
107.4482191244
 10
2.1297834792
 20
107.4435584458
  0
LWPOLYLINE
  5
2C0
100
AcDbEntity
  8
ASSI
100
AcDbPolyline
 62
7
  6
CONTINUOUS
 90
30
 70
0
 10
31.5318118487
 20
89.5258192184
 10
31.5900440653
 20
89.5605483016
 10
31.6477996291
 20
89.5987248875
 10
31.7050746279
 20
89.6403772725
 10
31.761872974
 20
89.6854771603
 10
31.8177297514
 20
89.7336553911
 10
31.872637232
 20
89.7849372314
 10
31.9266031439
 20
89.8392974148
 10
31.9791857557
 20
89.8962909827
 10
32.0303737136
 20
89.9559395492
 10
32.0801783714
 20
90.0182215001
 10
32.1281920592
 20
90.0826270341
 10
32.174400077
 20
90.1491735811
 10
32.2188171248
 20
90.2178437112
 10
32.2610796322
 20
90.2880753334
 10
32.3011699152
 20
90.3598812641
 10
32.3391056578
 20
90.4332486868
 10
32.3745763416
 20
90.5075770616
 10
32.407561734
 20
90.5828742756
 10
32.4380820676
 20
90.6591324417
 10
32.4658875218
 20
90.7357273577
 10
32.4909558137
 20
90.8126617878
 10
32.5133092263
 20
90.8899329679
 10
32.5327647885
 20
90.9669084042
 10
32.5492987154
 20
91.0435856694
 10
32.5629347919
 20
91.1199671907
 10
32.5735614014
 20
91.1954277565
 10
32.5811413387
 20
91.2697589631
 10
32.5857118091
 20
91.3431692142
 10
32.5872728126
 20
91.4156585098
  0
LWPOLYLINE
  5
2C1
100
AcDbEntity
  8
ASSI
100
AcDbPolyline
 62
7
  6
CONTINUOUS
 90
32
 70
0
 10
32.8524776531
 20
91.865542006
 10
32.7821088827
 20
91.8260706247
 10
32.7120043781
 20
91.7824124588
 10
32.642162186
 20
91.7345984531
 10
32.5731010719
 20
91.6829837547
 10
32.5048268518
 20
91.6275400632
 10
32.4373337097
 20
91.5682956792
 10
32.371122963
 20
91.5056906507
 10
32.3062041607
 20
91.4396999542
 10
32.2425677539
 20
91.3703486134
 10
32.1806864134
 20
91.2981517478
 10
32.1205732076
 20
91.2230881694
 10
32.0622150682
 20
91.1451790662
 10
32.0060454608
 20
91.0650031221
 10
31.9520806813
 20
90.982543458
 10
31.9003044337
 20
90.8978169531
 10
31.8511012955
 20
90.8114529286
 10
31.8044904263
 20
90.7234391915
 10
31.7604526664
 20
90.6337879349
 10
31.7193151142
 20
90.5431650597
 10
31.681099365
 20
90.4515633311
 10
31.6457838235
 20
90.3589899838
 10
31.6136308023
 20
90.266132623
 10
31.5846638498
 20
90.1729891341
 10
31.5588594177
 20
90.0795616316
 10
31.5364091728
 20
89.9865440654
 10
31.5173380909
 20
89.8939394878
 10
31.5016211964
 20
89.8017448463
 10
31.4893752292
 20
89.7106449332
 10
31.4806391028
 20
89.6208680128
 10
31.4753739038
 20
89.5321858208
 10
31.4735796322
 20
89.4445983572
  0
LINE
  5
2C2
100
AcDbEntity
  8
ASSI
100
AcDbLine
 62
7
  6
CONTINUOUS
 10
31.4746198288
 20
89.4953756107
 11
31.5318118487
 21
89.5258192184
  0
LINE
  5
2C3
100
AcDbEntity
  8
0
100
AcDbLine
 62
7
  6
CONTINUOUS
 10
20.1598711332
 20
74.0449583152
 11
31.4735796322
 21
79.7018125647
  0
LINE
  5
2C4
100
AcDbEntity
  8
0
100
AcDbLine
 62
7
  6
CONTINUOUS
 10
13.7959101025
 20
69.8380337734
 11
30.766472851
 21
78.3233151477
  0
LINE
  5
2C5
100
AcDbEntity
  8
0
100
AcDbLine
 62
7
  6
CONTINUOUS
 10
14.5030168837
 20
69.4844803829
 11
31.4735796322
 21
77.9697617571
  0
LINE
  5
2C6
100
AcDbEntity
  8
0
100
AcDbLine
 62
7
  6
CONTINUOUS
 10
13.7959101025
 20
68.5389956678
 11
13.6544887463
 21
68.4682849896
  0
LWPOLYLINE
  5
2C7
100
AcDbEntity
  8
0
100
AcDbPolyline
 62
7
  6
CONTINUOUS
 90
13
 70
0
 10
30.9078942072
 20
75.5218555352
 10
30.9409692523
 20
75.5371880233
 10
30.9737126667
 20
75.5500512314
 10
31.0061244504
 20
75.5604451593
 10
31.0383117882
 20
75.5683882247
 10
31.0701674952
 20
75.57386201
 10
31.1013700174
 20
75.5768112623
 10
31.131912739
 20
75.5772104127
 10
31.1618022756
 20
75.5750850301
 10
31.1907369197
 20
75.5704565684
 10
31.218707
 20
75.5632996758
 10
31.2457221878
 20
75.5536397041
 10
31.2656644554
 20
75.5445757081
  0
LINE
  5
2C8
100
AcDbEntity
  8
ASSI
100
AcDbLine
 62
7
  6
CONTINUOUS
 10
24.6257208845
 20
-83.9613738456
 11
25.3328276657
 21
-84.3149272362
  0
LINE
  5
2C9
100
AcDbEntity
  8
0
100
AcDbLine
 62
7
  6
CONTINUOUS
 10
43.6360727837
 20
-89.5870851259
 11
42.9289660025
 21
-89.2335317353
  0
LINE
  5
2CA
100
AcDbEntity
  8
ASSI
100
AcDbLine
 62
7
  6
CONTINUOUS
 10
22.1893958431
 20
-77.1299575869
 11
21.8549130878
 21
-76.9627162092
  0
LWPOLYLINE
  5
2CB
100
AcDbEntity
  8
0
100
AcDbPolyline
 62
7
  6
CONTINUOUS
 90
18
 70
0
 10
-43.5583974255
 20
-93.8925823688
 10
-43.5577769874
 20
-93.9187992354
 10
-43.5528134822
 20
-93.9710554703
 10
-43.5428527908
 20
-94.0231330022
 10
-43.5279285943
 20
-94.0750330357
 10
-43.5081419352
 20
-94.1264041873
 10
-43.4834598182
 20
-94.1772428679
 10
-43.4539152387
 20
-94.2275526666
 10
-43.419708225
 20
-94.2769929663
 10
-43.3808071392
 20
-94.3255578668
 10
-43.3372436192
 20
-94.3732532682
 10
-43.2893126071
 20
-94.4197562541
 10
-43.2369844663
 20
-94.4650587331
 10
-43.1802888334
 20
-94.5091687965
 10
-43.1196095601
 20
-94.5517878019
 10
-43.0550745967
 20
-94.5928162019
 10
-42.9865559929
 20
-94.632353544
 10
-42.9140537486
 20
-94.6703998281
  0
LINE
  5
2CC
100
AcDbEntity
  8
0
100
AcDbLine
 62
7
  6
CONTINUOUS
 10
-45.8839022296
 20
-103.5920668911
 11
-45.8839022296
 21
114.9927450241
  0
LINE
  5
2CD
100
AcDbEntity
  8
0
100
AcDbLine
 62
7
  6
CONTINUOUS
 10
-45.8485468906
 20
-103.6530458309
 11
-45.8485468906
 21
-104.5190712346
  0
LINE
  5
2CE
100
AcDbEntity
  8
0
100
AcDbLine
 62
7
  6
CONTINUOUS
 10
-45.8485468906
 20
115.0183686247
 11
-45.8485468906
 21
115.8843940285
  0
LINE
  5
2CF
100
AcDbEntity
  8
0
100
AcDbLine
 62
7
  6
CONTINUOUS
 10
-31.2095598859
 20
116.2898617075
 11
-31.3444221326
 21
115.4205567489
  0
LWPOLYLINE
  5
2D0
100
AcDbEntity
  8
0
100
AcDbPolyline
 62
7
  6
CONTINUOUS
 90
14
 70
0
 10
-25.9988109422
 20
125.8092620027
 10
-25.9941874018
 20
125.8343382884
 10
-25.9829842811
 20
125.879944065
 10
-25.9694257336
 20
125.923322148
 10
-25.9534879032
 20
125.9644499749
 10
-25.9351946459
 20
126.0033501082
 10
-25.9147306155
 20
126.0396298865
 10
-25.8920738261
 20
126.0732627706
 10
-25.8672462635
 20
126.1042752997
 10
-25.8404985395
 20
126.1323544307
 10
-25.8118112061
 20
126.1574704537
 10
-25.7812037113
 20
126.1796530786
 10
-25.7489850096
 20
126.1986783921
 10
-25.7413130088
 20
126.2026179217
  0
LWPOLYLINE
  5
2D1
100
AcDbEntity
  8
ASSI
100
AcDbPolyline
 62
7
  6
CONTINUOUS
 90
3
 70
0
 10
-17.9260492108
 20
122.1598143216
 10
-17.9487574395
 20
122.0813166149
 10
-17.9583221471
 20
122.0434740928
  0
LINE
  5
2D2
100
AcDbEntity
  8
ASSI
100
AcDbLine
 62
7
  6
CONTINUOUS
 10
-17.9073295607
 20
122.2172648101
 11
-17.9260492108
 21
122.1598143216
  0
LWPOLYLINE
  5
2D3
100
AcDbEntity
  8
ASSI
100
AcDbPolyline
 62
7
  6
CONTINUOUS
 90
25
 70
0
 10
24.7050833959
 20
86.1396873024
 10
24.7521246399
 20
86.1802618578
 10
24.8079036678
 20
86.2323576955
 10
24.8627261814
 20
86.287580739
 10
24.9161434379
 20
86.3454789666
 10
24.968143903
 20
86.4060743358
 10
25.018739111
 20
86.4693448891
 10
25.0675149208
 20
86.5347727331
 10
25.1144563992
 20
86.6023755745
 10
25.1595784795
 20
86.6721357067
 10
25.2025118203
 20
86.7434821166
 10
25.243238457
 20
86.8164278239
 10
25.2817763543
 20
86.890959809
 10
25.3178100648
 20
86.9664679992
 10
25.3513190349
 20
87.0429604071
 10
25.3823238182
 20
87.1204290202
 10
25.4105706289
 20
87.1982397286
 10
25.4360368301
 20
87.2763953401
 10
25.4587450588
 20
87.3548930469
 10
25.4785094395
 20
87.4330903155
 10
25.4953058096
 20
87.5109846801
 10
25.5091583317
 20
87.5885786065
 10
25.5199536177
 20
87.6652369591
 10
25.5276538714
 20
87.7407480261
 10
25.5308069122
 20
87.7913917233
  0
LWPOLYLINE
  5
2D4
100
AcDbEntity
  8
0
100
AcDbPolyline
 62
7
  6
CONTINUOUS
 90
28
 70
0
 10
30.2007874261
 20
71.5452819068
 10
30.2338624711
 20
71.5630244637
 10
30.2666058855
 20
71.5829046701
 10
30.2990176692
 20
71.6049225259
 10
30.331205007
 20
71.6291667982
 10
30.3630607141
 20
71.65554872
 10
30.3942632362
 20
71.6838019898
 10
30.4248059578
 20
71.713945561
 10
30.4546954944
 20
71.7459604802
 10
30.4836301385
 20
71.7795235861
 10
30.5116002188
 20
71.8146505589
 10
30.5386154066
 20
71.8513257184
 10
30.5644030082
 20
71.8891788624
 10
30.5889505904
 20
71.9282219216
 10
30.6122705865
 20
71.9684429652
 10
30.6341276024
 20
72.0094359986
 10
30.6545068207
 20
72.0512088406
 10
30.6734230589
 20
72.0937536724
 10
30.6906853746
 20
72.1366410426
 10
30.7062770168
 20
72.1798744207
 10
30.7202147366
 20
72.2234503373
 10
30.7323578456
 20
72.2669289334
 10
30.7426881675
 20
72.3103092233
 10
30.7512238784
 20
72.3535921927
 10
30.7578788183
 20
72.3963409394
 10
30.762624267
 20
72.4384098296
 10
30.7654889446
 20
72.4799444973
 10
30.766472851
 20
72.5209449423
  0
LINE
  5
2D5
100
AcDbEntity
  8
0
100
AcDbLine
 62
7
  6
CONTINUOUS
 10
30.6250514948
 20
75.3804341789
 11
30.9078942072
 21
75.5218555352
  0
LINE
  5
2D6
100
AcDbEntity
  8
0
100
AcDbLine
 62
7
  6
CONTINUOUS
 10
30.2007874261
 20
71.5452819068
 11
30.0593660698
 21
71.4745712287
  0
LINE
  5
2D7
100
AcDbEntity
  8
0
100
AcDbLine
 62
7
  6
CONTINUOUS
 10
12.9595653313
 20
62.7657522369
 11
13.7959101025
 21
63.1839246225
  0
LINE
  5
2D8
100
AcDbEntity
  8
0
100
AcDbLine
 62
7
  6
CONTINUOUS
 10
30.9078942072
 20
71.1917285162
 11
30.6250514948
 21
71.05030716
  0
LINE
  5
2D9
100
AcDbEntity
  8
0
100
AcDbLine
 62
7
  6
CONTINUOUS
 10
13.6544887463
 20
62.4061071632
 11
13.7959101025
 21
62.4768178413
  0
LINE
  5
2DA
100
AcDbEntity
  8
0
100
AcDbLine
 62
7
  6
CONTINUOUS
 10
43.6360727837
 20
75.390754295
 11
14.5030168837
 21
60.824226345
  0
LWPOLYLINE
  5
2DB
100
AcDbEntity
  8
0
100
AcDbPolyline
 62
7
  6
CONTINUOUS
 90
13
 70
0
 10
30.6250514948
 20
71.05030716
 10
30.5919764497
 20
71.0349746718
 10
30.5592330353
 20
71.0221114638
 10
30.5268212516
 20
71.0117175359
 10
30.4946339138
 20
71.0037744705
 10
30.4627782068
 20
70.9983006852
 10
30.4315756847
 20
70.9953514329
 10
30.4010329631
 20
70.9949522825
 10
30.3711434264
 20
70.997077665
 10
30.3422087823
 20
71.0017061268
 10
30.314238702
 20
71.0088630193
 10
30.2872235142
 20
71.0185229911
 10
30.2672812466
 20
71.0275869871
  0
LWPOLYLINE
  5
2DC
100
AcDbEntity
  8
0
100
AcDbPolyline
 62
7
  6
CONTINUOUS
 90
13
 70
0
 10
13.6544887463
 20
62.4061071632
 10
13.6131449399
 20
62.386941553
 10
13.5722156719
 20
62.3708625429
 10
13.5317009423
 20
62.357870133
 10
13.4914667701
 20
62.3479413012
 10
13.4516471363
 20
62.3410990696
 10
13.4126439836
 20
62.3374125043
 10
13.3744655817
 20
62.3369135662
 10
13.3371036608
 20
62.3395702944
 10
13.3009353557
 20
62.3453558716
 10
13.2659727553
 20
62.3543019873
 10
13.2322037706
 20
62.366376952
 10
13.207275936
 20
62.377706947
  0
LWPOLYLINE
  5
2DD
100
AcDbEntity
  8
ASSI
100
AcDbPolyline
 62
7
  6
CONTINUOUS
 90
65
 70
0
 10
35.3986816954
 20
-62.2697908129
 10
35.1609109184
 20
-62.2088335621
 10
34.9184757656
 20
-62.1598054821
 10
34.6713909958
 20
-62.1226688273
 10
34.4204400779
 20
-62.0975413522
 10
34.1656107401
 20
-62.0844611767
 10
33.9069152541
 20
-62.083390181
 10
33.645173905
 20
-62.0943317612
 10
33.3803770244
 20
-62.1173240475
 10
33.1125342805
 20
-62.1523289097
 10
32.8424949629
 20
-62.1992353525
 10
32.570252099
 20
-62.258081154
 10
32.2958126612
 20
-62.3288285361
 10
32.0200468561
 20
-62.4112531695
 10
31.7429504736
 20
-62.5053921201
 10
31.4645277238
 20
-62.6112083219
 10
31.1856614436
 20
-62.7283662476
 10
30.9063502253
 20
-62.8569018981
 10
30.6265954767
 20
-62.9967792724
 10
30.3472842584
 20
-63.1475548402
 10
30.0684179783
 20
-63.3092631947
 10
29.7899952284
 20
-63.4818697427
 10
29.5128988459
 20
-63.6648271746
 10
29.2371330408
 20
-63.8581683463
 10
28.9626936031
 20
-64.061860402
 10
28.6904507391
 20
-64.2752574644
 10
28.4204114215
 20
-64.4983903392
 10
28.1525686776
 20
-64.7312282209
 10
27.887771797
 20
-64.9730328151
 10
27.6260304479
 20
-65.2238325842
 10
27.3673349619
 20
-65.4835990658
 10
27.1125056241
 20
-65.7515085792
 10
26.8615547062
 20
-66.027586972
 10
26.6144699364
 20
-66.3118083967
 10
26.3720347836
 20
-66.6032716295
 10
26.1342640066
 20
-66.9019996573
 10
25.9011428467
 20
-67.2079694931
 10
25.6734104961
 20
-67.5202109523
 10
25.4510840603
 20
-67.8387439423
 10
25.2341464338
 20
-68.1635485556
 10
25.0232854937
 20
-68.4935948852
 10
24.8185205285
 20
-68.8288995695
 10
24.6198322496
 20
-69.1694459701
 10
24.4278506679
 20
-69.5141542652
 10
24.2425970719
 20
-69.8630376655
 10
24.064050173
 20
-70.2160829603
 10
23.892776117
 20
-70.5721706956
 10
23.7287979893
 20
-70.9313105287
 10
23.5720927043
 20
-71.2934928024
 10
23.4231571513
 20
-71.6575690906
 10
23.2820159928
 20
-72.0235454053
 10
23.1486445662
 20
-72.3914157346
 10
23.0234657725
 20
-72.7600136165
 10
22.9065056166
 20
-73.1293413603
 10
22.7977380935
 20
-73.4993966567
 10
22.6975080888
 20
-73.8690061155
 10
22.6058427023
 20
-74.2381683216
 10
22.5227148342
 20
-74.6068846901
 10
22.4483880705
 20
-74.9739860764
 10
22.3828903478
 20
-75.3394673542
 10
22.3261937296
 20
-75.7033336498
 10
22.2784779924
 20
-76.0644311974
 10
22.2398030616
 20
-76.4223754085
 10
22.2101090119
 20
-76.7775508717
 10
22.1893958431
 20
-77.1299575869
  0
LINE
  5
2DE
100
AcDbEntity
  8
ASSI
100
AcDbLine
 62
7
  6
CONTINUOUS
 10
35.6318028554
 20
-62.3426394888
 11
35.3986816954
 21
-62.2697908129
  0
LWPOLYLINE
  5
2DF
100
AcDbEntity
  8
ASSI
100
AcDbPolyline
 62
7
  6
CONTINUOUS
 90
5
 70
0
 10
24.6198322496
 20
-83.8724683624
 10
24.8185205285
 20
-84.0143264842
 10
25.0232854937
 20
-84.1448662032
 10
25.2341464338
 20
-84.2640515927
 10
25.3328392051
 20
-84.3149041572
  0
LWPOLYLINE
  5
2E0
100
AcDbEntity
  8
0
100
AcDbPolyline
 62
7
  6
CONTINUOUS
 90
18
 70
0
 10
-43.5583974255
 20
105.2932605017
 10
-43.5577769874
 20
105.267043635
 10
-43.5528134822
 20
105.2147874002
 10
-43.5428527908
 20
105.1627098682
 10
-43.5279285943
 20
105.1108098347
 10
-43.5081419352
 20
105.0594386832
 10
-43.4834598182
 20
105.0086000025
 10
-43.4539152387
 20
104.9582902038
 10
-43.419708225
 20
104.9088499041
 10
-43.3808071392
 20
104.8602850036
 10
-43.3372436192
 20
104.8125896022
 10
-43.2893126071
 20
104.7660866163
 10
-43.2369844663
 20
104.7207841373
 10
-43.1802888334
 20
104.6766740739
 10
-43.1196095601
 20
104.6340550685
 10
-43.0550745967
 20
104.5930266685
 10
-42.9865559929
 20
104.5534893265
 10
-42.9140537486
 20
104.5154430424
  0
LINE
  5
2E1
100
AcDbEntity
  8
0
100
AcDbLine
 62
7
  6
CONTINUOUS
 10
-45.1767954484
 20
-103.9889215519
 11
-45.1767954484
 21
-95.3286675141
  0
LINE
  5
2E2
100
AcDbEntity
  8
0
100
AcDbLine
 62
7
  6
CONTINUOUS
 10
-45.1767954484
 20
-95.3286675141
 11
-45.1767954484
 21
106.0222388658
  0
LINE
  5
2E3
100
AcDbEntity
  8
0
100
AcDbLine
 62
7
  6
CONTINUOUS
 10
-45.1767954484
 20
106.0222388658
 11
-45.1767954484
 21
114.6824929037
  0
LINE
  5
2E4
100
AcDbEntity
  8
0
100
AcDbLine
 62
7
  6
CONTINUOUS
 10
-44.1161352766
 20
-104.5192516378
 11
-44.1161352766
 21
-95.8589976
  0
LINE
  5
2E5
100
AcDbEntity
  8
0
100
AcDbLine
 62
7
  6
CONTINUOUS
 10
-44.1161352766
 20
105.4919087799
 11
-44.1161352766
 21
114.1521628178
  0
LINE
  5
2E6
100
AcDbEntity
  8
0
100
AcDbLine
 62
7
  6
CONTINUOUS
 10
-43.55841883
 20
-93.8925823688
 11
-43.55841883
 21
105.2932605017
  0
LINE
  5
2E7
100
AcDbEntity
  8
0
100
AcDbLine
 62
7
  6
CONTINUOUS
 10
-42.9140537486
 20
111.0106335707
 11
-42.9140537486
 21
104.5154430424
  0
LINE
  5
2E8
100
AcDbEntity
  8
0
100
AcDbLine
 62
253
  6
CONTINUOUS
 10
-42.9140537486
 20
104.5154430424
 11
-42.9140537486
 21
-94.6703998281
  0
LINE
  5
2E9
100
AcDbEntity
  8
0
100
AcDbLine
 62
7
  6
CONTINUOUS
 10
-42.9140537486
 20
-94.6703998281
 11
-42.9140537486
 21
-101.1655903564
  0
LWPOLYLINE
  5
2EA
100
AcDbEntity
  8
0
100
AcDbPolyline
 62
7
  6
CONTINUOUS
 90
13
 70
0
 10
-31.8882132153
 20
115.7960056809
 10
-31.8871320566
 20
115.8123326263
 10
-31.8839159291
 20
115.8286595718
 10
-31.8786058555
 20
115.8447782614
 10
-31.8711750129
 20
115.8606860273
 10
-31.8616502242
 20
115.8763855374
 10
-31.8501529815
 20
115.8916765389
 10
-31.8366580181
 20
115.9065537989
 10
-31.8211906006
 20
115.9210225503
 10
-31.8039480214
 20
115.9348982391
 10
-31.7849960446
 20
115.9481193474
 10
-31.7642689061
 20
115.960747393
 10
-31.7417666059
 20
115.9727823761
  0
LWPOLYLINE
  5
2EB
100
AcDbEntity
  8
0
100
AcDbPolyline
 62
7
  6
CONTINUOUS
 90
14
 70
0
 10
-15.6750519368
 20
130.9711415054
 10
-15.6704283965
 20
130.996217791
 10
-15.6592252758
 20
131.0418235676
 10
-15.6456667283
 20
131.0852016506
 10
-15.6297288979
 20
131.1263294775
 10
-15.6114356406
 20
131.1652296108
 10
-15.5909716102
 20
131.2015093892
 10
-15.5683148208
 20
131.2351422732
 10
-15.5434872582
 20
131.2661548023
 10
-15.5167395341
 20
131.2942339334
 10
-15.4880522008
 20
131.3193499564
 10
-15.457444706
 20
131.3415325813
 10
-15.4252260043
 20
131.3605578948
 10
-15.4175540035
 20
131.3644974244
  0
LWPOLYLINE
  5
2EC
100
AcDbEntity
  8
ASSI
100
AcDbPolyline
 62
7
  6
CONTINUOUS
 90
8
 70
0
 10
4.6945942323
 20
114.8044854372
 10
4.7515783117
 20
114.9458776192
 10
4.8080835902
 20
115.1161767652
 10
4.852772541
 20
115.2871443138
 10
4.8856030094
 20
115.4587826498
 10
4.9066171502
 20
115.6310893884
 10
4.9157400842
 20
115.8034505537
 10
4.9161562454
 20
115.8492190925
  0
LWPOLYLINE
  5
2ED
100
AcDbEntity
  8
ASSI
100
AcDbPolyline
 62
7
  6
CONTINUOUS
 90
25
 70
0
 10
38.8472190197
 20
93.2107551142
 10
38.8942602636
 20
93.2513296696
 10
38.9500392915
 20
93.3034255074
 10
39.0048618052
 20
93.3586485509
 10
39.0582790616
 20
93.4165467785
 10
39.1102795268
 20
93.4771421476
 10
39.1608747347
 20
93.5404127009
 10
39.2096505445
 20
93.605840545
 10
39.2565920229
 20
93.6734433864
 10
39.3017141032
 20
93.7432035186
 10
39.3446474441
 20
93.8145499284
 10
39.3853740808
 20
93.8874956358
 10
39.423911978
 20
93.9620276208
 10
39.4599456886
 20
94.0375358111
 10
39.4934546586
 20
94.114028219
 10
39.5244594419
 20
94.1914968321
 10
39.5527062526
 20
94.2693075404
 10
39.5781724539
 20
94.347463152
 10
39.6008806826
 20
94.4259608587
 10
39.6206450632
 20
94.5041581274
 10
39.6374414334
 20
94.582052492
 10
39.6512939555
 20
94.6596464184
 10
39.6620892414
 20
94.736304771
 10
39.6697894951
 20
94.811815838
 10
39.6729425359
 20
94.8624595351
  0
LWPOLYLINE
  5
2EE
100
AcDbEntity
  8
0
100
AcDbPolyline
 62
7
  6
CONTINUOUS
 90
15
 70
0
 10
45.5803599169
 20
74.9482424035
 10
45.6224795363
 20
74.9705935904
 10
45.6616953784
 20
74.9939614008
 10
45.6980074431
 20
75.0183458345
 10
45.7315187154
 20
75.0438360792
 10
45.7621262102
 20
75.0703429473
 10
45.789520973
 20
75.0975988762
 10
45.8136704646
 20
75.1256114525
 10
45.8346072242
 20
75.1543730895
 10
45.8521199142
 20
75.1835934649
 10
45.8661738552
 20
75.2132772248
 10
45.8768037266
 20
75.2434197231
 10
45.8839022296
 20
75.2737166987
 10
45.887433598
 20
75.3041697162
 10
45.887875019
 20
75.3194734636
  0
LWPOLYLINE
  5
2EF
100
AcDbEntity
  8
0
100
AcDbPolyline
 62
7
  6
CONTINUOUS
 90
15
 70
0
 10
45.5803599169
 20
73.3893966767
 10
45.6224795363
 20
73.4117478636
 10
45.6616953784
 20
73.435115674
 10
45.6980074431
 20
73.4595001077
 10
45.7315187154
 20
73.4849903524
 10
45.7621262102
 20
73.5114972205
 10
45.789520973
 20
73.5387531494
 10
45.8136704646
 20
73.5667657257
 10
45.8346072242
 20
73.5955273627
 10
45.8521199142
 20
73.6247477381
 10
45.8661738552
 20
73.654431498
 10
45.8768037266
 20
73.6845739963
 10
45.8839022296
 20
73.7148709719
 10
45.887433598
 20
73.7453239894
 10
45.887875019
 20
73.7606277368
  0
LWPOLYLINE
  5
2F0
100
AcDbEntity
  8
ASSI
100
AcDbPolyline
 62
7
  6
CONTINUOUS
 90
4
 70
0
 10
36.2001064969
 20
-62.5803695739
 10
36.0818616418
 20
-62.5233551515
 10
35.8595352059
 20
-62.4271485975
 10
35.6318028554
 20
-62.3426394888
  0
LWPOLYLINE
  5
2F1
100
AcDbEntity
  8
ASSI
100
AcDbPolyline
 62
7
  6
CONTINUOUS
 90
13
 70
0
 10
35.4929997157
 20
-62.2268161833
 10
35.3747548606
 20
-62.1698017609
 10
35.1524284247
 20
-62.0735952069
 10
34.9246960742
 20
-61.9890860982
 10
34.6915749142
 20
-61.9162374223
 10
34.4538041373
 20
-61.8552801715
 10
34.2113689844
 20
-61.8062520915
 10
33.9642842146
 20
-61.7691154367
 10
33.7133332967
 20
-61.7439879616
 10
33.4585039589
 20
-61.7309077861
 10
33.199808473
 20
-61.7298367904
 10
32.9380671238
 20
-61.7407783706
 10
32.8871631217
 20
-61.7451983599
  0
LWPOLYLINE
  5
2F2
100
AcDbEntity
  8
ASSI
100
AcDbPolyline
 62
7
  6
CONTINUOUS
 90
69
 70
0
 10
36.4237127295
 20
-62.1331571086
 10
36.3076649794
 20
-62.0770841797
 10
36.0760140181
 20
-61.9764024845
 10
35.8387103227
 20
-61.8879334902
 10
35.595771833
 20
-61.8116384378
 10
35.3479711905
 20
-61.747759976
 10
35.0952929152
 20
-61.6963376364
 10
34.8377524871
 20
-61.6573318874
 10
34.5761689877
 20
-61.6308667828
 10
34.3105295446
 20
-61.6169822493
 10
34.0408470302
 20
-61.6156383603
 10
33.7679791426
 20
-61.6268393898
 10
33.4919157401
 20
-61.6506252781
 10
33.2126669645
 20
-61.6869560849
 10
32.9311209382
 20
-61.7357162638
 10
32.6472703475
 20
-61.7969453872
 10
32.3611225061
 20
-61.8706038826
 10
32.0735874786
 20
-61.9564574867
 10
31.7846608485
 20
-62.0545450259
 10
31.4943470322
 20
-62.1648276737
 10
31.2035693436
 20
-62.2869546873
 10
30.912326306
 20
-62.4209637765
 10
30.6206193961
 20
-62.5668172314
 10
30.3293763584
 20
-62.7240511799
 10
30.0385986698
 20
-62.8927018549
 10
29.7482848535
 20
-63.0727330233
 10
29.4593582234
 20
-63.2635721143
 10
29.1718231959
 20
-63.4652535377
 10
28.8856753545
 20
-63.6777428836
 10
28.6018247638
 20
-63.9003643511
 10
28.3202787375
 20
-64.1331501984
 10
28.0410299619
 20
-64.3760681672
 10
27.7649665595
 20
-64.6283456813
 10
27.4920986718
 20
-64.8900125395
 10
27.2224161574
 20
-65.1610389429
 10
26.9567767143
 20
-65.4405629195
 10
26.6951932149
 20
-65.7286115235
 10
26.4376527868
 20
-66.0251577006
 10
26.1849745115
 20
-66.3292583155
 10
25.937173869
 20
-66.6409374198
 10
25.6942353793
 20
-66.9601709619
 10
25.4569316839
 20
-67.2859436517
 10
25.2252807226
 20
-67.6182763082
 10
24.9992645555
 20
-67.9571481123
 10
24.7796020044
 20
-68.3014813163
 10
24.5663132977
 20
-68.6512933081
 10
24.359378207
 20
-69.0065666999
 10
24.1594548684
 20
-69.3661715802
 10
23.9665656059
 20
-69.7301217396
 10
23.7806880955
 20
-70.0984033877
 10
23.6024135021
 20
-70.4698452416
 10
23.4317660315
 20
-70.8444573627
 10
23.2687214779
 20
-71.2222296897
 10
23.113798388
 20
-71.6019607556
 10
22.9670226188
 20
-71.9836567967
 10
22.8283683132
 20
-72.3673115768
 10
22.6982764475
 20
-72.7517049203
 10
22.5767742825
 20
-73.1368391788
 10
22.4638345572
 20
-73.5227120007
 10
22.3598164652
 20
-73.9080961565
 10
22.264748411
 20
-74.2929900902
 10
22.1786019899
 20
-74.6773953578
 10
22.1016511822
 20
-75.0600893968
 10
22.0339252645
 20
-75.4410667591
 10
21.97539496
 20
-75.8203328929
 10
21.9262464186
 20
-76.1966815805
 10
21.8865416901
 20
-76.569710749
 10
21.8562187247
 20
-76.9398224713
 10
21.8352775223
 20
-77.3070167473
  0
LINE
  5
2F3
100
AcDbEntity
  8
ASSI
100
AcDbLine
 62
7
  6
CONTINUOUS
 10
39.6976681797
 20
-68.3758214185
 11
39.3197030664
 21
-68.1868388618
  0
LINE
  5
2F4
100
AcDbEntity
  8
ASSI
100
AcDbLine
 62
7
  6
CONTINUOUS
 10
35.4930112551
 20
-62.2267931043
 11
36.2001180363
 21
-62.5803464949
  0
LINE
  5
2F5
100
AcDbEntity
  8
0
100
AcDbLine
 62
253
  6
CONTINUOUS
 10
-31.7417666059
 20
115.9727823761
 11
-31.7417666059
 21
115.6192289856
  0
LINE
  5
2F6
100
AcDbEntity
  8
0
100
AcDbLine
 62
7
  6
CONTINUOUS
 10
-30.8932384685
 20
107.5407144137
 11
-30.8932384685
 21
106.241676308
  0
LINE
  5
2F7
100
AcDbEntity
  8
0
100
AcDbLine
 62
7
  6
CONTINUOUS
 10
-30.8932384685
 20
-111.1307000419
 11
-30.8932384685
 21
-109.8316619362
  0
LWPOLYLINE
  5
2F8
100
AcDbEntity
  8
0
100
AcDbPolyline
 62
7
  6
CONTINUOUS
 90
13
 70
0
 10
-23.8171454034
 20
112.8261571999
 10
-23.8182265621
 20
112.8098302544
 10
-23.8214426897
 20
112.7935033089
 10
-23.8267527632
 20
112.7773846194
 10
-23.8341836059
 20
112.7614768534
 10
-23.8437083945
 20
112.7457773433
 10
-23.8552056372
 20
112.7304863418
 10
-23.8687006006
 20
112.7156090818
 10
-23.8841680181
 20
112.7011403304
 10
-23.9014105973
 20
112.6872646416
 10
-23.9203625741
 20
112.6740435334
 10
-23.9410897126
 20
112.6614154877
 10
-23.9635920128
 20
112.6493805046
  0
LINE
  5
2F9
100
AcDbEntity
  8
0
100
AcDbLine
 62
7
  6
CONTINUOUS
 10
-13.2825263487
 20
107.3263449389
 11
-13.4173885954
 21
106.4570399803
  0
LINE
  5
2FA
100
AcDbEntity
  8
ASSI
100
AcDbLine
 62
7
  6
CONTINUOUS
 10
39.6976681797
 20
52.8677351113
 11
39.3435498589
 21
52.6906759509
  0
LINE
  5
2FB
100
AcDbEntity
  8
ASSI
100
AcDbLine
 62
7
  6
CONTINUOUS
 10
22.1893958431
 20
44.113598943
 11
21.8352775223
 21
43.9365397826
  0
LINE
  5
2FC
100
AcDbEntity
  8
ASSI
100
AcDbLine
 62
7
  6
CONTINUOUS
 10
21.8352775223
 20
42.7241042173
 11
22.1893958431
 21
42.9011633777
  0
LINE
  5
2FD
100
AcDbEntity
  8
ASSI
100
AcDbLine
 62
7
  6
CONTINUOUS
 10
39.3435498589
 20
51.4782403856
 11
39.6976681797
 21
51.655299546
  0
LWPOLYLINE
  5
2FE
100
AcDbEntity
  8
ASSI
100
AcDbPolyline
 62
7
  6
CONTINUOUS
 90
3
 70
0
 10
36.4664607138
 20
-62.2459186652
 10
36.2595256231
 20
-62.0975803643
 10
36.0621163927
 20
-61.9712213223
  0
LWPOLYLINE
  5
2FF
100
AcDbEntity
  8
0
100
AcDbPolyline
 62
7
  6
CONTINUOUS
 90
19
 70
0
 10
-25.0124586657
 20
-5.1108076891
 10
-24.9801077949
 20
-5.4485750434
 10
-24.9395369469
 20
-5.7883911178
 10
-24.8907461218
 20
-6.1302559123
 10
-24.8336694449
 20
-6.4745188036
 10
-24.7683727908
 20
-6.8208304149
 10
-24.6950537832
 20
-7.1681426163
 10
-24.6136881176
 20
-7.5164584391
 10
-24.5243000985
 20
-7.8657748519
 10
-24.4271602634
 20
-8.2150346304
 10
-24.3222451273
 20
-8.5642376031
 10
-24.2095781753
 20
-8.9133839414
 10
-24.0895003996
 20
-9.261416936
 10
-23.9619893485
 20
-9.6083332138
 10
-23.8270674738
 20
-9.9541361477
 10
-23.6851431235
 20
-10.2977791473
 10
-23.5363524137
 20
-10.6389133491
 10
-23.3805592284
 20
-10.9778876164
 10
-23.2177635675
 20
-11.3147019494
  0
LWPOLYLINE
  5
300
100
AcDbEntity
  8
0
100
AcDbPolyline
 62
7
  6
CONTINUOUS
 90
19
 70
0
 10
-25.1902230595
 20
-5.0219254921
 10
-25.1574939257
 20
-5.3693761561
 10
-25.1162361448
 20
-5.7189686375
 10
-25.0664497167
 20
-6.0707029364
 10
-25.0080660831
 20
-6.4249442031
 10
-24.9411538024
 20
-6.7813272872
 10
-24.8659185497
 20
-7.1387567379
 10
-24.7823347154
 20
-7.4972357748
 10
-24.6904279091
 20
-7.8567611783
 10
-24.590480634
 20
-8.2162278386
 10
-24.48246815
 20
-8.575635575
 10
-24.3664151971
 20
-8.9349845683
 10
-24.2426784993
 20
-9.293170251
 10
-24.1112344138
 20
-9.6501890435
 10
-23.9721065834
 20
-10.0060445254
 10
-23.8257226592
 20
-10.3596428676
 10
-23.6722251918
 20
-10.7106194602
 10
-23.5114716307
 20
-11.0593389131
 10
-23.3434619759
 20
-11.4058012262
  0
LWPOLYLINE
  5
301
100
AcDbEntity
  8
ASSI
100
AcDbPolyline
 62
7
  6
CONTINUOUS
 90
46
 70
0
 10
-25.3971706566
 20
119.0133415352
 10
-25.3949984322
 20
118.9721651401
 10
-25.3885171271
 20
118.9309887449
 10
-25.377779793
 20
118.890149394
 10
-25.3627514976
 20
118.849649854
 10
-25.3434671734
 20
118.8094873583
 10
-25.3200846698
 20
118.7699906522
 10
-25.2925703498
 20
118.7311652003
 10
-25.2609578506
 20
118.6930055381
 10
-25.2255059322
 20
118.6558240167
 10
-25.1861830816
 20
118.6196286646
 10
-25.143020812
 20
118.5844114533
 10
-25.0963724227
 20
118.5504606491
 10
-25.0462093006
 20
118.5177866463
 10
-24.9925600589
 20
118.4863790506
 10
-24.935863837
 20
118.4564949451
 10
-24.8760956258
 20
118.4281468341
 10
-24.8132804345
 20
118.4013222132
 10
-24.747932429
 20
118.3762406522
 10
-24.6800308205
 20
118.3529164576
 10
-24.609596398
 20
118.3313353227
 10
-24.5372056937
 20
118.3116738975
 10
-24.4628426509
 20
118.2939479383
 10
-24.3865233264
 20
118.2781416886
 10
-24.3088724227
 20
118.2643845287
 10
-24.2298790105
 20
118.2526932769
 10
-24.1495540192
 20
118.2430511147
 10
-24.068554939
 20
118.235536967
 10
-23.9868762374
 20
118.2301683
 10
-23.904523447
 20
118.2269276474
 10
-23.8221706566
 20
118.2258415352
 10
-23.7398178662
 20
118.2269276474
 10
-23.6574650758
 20
118.2301683
 10
-23.5757863742
 20
118.235536967
 10
-23.494787294
 20
118.2430511147
 10
-23.4144623026
 20
118.2526932769
 10
-23.3354688905
 20
118.2643845287
 10
-23.2578179868
 20
118.2781416886
 10
-23.1814986623
 20
118.2939479383
 10
-23.1071356195
 20
118.3116738975
 10
-23.0347449152
 20
118.3313353227
 10
-22.9643104927
 20
118.3529164576
 10
-22.8964088842
 20
118.3762406522
 10
-22.8312322674
 20
118.4012490233
 10
-22.7685884648
 20
118.4280004543
 10
-22.7084774762
 20
118.4564949451
  0
LINE
  5
302
100
AcDbEntity
  8
ASSI
100
AcDbLine
 62
253
  6
CONTINUOUS
 10
-24.935863837
 20
119.5701881254
 11
-24.935863837
 21
118.7041627216
  0
LINE
  5
303
100
AcDbEntity
  8
0
100
AcDbLine
 62
253
  6
CONTINUOUS
 10
-23.9635920128
 20
113.0029338952
 11
-23.9635920128
 21
112.6493805046
  0
LINE
  5
304
100
AcDbEntity
  8
0
100
AcDbLine
 62
7
  6
CONTINUOUS
 10
-21.700850313
 20
102.944520336
 11
-21.700850313
 21
101.6454822303
  0
LINE
  5
305
100
AcDbEntity
  8
0
100
AcDbLine
 62
7
  6
CONTINUOUS
 10
-21.700850313
 20
-115.7268941196
 11
-21.700850313
 21
-114.4278560139
  0
LINE
  5
306
100
AcDbEntity
  8
ASSI
100
AcDbLine
 62
253
  6
CONTINUOUS
 10
-17.8647960251
 20
123.1057220314
 11
-17.8647960251
 21
122.2396966276
  0
LWPOLYLINE
  5
307
100
AcDbEntity
  8
0
100
AcDbPolyline
 62
7
  6
CONTINUOUS
 90
13
 70
0
 10
-13.9277009732
 20
106.8157495598
 10
-13.9266198145
 20
106.8320765052
 10
-13.9234036869
 20
106.8484034507
 10
-13.9180936134
 20
106.8645221403
 10
-13.9106627707
 20
106.8804299063
 10
-13.9011379821
 20
106.8961294164
 10
-13.8896407394
 20
106.9114204179
 10
-13.876145776
 20
106.9262976779
 10
-13.8606783585
 20
106.9407664292
 10
-13.8434357793
 20
106.954642118
 10
-13.8244838025
 20
106.9678632263
 10
-13.803756664
 20
106.980491272
 10
-13.7812543637
 20
106.9925262551
  0
LWPOLYLINE
  5
308
100
AcDbEntity
  8
ASSI
100
AcDbPolyline
 62
7
  6
CONTINUOUS
 90
8
 70
0
 10
22.372263762
 20
105.9656506723
 10
22.4292478414
 20
106.1070428544
 10
22.4857531198
 20
106.2773420003
 10
22.5304420707
 20
106.448309549
 10
22.5632725391
 20
106.6199478849
 10
22.5842866798
 20
106.7922546236
 10
22.5934096139
 20
106.9646157889
 10
22.593825775
 20
107.0103843277
  0
LWPOLYLINE
  5
309
100
AcDbEntity
  8
0
100
AcDbPolyline
 62
7
  6
CONTINUOUS
 90
19
 70
0
 10
-23.2177635675
 20
1.4634549826
 10
-23.3805592284
 20
1.2894363105
 10
-23.5363524137
 20
1.1062552284
 10
-23.6851431235
 20
0.9139117365
 10
-23.8270674738
 20
0.7121930872
 10
-23.9619893485
 20
0.501312028
 10
-24.0895003996
 20
0.2819068013
 10
-24.2095781753
 20
0.0539515824
 10
-24.3222451273
 20
-0.1825278039
 10
-24.4271602634
 20
-0.4268156406
 10
-24.5243000985
 20
-0.678935584
 10
-24.6136881176
 20
-0.9388639776
 10
-24.6950537832
 20
-1.2058141348
 10
-24.7683727908
 20
-1.4798073286
 10
-24.8336694449
 20
-1.7608222859
 10
-24.8907461218
 20
-2.0480085003
 10
-24.9395369469
 20
-2.3410824696
 10
-24.9801077949
 20
-2.6403276961
 10
-25.0124586657
 20
-2.9457441796
  0
LWPOLYLINE
  5
30A
100
AcDbEntity
  8
0
100
AcDbPolyline
 62
7
  6
CONTINUOUS
 90
19
 70
0
 10
-23.3434619759
 20
1.6802526678
 10
-23.5114716307
 20
1.5018000095
 10
-23.6722251918
 20
1.3138341177
 10
-23.8257226592
 20
1.1163549925
 10
-23.9721065834
 20
0.9091405745
 10
-24.1112344138
 20
0.692412923
 10
-24.2426784993
 20
0.4668382159
 10
-24.3664151971
 20
0.2323892311
 10
-24.48246815
 20
-0.0109068093
 10
-24.590480634
 20
-0.2623020617
 10
-24.6904279091
 20
-0.521821447
 10
-24.7823347154
 20
-0.7894400442
 10
-24.8659185497
 20
-1.0643352468
 10
-24.9411538024
 20
-1.3465294447
 10
-25.0080660831
 20
-1.6360002481
 10
-25.0664497167
 20
-1.9318578812
 10
-25.1162361448
 20
-2.233805752
 10
-25.1574939257
 20
-2.5421404525
 10
-25.1902230595
 20
-2.8568619827
  0
LWPOLYLINE
  5
30B
100
AcDbEntity
  8
0
100
AcDbPolyline
 62
7
  6
CONTINUOUS
 90
15
 70
0
 10
45.5803599169
 20
48.4189975342
 10
45.6224795363
 20
48.4413487212
 10
45.6616953784
 20
48.4647165315
 10
45.6980074431
 20
48.4891009653
 10
45.7315187154
 20
48.51459121
 10
45.7621262102
 20
48.5410980781
 10
45.789520973
 20
48.5683540069
 10
45.8136704646
 20
48.5963665832
 10
45.8346072242
 20
48.6251282203
 10
45.8521199142
 20
48.6543485957
 10
45.8661738552
 20
48.6840323556
 10
45.8768037266
 20
48.7141748538
 10
45.8839022296
 20
48.7444718294
 10
45.887433598
 20
48.7749248469
 10
45.887875019
 20
48.7902285944
  0
LWPOLYLINE
  5
30C
100
AcDbEntity
  8
0
100
AcDbPolyline
 62
7
  6
CONTINUOUS
 90
15
 70
0
 10
45.5803599169
 20
46.8601518074
 10
45.6224795363
 20
46.8825029944
 10
45.6616953784
 20
46.9058708047
 10
45.6980074431
 20
46.9302552385
 10
45.7315187154
 20
46.9557454832
 10
45.7621262102
 20
46.9822523512
 10
45.789520973
 20
47.0095082801
 10
45.8136704646
 20
47.0375208564
 10
45.8346072242
 20
47.0662824935
 10
45.8521199142
 20
47.0955028689
 10
45.8661738552
 20
47.1251866288
 10
45.8768037266
 20
47.155329127
 10
45.8839022296
 20
47.1856261026
 10
45.887433598
 20
47.2160791201
 10
45.887875019
 20
47.2313828675
  0
LWPOLYLINE
  5
30D
100
AcDbEntity
  8
ASSI
100
AcDbPolyline
 62
7
  6
CONTINUOUS
 90
13
 70
0
 10
22.6764110572
 20
-82.1643222851
 10
22.7160503701
 20
-82.2274669496
 10
22.8649859231
 20
-82.4426076848
 10
23.0216912081
 20
-82.6480846735
 10
23.1856693358
 20
-82.8432463789
 10
23.3569433919
 20
-83.0280600582
 10
23.5354902907
 20
-83.2025584541
 10
23.7207438867
 20
-83.3661882584
 10
23.9127254684
 20
-83.5189149718
 10
24.1114137473
 20
-83.6607730936
 10
24.3161787125
 20
-83.7913128126
 10
24.5270396526
 20
-83.9104982021
 10
24.6257324239
 20
-83.9613507666
  0
LINE
  5
30E
100
AcDbEntity
  8
0
100
AcDbLine
 62
7
  6
CONTINUOUS
 10
-23.3434619759
 20
1.6802526678
 11
-23.2177635675
 21
1.4634549826
  0
LINE
  5
30F
100
AcDbEntity
  8
0
100
AcDbLine
 62
7
  6
CONTINUOUS
 10
-10.1587437136
 20
-17.9981603574
 11
-10.284442122
 21
-17.7813626722
  0
LINE
  5
310
100
AcDbEntity
  8
0
100
AcDbLine
 62
7
  6
CONTINUOUS
 10
-21.9677635675
 20
2.3693860718
 11
-22.0934619759
 21
2.586183757
  0
LWPOLYLINE
  5
311
100
AcDbEntity
  8
0
100
AcDbPolyline
 62
7
  6
CONTINUOUS
 90
19
 70
0
 10
-8.4897470238
 20
-11.2071000005
 10
-8.5220978946
 20
-10.8693326462
 10
-8.5626687425
 20
-10.5295165718
 10
-8.6114595677
 20
-10.1876517773
 10
-8.6685362446
 20
-9.843388886
 10
-8.7338328987
 20
-9.4970772747
 10
-8.8071519062
 20
-9.1497650733
 10
-8.8885175719
 20
-8.8014492505
 10
-8.977905591
 20
-8.4521328377
 10
-9.0750454261
 20
-8.1028730592
 10
-9.1799605621
 20
-7.7536700865
 10
-9.2926275142
 20
-7.4045237482
 10
-9.4127052898
 20
-7.0564907536
 10
-9.5402163409
 20
-6.7095744758
 10
-9.6751382157
 20
-6.3637715419
 10
-9.817062566
 20
-6.0201285423
 10
-9.9658532758
 20
-5.6789943405
 10
-10.1216464611
 20
-5.3400200732
 10
-10.284442122
 20
-5.0032057402
  0
LWPOLYLINE
  5
312
100
AcDbEntity
  8
0
100
AcDbPolyline
 62
7
  6
CONTINUOUS
 90
19
 70
0
 10
-8.3119826299
 20
-11.2959821975
 10
-8.3447117637
 20
-10.9485315335
 10
-8.3859695447
 20
-10.5989390521
 10
-8.4357559727
 20
-10.2472047532
 10
-8.4941396063
 20
-9.8929634865
 10
-8.561051887
 20
-9.5365804024
 10
-8.6362871398
 20
-9.1791509517
 10
-8.7198709741
 20
-8.8206719148
 10
-8.8117777804
 20
-8.4611465113
 10
-8.9117250555
 20
-8.101679851
 10
-9.0197375395
 20
-7.7422721146
 10
-9.1357904923
 20
-7.3829231213
 10
-9.2595271902
 20
-7.0247374386
 10
-9.3909712756
 20
-6.6677186461
 10
-9.5300991061
 20
-6.3118631642
 10
-9.6764830302
 20
-5.958264822
 10
-9.8299804977
 20
-5.6072882294
 10
-9.9907340588
 20
-5.2585687765
 10
-10.1587437136
 20
-4.9121064634
  0
LWPOLYLINE
  5
313
100
AcDbEntity
  8
ASSI
100
AcDbPolyline
 62
7
  6
CONTINUOUS
 90
46
 70
0
 10
-22.2471706566
 20
119.0133415352
 10
-22.249342881
 20
119.0545179304
 10
-22.2558241861
 20
119.0956943256
 10
-22.2665615202
 20
119.1365336765
 10
-22.2815898156
 20
119.1770332165
 10
-22.3008741398
 20
119.2171957122
 10
-22.3242566434
 20
119.2566924183
 10
-22.3517709633
 20
119.2955178702
 10
-22.3833834626
 20
119.3336775324
 10
-22.418835381
 20
119.3708590538
 10
-22.4581582316
 20
119.4070544059
 10
-22.5013205012
 20
119.4422716172
 10
-22.5479688905
 20
119.4762224214
 10
-22.5981320126
 20
119.5088964242
 10
-22.6517812543
 20
119.5403040199
 10
-22.7084774762
 20
119.5701881254
 10
-22.7682456873
 20
119.5985362364
 10
-22.8310608787
 20
119.6253608573
 10
-22.8964088842
 20
119.6504424183
 10
-22.9643104927
 20
119.6737666129
 10
-23.0347449152
 20
119.6953477478
 10
-23.1071356195
 20
119.715009173
 10
-23.1814986623
 20
119.7327351322
 10
-23.2578179868
 20
119.7485413819
 10
-23.3354688905
 20
119.7622985418
 10
-23.4144623026
 20
119.7739897936
 10
-23.494787294
 20
119.7836319558
 10
-23.5757863742
 20
119.7911461035
 10
-23.6574650758
 20
119.7965147705
 10
-23.7398178662
 20
119.7997554231
 10
-23.8221706566
 20
119.8008415352
 10
-23.904523447
 20
119.7997554231
 10
-23.9868762374
 20
119.7965147705
 10
-24.068554939
 20
119.7911461035
 10
-24.1495540192
 20
119.7836319558
 10
-24.2298790105
 20
119.7739897936
 10
-24.3088724227
 20
119.7622985418
 10
-24.3865233264
 20
119.7485413819
 10
-24.4628426509
 20
119.7327351322
 10
-24.5372056937
 20
119.715009173
 10
-24.609596398
 20
119.6953477478
 10
-24.6800308205
 20
119.6737666129
 10
-24.747932429
 20
119.6504424183
 10
-24.8131090458
 20
119.6254340472
 10
-24.8757528484
 20
119.5986826162
 10
-24.935863837
 20
119.5701881254
  0
LWPOLYLINE
  5
314
100
AcDbEntity
  8
ASSI
100
AcDbPolyline
 62
7
  6
CONTINUOUS
 90
46
 70
0
 10
-18.3261028447
 20
122.5488754412
 10
-18.3239306204
 20
122.507699046
 10
-18.3174493152
 20
122.4665226508
 10
-18.3067119812
 20
122.4256833
 10
-18.2916836858
 20
122.3851837599
 10
-18.2723993615
 20
122.3450212642
 10
-18.2490168579
 20
122.3055245581
 10
-18.221502538
 20
122.2666991063
 10
-18.1898900387
 20
122.228539444
 10
-18.1544381203
 20
122.1913579226
 10
-18.1151152698
 20
122.1551625705
 10
-18.0719530001
 20
122.1199453592
 10
-18.0253046109
 20
122.085994555
 10
-17.9751414888
 20
122.0533205522
 10
-17.9214922471
 20
122.0219129566
 10
-17.8647960251
 20
121.992028851
 10
-17.805027814
 20
121.96368074
 10
-17.7422126226
 20
121.9368561192
 10
-17.6768646171
 20
121.9117745581
 10
-17.6089630087
 20
121.8884503635
 10
-17.5385285861
 20
121.8668692287
 10
-17.4661378818
 20
121.8472078034
 10
-17.3917748391
 20
121.8294818442
 10
-17.3154555146
 20
121.8136755946
 10
-17.2378046109
 20
121.7999184346
 10
-17.1588111987
 20
121.7882271828
 10
-17.0784862073
 20
121.7785850207
 10
-16.9974871272
 20
121.771070873
 10
-16.9158084255
 20
121.765702206
 10
-16.8334556351
 20
121.7624615534
 10
-16.7511028447
 20
121.7613754412
 10
-16.6687500543
 20
121.7624615534
 10
-16.5863972639
 20
121.765702206
 10
-16.5047185623
 20
121.771070873
 10
-16.4237194822
 20
121.7785850207
 10
-16.3433944908
 20
121.7882271828
 10
-16.2644010786
 20
121.7999184346
 10
-16.1867501749
 20
121.8136755946
 10
-16.1104308504
 20
121.8294818442
 10
-16.0360678076
 20
121.8472078034
 10
-15.9636771033
 20
121.8668692287
 10
-15.8932426808
 20
121.8884503635
 10
-15.8253410724
 20
121.9117745581
 10
-15.7601644556
 20
121.9367829293
 10
-15.6975206529
 20
121.9635343602
 10
-15.6374096644
 20
121.992028851
  0
LWPOLYLINE
  5
315
100
AcDbEntity
  8
ASSI
100
AcDbPolyline
 62
7
  6
CONTINUOUS
 90
46
 70
0
 10
-15.1761028447
 20
122.5488754412
 10
-15.1782750691
 20
122.5900518364
 10
-15.1847563743
 20
122.6312282316
 10
-15.1954937083
 20
122.6720675824
 10
-15.2105220037
 20
122.7125671225
 10
-15.2298063279
 20
122.7527296182
 10
-15.2531888316
 20
122.7922263243
 10
-15.2807031515
 20
122.8310517761
 10
-15.3123156508
 20
122.8692114383
 10
-15.3477675691
 20
122.9063929597
 10
-15.3870904197
 20
122.9425883119
 10
-15.4302526893
 20
122.9778055232
 10
-15.4769010786
 20
123.0117563274
 10
-15.5270642007
 20
123.0444303301
 10
-15.5807134424
 20
123.0758379258
 10
-15.6374096644
 20
123.1057220314
 10
-15.6971778755
 20
123.1340701423
 10
-15.7599930669
 20
123.1608947632
 10
-15.8253410724
 20
123.1859763243
 10
-15.8932426808
 20
123.2093005189
 10
-15.9636771033
 20
123.2308816537
 10
-16.0360678076
 20
123.250543079
 10
-16.1104308504
 20
123.2682690382
 10
-16.1867501749
 20
123.2840752878
 10
-16.2644010786
 20
123.2978324478
 10
-16.3433944908
 20
123.3095236996
 10
-16.4237194822
 20
123.3191658617
 10
-16.5047185623
 20
123.3266800094
 10
-16.5863972639
 20
123.3320486764
 10
-16.6687500543
 20
123.335289329
 10
-16.7511028447
 20
123.3363754412
 10
-16.8334556351
 20
123.335289329
 10
-16.9158084255
 20
123.3320486764
 10
-16.9974871272
 20
123.3266800094
 10
-17.0784862073
 20
123.3191658617
 10
-17.1588111987
 20
123.3095236996
 10
-17.2378046109
 20
123.2978324478
 10
-17.3154555146
 20
123.2840752878
 10
-17.3917748391
 20
123.2682690382
 10
-17.4661378818
 20
123.250543079
 10
-17.5385285861
 20
123.2308816537
 10
-17.6089630087
 20
123.2093005189
 10
-17.6768646171
 20
123.1859763243
 10
-17.7420412339
 20
123.1609679531
 10
-17.8046850366
 20
123.1342165221
 10
-17.8647960251
 20
123.1057220314
  0
LWPOLYLINE
  5
316
100
AcDbEntity
  8
ASSI
100
AcDbPolyline
 62
7
  6
CONTINUOUS
 90
8
 70
0
 10
-15.0838381557
 20
115.8492190927
 10
-15.0806112999
 20
115.7225718455
 10
-15.0659093985
 20
115.5501016328
 10
-15.0393686772
 20
115.3781915523
 10
-15.000946901
 20
115.206843602
 10
-14.950686305
 20
115.0360557838
 10
-14.8887659815
 20
114.8664366615
 10
-14.8609518454
 20
114.8027979453
  0
LWPOLYLINE
  5
317
100
AcDbEntity
  8
ASSI
100
AcDbPolyline
 62
7
  6
CONTINUOUS
 90
22
 70
0
 10
-15.0838381557
 20
116.7152444965
 10
-15.0806112999
 20
116.5885972493
 10
-15.0659093985
 20
116.4161270366
 10
-15.0393686772
 20
116.244216956
 10
-15.000946901
 20
116.0728690058
 10
-14.950686305
 20
115.9020811876
 10
-14.8887659815
 20
115.7324620653
 10
-14.8151443342
 20
115.5640158081
 10
-14.7298629594
 20
115.3967382469
 10
-14.6332257379
 20
115.2312254373
 10
-14.5251921577
 20
115.0674836752
 10
-14.4058027309
 20
114.9055066647
 10
-14.2754828747
 20
114.7458715745
 10
-14.1341935947
 20
114.5885867592
 10
-13.9819738854
 20
114.4336438641
 10
-13.8193661472
 20
114.2815949932
 10
-13.6463333209
 20
114.1324504709
 10
-13.4629124657
 20
113.9861999728
 10
-13.2697571605
 20
113.8433646295
 10
-13.0670852648
 20
113.7041181512
 10
-12.8546789192
 20
113.5682868277
 10
-12.6325381235
 20
113.435870659
  0
LWPOLYLINE
  5
318
100
AcDbEntity
  8
ASSI
100
AcDbPolyline
 62
7
  6
CONTINUOUS
 90
23
 70
0
 10
-15.5838332261
 20
116.7152444961
 10
-15.5823631201
 20
116.6271644873
 10
-15.5705994524
 20
116.4518608358
 10
-15.547117037
 20
116.2766555016
 10
-15.5119944214
 20
116.1021345382
 10
-15.4651926264
 20
115.9283002372
 10
-15.4067506312
 20
115.7551503069
 10
-15.3368639214
 20
115.5832639253
 10
-15.2554941724
 20
115.4126453238
 10
-15.1626797089
 20
115.243290271
 10
-15.0587309906
 20
115.0757652513
 10
-14.9436107326
 20
114.910076393
 10
-14.8173562199
 20
114.7462175679
 10
-14.6803897678
 20
114.5847368757
 10
-14.5326755052
 20
114.42564228
 10
-14.3742493031
 20
114.2689258173
 10
-14.2056410895
 20
114.1151116964
 10
-14.0268167679
 20
113.9642096364
 10
-13.8378104347
 20
113.8162099183
 10
-13.639254307
 20
113.6716075938
 10
-13.4313591236
 20
113.5305676803
 10
-13.2139141456
 20
113.3929251605
 10
-12.986919373
 20
113.2586800343
  0
LINE
  5
319
100
AcDbEntity
  8
ASSI
100
AcDbLine
 62
7
  6
CONTINUOUS
 10
-15.0838409552
 20
115.8492190926
 11
-15.0838409552
 21
116.7152444964
  0
LINE
  5
31A
100
AcDbEntity
  8
0
100
AcDbLine
 62
253
  6
CONTINUOUS
 10
-13.7812543637
 20
106.9925262551
 11
-13.7812543637
 21
106.6389728645
  0
LINE
  5
31B
100
AcDbEntity
  8
0
100
AcDbLine
 62
7
  6
CONTINUOUS
 10
-13.2155689388
 20
98.7018796488
 11
-13.2155689388
 21
97.4028415432
  0
LINE
  5
31C
100
AcDbEntity
  8
0
100
AcDbLine
 62
7
  6
CONTINUOUS
 10
-13.2155689388
 20
-119.9695348067
 11
-13.2155689388
 21
-118.6704967011
  0
LINE
  5
31D
100
AcDbEntity
  8
ASSI
100
AcDbLine
 62
7
  6
CONTINUOUS
 10
-11.6425886299
 20
112.9408959122
 11
-11.6425886299
 21
112.6162856691
  0
LINE
  5
31E
100
AcDbEntity
  8
ASSI
100
AcDbLine
 62
253
  6
CONTINUOUS
 10
-10.7937282132
 20
126.6412559373
 11
-10.7937282132
 21
125.7752305335
  0
LINE
  5
31F
100
AcDbEntity
  8
0
100
AcDbLine
 62
7
  6
CONTINUOUS
 10
-10.5639185093
 20
125.8698700162
 11
-10.5639185093
 21
125.4329232743
  0
LINE
  5
320
100
AcDbEntity
  8
0
100
AcDbLine
 62
7
  6
CONTINUOUS
 10
-10.4932078312
 20
125.410292043
 11
-10.4932078312
 21
125.8925012474
  0
LWPOLYLINE
  5
321
100
AcDbEntity
  8
0
100
AcDbPolyline
 62
7
  6
CONTINUOUS
 90
13
 70
0
 10
-6.1394758738
 20
103.987322435
 10
-6.1405570325
 20
103.9709954896
 10
-6.14377316
 20
103.9546685441
 10
-6.1490832336
 20
103.9385498545
 10
-6.1565140762
 20
103.9226420885
 10
-6.1660388648
 20
103.9069425784
 10
-6.1775361075
 20
103.8916515769
 10
-6.191031071
 20
103.876774317
 10
-6.2064984884
 20
103.8623055656
 10
-6.2237410676
 20
103.8484298768
 10
-6.2426930444
 20
103.8352087685
 10
-6.2634201829
 20
103.8225807229
 10
-6.2859224832
 20
103.8105457397
  0
LINE
  5
322
100
AcDbEntity
  8
0
100
AcDbLine
 62
7
  6
CONTINUOUS
 10
4.395143181
 20
98.487510174
 11
4.2602809342
 21
97.6182052155
  0
LINE
  5
323
100
AcDbEntity
  8
0
100
AcDbLine
 62
7
  6
CONTINUOUS
 10
-21.9677635675
 20
2.3693860718
 11
-20.6731463918
 21
3.0166946597
  0
LINE
  5
324
100
AcDbEntity
  8
0
100
AcDbLine
 62
7
  6
CONTINUOUS
 10
-25.1902230595
 20
-2.8568619827
 11
-24.9925761733
 21
-2.7580385395
  0
LINE
  5
325
100
AcDbEntity
  8
0
100
AcDbLine
 62
7
  6
CONTINUOUS
 10
-25.1902230595
 20
-5.0219254921
 11
-25.0124586657
 21
-5.1108076891
  0
LINE
  5
326
100
AcDbEntity
  8
0
100
AcDbLine
 62
7
  6
CONTINUOUS
 10
-8.4897470238
 20
-13.37216351
 11
-8.3119826299
 21
-13.4610457069
  0
LINE
  5
327
100
AcDbEntity
  8
0
100
AcDbLine
 62
7
  6
CONTINUOUS
 10
-8.3119826299
 20
-11.2959821975
 11
-8.4897470238
 21
-11.2071000005
  0
LINE
  5
328
100
AcDbEntity
  8
0
100
AcDbLine
 62
7
  6
CONTINUOUS
 10
-25.0124586657
 20
-2.9457441796
 11
-25.1902230595
 21
-2.8568619827
  0
LWPOLYLINE
  5
329
100
AcDbEntity
  8
0
100
AcDbPolyline
 62
7
  6
CONTINUOUS
 90
43
 70
0
 10
-11.534442122
 20
-2.8472746509
 10
-11.7465484378
 20
-2.538549014
 10
-11.9634219355
 20
-2.2363156861
 10
-12.185062615
 20
-1.9405746671
 10
-12.411711835
 20
-1.6510307449
 10
-12.6431282368
 20
-1.3679791317
 10
-12.8785877443
 20
-1.0923054644
 10
-13.1181030213
 20
-0.8240328517
 10
-13.361661404
 20
-0.563138185
 10
-13.6085008255
 20
-0.3104377743
 10
-13.8586315625
 20
-0.0659572854
 10
-14.1120433383
 20
0.1703289473
 10
-14.3679432558
 20
0.3976816108
 10
-14.6263391083
 20
0.6160727236
 10
-14.8872231024
 20
0.8255302671
 10
-15.1497789614
 20
1.0253988721
 10
-15.4140119217
 20
1.2156485044
 10
-15.6799167469
 20
1.3963091982
 10
-15.9466614504
 20
1.5668156864
 10
-16.214248663
 20
1.7271361643
 10
-16.4826757538
 20
1.8773024366
 10
-16.7511028447
 20
2.0168446497
 10
-17.0195299356
 20
2.1457295274
 10
-17.2879570265
 20
2.2639903461
 10
-17.555544239
 20
2.3712570807
 10
-17.8222889426
 20
2.467495296
 10
-18.0881937677
 20
2.5527394274
 10
-18.3524267281
 20
2.6267227554
 10
-18.614982587
 20
2.6894100094
 10
-18.8758665812
 20
2.74083646
 10
-19.1342624336
 20
2.7808411997
 10
-19.3901623511
 20
2.8093884537
 10
-19.643574127
 20
2.8265139968
 10
-19.893704864
 20
2.8321642449
 10
-20.1405442855
 20
2.8263032558
 10
-20.3841026682
 20
2.8089669717
 10
-20.6236179451
 20
2.780209636
 10
-20.8590774527
 20
2.7399954762
 10
-21.0904938545
 20
2.6883602648
 10
-21.3171430744
 20
2.6254655626
 10
-21.5387837539
 20
2.5513652231
 10
-21.7556572516
 20
2.4660053929
 10
-21.9677635675
 20
2.3693860718
  0
LWPOLYLINE
  5
32A
100
AcDbEntity
  8
0
100
AcDbPolyline
 62
7
  6
CONTINUOUS
 90
36
 70
0
 10
-11.4087437136
 20
-2.7561753741
 10
-11.6257073251
 20
-2.4394487113
 10
-11.8475857674
 20
-2.1293774735
 10
-12.0743790405
 20
-1.8259616608
 10
-12.3063358144
 20
-1.5288963979
 10
-12.5432074191
 20
-1.2384865601
 10
-12.784247844
 20
-0.9556467727
 10
-13.0294702324
 20
-0.6804009021
 10
-13.2788614411
 20
-0.412725082
 10
-13.5316360299
 20
-0.1534623385
 10
-13.7878046657
 20
0.0973608041
 10
-14.0473566817
 20
0.3397708701
 10
-14.309474637
 20
0.573004406
 10
-14.5741666214
 20
0.7970324805
 10
-14.841424545
 20
1.0118840249
 10
-15.1104066979
 20
1.2168823794
 10
-15.381118516
 20
1.4119964793
 10
-15.6535545633
 20
1.5972573892
 10
-15.9268568217
 20
1.7720816429
 10
-16.201028022
 20
1.9364363364
 10
-16.4760654334
 20
2.0903543736
 10
-16.7511028447
 20
2.2333510006
 10
-17.0261402561
 20
2.365391785
 10
-17.3011776674
 20
2.4865111591
 10
-17.5753488678
 20
2.596327666
 10
-17.8486511261
 20
2.6948056706
 10
-18.1210871735
 20
2.781980808
 10
-18.3917989916
 20
2.8575785262
 10
-18.6607811445
 20
2.9215623247
 10
-18.9280390681
 20
2.9739687039
 10
-19.1927310524
 20
3.0146326137
 10
-19.4548490077
 20
3.0435170331
 10
-19.7144010237
 20
3.0606589831
 10
-19.9705696596
 20
3.0660044764
 10
-20.2233442484
 20
3.0595163217
 10
-20.472735457
 20
3.0412317102
  0
LINE
  5
32B
100
AcDbEntity
  8
0
100
AcDbLine
 62
7
  6
CONTINUOUS
 10
-25.458828631
 20
112.4777599981
 11
-25.5936908778
 21
113.4819272034
  0
LINE
  5
32C
100
AcDbEntity
  8
0
100
AcDbLine
 62
7
  6
CONTINUOUS
 10
-24.533030706
 20
114.0122572893
 11
-24.3256782773
 21
112.4683373723
  0
LWPOLYLINE
  5
32D
100
AcDbEntity
  8
ASSI
100
AcDbPolyline
 62
7
  6
CONTINUOUS
 90
46
 70
0
 10
-11.2550350329
 20
126.0844093471
 10
-11.2528628085
 20
126.0432329519
 10
-11.2463815033
 20
126.0020565567
 10
-11.2356441693
 20
125.9612172059
 10
-11.2206158739
 20
125.9207176658
 10
-11.2013315496
 20
125.8805551701
 10
-11.177949046
 20
125.841058464
 10
-11.1504347261
 20
125.8022330122
 10
-11.1188222268
 20
125.7640733499
 10
-11.0833703085
 20
125.7268918286
 10
-11.0440474579
 20
125.6906964764
 10
-11.0008851882
 20
125.6554792651
 10
-10.954236799
 20
125.6215284609
 10
-10.9040736769
 20
125.5888544582
 10
-10.8504244352
 20
125.5574468625
 10
-10.7937282132
 20
125.5275627569
 10
-10.7339600021
 20
125.499214646
 10
-10.6711448107
 20
125.4723900251
 10
-10.6057968052
 20
125.447308464
 10
-10.5378951968
 20
125.4239842694
 10
-10.4674607743
 20
125.4024031346
 10
-10.39507007
 20
125.3827417093
 10
-10.3207070272
 20
125.3650157501
 10
-10.2443877027
 20
125.3492095005
 10
-10.166736799
 20
125.3354523405
 10
-10.0877433868
 20
125.3237610887
 10
-10.0074183954
 20
125.3141189266
 10
-9.9264193153
 20
125.3066047789
 10
-9.8447406137
 20
125.3012361119
 10
-9.7623878233
 20
125.2979954593
 10
-9.6800350329
 20
125.2969093471
 10
-9.5976822425
 20
125.2979954593
 10
-9.5153294521
 20
125.3012361119
 10
-9.4336507504
 20
125.3066047789
 10
-9.3526516703
 20
125.3141189266
 10
-9.2723266789
 20
125.3237610887
 10
-9.1933332667
 20
125.3354523405
 10
-9.115682363
 20
125.3492095005
 10
-9.0393630385
 20
125.3650157501
 10
-8.9649999958
 20
125.3827417093
 10
-8.8926092915
 20
125.4024031346
 10
-8.8221748689
 20
125.4239842694
 10
-8.7542732605
 20
125.447308464
 10
-8.6890966437
 20
125.4723168352
 10
-8.626452841
 20
125.4990682662
 10
-8.5663418525
 20
125.5275627569
  0
LWPOLYLINE
  5
32E
100
AcDbEntity
  8
ASSI
100
AcDbPolyline
 62
7
  6
CONTINUOUS
 90
46
 70
0
 10
-8.1050350329
 20
126.0844093471
 10
-8.1072072572
 20
126.1255857423
 10
-8.1136885624
 20
126.1667621375
 10
-8.1244258964
 20
126.2076014883
 10
-8.1394541918
 20
126.2481010284
 10
-8.1587385161
 20
126.2882635241
 10
-8.1821210197
 20
126.3277602302
 10
-8.2096353396
 20
126.366585682
 10
-8.2412478389
 20
126.4047453443
 10
-8.2766997573
 20
126.4419268657
 10
-8.3160226078
 20
126.4781222178
 10
-8.3591848775
 20
126.5133394291
 10
-8.4058332667
 20
126.5472902333
 10
-8.4559963888
 20
126.5799642361
 10
-8.5096456305
 20
126.6113718317
 10
-8.5663418525
 20
126.6412559373
 10
-8.6261100636
 20
126.6696040483
 10
-8.688925255
 20
126.6964286691
 10
-8.7542732605
 20
126.7215102302
 10
-8.8221748689
 20
126.7448344248
 10
-8.8926092915
 20
126.7664155596
 10
-8.9649999958
 20
126.7860769849
 10
-9.0393630385
 20
126.8038029441
 10
-9.115682363
 20
126.8196091937
 10
-9.1933332667
 20
126.8333663537
 10
-9.2723266789
 20
126.8450576055
 10
-9.3526516703
 20
126.8546997676
 10
-9.4336507504
 20
126.8622139153
 10
-9.5153294521
 20
126.8675825823
 10
-9.5976822425
 20
126.8708232349
 10
-9.6800350329
 20
126.8719093471
 10
-9.7623878233
 20
126.8708232349
 10
-9.8447406137
 20
126.8675825823
 10
-9.9264193153
 20
126.8622139153
 10
-10.0074183954
 20
126.8546997676
 10
-10.0877433868
 20
126.8450576055
 10
-10.166736799
 20
126.8333663537
 10
-10.2443877027
 20
126.8196091937
 10
-10.3207070272
 20
126.8038029441
 10
-10.39507007
 20
126.7860769849
 10
-10.4674607743
 20
126.7664155596
 10
-10.5378951968
 20
126.7448344248
 10
-10.6057968052
 20
126.7215102302
 10
-10.670973422
 20
126.696501859
 10
-10.7336172247
 20
126.6697504281
 10
-10.7937282132
 20
126.6412559373
  0
LINE
  5
32F
100
AcDbEntity
  8
0
100
AcDbLine
 62
253
  6
CONTINUOUS
 10
-6.2859224832
 20
104.1640991303
 11
-6.2859224832
 21
103.8105457397
  0
LINE
  5
330
100
AcDbEntity
  8
0
100
AcDbLine
 62
7
  6
CONTINUOUS
 10
-4.0231807834
 20
94.1056855711
 11
-4.0231807834
 21
92.8066474654
  0
LINE
  5
331
100
AcDbEntity
  8
0
100
AcDbLine
 62
7
  6
CONTINUOUS
 10
-4.0231807834
 20
-124.5657288844
 11
-4.0231807834
 21
-123.2666907788
  0
LWPOLYLINE
  5
332
100
AcDbEntity
  8
0
100
AcDbPolyline
 62
7
  6
CONTINUOUS
 90
13
 70
0
 10
3.7499685565
 20
97.976914795
 10
3.7510497152
 20
97.9932417404
 10
3.7542658428
 20
98.0095686859
 10
3.7595759163
 20
98.0256873755
 10
3.7670067589
 20
98.0415951414
 10
3.7765315476
 20
98.0572946515
 10
3.7880287903
 20
98.072585653
 10
3.8015237537
 20
98.087462913
 10
3.8169911712
 20
98.1019316644
 10
3.8342337504
 20
98.1158073532
 10
3.8531857272
 20
98.1290284615
 10
3.8739128657
 20
98.1416565071
 10
3.8964151659
 20
98.1536914902
  0
LINE
  5
333
100
AcDbEntity
  8
0
100
AcDbLine
 62
7
  6
CONTINUOUS
 10
-11.4087437136
 20
-2.7561753741
 11
-11.534442122
 21
-2.8472746509
  0
LINE
  5
334
100
AcDbEntity
  8
0
100
AcDbLine
 62
7
  6
CONTINUOUS
 10
-23.2177635675
 20
-11.3147019494
 11
-23.3434619759
 21
-11.4058012262
  0
LINE
  5
335
100
AcDbEntity
  8
0
100
AcDbLine
 62
7
  6
CONTINUOUS
 10
-10.284442122
 20
-5.0032057402
 11
-10.1587437136
 21
-4.9121064634
  0
LINE
  5
336
100
AcDbEntity
  8
0
100
AcDbLine
 62
7
  6
CONTINUOUS
 10
-10.284442122
 20
-5.0032057402
 11
-10.1474436845
 21
-4.9347065215
  0
LWPOLYLINE
  5
337
100
AcDbEntity
  8
ASSI
100
AcDbPolyline
 62
7
  6
CONTINUOUS
 90
8
 70
0
 10
2.593831374
 20
107.0103843279
 10
2.5970582298
 20
106.8837370806
 10
2.6117601312
 20
106.711266868
 10
2.6383008524
 20
106.5393567874
 10
2.6767226286
 20
106.3680088372
 10
2.7269832246
 20
106.197221019
 10
2.7889035482
 20
106.0276018967
 10
2.8167176843
 20
105.9639631804
  0
LWPOLYLINE
  5
338
100
AcDbEntity
  8
ASSI
100
AcDbPolyline
 62
7
  6
CONTINUOUS
 90
22
 70
0
 10
2.593831374
 20
107.8764097316
 10
2.5970582298
 20
107.7497624844
 10
2.6117601312
 20
107.5772922718
 10
2.6383008524
 20
107.4053821912
 10
2.6767226286
 20
107.234034241
 10
2.7269832246
 20
107.0632464228
 10
2.7889035482
 20
106.8936273004
 10
2.8625251955
 20
106.7251810433
 10
2.9478065703
 20
106.5579034821
 10
3.0444437918
 20
106.3923906725
 10
3.1524773719
 20
106.2286489104
 10
3.2718667988
 20
106.0666718999
 10
3.4021866549
 20
105.9070368096
 10
3.5434759349
 20
105.7497519944
 10
3.6956956443
 20
105.5948090993
 10
3.8583033824
 20
105.4427602283
 10
4.0313362088
 20
105.2936157061
 10
4.214757064
 20
105.147365208
 10
4.4079123692
 20
105.0045298647
 10
4.6105842648
 20
104.8652833864
 10
4.8229906105
 20
104.7294520629
 10
5.0451314062
 20
104.5970358942
  0
LWPOLYLINE
  5
339
100
AcDbEntity
  8
ASSI
100
AcDbPolyline
 62
7
  6
CONTINUOUS
 90
22
 70
0
 10
4.9161562454
 20
116.7152444963
 10
4.9129293896
 20
116.8418917435
 10
4.8982274882
 20
117.0143619562
 10
4.8716867669
 20
117.1862720367
 10
4.8332649907
 20
117.357619987
 10
4.7830043947
 20
117.5284078052
 10
4.7210840712
 20
117.6980269275
 10
4.6474624239
 20
117.8664731846
 10
4.5621810491
 20
118.0337507459
 10
4.4655438276
 20
118.1992635555
 10
4.3575102474
 20
118.3630053176
 10
4.2381208206
 20
118.524982328
 10
4.1078009644
 20
118.6846174183
 10
3.9665116844
 20
118.8419022336
 10
3.8142919751
 20
118.9968451287
 10
3.6516842369
 20
119.1488939996
 10
3.4786514106
 20
119.2980385219
 10
3.2952305554
 20
119.44428902
 10
3.1020752502
 20
119.5871243633
 10
2.8994033545
 20
119.7263708416
 10
2.6869970089
 20
119.8622021651
 10
2.4648562132
 20
119.9946183337
  0
LWPOLYLINE
  5
33A
100
AcDbEntity
  8
ASSI
100
AcDbPolyline
 62
7
  6
CONTINUOUS
 90
23
 70
0
 10
2.0938363036
 20
107.8764097313
 10
2.0953064096
 20
107.7883297225
 10
2.1070700773
 20
107.6130260709
 10
2.1305524927
 20
107.4378207368
 10
2.1656751082
 20
107.2632997734
 10
2.2124769033
 20
107.0894654723
 10
2.2709188985
 20
106.916315542
 10
2.3408056082
 20
106.7444291605
 10
2.4221753573
 20
106.5738105589
 10
2.5149898208
 20
106.4044555061
 10
2.618938539
 20
106.2369304865
 10
2.734058797
 20
106.0712416282
 10
2.8603133097
 20
105.9073828031
 10
2.9972797619
 20
105.7459021109
 10
3.1449940245
 20
105.5868075152
 10
3.3034202266
 20
105.4300910525
 10
3.4720284402
 20
105.2762769316
 10
3.6508527618
 20
105.1253748716
 10
3.8398590949
 20
104.9773751534
 10
4.0384152227
 20
104.832772829
 10
4.2463104061
 20
104.6917329154
 10
4.4637553841
 20
104.5540903956
 10
4.6907501567
 20
104.4198452695
  0
LWPOLYLINE
  5
33B
100
AcDbEntity
  8
ASSI
100
AcDbPolyline
 62
7
  6
CONTINUOUS
 90
23
 70
0
 10
5.4161513158
 20
116.7152444967
 10
5.4146812098
 20
116.8033245055
 10
5.4029175421
 20
116.978628157
 10
5.3794351267
 20
117.1538334912
 10
5.3443125111
 20
117.3283544546
 10
5.2975107161
 20
117.5021887556
 10
5.2390687209
 20
117.6753386859
 10
5.1691820111
 20
117.8472250675
 10
5.0878122621
 20
118.017843669
 10
4.9949977986
 20
118.1871987218
 10
4.8910490803
 20
118.3547237415
 10
4.7759288223
 20
118.5204125997
 10
4.6496743096
 20
118.6842714249
 10
4.5127078575
 20
118.8457521171
 10
4.3649935949
 20
119.0048467127
 10
4.2065673928
 20
119.1615631755
 10
4.0379591792
 20
119.3153772964
 10
3.8591348576
 20
119.4662793564
 10
3.6701285244
 20
119.6142790745
 10
3.4715723967
 20
119.758881399
 10
3.2636772133
 20
119.8999213125
 10
3.0462322353
 20
120.0375638323
 10
2.8192374627
 20
120.1718089585
  0
LINE
  5
33C
100
AcDbEntity
  8
ASSI
100
AcDbLine
 62
7
  6
CONTINUOUS
 10
2.5938285745
 20
107.0103843278
 11
2.5938285745
 21
107.8764097316
  0
LINE
  5
33D
100
AcDbEntity
  8
ASSI
100
AcDbLine
 62
7
  6
CONTINUOUS
 10
2.8192374627
 20
120.1718089585
 11
2.8192374627
 21
119.7776359728
  0
LINE
  5
33E
100
AcDbEntity
  8
0
100
AcDbLine
 62
253
  6
CONTINUOUS
 10
3.8964151659
 20
98.1536914902
 11
3.8964151659
 21
97.8001380997
  0
LINE
  5
33F
100
AcDbEntity
  8
ASSI
100
AcDbLine
 62
7
  6
CONTINUOUS
 10
4.9161590448
 20
115.8492190926
 11
4.9161590448
 21
116.7152444964
  0
LINE
  5
340
100
AcDbEntity
  8
ASSI
100
AcDbLine
 62
7
  6
CONTINUOUS
 10
6.0350808998
 20
104.1020611474
 11
6.0350808998
 21
103.7774509043
  0
LINE
  5
341
100
AcDbEntity
  8
0
100
AcDbLine
 62
7
  6
CONTINUOUS
 10
9.1997160248
 20
87.494237167
 11
9.1997160248
 21
78.8339831292
  0
LINE
  5
342
100
AcDbEntity
  8
0
100
AcDbLine
 62
7
  6
CONTINUOUS
 10
9.1997160248
 20
-122.5169232507
 11
9.1997160248
 21
-131.1771772885
  0
LINE
  5
343
100
AcDbEntity
  8
0
100
AcDbLine
 62
7
  6
CONTINUOUS
 10
9.4118480592
 20
-122.4108572335
 11
9.4118480592
 21
-120.833350732
  0
LINE
  5
344
100
AcDbEntity
  8
0
100
AcDbLine
 62
253
  6
CONTINUOUS
 10
9.4118480592
 20
78.3524921385
 11
9.4118480592
 21
-120.833350732
  0
LINE
  5
345
100
AcDbEntity
  8
0
100
AcDbLine
 62
7
  6
CONTINUOUS
 10
9.4118480592
 20
78.3524921385
 11
9.4118480592
 21
78.727917112
  0
LINE
  5
346
100
AcDbEntity
  8
0
100
AcDbLine
 62
7
  6
CONTINUOUS
 10
10.2603761966
 20
86.9639070811
 11
10.2603761966
 21
78.3036530433
  0
LINE
  5
347
100
AcDbEntity
  8
0
100
AcDbLine
 62
7
  6
CONTINUOUS
 10
10.2603761966
 20
78.3036530433
 11
10.2603761966
 21
-123.0472533366
  0
LINE
  5
348
100
AcDbEntity
  8
0
100
AcDbLine
 62
7
  6
CONTINUOUS
 10
10.2603761966
 20
-123.0472533366
 11
10.2603761966
 21
-131.7075073744
  0
LWPOLYLINE
  5
349
100
AcDbEntity
  8
0
100
AcDbPolyline
 62
7
  6
CONTINUOUS
 90
13
 70
0
 10
11.8210363684
 20
95.007066314
 10
11.8199552097
 20
94.9907393685
 10
11.8167390821
 20
94.974412423
 10
11.8114290086
 20
94.9582937335
 10
11.8039981659
 20
94.9423859675
 10
11.7944733773
 20
94.9266864574
 10
11.7829761346
 20
94.9113954559
 10
11.7694811712
 20
94.8965181959
 10
11.7540137537
 20
94.8820494445
 10
11.7367711745
 20
94.8681737557
 10
11.7178191977
 20
94.8549526475
 10
11.6970920592
 20
94.8423246018
 10
11.674589759
 20
94.8302896187
  0
LWPOLYLINE
  5
34A
100
AcDbEntity
  8
0
100
AcDbPolyline
 62
7
  6
CONTINUOUS
 90
19
 70
0
 10
-10.284442122
 20
-17.7813626722
 10
-10.1216464611
 20
-17.6073440001
 10
-9.9658532758
 20
-17.424162918
 10
-9.817062566
 20
-17.2318194261
 10
-9.6751382157
 20
-17.0301007768
 10
-9.5402163409
 20
-16.8192197176
 10
-9.4127052898
 20
-16.5998144909
 10
-9.2926275142
 20
-16.371859272
 10
-9.1799605621
 20
-16.1353798856
 10
-9.0750454261
 20
-15.891092049
 10
-8.977905591
 20
-15.6389721056
 10
-8.8885175719
 20
-15.3790437119
 10
-8.8071519062
 20
-15.1120935548
 10
-8.7338328987
 20
-14.838100361
 10
-8.6685362446
 20
-14.5570854037
 10
-8.6114595677
 20
-14.2698991893
 10
-8.5626687425
 20
-13.97682522
 10
-8.5220978946
 20
-13.6775799935
 10
-8.4897470238
 20
-13.37216351
  0
LWPOLYLINE
  5
34B
100
AcDbEntity
  8
0
100
AcDbPolyline
 62
7
  6
CONTINUOUS
 90
19
 70
0
 10
-10.1587437136
 20
-17.9981603574
 10
-9.9907340588
 20
-17.8197076991
 10
-9.8299804977
 20
-17.6317418073
 10
-9.6764830302
 20
-17.434262682
 10
-9.5300991061
 20
-17.2270482641
 10
-9.3909712756
 20
-17.0103206126
 10
-9.2595271902
 20
-16.7847459055
 10
-9.1357904923
 20
-16.5502969207
 10
-9.0197375395
 20
-16.3070008803
 10
-8.9117250555
 20
-16.0556056279
 10
-8.8117777804
 20
-15.7960862426
 10
-8.7198709741
 20
-15.5284676454
 10
-8.6362871398
 20
-15.2535724428
 10
-8.561051887
 20
-14.9713782449
 10
-8.4941396063
 20
-14.6819074415
 10
-8.4357559727
 20
-14.3860498084
 10
-8.3859695447
 20
-14.0841019376
 10
-8.3447117637
 20
-13.7757672371
 10
-8.3119826299
 20
-13.4610457069
  0
LWPOLYLINE
  5
34C
100
AcDbEntity
  8
0
100
AcDbPolyline
 62
7
  6
CONTINUOUS
 90
15
 70
0
 10
45.5803599169
 20
21.889752665
 10
45.6224795363
 20
21.9121038519
 10
45.6616953784
 20
21.9354716623
 10
45.6980074431
 20
21.959856096
 10
45.7315187154
 20
21.9853463407
 10
45.7621262102
 20
22.0118532088
 10
45.789520973
 20
22.0391091377
 10
45.8136704646
 20
22.067121714
 10
45.8346072242
 20
22.095883351
 10
45.8521199142
 20
22.1251037264
 10
45.8661738552
 20
22.1547874863
 10
45.8768037266
 20
22.1849299846
 10
45.8839022296
 20
22.2152269602
 10
45.887433598
 20
22.2456799777
 10
45.887875019
 20
22.2609837251
  0
LWPOLYLINE
  5
34D
100
AcDbEntity
  8
0
100
AcDbPolyline
 62
7
  6
CONTINUOUS
 90
15
 70
0
 10
45.5803599169
 20
20.3309069382
 10
45.6224795363
 20
20.3532581251
 10
45.6616953784
 20
20.3766259354
 10
45.6980074431
 20
20.4010103692
 10
45.7315187154
 20
20.4265006139
 10
45.7621262102
 20
20.453007482
 10
45.789520973
 20
20.4802634109
 10
45.8136704646
 20
20.5082759871
 10
45.8346072242
 20
20.5370376242
 10
45.8521199142
 20
20.5662579996
 10
45.8661738552
 20
20.5959417595
 10
45.8768037266
 20
20.6260842577
 10
45.8839022296
 20
20.6563812333
 10
45.887433598
 20
20.6868342509
 10
45.887875019
 20
20.7021379983
  0
LINE
  5
34E
100
AcDbEntity
  8
0
100
AcDbLine
 62
7
  6
CONTINUOUS
 10
-8.4897470238
 20
-11.2071000005
 11
-8.327974469
 21
-11.1262137231
  0
LWPOLYLINE
  5
34F
100
AcDbEntity
  8
0
100
AcDbPolyline
 62
7
  6
CONTINUOUS
 90
8
 70
0
 10
-20.472735457
 20
3.0412317102
 10
-20.7179578454
 20
3.011208228
 10
-20.9589982704
 20
2.9694088656
 10
-21.1958698751
 20
2.9158706324
 10
-21.427826649
 20
2.8507621435
 10
-21.654619922
 20
2.7741396038
 10
-21.8764983643
 20
2.6859468083
 10
-22.0934619759
 20
2.586183757
  0
LWPOLYLINE
  5
350
100
AcDbEntity
  8
ASSI
100
AcDbPolyline
 62
7
  6
CONTINUOUS
 90
12
 70
0
 10
38.1494278636
 20
-64.3773980554
 10
38.1275624733
 20
-64.3299551262
 10
37.9974706076
 20
-64.0756536484
 10
37.8588163021
 20
-63.8306531739
 10
37.7120405328
 20
-63.595732902
 10
37.5571174429
 20
-63.370924926
 10
37.3940728893
 20
-63.1561971526
 10
37.2234254187
 20
-62.952232502
 10
37.0451508253
 20
-62.7590652416
 10
36.859273315
 20
-62.5766611039
 10
36.6663840524
 20
-62.405600207
 10
36.4664607138
 20
-62.2459186652
  0
LINE
  5
351
100
AcDbEntity
  8
0
100
AcDbLine
 62
7
  6
CONTINUOUS
 10
-7.7811591014
 20
103.6389252333
 11
-7.9160213481
 21
104.6430924386
  0
LINE
  5
352
100
AcDbEntity
  8
0
100
AcDbLine
 62
7
  6
CONTINUOUS
 10
-6.8553611763
 20
105.1734225245
 11
-6.6480087477
 21
103.6295026075
  0
LWPOLYLINE
  5
353
100
AcDbEntity
  8
ASSI
100
AcDbPolyline
 62
7
  6
CONTINUOUS
 90
9
 70
0
 10
26.2217507784
 20
-117.6505211915
 10
26.217180308
 20
-117.5816814108
 10
26.2096003708
 20
-117.5149301415
 10
26.1989737612
 20
-117.4500961852
 10
26.1853376847
 20
-117.3873507404
 10
26.1688037579
 20
-117.3272074021
 10
26.1493481957
 20
-117.269687528
 10
26.1269947831
 20
-117.2147697605
 10
26.1054356497
 20
-117.1701640492
  0
LWPOLYLINE
  5
354
100
AcDbEntity
  8
ASSI
100
AcDbPolyline
 62
7
  6
CONTINUOUS
 90
23
 70
0
 10
22.1893958431
 20
-78.3423931522
 10
22.2101090119
 20
-78.6740866985
 10
22.2398030616
 20
-78.9995681119
 10
22.2784779924
 20
-79.3188373923
 10
22.3261937296
 20
-79.6322192027
 10
22.3828903478
 20
-79.9393888801
 10
22.4483880705
 20
-80.2393724352
 10
22.5227148342
 20
-80.5321470578
 10
22.6058427023
 20
-80.8177355582
 10
22.6975080888
 20
-81.0952323778
 10
22.7977380935
 20
-81.3646118319
 10
22.9065056166
 20
-81.6258996052
 10
23.0234657725
 20
-81.8782671932
 10
23.1486445662
 20
-82.1216862812
 10
23.2820159928
 20
-82.3561851839
 10
23.4231571513
 20
-82.5810203402
 10
23.5720927043
 20
-82.7961610754
 10
23.7287979893
 20
-83.0016380641
 10
23.892776117
 20
-83.1967997695
 10
24.064050173
 20
-83.3816134488
 10
24.2425970719
 20
-83.5561118447
 10
24.4278506679
 20
-83.719741649
 10
24.6198322496
 20
-83.8724683624
  0
LWPOLYLINE
  5
355
100
AcDbEntity
  8
ASSI
100
AcDbPolyline
 62
7
  6
CONTINUOUS
 90
27
 70
0
 10
21.8352775223
 20
-78.5194523126
 10
21.8562187247
 20
-78.8657053861
 10
21.8865416901
 20
-79.2054941429
 10
21.9262464186
 20
-79.538818583
 10
21.97539496
 20
-79.8660187291
 10
22.0339252645
 20
-80.1867545585
 10
22.1016511822
 20
-80.5000060031
 10
22.1786019899
 20
-80.8057492344
 10
22.264748411
 20
-81.1040080809
 10
22.3598164652
 20
-81.3938339604
 10
22.4638345572
 20
-81.6752000241
 10
22.5767742825
 20
-81.9481331209
 10
22.6982764475
 20
-82.2117652143
 10
22.8283683132
 20
-82.4660666921
 10
22.9670226188
 20
-82.7110671666
 10
23.113798388
 20
-82.9459874384
 10
23.2687214779
 20
-83.1707954145
 10
23.4317660315
 20
-83.3855231879
 10
23.6024135021
 20
-83.5894878385
 10
23.7806880955
 20
-83.7826550989
 10
23.9665656059
 20
-83.9650592366
 10
24.1594548684
 20
-84.1361201335
 10
24.359378207
 20
-84.2958016752
 10
24.5663132977
 20
-84.4441399762
 10
24.7796020044
 20
-84.5806632613
 10
24.9992645555
 20
-84.7053339143
 10
25.1092329725
 20
-84.7621166225
  0
LINE
  5
356
100
AcDbEntity
  8
0
100
AcDbLine
 62
7
  6
CONTINUOUS
 10
10.9321276387
 20
86.6280313601
 11
10.9321276387
 21
87.4940567639
  0
LINE
  5
357
100
AcDbEntity
  8
0
100
AcDbLine
 62
7
  6
CONTINUOUS
 10
10.9321276387
 20
-132.0433830955
 11
10.9321276387
 21
-132.9094084993
  0
LINE
  5
358
100
AcDbEntity
  8
0
100
AcDbLine
 62
7
  6
CONTINUOUS
 10
10.9674829778
 20
86.5670524204
 11
10.9674829778
 21
-132.0177594948
  0
LINE
  5
359
100
AcDbEntity
  8
0
100
AcDbLine
 62
253
  6
CONTINUOUS
 10
11.674589759
 20
95.1838430093
 11
11.674589759
 21
94.8302896187
  0
LINE
  5
35A
100
AcDbEntity
  8
0
100
AcDbLine
 62
7
  6
CONTINUOUS
 10
12.9473819651
 20
67.2487061953
 11
12.9473819651
 21
62.9185791764
  0
LINE
  5
35B
100
AcDbEntity
  8
0
100
AcDbLine
 62
7
  6
CONTINUOUS
 10
12.9473819651
 20
-106.3893872635
 11
12.9473819651
 21
-110.7195142824
  0
LINE
  5
35C
100
AcDbEntity
  8
0
100
AcDbLine
 62
7
  6
CONTINUOUS
 10
13.7959101025
 20
-103.8000596853
 11
13.7959101025
 21
-112.4603137232
  0
LINE
  5
35D
100
AcDbEntity
  8
0
100
AcDbLine
 62
7
  6
CONTINUOUS
 10
13.7959101025
 20
61.1777797356
 11
13.7959101025
 21
69.8380337734
  0
LINE
  5
35E
100
AcDbEntity
  8
0
100
AcDbLine
 62
7
  6
CONTINUOUS
 10
14.5030168837
 20
-104.1536130759
 11
14.5030168837
 21
-112.8138671138
  0
LINE
  5
35F
100
AcDbEntity
  8
0
100
AcDbLine
 62
7
  6
CONTINUOUS
 10
14.5030168837
 20
60.824226345
 11
14.5030168837
 21
69.4844803829
  0
LINE
  5
360
100
AcDbEntity
  8
ASSI
100
AcDbLine
 62
253
  6
CONTINUOUS
 10
16.0763294719
 20
99.064091471
 11
16.0763294719
 21
98.1980660672
  0
LINE
  5
361
100
AcDbEntity
  8
0
100
AcDbLine
 62
253
  6
CONTINUOUS
 10
19.417409013
 20
91.736697451
 11
19.417409013
 21
90.8706720472
  0
LINE
  5
362
100
AcDbEntity
  8
0
100
AcDbLine
 62
253
  6
CONTINUOUS
 10
19.417409013
 20
-128.6667678122
 11
19.417409013
 21
-127.8007424084
  0
LINE
  5
363
100
AcDbEntity
  8
0
100
AcDbLine
 62
7
  6
CONTINUOUS
 10
19.452764352
 20
-111.363937406
 11
19.452764352
 21
-127.7751188077
  0
LINE
  5
364
100
AcDbEntity
  8
0
100
AcDbLine
 62
7
  6
CONTINUOUS
 10
19.452764352
 20
74.3985117058
 11
19.452764352
 21
90.8096931075
  0
LWPOLYLINE
  5
365
100
AcDbEntity
  8
0
100
AcDbPolyline
 62
7
  6
CONTINUOUS
 90
28
 70
0
 10
12.9473819651
 20
67.2487061953
 10
12.9486118482
 20
67.2999567516
 10
12.9521926951
 20
67.3518750861
 10
12.958124506
 20
67.4044611989
 10
12.9664431808
 20
67.4578971324
 10
12.9771128195
 20
67.512000844
 10
12.9900257219
 20
67.5662262064
 10
13.0052046081
 20
67.6205744515
 10
13.0226267578
 20
67.6750443473
 10
13.0421163106
 20
67.7290860699
 10
13.0636942053
 20
67.7826952827
 10
13.0873395029
 20
67.8358763224
 10
13.1128135259
 20
67.8880923749
 10
13.1401347957
 20
67.9393336666
 10
13.1692847908
 20
67.9896099712
 10
13.1999692686
 20
68.0384137952
 10
13.2322037706
 20
68.0857302251
 10
13.2659727553
 20
68.1315741745
 10
13.3009353557
 20
68.1754828906
 10
13.3371036608
 20
68.2174367729
 10
13.3744655817
 20
68.2574554219
 10
13.4126439836
 20
68.2951348859
 10
13.4516471363
 20
68.3304514732
 10
13.4914667701
 20
68.3634288754
 10
13.5317009423
 20
68.3937342158
 10
13.5722156719
 20
68.4212565356
 10
13.6131449399
 20
68.4461067935
 10
13.6544887463
 20
68.4682849896
  0
LWPOLYLINE
  5
366
100
AcDbEntity
  8
0
100
AcDbPolyline
 62
7
  6
CONTINUOUS
 90
28
 70
0
 10
12.9473819651
 20
-106.3893872635
 10
12.9486118482
 20
-106.3381367072
 10
12.9521926951
 20
-106.2862183726
 10
12.958124506
 20
-106.2336322599
 10
12.9664431808
 20
-106.1801963264
 10
12.9771128195
 20
-106.1260926147
 10
12.9900257219
 20
-106.0718672524
 10
13.0052046081
 20
-106.0175190073
 10
13.0226267578
 20
-105.9630491115
 10
13.0421163106
 20
-105.9090073889
 10
13.0636942053
 20
-105.855398176
 10
13.0873395029
 20
-105.8022171364
 10
13.1128135259
 20
-105.7500010839
 10
13.1401347957
 20
-105.6987597922
 10
13.1692847908
 20
-105.6484834876
 10
13.1999692686
 20
-105.5996796636
 10
13.2322037706
 20
-105.5523632336
 10
13.2659727553
 20
-105.5065192843
 10
13.3009353557
 20
-105.4626105682
 10
13.3371036608
 20
-105.4206566859
 10
13.3744655817
 20
-105.3806380369
 10
13.4126439836
 20
-105.3429585729
 10
13.4516471363
 20
-105.3076419856
 10
13.4914667701
 20
-105.2746645834
 10
13.5317009423
 20
-105.2443592429
 10
13.5722156719
 20
-105.2168369232
 10
13.6131449399
 20
-105.1919866653
 10
13.6544887463
 20
-105.1698084691
  0
LINE
  5
367
100
AcDbEntity
  8
0
100
AcDbLine
 62
7
  6
CONTINUOUS
 10
-10.284442122
 20
-17.7813626722
 11
-9.7313066659
 21
-17.5047949441
  0
LWPOLYLINE
  5
368
100
AcDbEntity
  8
ASSI
100
AcDbPolyline
 62
7
  6
CONTINUOUS
 90
16
 70
0
 10
31.4893752292
 20
-116.0536733187
 10
31.5016211964
 20
-116.1325272645
 10
31.5173380909
 20
-116.2090050115
 10
31.5364091728
 20
-116.2825385073
 10
31.5588594177
 20
-116.3531058286
 10
31.5846638498
 20
-116.4207288988
 10
31.6136308023
 20
-116.4849054354
 10
31.6457838235
 20
-116.5456097749
 10
31.681099365
 20
-116.6028675807
 10
31.7193151142
 20
-116.6562535602
 10
31.7604526664
 20
-116.7057388832
 10
31.8044904263
 20
-116.7513523799
 10
31.8511012955
 20
-116.7927552478
 10
31.9003044337
 20
-116.829916134
 10
31.9520806813
 20
-116.8628663914
 10
31.9933668543
 20
-116.8851682394
  0
LWPOLYLINE
  5
369
100
AcDbEntity
  8
ASSI
100
AcDbPolyline
 62
7
  6
CONTINUOUS
 90
23
 70
0
 10
22.1893958431
 20
42.9011633777
 10
22.2101090119
 20
42.5694698313
 10
22.2398030616
 20
42.2439884179
 10
22.2784779924
 20
41.9247191376
 10
22.3261937296
 20
41.6113373271
 10
22.3828903478
 20
41.3041676498
 10
22.4483880705
 20
41.0041840946
 10
22.5227148342
 20
40.711409472
 10
22.6058427023
 20
40.4258209716
 10
22.6975080888
 20
40.148324152
 10
22.7977380935
 20
39.8789446979
 10
22.9065056166
 20
39.6176569246
 10
23.0234657725
 20
39.3652893366
 10
23.1486445662
 20
39.1218702486
 10
23.2820159928
 20
38.8873713459
 10
23.4231571513
 20
38.6625361896
 10
23.5720927043
 20
38.4473954545
 10
23.7287979893
 20
38.2419184657
 10
23.892776117
 20
38.0467567603
 10
24.064050173
 20
37.8619430811
 10
24.2425970719
 20
37.6874446851
 10
24.4278506679
 20
37.5238148808
 10
24.6198322496
 20
37.3710881674
  0
LWPOLYLINE
  5
36A
100
AcDbEntity
  8
ASSI
100
AcDbPolyline
 62
7
  6
CONTINUOUS
 90
27
 70
0
 10
21.8352775223
 20
42.7241042173
 10
21.8562187247
 20
42.3778511437
 10
21.8865416901
 20
42.0380623869
 10
21.9262464186
 20
41.7047379468
 10
21.97539496
 20
41.3775378007
 10
22.0339252645
 20
41.0568019713
 10
22.1016511822
 20
40.7435505267
 10
22.1786019899
 20
40.4378072954
 10
22.264748411
 20
40.1395484489
 10
22.3598164652
 20
39.8497225694
 10
22.4638345572
 20
39.5683565057
 10
22.5767742825
 20
39.295423409
 10
22.6982764475
 20
39.0317913155
 10
22.8283683132
 20
38.7774898377
 10
22.9670226188
 20
38.5324893632
 10
23.113798388
 20
38.2975690914
 10
23.2687214779
 20
38.0727611153
 10
23.4317660315
 20
37.858033342
 10
23.6024135021
 20
37.6540686914
 10
23.7806880955
 20
37.4609014309
 10
23.9665656059
 20
37.2784972932
 10
24.1594548684
 20
37.1074363963
 10
24.359378207
 20
36.9477548546
 10
24.5663132977
 20
36.7994165536
 10
24.7796020044
 20
36.6628932685
 10
24.9992645555
 20
36.5382226156
 10
25.1092329725
 20
36.4814399073
  0
LWPOLYLINE
  5
36B
100
AcDbEntity
  8
ASSI
100
AcDbPolyline
 62
7
  6
CONTINUOUS
 90
46
 70
0
 10
15.6150226522
 20
98.5072448808
 10
15.6171948766
 20
98.4660684856
 10
15.6236761818
 20
98.4248920904
 10
15.6344135158
 20
98.3840527396
 10
15.6494418112
 20
98.3435531996
 10
15.6687261354
 20
98.3033907039
 10
15.6921086391
 20
98.2638939978
 10
15.719622959
 20
98.2250685459
 10
15.7512354583
 20
98.1869088837
 10
15.7866873766
 20
98.1497273623
 10
15.8260102272
 20
98.1135320101
 10
15.8691724968
 20
98.0783147989
 10
15.9158208861
 20
98.0443639947
 10
15.9659840082
 20
98.0116899919
 10
16.0196332499
 20
97.9802823962
 10
16.0763294719
 20
97.9503982907
 10
16.136097683
 20
97.9220501797
 10
16.1989128744
 20
97.8952255588
 10
16.2642608799
 20
97.8701439978
 10
16.3321624883
 20
97.8468198031
 10
16.4025969108
 20
97.8252386683
 10
16.4749876151
 20
97.805577243
 10
16.5493506579
 20
97.7878512839
 10
16.6256699824
 20
97.7720450342
 10
16.7033208861
 20
97.7582878743
 10
16.7823142983
 20
97.7465966224
 10
16.8626392897
 20
97.7369544603
 10
16.9436383698
 20
97.7294403126
 10
17.0253170714
 20
97.7240716456
 10
17.1076698618
 20
97.720830993
 10
17.1900226522
 20
97.7197448808
 10
17.2723754426
 20
97.720830993
 10
17.354728233
 20
97.7240716456
 10
17.4364069347
 20
97.7294403126
 10
17.5174060148
 20
97.7369544603
 10
17.5977310062
 20
97.7465966224
 10
17.6767244184
 20
97.7582878743
 10
17.7543753221
 20
97.7720450342
 10
17.8306946466
 20
97.7878512839
 10
17.9050576893
 20
97.805577243
 10
17.9774483936
 20
97.8252386683
 10
18.0478828162
 20
97.8468198031
 10
18.1157844246
 20
97.8701439978
 10
18.1809610414
 20
97.8951523689
 10
18.2436048441
 20
97.9219037999
 10
18.3037158326
 20
97.9503982907
  0
LWPOLYLINE
  5
36C
100
AcDbEntity
  8
ASSI
100
AcDbPolyline
 62
7
  6
CONTINUOUS
 90
46
 70
0
 10
18.7650226522
 20
98.5072448808
 10
18.7628504279
 20
98.548421276
 10
18.7563691227
 20
98.5895976712
 10
18.7456317887
 20
98.6304370221
 10
18.7306034933
 20
98.6709365621
 10
18.711319169
 20
98.7110990578
 10
18.6879366654
 20
98.7505957639
 10
18.6604223455
 20
98.7894212158
 10
18.6288098462
 20
98.827580878
 10
18.5933579278
 20
98.8647623994
 10
18.5540350773
 20
98.9009577515
 10
18.5108728076
 20
98.9361749628
 10
18.4642244184
 20
98.970125767
 10
18.4140612963
 20
99.0027997698
 10
18.3604120545
 20
99.0342073655
 10
18.3037158326
 20
99.064091471
 10
18.2439476215
 20
99.092439582
 10
18.1811324301
 20
99.1192642029
 10
18.1157844246
 20
99.1443457639
 10
18.0478828162
 20
99.1676699585
 10
17.9774483936
 20
99.1892510934
 10
17.9050576893
 20
99.2089125186
 10
17.8306946466
 20
99.2266384778
 10
17.7543753221
 20
99.2424447275
 10
17.6767244184
 20
99.2562018874
 10
17.5977310062
 20
99.2678931392
 10
17.5174060148
 20
99.2775353014
 10
17.4364069347
 20
99.2850494491
 10
17.354728233
 20
99.2904181161
 10
17.2723754426
 20
99.2936587687
 10
17.1900226522
 20
99.2947448808
 10
17.1076698618
 20
99.2936587687
 10
17.0253170714
 20
99.2904181161
 10
16.9436383698
 20
99.2850494491
 10
16.8626392897
 20
99.2775353014
 10
16.7823142983
 20
99.2678931392
 10
16.7033208861
 20
99.2562018874
 10
16.6256699824
 20
99.2424447275
 10
16.5493506579
 20
99.2266384778
 10
16.4749876151
 20
99.2089125186
 10
16.4025969108
 20
99.1892510934
 10
16.3321624883
 20
99.1676699585
 10
16.2642608799
 20
99.1443457639
 10
16.1990842631
 20
99.1193373927
 10
16.1364404604
 20
99.0925859618
 10
16.0763294719
 20
99.064091471
  0
LWPOLYLINE
  5
36D
100
AcDbEntity
  8
ASSI
100
AcDbPolyline
 62
7
  6
CONTINUOUS
 90
46
 70
0
 10
22.6860904641
 20
102.0427787868
 10
22.6882626885
 20
102.0016023916
 10
22.6947439936
 20
101.9604259964
 10
22.7054813277
 20
101.9195866456
 10
22.7205096231
 20
101.8790871055
 10
22.7397939473
 20
101.8389246098
 10
22.7631764509
 20
101.7994279037
 10
22.7906907708
 20
101.7606024519
 10
22.8223032701
 20
101.7224427896
 10
22.8577551885
 20
101.6852612682
 10
22.897078039
 20
101.6490659161
 10
22.9402403087
 20
101.6138487048
 10
22.9868886979
 20
101.5798979006
 10
23.0370518201
 20
101.5472238978
 10
23.0907010618
 20
101.5158163022
 10
23.1473972837
 20
101.4859321966
 10
23.2071654948
 20
101.4575840856
 10
23.2699806862
 20
101.4307594648
 10
23.3353286917
 20
101.4056779037
 10
23.4032303001
 20
101.3823537091
 10
23.4736647227
 20
101.3607725743
 10
23.546055427
 20
101.341111149
 10
23.6204184698
 20
101.3233851898
 10
23.6967377943
 20
101.3075789401
 10
23.7743886979
 20
101.2938217802
 10
23.8533821101
 20
101.2821305284
 10
23.9337071015
 20
101.2724883663
 10
24.0147061817
 20
101.2649742186
 10
24.0963848833
 20
101.2596055515
 10
24.1787376737
 20
101.256364899
 10
24.2610904641
 20
101.2552787868
 10
24.3434432545
 20
101.256364899
 10
24.4257960449
 20
101.2596055515
 10
24.5074747465
 20
101.2649742186
 10
24.5884738267
 20
101.2724883663
 10
24.668798818
 20
101.2821305284
 10
24.7477922302
 20
101.2938217802
 10
24.8254431339
 20
101.3075789401
 10
24.9017624584
 20
101.3233851898
 10
24.9761255012
 20
101.341111149
 10
25.0485162055
 20
101.3607725743
 10
25.118950628
 20
101.3823537091
 10
25.1868522365
 20
101.4056779037
 10
25.2520288533
 20
101.4306862749
 10
25.3146726559
 20
101.4574377058
 10
25.3747836445
 20
101.4859321966
  0
LWPOLYLINE
  5
36E
100
AcDbEntity
  8
ASSI
100
AcDbPolyline
 62
7
  6
CONTINUOUS
 90
22
 70
0
 10
22.593825775
 20
107.8764097315
 10
22.5905989192
 20
108.0030569787
 10
22.5758970178
 20
108.1755271913
 10
22.5493562966
 20
108.3474372719
 10
22.5109345204
 20
108.5187852222
 10
22.4606739244
 20
108.6895730404
 10
22.3987536009
 20
108.8591921627
 10
22.3251319536
 20
109.0276384198
 10
22.2398505787
 20
109.1949159811
 10
22.1432133573
 20
109.3604287906
 10
22.0351797771
 20
109.5241705528
 10
21.9157903503
 20
109.6861475632
 10
21.7854704941
 20
109.8457826535
 10
21.6441812141
 20
110.0030674688
 10
21.4919615048
 20
110.1580103639
 10
21.3293537666
 20
110.3100592348
 10
21.1563209402
 20
110.4592037571
 10
20.972900085
 20
110.6054542552
 10
20.7797447798
 20
110.7482895985
 10
20.5770728842
 20
110.8875360767
 10
20.3646665385
 20
111.0233674002
 10
20.1425257429
 20
111.1557835689
  0
LWPOLYLINE
  5
36F
100
AcDbEntity
  8
0
100
AcDbPolyline
 62
7
  6
CONTINUOUS
 90
28
 70
0
 10
21.220531305
 20
91.693576584
 10
21.2204698108
 20
91.6961391118
 10
21.2202907685
 20
91.6987350285
 10
21.2199941779
 20
91.7013643341
 10
21.2195782442
 20
91.7040361308
 10
21.2190447623
 20
91.7067413164
 10
21.2183991171
 20
91.7094525845
 10
21.2176401728
 20
91.7121699968
 10
21.2167690654
 20
91.7148934916
 10
21.2157945877
 20
91.7175955777
 10
21.214715693
 20
91.7202760383
 10
21.2135334281
 20
91.7229350903
 10
21.2122597269
 20
91.7255458929
 10
21.2108936635
 20
91.7281079575
 10
21.2094361637
 20
91.7306217728
 10
21.2079019398
 20
91.733061964
 10
21.2062902147
 20
91.7354277855
 10
21.2046017655
 20
91.7377199829
 10
21.2028536355
 20
91.7399154187
 10
21.2010452202
 20
91.7420131128
 10
21.1991771242
 20
91.7440140453
 10
21.1972682041
 20
91.7458980185
 10
21.1953180464
 20
91.7476638479
 10
21.1933270647
 20
91.749312718
 10
21.1913153561
 20
91.750827985
 10
21.1892896196
 20
91.752204101
 10
21.1872431562
 20
91.7534466139
 10
21.1851759659
 20
91.7545555237
  0
LWPOLYLINE
  5
370
100
AcDbEntity
  8
0
100
AcDbPolyline
 62
7
  6
CONTINUOUS
 90
28
 70
0
 10
21.9276380862
 20
91.3400231934
 10
21.926346709
 20
91.3938362775
 10
21.9225868197
 20
91.4483505288
 10
21.9163584183
 20
91.5035659472
 10
21.9076238097
 20
91.5596736773
 10
21.896420689
 20
91.6164825746
 10
21.8828621415
 20
91.673419205
 10
21.8669243111
 20
91.7304848624
 10
21.8486310538
 20
91.787678253
 10
21.8281670234
 20
91.8444220617
 10
21.805510234
 20
91.9007117352
 10
21.7806826714
 20
91.9565518269
 10
21.7539349474
 20
92.011378682
 10
21.725247614
 20
92.0651820383
 10
21.6946401192
 20
92.1179721581
 10
21.6624214175
 20
92.1692161733
 10
21.6285751904
 20
92.2188984247
 10
21.5931177564
 20
92.2670345716
 10
21.5564070261
 20
92.3131387234
 10
21.5184303056
 20
92.3571902999
 10
21.4792002888
 20
92.3992098814
 10
21.4391129667
 20
92.4387733185
 10
21.3981596564
 20
92.4758557352
 10
21.3563490409
 20
92.5104820075
 10
21.3141031601
 20
92.542302615
 10
21.271562694
 20
92.5712010507
 10
21.2285869626
 20
92.5972938215
 10
21.1851759659
 20
92.6205809275
  0
LWPOLYLINE
  5
371
100
AcDbEntity
  8
0
100
AcDbPolyline
 62
7
  6
CONTINUOUS
 90
28
 70
0
 10
23.2004302923
 20
91.9764192964
 10
23.1991389151
 20
92.0302323806
 10
23.1953790258
 20
92.0847466318
 10
23.1891506244
 20
92.1399620502
 10
23.1804160158
 20
92.1960697804
 10
23.1692128952
 20
92.2528786776
 10
23.1556543477
 20
92.3098153081
 10
23.1397165172
 20
92.3668809655
 10
23.1214232599
 20
92.4240743561
 10
23.1009592295
 20
92.4808181648
 10
23.0783024401
 20
92.5371078383
 10
23.0534748776
 20
92.5929479299
 10
23.0267271535
 20
92.647774785
 10
22.9980398202
 20
92.7015781414
 10
22.9674323253
 20
92.7543682611
 10
22.9352136236
 20
92.8056122764
 10
22.9013673965
 20
92.8552945278
 10
22.8659099626
 20
92.9034306746
 10
22.8291992322
 20
92.9495348265
 10
22.7912225118
 20
92.993586403
 10
22.7519924949
 20
93.0356059844
 10
22.7119051728
 20
93.0751694216
 10
22.6709518626
 20
93.1122518382
 10
22.629141247
 20
93.1468781106
 10
22.5868953662
 20
93.178698718
 10
22.5443549001
 20
93.2075971537
 10
22.5013791687
 20
93.2336899246
 10
22.4579681721
 20
93.2569770305
  0
LWPOLYLINE
  5
372
100
AcDbEntity
  8
ASSI
100
AcDbPolyline
 62
7
  6
CONTINUOUS
 90
18
 70
0
 10
24.7030322023
 20
-119.1886960546
 10
24.7045932058
 20
-119.2596243467
 10
24.7091636762
 20
-119.3284641274
 10
24.7167436135
 20
-119.3952153967
 10
24.727370223
 20
-119.460049353
 10
24.7410062995
 20
-119.5227947979
 10
24.7575402264
 20
-119.5829381361
 10
24.7769957885
 20
-119.6404580103
 10
24.7993492012
 20
-119.6953757778
 10
24.824417493
 20
-119.747241916
 10
24.8522229473
 20
-119.7960313777
 10
24.8827432809
 20
-119.8417692102
 10
24.9157286733
 20
-119.8840810319
 10
24.9511993571
 20
-119.9229387228
 10
24.9891350997
 20
-119.958370403
 10
25.0292253827
 20
-119.9900860506
 10
25.0714878901
 20
-120.0180551655
 10
25.1123724751
 20
-120.0405552844
  0
LINE
  5
373
100
AcDbEntity
  8
ASSI
100
AcDbLine
 62
7
  6
CONTINUOUS
 10
26.2233117819
 20
-117.7214494836
 11
26.2217507784
 21
-117.6505211915
  0
LWPOLYLINE
  5
374
100
AcDbEntity
  8
ASSI
100
AcDbPolyline
 62
7
  6
CONTINUOUS
 90
18
 70
0
 10
26.9304185631
 20
-118.0750028742
 10
26.9288575596
 20
-118.0040745821
 10
26.9242870892
 20
-117.9352348014
 10
26.916707152
 20
-117.8684835321
 10
26.9060805424
 20
-117.8036495758
 10
26.8924444659
 20
-117.740904131
 10
26.875910539
 20
-117.6807607927
 10
26.8564549769
 20
-117.6232409186
 10
26.8341015642
 20
-117.5683231511
 10
26.8090332724
 20
-117.5164570129
 10
26.7812278181
 20
-117.4676675511
 10
26.7507074845
 20
-117.4219297187
 10
26.7177220921
 20
-117.379617897
 10
26.6822514083
 20
-117.340760206
 10
26.6443156657
 20
-117.3053285259
 10
26.6042253827
 20
-117.2736128782
 10
26.5619628753
 20
-117.2456437634
 10
26.5210782903
 20
-117.2231436444
  0
LWPOLYLINE
  5
375
100
AcDbEntity
  8
ASSI
100
AcDbPolyline
 62
7
  6
CONTINUOUS
 90
18
 70
0
 10
24.7030322023
 20
86.0593246423
 10
24.7045932058
 20
85.9883963502
 10
24.7091636762
 20
85.9195565695
 10
24.7167436135
 20
85.8528053002
 10
24.727370223
 20
85.7879713439
 10
24.7410062995
 20
85.725225899
 10
24.7575402264
 20
85.6650825608
 10
24.7769957885
 20
85.6075626866
 10
24.7993492012
 20
85.5526449191
 10
24.824417493
 20
85.5007787809
 10
24.8522229473
 20
85.4519893192
 10
24.8827432809
 20
85.4062514867
 10
24.9157286733
 20
85.3639396651
 10
24.9511993571
 20
85.3250819741
 10
24.9891350997
 20
85.2896502939
 10
25.0292253827
 20
85.2579346463
 10
25.0714878901
 20
85.2299655314
 10
25.1123724751
 20
85.2074654125
  0
LINE
  5
376
100
AcDbEntity
  8
ASSI
100
AcDbLine
 62
7
  6
CONTINUOUS
 10
26.2233117819
 20
87.5265712133
 11
26.2217507784
 21
87.5974995054
  0
LWPOLYLINE
  5
377
100
AcDbEntity
  8
ASSI
100
AcDbPolyline
 62
7
  6
CONTINUOUS
 90
18
 70
0
 10
26.9304185631
 20
87.1730178227
 10
26.9288575596
 20
87.2439461148
 10
26.9242870892
 20
87.3127858955
 10
26.916707152
 20
87.3795371648
 10
26.9060805424
 20
87.4443711211
 10
26.8924444659
 20
87.507116566
 10
26.875910539
 20
87.5672599042
 10
26.8564549769
 20
87.6247797783
 10
26.8341015642
 20
87.6796975458
 10
26.8090332724
 20
87.731563684
 10
26.7812278181
 20
87.7803531458
 10
26.7507074845
 20
87.8260909783
 10
26.7177220921
 20
87.8684027999
 10
26.6822514083
 20
87.9072604909
 10
26.6443156657
 20
87.942692171
 10
26.6042253827
 20
87.9744078187
 10
26.5619628753
 20
88.0023769335
 10
26.5210782903
 20
88.0248770525
  0
LWPOLYLINE
  5
378
100
AcDbEntity
  8
ASSI
100
AcDbPolyline
 62
7
  6
CONTINUOUS
 90
4
 70
0
 10
31.4735796322
 20
-115.8034223397
 10
31.4753739038
 20
-115.8892155316
 10
31.4806391028
 20
-115.9726325246
 10
31.4893752292
 20
-116.0536733187
  0
LWPOLYLINE
  5
379
100
AcDbEntity
  8
ASSI
100
AcDbPolyline
 62
7
  6
CONTINUOUS
 90
23
 70
0
 10
23.0938208454
 20
107.8764097318
 10
23.0923507395
 20
107.9644897407
 10
23.0805870718
 20
108.1397933922
 10
23.0571046564
 20
108.3149987263
 10
23.0219820408
 20
108.4895196898
 10
22.9751802457
 20
108.6633539908
 10
22.9167382505
 20
108.8365039211
 10
22.8468515408
 20
109.0083903026
 10
22.7654817918
 20
109.1790089042
 10
22.6726673282
 20
109.348363957
 10
22.56871861
 20
109.5158889766
 10
22.453598352
 20
109.6815778349
 10
22.3273438393
 20
109.84543666
 10
22.1903773871
 20
110.0069173522
 10
22.0426631245
 20
110.1660119479
 10
21.8842369225
 20
110.3227284106
 10
21.7156287088
 20
110.4765425315
 10
21.5368043872
 20
110.6274445915
 10
21.3477980541
 20
110.7754443097
 10
21.1492419263
 20
110.9200466342
 10
20.9413467429
 20
111.0610865477
 10
20.7239017649
 20
111.1987290675
 10
20.4969069923
 20
111.3329741936
  0
LINE
  5
37A
100
AcDbEntity
  8
0
100
AcDbLine
 62
7
  6
CONTINUOUS
 10
20.1598711332
 20
-111.7174907966
 11
20.1598711332
 21
-128.1286721983
  0
LINE
  5
37B
100
AcDbEntity
  8
0
100
AcDbLine
 62
7
  6
CONTINUOUS
 10
20.1598711332
 20
74.0449583152
 11
20.1598711332
 21
90.4561397169
  0
LINE
  5
37C
100
AcDbEntity
  8
ASSI
100
AcDbLine
 62
7
  6
CONTINUOUS
 10
20.4969069923
 20
111.3329741936
 11
20.4969069923
 21
110.938801208
  0
LINE
  5
37D
100
AcDbEntity
  8
0
100
AcDbLine
 62
7
  6
CONTINUOUS
 10
21.1851759659
 20
92.6205809275
 11
21.1851759659
 21
91.7545555237
  0
LINE
  5
37E
100
AcDbEntity
  8
0
100
AcDbLine
 62
7
  6
CONTINUOUS
 10
21.3973080003
 20
-127.6768183185
 11
21.3973080003
 21
-127.5099537648
  0
LINE
  5
37F
100
AcDbEntity
  8
ASSI
100
AcDbLine
 62
7
  6
CONTINUOUS
 10
22.5938285745
 20
107.0103843278
 11
22.5938285745
 21
107.8764097316
  0
LINE
  5
380
100
AcDbEntity
  8
ASSI
100
AcDbLine
 62
253
  6
CONTINUOUS
 10
23.1473972837
 20
102.599625377
 11
23.1473972837
 21
101.7335999732
  0
LINE
  5
381
100
AcDbEntity
  8
ASSI
100
AcDbLine
 62
7
  6
CONTINUOUS
 10
26.2217507784
 20
87.4540819176
 11
26.2233117819
 21
87.5265712133
  0
LINE
  5
382
100
AcDbEntity
  8
ASSI
100
AcDbLine
 62
7
  6
CONTINUOUS
 10
26.2217507784
 20
-117.7939387793
 11
26.2233117819
 21
-117.7214494836
  0
LWPOLYLINE
  5
383
100
AcDbEntity
  8
0
100
AcDbPolyline
 62
7
  6
CONTINUOUS
 90
28
 70
0
 10
30.0593660698
 20
74.4047711434
 10
30.0603499763
 20
74.4457715885
 10
30.0632146538
 20
74.4873062561
 10
30.0679601025
 20
74.5293751463
 10
30.0746150424
 20
74.5721238931
 10
30.0831507534
 20
74.6154068624
 10
30.0934810753
 20
74.6587871523
 10
30.1056241842
 20
74.7022657484
 10
30.119561904
 20
74.745841665
 10
30.1351535462
 20
74.7890750431
 10
30.152415862
 20
74.8319624134
 10
30.1713321001
 20
74.8745072451
 10
30.1917113184
 20
74.9162800871
 10
30.2135683343
 20
74.9572731205
 10
30.2368883304
 20
74.9974941641
 10
30.2614359126
 20
75.0365372234
 10
30.2872235142
 20
75.0743903673
 10
30.314238702
 20
75.1110655268
 10
30.3422087823
 20
75.1461924997
 10
30.3711434264
 20
75.1797556055
 10
30.4010329631
 20
75.2117705247
 10
30.4315756847
 20
75.2419140959
 10
30.4627782068
 20
75.2701673657
 10
30.4946339138
 20
75.2965492875
 10
30.5268212516
 20
75.3207935599
 10
30.5592330353
 20
75.3428114156
 10
30.5919764497
 20
75.362691622
 10
30.6250514948
 20
75.3804341789
  0
LWPOLYLINE
  5
384
100
AcDbEntity
  8
0
100
AcDbPolyline
 62
7
  6
CONTINUOUS
 90
17
 70
0
 10
22.1397701205
 20
-127.1387227046
 10
22.1384787433
 20
-127.1912444116
 10
22.134718854
 20
-127.2419987735
 10
22.1284904526
 20
-127.2909857905
 10
22.119755844
 20
-127.3383589121
 10
22.1085527234
 20
-127.3839646887
 10
22.0949941759
 20
-127.4273427717
 10
22.0790563454
 20
-127.4684705986
 10
22.0607630881
 20
-127.5073707319
 10
22.0402990578
 20
-127.5436505103
 10
22.0176422683
 20
-127.5772833943
 10
21.9928147058
 20
-127.6082959234
 10
21.9660669817
 20
-127.6363750544
 10
21.9373796484
 20
-127.6614910774
 10
21.9067721535
 20
-127.6836737024
 10
21.8745534518
 20
-127.7026990159
 10
21.866881451
 20
-127.7066385454
  0
LWPOLYLINE
  5
385
100
AcDbEntity
  8
0
100
AcDbPolyline
 62
7
  6
CONTINUOUS
 90
17
 70
0
 10
23.4125623267
 20
-126.5023266016
 10
23.4112709495
 20
-126.5548483085
 10
23.4075110602
 20
-126.6056026705
 10
23.4012826588
 20
-126.6545896875
 10
23.3925480502
 20
-126.701962809
 10
23.3813449295
 20
-126.7475685856
 10
23.367786382
 20
-126.7909466686
 10
23.3518485516
 20
-126.8320744955
 10
23.3335552943
 20
-126.8709746288
 10
23.3130912639
 20
-126.9072544072
 10
23.2904344745
 20
-126.9408872912
 10
23.2656069119
 20
-126.9718998203
 10
23.2388591879
 20
-126.9999789514
 10
23.2101718545
 20
-127.0250949744
 10
23.1795643597
 20
-127.0472775993
 10
23.147345658
 20
-127.0663029128
 10
23.1396736572
 20
-127.0702424424
  0
LWPOLYLINE
  5
386
100
AcDbEntity
  8
0
100
AcDbPolyline
 62
7
  6
CONTINUOUS
 90
15
 70
0
 10
45.5803599169
 20
-4.6394922043
 10
45.6224795363
 20
-4.6171410174
 10
45.6616953784
 20
-4.593773207
 10
45.6980074431
 20
-4.5693887733
 10
45.7315187154
 20
-4.5438985286
 10
45.7621262102
 20
-4.5173916605
 10
45.789520973
 20
-4.4901357316
 10
45.8136704646
 20
-4.4621231553
 10
45.8346072242
 20
-4.4333615182
 10
45.8521199142
 20
-4.4041411428
 10
45.8661738552
 20
-4.3744573829
 10
45.8768037266
 20
-4.3443148847
 10
45.8839022296
 20
-4.3140179091
 10
45.887433598
 20
-4.2835648916
 10
45.887875019
 20
-4.2682611442
  0
LWPOLYLINE
  5
387
100
AcDbEntity
  8
0
100
AcDbPolyline
 62
7
  6
CONTINUOUS
 90
15
 70
0
 10
45.5803599169
 20
-6.1983379311
 10
45.6224795363
 20
-6.1759867442
 10
45.6616953784
 20
-6.1526189338
 10
45.6980074431
 20
-6.1282345001
 10
45.7315187154
 20
-6.1027442554
 10
45.7621262102
 20
-6.0762373873
 10
45.789520973
 20
-6.0489814584
 10
45.8136704646
 20
-6.0209688821
 10
45.8346072242
 20
-5.9922072451
 10
45.8521199142
 20
-5.9629868697
 10
45.8661738552
 20
-5.9333031098
 10
45.8768037266
 20
-5.9031606115
 10
45.8839022296
 20
-5.8728636359
 10
45.887433598
 20
-5.8424106184
 10
45.887875019
 20
-5.827106871
  0
LINE
  5
388
100
AcDbEntity
  8
0
100
AcDbLine
 62
7
  6
CONTINUOUS
 10
10.1458744358
 20
94.6754084647
 11
10.0110121891
 21
95.67957567
  0
LINE
  5
389
100
AcDbEntity
  8
0
100
AcDbLine
 62
7
  6
CONTINUOUS
 10
11.0716723608
 20
96.2099057559
 11
11.2832381344
 21
94.6346138064
  0
LWPOLYLINE
  5
38A
100
AcDbEntity
  8
ASSI
100
AcDbPolyline
 62
7
  6
CONTINUOUS
 90
11
 70
0
 10
5.3802041402
 20
116.2820703783
 10
5.3794351267
 20
116.2878080874
 10
5.3443125111
 20
116.4623290508
 10
5.2975107161
 20
116.6361633518
 10
5.2390687209
 20
116.8093132821
 10
5.1691820111
 20
116.9811996637
 10
5.0878122621
 20
117.1518182652
 10
4.9949977986
 20
117.321173318
 10
4.8910490803
 20
117.4886983377
 10
4.7759288223
 20
117.654387196
 10
4.6932699351
 20
117.7616656437
  0
LINE
  5
38B
100
AcDbEntity
  8
0
100
AcDbLine
 62
7
  6
CONTINUOUS
 10
45.5507582373
 20
-115.4332286463
 11
43.6360727837
 21
-89.5870851259
  0
LWPOLYLINE
  5
38C
100
AcDbEntity
  8
ASSI
100
AcDbPolyline
 62
7
  6
CONTINUOUS
 90
9
 70
0
 10
26.2217507784
 20
87.5974995054
 10
26.217180308
 20
87.6663392861
 10
26.2096003708
 20
87.7330905554
 10
26.1989737612
 20
87.7979245117
 10
26.1853376847
 20
87.8606699565
 10
26.1688037579
 20
87.9208132948
 10
26.1493481957
 20
87.9783331689
 10
26.1269947831
 20
88.0332509364
 10
26.1054356497
 20
88.0778566477
  0
LWPOLYLINE
  5
38D
100
AcDbEntity
  8
ASSI
100
AcDbPolyline
 62
7
  6
CONTINUOUS
 90
9
 70
0
 10
40.3638864021
 20
-110.5794533797
 10
40.3593159317
 20
-110.510613599
 10
40.3517359945
 20
-110.4438623297
 10
40.3411093849
 20
-110.3790283734
 10
40.3274733085
 20
-110.3162829285
 10
40.3109393816
 20
-110.2561395902
 10
40.2914838194
 20
-110.1986197161
 10
40.2691304068
 20
-110.1437019486
 10
40.2475712734
 20
-110.0990962373
  0
LWPOLYLINE
  5
38E
100
AcDbEntity
  8
ASSI
100
AcDbPolyline
 62
7
  6
CONTINUOUS
 90
27
 70
0
 10
39.3435498589
 20
-68.5528805789
 10
39.3228366901
 20
-68.2211870325
 10
39.2931426404
 20
-67.8957056192
 10
39.2544677096
 20
-67.5764363388
 10
39.2067519724
 20
-67.2630545284
 10
39.1500553542
 20
-66.955884851
 10
39.0845576315
 20
-66.6559012959
 10
39.0102308678
 20
-66.3631266732
 10
38.9271029997
 20
-66.0775381728
 10
38.8354376133
 20
-65.8000413533
 10
38.7352076085
 20
-65.5306618992
 10
38.6264400854
 20
-65.2693741258
 10
38.5094799296
 20
-65.0170065379
 10
38.3843011358
 20
-64.7735874498
 10
38.2509297092
 20
-64.5390885471
 10
38.1097885508
 20
-64.3142533909
 10
37.9608529977
 20
-64.0991126557
 10
37.8041477127
 20
-63.893635667
 10
37.640169585
 20
-63.6984739616
 10
37.468895529
 20
-63.5136602823
 10
37.2903486301
 20
-63.3391618863
 10
37.1050950341
 20
-63.1755320821
 10
36.9131134524
 20
-63.0228053686
 10
36.7144251735
 20
-62.8809472469
 10
36.5096602083
 20
-62.7504075279
 10
36.2987992682
 20
-62.6312221384
 10
36.2001064969
 20
-62.5803695739
  0
LWPOLYLINE
  5
38F
100
AcDbEntity
  8
ASSI
100
AcDbPolyline
 62
7
  6
CONTINUOUS
 90
27
 70
0
 10
39.6976681797
 20
-68.3758214185
 10
39.6767269773
 20
-68.029568345
 10
39.6464040119
 20
-67.6897795882
 10
39.6066992834
 20
-67.3564551481
 10
39.557550742
 20
-67.029255002
 10
39.4990204376
 20
-66.7085191726
 10
39.4312945198
 20
-66.3952677279
 10
39.3543437121
 20
-66.0895244967
 10
39.2681972911
 20
-65.7912656502
 10
39.1731292368
 20
-65.5014397707
 10
39.0691111448
 20
-65.2200737069
 10
38.9561714196
 20
-64.9471406102
 10
38.8346692545
 20
-64.6835085168
 10
38.7045773888
 20
-64.429207039
 10
38.5659230833
 20
-64.1842065645
 10
38.419147314
 20
-63.9492862926
 10
38.2642242241
 20
-63.7244783166
 10
38.1011796705
 20
-63.5097505432
 10
37.9305321999
 20
-63.3057858926
 10
37.7522576065
 20
-63.1126186322
 10
37.5663800961
 20
-62.9302144945
 10
37.3734908336
 20
-62.7591535976
 10
37.173567495
 20
-62.5994720558
 10
36.9666324043
 20
-62.4511337549
 10
36.7533436976
 20
-62.3146104698
 10
36.5336811465
 20
-62.1899398168
 10
36.4237127295
 20
-62.1331571086
  0
LWPOLYLINE
  5
390
100
AcDbEntity
  8
ASSI
100
AcDbPolyline
 62
7
  6
CONTINUOUS
 90
46
 70
0
 10
25.8360904641
 20
102.0427787868
 10
25.8339182397
 20
102.083955182
 10
25.8274369346
 20
102.1251315772
 10
25.8166996005
 20
102.165970928
 10
25.8016713051
 20
102.2064704681
 10
25.7823869809
 20
102.2466329637
 10
25.7590044773
 20
102.2861296698
 10
25.7314901573
 20
102.3249551217
 10
25.6998776581
 20
102.3631147839
 10
25.6644257397
 20
102.4002963053
 10
25.6251028891
 20
102.4364916575
 10
25.5819406195
 20
102.4717088687
 10
25.5352922302
 20
102.505659673
 10
25.4851291081
 20
102.5383336757
 10
25.4314798664
 20
102.5697412714
 10
25.3747836445
 20
102.599625377
 10
25.3150154333
 20
102.6279734879
 10
25.252200242
 20
102.6547981088
 10
25.1868522365
 20
102.6798796698
 10
25.118950628
 20
102.7032038645
 10
25.0485162055
 20
102.7247849993
 10
24.9761255012
 20
102.7444464246
 10
24.9017624584
 20
102.7621723838
 10
24.8254431339
 20
102.7779786334
 10
24.7477922302
 20
102.7917357934
 10
24.668798818
 20
102.8034270452
 10
24.5884738267
 20
102.8130692073
 10
24.5074747465
 20
102.820583355
 10
24.4257960449
 20
102.825952022
 10
24.3434432545
 20
102.8291926746
 10
24.2610904641
 20
102.8302787868
 10
24.1787376737
 20
102.8291926746
 10
24.0963848833
 20
102.825952022
 10
24.0147061817
 20
102.820583355
 10
23.9337071015
 20
102.8130692073
 10
23.8533821101
 20
102.8034270452
 10
23.7743886979
 20
102.7917357934
 10
23.6967377943
 20
102.7779786334
 10
23.6204184698
 20
102.7621723838
 10
23.546055427
 20
102.7444464246
 10
23.4736647227
 20
102.7247849993
 10
23.4032303001
 20
102.7032038645
 10
23.3353286917
 20
102.6798796698
 10
23.2701520749
 20
102.6548712987
 10
23.2075082723
 20
102.6281198677
 10
23.1473972837
 20
102.599625377
  0
LWPOLYLINE
  5
391
100
AcDbEntity
  8
ASSI
100
AcDbPolyline
 62
7
  6
CONTINUOUS
 90
46
 70
0
 10
29.757158276
 20
105.5783126927
 10
29.7593305003
 20
105.5371362975
 10
29.7658118055
 20
105.4959599023
 10
29.7765491395
 20
105.4551205515
 10
29.7915774349
 20
105.4146210114
 10
29.8108617592
 20
105.3744585157
 10
29.8342442628
 20
105.3349618096
 10
29.8617585827
 20
105.2961363578
 10
29.893371082
 20
105.2579766955
 10
29.9288230004
 20
105.2207951742
 10
29.9681458509
 20
105.184599822
 10
30.0113081206
 20
105.1493826107
 10
30.0579565098
 20
105.1154318065
 10
30.1081196319
 20
105.0827578038
 10
30.1617688736
 20
105.0513502081
 10
30.2184650956
 20
105.0214661025
 10
30.2782333067
 20
104.9931179915
 10
30.3410484981
 20
104.9662933707
 10
30.4063965036
 20
104.9412118096
 10
30.474298112
 20
104.917887615
 10
30.5447325346
 20
104.8963064802
 10
30.6171232389
 20
104.8766450549
 10
30.6914862816
 20
104.8589190957
 10
30.7678056061
 20
104.8431128461
 10
30.8454565098
 20
104.8293556861
 10
30.924449922
 20
104.8176644343
 10
31.0047749134
 20
104.8080222722
 10
31.0857739935
 20
104.8005081245
 10
31.1674526952
 20
104.7951394575
 10
31.2498054856
 20
104.7918988049
 10
31.332158276
 20
104.7908126927
 10
31.4145110664
 20
104.7918988049
 10
31.4968638567
 20
104.7951394575
 10
31.5785425584
 20
104.8005081245
 10
31.6595416385
 20
104.8080222722
 10
31.7398666299
 20
104.8176644343
 10
31.8188600421
 20
104.8293556861
 10
31.8965109458
 20
104.8431128461
 10
31.9728302703
 20
104.8589190957
 10
32.047193313
 20
104.8766450549
 10
32.1195840173
 20
104.8963064802
 10
32.1900184399
 20
104.917887615
 10
32.2579200483
 20
104.9412118096
 10
32.3230966651
 20
104.9662201808
 10
32.3857404678
 20
104.9929716118
 10
32.4458514563
 20
105.0214661025
  0
LWPOLYLINE
  5
392
100
AcDbEntity
  8
ASSI
100
AcDbPolyline
 62
7
  6
CONTINUOUS
 90
46
 70
0
 10
32.907158276
 20
105.5783126927
 10
32.9049860516
 20
105.6194890879
 10
32.8985047464
 20
105.6606654831
 10
32.8877674124
 20
105.7015048339
 10
32.872739117
 20
105.742004374
 10
32.8534547927
 20
105.7821668697
 10
32.8300722891
 20
105.8216635758
 10
32.8025579692
 20
105.8604890276
 10
32.7709454699
 20
105.8986486899
 10
32.7354935516
 20
105.9358302113
 10
32.696170701
 20
105.9720255634
 10
32.6530084313
 20
106.0072427747
 10
32.6063600421
 20
106.0411935789
 10
32.55619692
 20
106.0738675816
 10
32.5025476783
 20
106.1052751773
 10
32.4458514563
 20
106.1351592829
 10
32.3860832452
 20
106.1635073939
 10
32.3232680538
 20
106.1903320147
 10
32.2579200483
 20
106.2154135758
 10
32.1900184399
 20
106.2387377704
 10
32.1195840173
 20
106.2603189052
 10
32.047193313
 20
106.2799803305
 10
31.9728302703
 20
106.2977062897
 10
31.8965109458
 20
106.3135125393
 10
31.8188600421
 20
106.3272696993
 10
31.7398666299
 20
106.3389609511
 10
31.6595416385
 20
106.3486031132
 10
31.5785425584
 20
106.3561172609
 10
31.4968638567
 20
106.3614859279
 10
31.4145110664
 20
106.3647265805
 10
31.332158276
 20
106.3658126927
 10
31.2498054856
 20
106.3647265805
 10
31.1674526952
 20
106.3614859279
 10
31.0857739935
 20
106.3561172609
 10
31.0047749134
 20
106.3486031132
 10
30.924449922
 20
106.3389609511
 10
30.8454565098
 20
106.3272696993
 10
30.7678056061
 20
106.3135125393
 10
30.6914862816
 20
106.2977062897
 10
30.6171232389
 20
106.2799803305
 10
30.5447325346
 20
106.2603189052
 10
30.474298112
 20
106.2387377704
 10
30.4063965036
 20
106.2154135758
 10
30.3412198868
 20
106.1904052046
 10
30.2785760841
 20
106.1636537736
 10
30.2184650956
 20
106.1351592829
  0
LWPOLYLINE
  5
393
100
AcDbEntity
  8
0
100
AcDbPolyline
 62
7
  6
CONTINUOUS
 90
28
 70
0
 10
31.5442903103
 20
96.8554560866
 10
31.5442288162
 20
96.8580186144
 10
31.5440497738
 20
96.8606145312
 10
31.5437531833
 20
96.8632438368
 10
31.5433372495
 20
96.8659156335
 10
31.5428037676
 20
96.8686208191
 10
31.5421581225
 20
96.8713320872
 10
31.5413991782
 20
96.8740494994
 10
31.5405280707
 20
96.8767729942
 10
31.539553593
 20
96.8794750804
 10
31.5384746983
 20
96.882155541
 10
31.5372924334
 20
96.884814593
 10
31.5360187323
 20
96.8874253956
 10
31.5346526688
 20
96.8899874602
 10
31.533195169
 20
96.8925012754
 10
31.5316609451
 20
96.8949414666
 10
31.53004922
 20
96.8973072881
 10
31.5283607708
 20
96.8995994856
 10
31.5266126408
 20
96.9017949214
 10
31.5248042255
 20
96.9038926155
 10
31.5229361295
 20
96.905893548
 10
31.5210272094
 20
96.9077775212
 10
31.5190770518
 20
96.9095433505
 10
31.5170860701
 20
96.9111922206
 10
31.5150743615
 20
96.9127074876
 10
31.513048625
 20
96.9140836036
 10
31.5110021616
 20
96.9153261165
 10
31.5089349713
 20
96.9164350263
  0
LWPOLYLINE
  5
394
100
AcDbEntity
  8
0
100
AcDbPolyline
 62
7
  6
CONTINUOUS
 90
28
 70
0
 10
32.2513970915
 20
96.501902696
 10
32.2501057143
 20
96.5557157802
 10
32.246345825
 20
96.6102300314
 10
32.2401174236
 20
96.6654454498
 10
32.231382815
 20
96.72155318
 10
32.2201796943
 20
96.7783620772
 10
32.2066211469
 20
96.8352987077
 10
32.1906833164
 20
96.8923643651
 10
32.1723900591
 20
96.9495577557
 10
32.1519260287
 20
97.0063015644
 10
32.1292692393
 20
97.0625912379
 10
32.1044416768
 20
97.1184313295
 10
32.0776939527
 20
97.1732581846
 10
32.0490066194
 20
97.2270615409
 10
32.0183991245
 20
97.2798516607
 10
31.9861804228
 20
97.3310956759
 10
31.9523341957
 20
97.3807779274
 10
31.9168767618
 20
97.4289140742
 10
31.8801660314
 20
97.4750182261
 10
31.842189311
 20
97.5190698026
 10
31.8029592941
 20
97.561089384
 10
31.762871972
 20
97.6006528212
 10
31.7219186618
 20
97.6377352378
 10
31.6801080462
 20
97.6723615102
 10
31.6378621654
 20
97.7041821176
 10
31.5953216993
 20
97.7330805533
 10
31.5523459679
 20
97.7591733242
 10
31.5089349713
 20
97.7824604301
  0
LWPOLYLINE
  5
395
100
AcDbEntity
  8
0
100
AcDbPolyline
 62
7
  6
CONTINUOUS
 90
28
 70
0
 10
33.5241892976
 20
97.1382987991
 10
33.5228979204
 20
97.1921118832
 10
33.5191380311
 20
97.2466261345
 10
33.5129096297
 20
97.3018415529
 10
33.5041750211
 20
97.357949283
 10
33.4929719005
 20
97.4147581803
 10
33.479413353
 20
97.4716948108
 10
33.4634755225
 20
97.5287604681
 10
33.4451822653
 20
97.5859538587
 10
33.4247182349
 20
97.6426976675
 10
33.4020614454
 20
97.6989873409
 10
33.3772338829
 20
97.7548274326
 10
33.3504861588
 20
97.8096542877
 10
33.3217988255
 20
97.863457644
 10
33.2911913306
 20
97.9162477638
 10
33.2589726289
 20
97.967491779
 10
33.2251264018
 20
98.0171740305
 10
33.1896689679
 20
98.0653101773
 10
33.1529582375
 20
98.1114143292
 10
33.1149815171
 20
98.1554659056
 10
33.0757515003
 20
98.1974854871
 10
33.0356641782
 20
98.2370489242
 10
32.9947108679
 20
98.2741313409
 10
32.9529002524
 20
98.3087576132
 10
32.9106543716
 20
98.3405782207
 10
32.8681139055
 20
98.3694766564
 10
32.8251381741
 20
98.3955694272
 10
32.7817271774
 20
98.4188565332
  0
LWPOLYLINE
  5
396
100
AcDbEntity
  8
ASSI
100
AcDbPolyline
 62
7
  6
CONTINUOUS
 90
5
 70
0
 10
32.5872728126
 20
-113.8323621871
 10
32.5857118091
 20
-113.761433895
 10
32.5811413387
 20
-113.6925941143
 10
32.5735614014
 20
-113.625842845
 10
32.5647116646
 20
-113.5718497584
  0
LWPOLYLINE
  5
397
100
AcDbEntity
  8
ASSI
100
AcDbPolyline
 62
7
  6
CONTINUOUS
 90
18
 70
0
 10
33.2943795937
 20
-114.1859155777
 10
33.2928185902
 20
-114.1149872856
 10
33.2882481199
 20
-114.0461475049
 10
33.2806681826
 20
-113.9793962356
 10
33.270041573
 20
-113.9145622793
 10
33.2564054966
 20
-113.8518168344
 10
33.2398715697
 20
-113.7916734962
 10
33.2204160075
 20
-113.7341536221
 10
33.1980625949
 20
-113.6792358545
 10
33.172994303
 20
-113.6273697164
 10
33.1451888487
 20
-113.5785802546
 10
33.1146685152
 20
-113.5328424221
 10
33.0816831228
 20
-113.4905306005
 10
33.046212439
 20
-113.4516729095
 10
33.0082766964
 20
-113.4162412293
 10
32.9681864134
 20
-113.3845255817
 10
32.925923906
 20
-113.3565564669
 10
32.9156405894
 20
-113.3508972228
  0
LWPOLYLINE
  5
398
100
AcDbEntity
  8
ASSI
100
AcDbPolyline
 62
7
  6
CONTINUOUS
 90
5
 70
0
 10
32.5872728126
 20
91.4156585098
 10
32.5857118091
 20
91.4865868019
 10
32.5811413387
 20
91.5554265826
 10
32.5735614014
 20
91.6221778519
 10
32.5647116646
 20
91.6761709386
  0
LWPOLYLINE
  5
399
100
AcDbEntity
  8
ASSI
100
AcDbPolyline
 62
7
  6
CONTINUOUS
 90
18
 70
0
 10
33.2943795937
 20
91.0621051192
 10
33.2928185902
 20
91.1330334113
 10
33.2882481199
 20
91.201873192
 10
33.2806681826
 20
91.2686244613
 10
33.270041573
 20
91.3334584176
 10
33.2564054966
 20
91.3962038625
 10
33.2398715697
 20
91.4563472007
 10
33.2204160075
 20
91.5138670749
 10
33.1980625949
 20
91.5687848424
 10
33.172994303
 20
91.6206509806
 10
33.1451888487
 20
91.6694404423
 10
33.1146685152
 20
91.7151782748
 10
33.0816831228
 20
91.7574900964
 10
33.046212439
 20
91.7963477874
 10
33.0082766964
 20
91.8317794676
 10
32.9681864134
 20
91.8634951152
 10
32.925923906
 20
91.8914642301
 10
32.9156405894
 20
91.8971234741
  0
LWPOLYLINE
  5
39A
100
AcDbEntity
  8
ASSI
100
AcDbPolyline
 62
7
  6
CONTINUOUS
 90
18
 70
0
 10
38.8451678261
 20
-112.1176282427
 10
38.8467288296
 20
-112.1885565349
 10
38.8512992999
 20
-112.2573963156
 10
38.8588792372
 20
-112.3241475849
 10
38.8695058468
 20
-112.3889815412
 10
38.8831419232
 20
-112.451726986
 10
38.8996758501
 20
-112.5118703243
 10
38.9191314123
 20
-112.5693901984
 10
38.9414848249
 20
-112.6243079659
 10
38.9665531168
 20
-112.6761741041
 10
38.9943585711
 20
-112.7249635659
 10
39.0248789046
 20
-112.7707013983
 10
39.057864297
 20
-112.81301322
 10
39.0933349808
 20
-112.8518709109
 10
39.1312707234
 20
-112.8873025911
 10
39.1713610064
 20
-112.9190182388
 10
39.2136235138
 20
-112.9469873536
 10
39.2545080989
 20
-112.9694874726
  0
LINE
  5
39B
100
AcDbEntity
  8
ASSI
100
AcDbLine
 62
7
  6
CONTINUOUS
 10
40.3654474056
 20
-110.6503816718
 11
40.3638864021
 21
-110.5794533797
  0
LWPOLYLINE
  5
39C
100
AcDbEntity
  8
ASSI
100
AcDbPolyline
 62
7
  6
CONTINUOUS
 90
18
 70
0
 10
41.0725541868
 20
-111.0039350624
 10
41.0709931833
 20
-110.9330067703
 10
41.0664227129
 20
-110.8641669895
 10
41.0588427757
 20
-110.7974157202
 10
41.0482161661
 20
-110.732581764
 10
41.0345800896
 20
-110.6698363191
 10
41.0180461628
 20
-110.6096929808
 10
40.9985906006
 20
-110.5521731067
 10
40.976237188
 20
-110.4972553392
 10
40.9511688961
 20
-110.445389201
 10
40.9233634418
 20
-110.3965997392
 10
40.8928431082
 20
-110.3508619068
 10
40.8598577159
 20
-110.3085500851
 10
40.8243870321
 20
-110.2696923942
 10
40.7864512894
 20
-110.234260714
 10
40.7463610064
 20
-110.2025450663
 10
40.704098499
 20
-110.1745759515
 10
40.663213914
 20
-110.1520758326
  0
LWPOLYLINE
  5
39D
100
AcDbEntity
  8
ASSI
100
AcDbPolyline
 62
7
  6
CONTINUOUS
 90
13
 70
0
 10
33.5948999758
 20
-114.0356553867
 10
33.5931057041
 20
-113.9498621948
 10
33.5878405051
 20
-113.8664452018
 10
33.5791043787
 20
-113.7854044077
 10
33.5668584116
 20
-113.7065504619
 10
33.551141517
 20
-113.6300727149
 10
33.5320704352
 20
-113.5565392191
 10
33.5096201903
 20
-113.4859718978
 10
33.4838157581
 20
-113.4183488275
 10
33.4548488056
 20
-113.354172291
 10
33.4226957844
 20
-113.2934679515
 10
33.387380243
 20
-113.2362101457
 10
33.3807522476
 20
-113.2269510828
  0
LWPOLYLINE
  5
39E
100
AcDbEntity
  8
ASSI
100
AcDbPolyline
 62
7
  6
CONTINUOUS
 90
19
 70
0
 10
34.3020067569
 20
-114.3892087773
 10
34.3002124853
 20
-114.3034155854
 10
34.2949472863
 20
-114.2199985924
 10
34.2862111599
 20
-114.1389577983
 10
34.2739651928
 20
-114.0601038525
 10
34.2582482982
 20
-113.9836261055
 10
34.2391772163
 20
-113.9100926097
 10
34.2167269715
 20
-113.8395252884
 10
34.1909225393
 20
-113.7719022181
 10
34.1619555868
 20
-113.7077256816
 10
34.1298025656
 20
-113.6470213421
 10
34.0944870242
 20
-113.5897635363
 10
34.056271275
 20
-113.5363775568
 10
34.0151337228
 20
-113.4868922338
 10
33.9710959629
 20
-113.4412787371
 10
33.9244850936
 20
-113.3998758692
 10
33.8752819554
 20
-113.362714983
 10
33.8235057078
 20
-113.3297647256
 10
33.7822195348
 20
-113.3074628776
  0
LWPOLYLINE
  5
39F
100
AcDbEntity
  8
ASSI
100
AcDbPolyline
 62
7
  6
CONTINUOUS
 90
4
 70
0
 10
31.4735796322
 20
89.4445983572
 10
31.4753739038
 20
89.3588051653
 10
31.4806391028
 20
89.2753881723
 10
31.4893752292
 20
89.1943473783
  0
LWPOLYLINE
  5
3A0
100
AcDbEntity
  8
ASSI
100
AcDbPolyline
 62
7
  6
CONTINUOUS
 90
13
 70
0
 10
33.5948999758
 20
91.2123653102
 10
33.5931057041
 20
91.2981585021
 10
33.5878405051
 20
91.3815754951
 10
33.5791043787
 20
91.4626162892
 10
33.5668584116
 20
91.5414702351
 10
33.551141517
 20
91.617947982
 10
33.5320704352
 20
91.6914814778
 10
33.5096201903
 20
91.7620487992
 10
33.4838157581
 20
91.8296718694
 10
33.4548488056
 20
91.8938484059
 10
33.4226957844
 20
91.9545527454
 10
33.387380243
 20
92.0118105512
 10
33.3807522476
 20
92.0210696141
  0
LWPOLYLINE
  5
3A1
100
AcDbEntity
  8
ASSI
100
AcDbPolyline
 62
7
  6
CONTINUOUS
 90
19
 70
0
 10
34.3020067569
 20
90.8588119196
 10
34.3002124853
 20
90.9446051115
 10
34.2949472863
 20
91.0280221045
 10
34.2862111599
 20
91.1090628986
 10
34.2739651928
 20
91.1879168445
 10
34.2582482982
 20
91.2643945914
 10
34.2391772163
 20
91.3379280872
 10
34.2167269715
 20
91.4084954086
 10
34.1909225393
 20
91.4761184788
 10
34.1619555868
 20
91.5402950153
 10
34.1298025656
 20
91.6009993548
 10
34.0944870242
 20
91.6582571606
 10
34.056271275
 20
91.7116431401
 10
34.0151337228
 20
91.7611284632
 10
33.9710959629
 20
91.8067419598
 10
33.9244850936
 20
91.8481448277
 10
33.8752819554
 20
91.8853057139
 10
33.8235057078
 20
91.9182559713
 10
33.7822195348
 20
91.9405578193
  0
LINE
  5
3A2
100
AcDbEntity
  8
0
100
AcDbLine
 62
7
  6
CONTINUOUS
 10
30.0593660698
 20
-102.1778086882
 11
30.0593660698
 21
-99.2333223154
  0
LINE
  5
3A3
100
AcDbEntity
  8
0
100
AcDbLine
 62
7
  6
CONTINUOUS
 10
30.0593660698
 20
71.4602847705
 11
30.0593660698
 21
74.4047711434
  0
LINE
  5
3A4
100
AcDbEntity
  8
ASSI
100
AcDbLine
 62
253
  6
CONTINUOUS
 10
30.2184650956
 20
106.1351592829
 11
30.2184650956
 21
105.2691338791
  0
LINE
  5
3A5
100
AcDbEntity
  8
0
100
AcDbLine
 62
7
  6
CONTINUOUS
 10
30.766472851
 20
79.3482591741
 11
30.766472851
 21
78.3233151477
  0
LINE
  5
3A6
100
AcDbEntity
  8
0
100
AcDbLine
 62
7
  6
CONTINUOUS
 10
30.766472851
 20
75.451144857
 11
30.766472851
 21
72.5209449423
  0
LINE
  5
3A7
100
AcDbEntity
  8
0
100
AcDbLine
 62
7
  6
CONTINUOUS
 10
30.766472851
 20
-98.1869486017
 11
30.766472851
 21
-101.1171485165
  0
LINE
  5
3A8
100
AcDbEntity
  8
0
100
AcDbLine
 62
7
  6
CONTINUOUS
 10
30.766472851
 20
-104.6821391301
 11
30.766472851
 21
-105.7070831565
  0
LINE
  5
3A9
100
AcDbEntity
  8
0
100
AcDbLine
 62
7
  6
CONTINUOUS
 10
31.4735796322
 20
79.7018125647
 11
31.4735796322
 21
77.9697617571
  0
LINE
  5
3AA
100
AcDbEntity
  8
0
100
AcDbLine
 62
7
  6
CONTINUOUS
 10
31.4735796322
 20
75.1118779246
 11
31.4735796322
 21
72.1673915517
  0
LINE
  5
3AB
100
AcDbEntity
  8
0
100
AcDbLine
 62
7
  6
CONTINUOUS
 10
31.4735796322
 20
-98.5262155342
 11
31.4735796322
 21
-101.470701907
  0
LINE
  5
3AC
100
AcDbEntity
  8
0
100
AcDbLine
 62
7
  6
CONTINUOUS
 10
31.4735796322
 20
-104.3285857395
 11
31.4735796322
 21
-106.0606365471
  0
LINE
  5
3AD
100
AcDbEntity
  8
0
100
AcDbLine
 62
7
  6
CONTINUOUS
 10
31.5089349713
 20
97.7824604301
 11
31.5089349713
 21
96.9164350263
  0
LINE
  5
3AE
100
AcDbEntity
  8
0
100
AcDbLine
 62
7
  6
CONTINUOUS
 10
31.5089349713
 20
-122.621004833
 11
31.5089349713
 21
-122.4541402793
  0
LINE
  5
3AF
100
AcDbEntity
  8
ASSI
100
AcDbLine
 62
7
  6
CONTINUOUS
 10
40.3638864021
 20
94.5251497295
 11
40.3654474056
 21
94.5976390251
  0
LWPOLYLINE
  5
3B0
100
AcDbEntity
  8
0
100
AcDbPolyline
 62
7
  6
CONTINUOUS
 90
28
 70
0
 10
31.4735796322
 20
72.1673915517
 10
31.4725957257
 20
72.1263911067
 10
31.4697310482
 20
72.084856439
 10
31.4649855995
 20
72.0427875488
 10
31.4583306596
 20
72.0000388021
 10
31.4497949487
 20
71.9567558327
 10
31.4394646268
 20
71.9133755428
 10
31.4273215178
 20
71.8698969467
 10
31.413383798
 20
71.8263210301
 10
31.3977921558
 20
71.783087652
 10
31.38052984
 20
71.7402002818
 10
31.3616136019
 20
71.69765545
 10
31.3412343836
 20
71.655882608
 10
31.3193773677
 20
71.6148895747
 10
31.2960573716
 20
71.574668531
 10
31.2715097894
 20
71.5356254718
 10
31.2457221878
 20
71.4977723278
 10
31.218707
 20
71.4610971683
 10
31.1907369197
 20
71.4259701955
 10
31.1618022756
 20
71.3924070896
 10
31.131912739
 20
71.3603921704
 10
31.1013700174
 20
71.3302485992
 10
31.0701674952
 20
71.3019953294
 10
31.0383117882
 20
71.2756134076
 10
31.0061244504
 20
71.2513691353
 10
30.9737126667
 20
71.2293512795
 10
30.9409692523
 20
71.2094710732
 10
30.9078942072
 20
71.1917285162
  0
LWPOLYLINE
  5
3B1
100
AcDbEntity
  8
0
100
AcDbPolyline
 62
7
  6
CONTINUOUS
 90
28
 70
0
 10
30.0593660698
 20
-99.2333223154
 10
30.0603499763
 20
-99.1923218703
 10
30.0632146538
 20
-99.1507872027
 10
30.0679601025
 20
-99.1087183125
 10
30.0746150424
 20
-99.0659695657
 10
30.0831507534
 20
-99.0226865963
 10
30.0934810753
 20
-98.9793063065
 10
30.1056241842
 20
-98.9358277104
 10
30.119561904
 20
-98.8922517937
 10
30.1351535462
 20
-98.8490184157
 10
30.152415862
 20
-98.8061310454
 10
30.1713321001
 20
-98.7635862137
 10
30.1917113184
 20
-98.7218133717
 10
30.2135683343
 20
-98.6808203383
 10
30.2368883304
 20
-98.6405992946
 10
30.2614359126
 20
-98.6015562354
 10
30.2872235142
 20
-98.5637030915
 10
30.314238702
 20
-98.527027932
 10
30.3422087823
 20
-98.4919009591
 10
30.3711434264
 20
-98.4583378532
 10
30.4010329631
 20
-98.426322934
 10
30.4315756847
 20
-98.3961793629
 10
30.4627782068
 20
-98.3679260931
 10
30.4946339138
 20
-98.3415441713
 10
30.5268212516
 20
-98.3172998989
 10
30.5592330353
 20
-98.2952820431
 10
30.5919764497
 20
-98.2754018368
 10
30.6250514948
 20
-98.2576592799
  0
LWPOLYLINE
  5
3B2
100
AcDbEntity
  8
0
100
AcDbPolyline
 62
7
  6
CONTINUOUS
 90
28
 70
0
 10
31.4735796322
 20
-101.470701907
 10
31.4725957257
 20
-101.5117023521
 10
31.4697310482
 20
-101.5532370197
 10
31.4649855995
 20
-101.5953059099
 10
31.4583306596
 20
-101.6380546567
 10
31.4497949487
 20
-101.6813376261
 10
31.4394646268
 20
-101.7247179159
 10
31.4273215178
 20
-101.768196512
 10
31.413383798
 20
-101.8117724287
 10
31.3977921558
 20
-101.8550058068
 10
31.38052984
 20
-101.897893177
 10
31.3616136019
 20
-101.9404380088
 10
31.3412343836
 20
-101.9822108507
 10
31.3193773677
 20
-102.0232038841
 10
31.2960573716
 20
-102.0634249278
 10
31.2715097894
 20
-102.102467987
 10
31.2457221878
 20
-102.1403211309
 10
31.218707
 20
-102.1769962904
 10
31.1907369197
 20
-102.2121232633
 10
31.1618022756
 20
-102.2456863692
 10
31.131912739
 20
-102.2777012884
 10
31.1013700174
 20
-102.3078448595
 10
31.0701674952
 20
-102.3360981294
 10
31.0383117882
 20
-102.3624800511
 10
31.0061244504
 20
-102.3867243235
 10
30.9737126667
 20
-102.4087421793
 10
30.9409692523
 20
-102.4286223856
 10
30.9078942072
 20
-102.4463649425
  0
LWPOLYLINE
  5
3B3
100
AcDbEntity
  8
0
100
AcDbPolyline
 62
7
  6
CONTINUOUS
 90
17
 70
0
 10
32.2513970915
 20
-122.0829092192
 10
32.2501057143
 20
-122.1354309261
 10
32.246345825
 20
-122.1861852881
 10
32.2401174236
 20
-122.235172305
 10
32.231382815
 20
-122.2825454266
 10
32.2201796943
 20
-122.3281512032
 10
32.2066211469
 20
-122.3715292862
 10
32.1906833164
 20
-122.4126571131
 10
32.1723900591
 20
-122.4515572464
 10
32.1519260287
 20
-122.4878370248
 10
32.1292692393
 20
-122.5214699088
 10
32.1044416768
 20
-122.5524824379
 10
32.0776939527
 20
-122.580561569
 10
32.0490066194
 20
-122.605677592
 10
32.0183991245
 20
-122.6278602169
 10
31.9861804228
 20
-122.6468855304
 10
31.978508422
 20
-122.65082506
  0
LWPOLYLINE
  5
3B4
100
AcDbEntity
  8
0
100
AcDbPolyline
 62
7
  6
CONTINUOUS
 90
17
 70
0
 10
33.5241892976
 20
-121.4465131161
 10
33.5228979204
 20
-121.499034823
 10
33.5191380311
 20
-121.549789185
 10
33.5129096297
 20
-121.598776202
 10
33.5041750211
 20
-121.6461493236
 10
33.4929719005
 20
-121.6917551002
 10
33.479413353
 20
-121.7351331831
 10
33.4634755225
 20
-121.7762610101
 10
33.4451822653
 20
-121.8151611433
 10
33.4247182349
 20
-121.8514409217
 10
33.4020614454
 20
-121.8850738057
 10
33.3772338829
 20
-121.9160863349
 10
33.3504861588
 20
-121.9441654659
 10
33.3217988255
 20
-121.9692814889
 10
33.2911913306
 20
-121.9914641138
 10
33.2589726289
 20
-122.0104894273
 10
33.2513006282
 20
-122.0144289569
  0
LINE
  5
3B5
100
AcDbEntity
  8
0
100
AcDbLine
 62
7
  6
CONTINUOUS
 10
45.5507582373
 20
103.1515832689
 11
43.6360727837
 21
75.390754295
  0
LWPOLYLINE
  5
3B6
100
AcDbEntity
  8
ASSI
100
AcDbPolyline
 62
7
  6
CONTINUOUS
 90
11
 70
0
 10
23.0578736699
 20
107.4432356135
 10
23.0571046564
 20
107.4489733225
 10
23.0219820408
 20
107.623494286
 10
22.9751802457
 20
107.797328587
 10
22.9167382505
 20
107.9704785173
 10
22.8468515408
 20
108.1423648988
 10
22.7654817918
 20
108.3129835004
 10
22.6726673282
 20
108.4823385532
 10
22.56871861
 20
108.6498635728
 10
22.453598352
 20
108.8155524311
 10
22.3709394648
 20
108.9228308789
  0
LWPOLYLINE
  5
3B7
100
AcDbEntity
  8
ASSI
100
AcDbPolyline
 62
7
  6
CONTINUOUS
 90
9
 70
0
 10
40.3638864021
 20
94.6685673173
 10
40.3593159317
 20
94.737407098
 10
40.3517359945
 20
94.8041583673
 10
40.3411093849
 20
94.8689923235
 10
40.3274733085
 20
94.9317377684
 10
40.3109393816
 20
94.9918811067
 10
40.2914838194
 20
95.0494009808
 10
40.2691304068
 20
95.1043187483
 10
40.2475712734
 20
95.1489244596
  0
LWPOLYLINE
  5
3B8
100
AcDbEntity
  8
ASSI
100
AcDbPolyline
 62
7
  6
CONTINUOUS
 90
27
 70
0
 10
39.3435498589
 20
52.6906759509
 10
39.3228366901
 20
53.0223694973
 10
39.2931426404
 20
53.3478509107
 10
39.2544677096
 20
53.667120191
 10
39.2067519724
 20
53.9805020014
 10
39.1500553542
 20
54.2876716788
 10
39.0845576315
 20
54.5876552339
 10
39.0102308678
 20
54.8804298566
 10
38.9271029997
 20
55.166018357
 10
38.8354376133
 20
55.4435151766
 10
38.7352076085
 20
55.7128946307
 10
38.6264400854
 20
55.974182404
 10
38.5094799296
 20
56.2265499919
 10
38.3843011358
 20
56.46996908
 10
38.2509297092
 20
56.7044679827
 10
38.1097885508
 20
56.929303139
 10
37.9608529977
 20
57.1444438741
 10
37.8041477127
 20
57.3499208628
 10
37.640169585
 20
57.5450825682
 10
37.468895529
 20
57.7298962475
 10
37.2903486301
 20
57.9043946435
 10
37.1050950341
 20
58.0680244477
 10
36.9131134524
 20
58.2207511612
 10
36.7144251735
 20
58.3626092829
 10
36.5096602083
 20
58.493149002
 10
36.2987992682
 20
58.6123343915
 10
36.2001064969
 20
58.663186956
  0
LWPOLYLINE
  5
3B9
100
AcDbEntity
  8
ASSI
100
AcDbPolyline
 62
7
  6
CONTINUOUS
 90
27
 70
0
 10
39.6976681797
 20
52.8677351113
 10
39.6767269773
 20
53.2139881848
 10
39.6464040119
 20
53.5537769416
 10
39.6066992834
 20
53.8871013818
 10
39.557550742
 20
54.2143015279
 10
39.4990204376
 20
54.5350373572
 10
39.4312945198
 20
54.8482888019
 10
39.3543437121
 20
55.1540320331
 10
39.2681972911
 20
55.4522908796
 10
39.1731292368
 20
55.7421167591
 10
39.0691111448
 20
56.0234828229
 10
38.9561714196
 20
56.2964159196
 10
38.8346692545
 20
56.560048013
 10
38.7045773888
 20
56.8143494909
 10
38.5659230833
 20
57.0593499654
 10
38.419147314
 20
57.2942702372
 10
38.2642242241
 20
57.5190782132
 10
38.1011796705
 20
57.7338059866
 10
37.9305321999
 20
57.9377706372
 10
37.7522576065
 20
58.1309378977
 10
37.5663800961
 20
58.3133420353
 10
37.3734908336
 20
58.4844029322
 10
37.173567495
 20
58.644084474
 10
36.9666324043
 20
58.7924227749
 10
36.7533436976
 20
58.9289460601
 10
36.5336811465
 20
59.053616713
 10
36.4237127295
 20
59.1103994212
  0
LWPOLYLINE
  5
3BA
100
AcDbEntity
  8
0
100
AcDbPolyline
 62
7
  6
CONTINUOUS
 90
15
 70
0
 10
45.887875019
 20
-110.3563731078
 10
45.887433598
 20
-110.3410693603
 10
45.8839022296
 20
-110.3106163428
 10
45.8768037266
 20
-110.2803193672
 10
45.8661738552
 20
-110.250176869
 10
45.8521199142
 20
-110.2204931091
 10
45.8346072242
 20
-110.1912727337
 10
45.8136704646
 20
-110.1625110966
 10
45.789520973
 20
-110.1344985204
 10
45.7621262102
 20
-110.1072425915
 10
45.7315187154
 20
-110.0807357234
 10
45.6980074431
 20
-110.0552454787
 10
45.6616953784
 20
-110.0308610449
 10
45.6224795363
 20
-110.0074932346
 10
45.5803599169
 20
-109.9851420476
  0
LWPOLYLINE
  5
3BB
100
AcDbEntity
  8
0
100
AcDbPolyline
 62
7
  6
CONTINUOUS
 90
15
 70
0
 10
45.887875019
 20
-83.855995752
 10
45.887433598
 20
-83.8406920045
 10
45.8839022296
 20
-83.810238987
 10
45.8768037266
 20
-83.7799420114
 10
45.8661738552
 20
-83.7497995132
 10
45.8521199142
 20
-83.7201157533
 10
45.8346072242
 20
-83.6908953779
 10
45.8136704646
 20
-83.6621337408
 10
45.789520973
 20
-83.6341211645
 10
45.7621262102
 20
-83.6068652357
 10
45.7315187154
 20
-83.5803583676
 10
45.6980074431
 20
-83.5548681229
 10
45.6616953784
 20
-83.5304836891
 10
45.6224795363
 20
-83.5071158788
 10
45.5803599169
 20
-83.4847646918
  0
LWPOLYLINE
  5
3BC
100
AcDbEntity
  8
0
100
AcDbPolyline
 62
7
  6
CONTINUOUS
 90
15
 70
0
 10
45.887875019
 20
-57.3267508827
 10
45.887433598
 20
-57.3114471353
 10
45.8839022296
 20
-57.2809941178
 10
45.8768037266
 20
-57.2506971422
 10
45.8661738552
 20
-57.2205546439
 10
45.8521199142
 20
-57.190870884
 10
45.8346072242
 20
-57.1616505086
 10
45.8136704646
 20
-57.1328888716
 10
45.789520973
 20
-57.1048762953
 10
45.7621262102
 20
-57.0776203664
 10
45.7315187154
 20
-57.0511134983
 10
45.6980074431
 20
-57.0256232536
 10
45.6616953784
 20
-57.0012388199
 10
45.6224795363
 20
-56.9778710095
 10
45.5803599169
 20
-56.9555198226
  0
LWPOLYLINE
  5
3BD
100
AcDbEntity
  8
0
100
AcDbPolyline
 62
7
  6
CONTINUOUS
 90
15
 70
0
 10
45.887875019
 20
-30.7975060134
 10
45.887433598
 20
-30.782202266
 10
45.8839022296
 20
-30.7517492485
 10
45.8768037266
 20
-30.7214522729
 10
45.8661738552
 20
-30.6913097747
 10
45.8521199142
 20
-30.6616260148
 10
45.8346072242
 20
-30.6324056394
 10
45.8136704646
 20
-30.6036440023
 10
45.789520973
 20
-30.575631426
 10
45.7621262102
 20
-30.5483754971
 10
45.7315187154
 20
-30.521868629
 10
45.6980074431
 20
-30.4963783843
 10
45.6616953784
 20
-30.4719939506
 10
45.6224795363
 20
-30.4486261403
 10
45.5803599169
 20
-30.4262749533
  0
LWPOLYLINE
  5
3BE
100
AcDbEntity
  8
0
100
AcDbPolyline
 62
7
  6
CONTINUOUS
 90
15
 70
0
 10
45.887875019
 20
-4.2682611442
 10
45.887433598
 20
-4.2529573967
 10
45.8839022296
 20
-4.2225043792
 10
45.8768037266
 20
-4.1922074036
 10
45.8661738552
 20
-4.1620649054
 10
45.8521199142
 20
-4.1323811455
 10
45.8346072242
 20
-4.1031607701
 10
45.8136704646
 20
-4.074399133
 10
45.789520973
 20
-4.0463865568
 10
45.7621262102
 20
-4.0191306279
 10
45.7315187154
 20
-3.9926237598
 10
45.6980074431
 20
-3.9671335151
 10
45.6616953784
 20
-3.9427490813
 10
45.6224795363
 20
-3.919381271
 10
45.5803599169
 20
-3.897030084
  0
LWPOLYLINE
  5
3BF
100
AcDbEntity
  8
0
100
AcDbPolyline
 62
7
  6
CONTINUOUS
 90
15
 70
0
 10
45.887875019
 20
22.2609837251
 10
45.887433598
 20
22.2762874725
 10
45.8839022296
 20
22.30674049
 10
45.8768037266
 20
22.3370374656
 10
45.8661738552
 20
22.3671799639
 10
45.8521199142
 20
22.3968637238
 10
45.8346072242
 20
22.4260840992
 10
45.8136704646
 20
22.4548457362
 10
45.789520973
 20
22.4828583125
 10
45.7621262102
 20
22.5101142414
 10
45.7315187154
 20
22.5366211095
 10
45.6980074431
 20
22.5621113542
 10
45.6616953784
 20
22.5864957879
 10
45.6224795363
 20
22.6098635983
 10
45.5803599169
 20
22.6322147852
  0
LWPOLYLINE
  5
3C0
100
AcDbEntity
  8
0
100
AcDbPolyline
 62
7
  6
CONTINUOUS
 90
15
 70
0
 10
45.887875019
 20
48.7902285944
 10
45.887433598
 20
48.8055323418
 10
45.8839022296
 20
48.8359853593
 10
45.8768037266
 20
48.8662823349
 10
45.8661738552
 20
48.8964248331
 10
45.8521199142
 20
48.926108593
 10
45.8346072242
 20
48.9553289684
 10
45.8136704646
 20
48.9840906055
 10
45.789520973
 20
49.0121031818
 10
45.7621262102
 20
49.0393591107
 10
45.7315187154
 20
49.0658659787
 10
45.6980074431
 20
49.0913562234
 10
45.6616953784
 20
49.1157406572
 10
45.6224795363
 20
49.1391084675
 10
45.5803599169
 20
49.1614596545
  0
LWPOLYLINE
  5
3C1
100
AcDbEntity
  8
0
100
AcDbPolyline
 62
7
  6
CONTINUOUS
 90
15
 70
0
 10
45.887875019
 20
75.3194734636
 10
45.887433598
 20
75.3347772111
 10
45.8839022296
 20
75.3652302286
 10
45.8768037266
 20
75.3955272042
 10
45.8661738552
 20
75.4256697024
 10
45.8521199142
 20
75.4553534623
 10
45.8346072242
 20
75.4845738377
 10
45.8136704646
 20
75.5133354748
 10
45.789520973
 20
75.541348051
 10
45.7621262102
 20
75.5686039799
 10
45.7315187154
 20
75.595110848
 10
45.6980074431
 20
75.6206010927
 10
45.6616953784
 20
75.6449855265
 10
45.6224795363
 20
75.6683533368
 10
45.5803599169
 20
75.6907045237
  0
LWPOLYLINE
  5
3C2
100
AcDbEntity
  8
0
100
AcDbPolyline
 62
7
  6
CONTINUOUS
 90
28
 70
0
 10
41.8680493156
 20
102.0173355893
 10
41.8679878215
 20
102.0198981171
 10
41.8678087791
 20
102.0224940338
 10
41.8675121886
 20
102.0251233395
 10
41.8670962549
 20
102.0277951361
 10
41.8665627729
 20
102.0305003217
 10
41.8659171278
 20
102.0332115898
 10
41.8651581835
 20
102.0359290021
 10
41.864287076
 20
102.0386524969
 10
41.8633125984
 20
102.041354583
 10
41.8622337036
 20
102.0440350437
 10
41.8610514387
 20
102.0466940956
 10
41.8597777376
 20
102.0493048983
 10
41.8584116741
 20
102.0518669628
 10
41.8569541744
 20
102.0543807781
 10
41.8554199505
 20
102.0568209693
 10
41.8538082254
 20
102.0591867908
 10
41.8521197761
 20
102.0614789882
 10
41.8503716461
 20
102.063674424
 10
41.8485632308
 20
102.0657721182
 10
41.8466951348
 20
102.0677730506
 10
41.8447862147
 20
102.0696570238
 10
41.8428360571
 20
102.0714228532
 10
41.8408450754
 20
102.0730717233
 10
41.8388333668
 20
102.0745869903
 10
41.8368076303
 20
102.0759631063
 10
41.8347611669
 20
102.0772056192
 10
41.8326939766
 20
102.078314529
  0
LWPOLYLINE
  5
3C3
100
AcDbEntity
  8
0
100
AcDbPolyline
 62
7
  6
CONTINUOUS
 90
28
 70
0
 10
42.5751560968
 20
101.6637821987
 10
42.5738647196
 20
101.7175952828
 10
42.5701048303
 20
101.7721095341
 10
42.5638764289
 20
101.8273249525
 10
42.5551418203
 20
101.8834326826
 10
42.5439386997
 20
101.9402415799
 10
42.5303801522
 20
101.9971782104
 10
42.5144423217
 20
102.0542438677
 10
42.4961490644
 20
102.1114372583
 10
42.4756850341
 20
102.1681810671
 10
42.4530282446
 20
102.2244707405
 10
42.4282006821
 20
102.2803108322
 10
42.401452958
 20
102.3351376873
 10
42.3727656247
 20
102.3889410436
 10
42.3421581298
 20
102.4417311634
 10
42.3099394281
 20
102.4929751786
 10
42.276093201
 20
102.54265743
 10
42.2406357671
 20
102.5907935769
 10
42.2039250367
 20
102.6368977288
 10
42.1659483163
 20
102.6809493052
 10
42.1267182995
 20
102.7229688867
 10
42.0866309774
 20
102.7625323238
 10
42.0456776671
 20
102.7996147405
 10
42.0038670516
 20
102.8342410128
 10
41.9616211707
 20
102.8660616203
 10
41.9190807046
 20
102.894960056
 10
41.8761049732
 20
102.9210528268
 10
41.8326939766
 20
102.9443399328
  0
LWPOLYLINE
  5
3C4
100
AcDbEntity
  8
0
100
AcDbPolyline
 62
7
  6
CONTINUOUS
 90
28
 70
0
 10
43.847948303
 20
102.3001783018
 10
43.8466569257
 20
102.3539913859
 10
43.8428970364
 20
102.4085056372
 10
43.836668635
 20
102.4637210556
 10
43.8279340265
 20
102.5198287857
 10
43.8167309058
 20
102.576637683
 10
43.8031723583
 20
102.6335743134
 10
43.7872345279
 20
102.6906399708
 10
43.7689412706
 20
102.7478333614
 10
43.7484772402
 20
102.8045771701
 10
43.7258204508
 20
102.8608668436
 10
43.7009928882
 20
102.9167069352
 10
43.6742451642
 20
102.9715337903
 10
43.6455578308
 20
103.0253371467
 10
43.614950336
 20
103.0781272665
 10
43.5827316343
 20
103.1293712817
 10
43.5488854072
 20
103.1790535331
 10
43.5134279732
 20
103.22718968
 10
43.4767172428
 20
103.2732938318
 10
43.4387405224
 20
103.3173454083
 10
43.3995105056
 20
103.3593649897
 10
43.3594231835
 20
103.3989284269
 10
43.3184698732
 20
103.4360108435
 10
43.2766592577
 20
103.4706371159
 10
43.2344133769
 20
103.5024577233
 10
43.1918729108
 20
103.5313561591
 10
43.1488971794
 20
103.5574489299
 10
43.1054861827
 20
103.5807360359
  0
LWPOLYLINE
  5
3C5
100
AcDbEntity
  8
ASSI
100
AcDbPolyline
 62
7
  6
CONTINUOUS
 90
18
 70
0
 10
38.8451678261
 20
93.1303924542
 10
38.8467288296
 20
93.059464162
 10
38.8512992999
 20
92.9906243813
 10
38.8588792372
 20
92.923873112
 10
38.8695058468
 20
92.8590391558
 10
38.8831419232
 20
92.7962937109
 10
38.8996758501
 20
92.7361503726
 10
38.9191314123
 20
92.6786304985
 10
38.9414848249
 20
92.623712731
 10
38.9665531168
 20
92.5718465928
 10
38.9943585711
 20
92.523057131
 10
39.0248789046
 20
92.4773192986
 10
39.057864297
 20
92.4350074769
 10
39.0933349808
 20
92.396149786
 10
39.1312707234
 20
92.3607181058
 10
39.1713610064
 20
92.3290024581
 10
39.2136235138
 20
92.3010333433
 10
39.2545080989
 20
92.2785332244
  0
LINE
  5
3C6
100
AcDbEntity
  8
ASSI
100
AcDbLine
 62
7
  6
CONTINUOUS
 10
40.3654474056
 20
94.5976390251
 11
40.3638864021
 21
94.6685673173
  0
LWPOLYLINE
  5
3C7
100
AcDbEntity
  8
ASSI
100
AcDbPolyline
 62
7
  6
CONTINUOUS
 90
18
 70
0
 10
41.0725541868
 20
94.2440856345
 10
41.0709931833
 20
94.3150139267
 10
41.0664227129
 20
94.3838537074
 10
41.0588427757
 20
94.4506049767
 10
41.0482161661
 20
94.5154389329
 10
41.0345800896
 20
94.5781843778
 10
41.0180461628
 20
94.6383277161
 10
40.9985906006
 20
94.6958475902
 10
40.976237188
 20
94.7507653577
 10
40.9511688961
 20
94.8026314959
 10
40.9233634418
 20
94.8514209577
 10
40.8928431082
 20
94.8971587901
 10
40.8598577159
 20
94.9394706118
 10
40.8243870321
 20
94.9783283027
 10
40.7864512894
 20
95.0137599829
 10
40.7463610064
 20
95.0454756306
 10
40.704098499
 20
95.0734447454
 10
40.663213914
 20
95.0959448644
  0
LINE
  5
3C8
100
AcDbEntity
  8
0
100
AcDbLine
 62
7
  6
CONTINUOUS
 10
41.6205619422
 20
-117.5651913475
 11
41.6205619422
 21
-117.3983267938
  0
LINE
  5
3C9
100
AcDbEntity
  8
0
100
AcDbLine
 62
7
  6
CONTINUOUS
 10
41.8326939766
 20
102.9443399328
 11
41.8326939766
 21
102.078314529
  0
LINE
  5
3CA
100
AcDbEntity
  8
0
100
AcDbLine
 62
253
  6
CONTINUOUS
 10
44.8378977966
 20
105.154048624
 11
44.8378977966
 21
104.4822971819
  0
LINE
  5
3CB
100
AcDbEntity
  8
0
100
AcDbLine
 62
7
  6
CONTINUOUS
 10
44.8732531357
 20
104.4646195123
 11
44.8732531357
 21
103.5985941086
  0
LINE
  5
3CC
100
AcDbEntity
  8
0
100
AcDbLine
 62
7
  6
CONTINUOUS
 10
44.8732531357
 20
-115.9388457508
 11
44.8732531357
 21
-115.7719811971
  0
LINE
  5
3CD
100
AcDbEntity
  8
0
100
AcDbLine
 62
253
  6
CONTINUOUS
 10
45.5803599169
 20
-112.2864498947
 11
45.5803599169
 21
-110.7276041679
  0
LINE
  5
3CE
100
AcDbEntity
  8
0
100
AcDbLine
 62
253
  6
CONTINUOUS
 10
45.5803599169
 20
-85.7860725389
 11
45.5803599169
 21
-84.2272268121
  0
LINE
  5
3CF
100
AcDbEntity
  8
0
100
AcDbLine
 62
253
  6
CONTINUOUS
 10
45.5803599169
 20
-59.2568276696
 11
45.5803599169
 21
-57.6979819428
  0
LINE
  5
3D0
100
AcDbEntity
  8
0
100
AcDbLine
 62
253
  6
CONTINUOUS
 10
45.5803599169
 20
-32.7275828004
 11
45.5803599169
 21
-31.1687370736
  0
LINE
  5
3D1
100
AcDbEntity
  8
0
100
AcDbLine
 62
7
  6
CONTINUOUS
 10
45.5803599169
 20
-6.1983379311
 11
45.5803599169
 21
-31.1687370736
  0
LINE
  5
3D2
100
AcDbEntity
  8
0
100
AcDbLine
 62
253
  6
CONTINUOUS
 10
45.5803599169
 20
-6.1983379311
 11
45.5803599169
 21
-4.6394922043
  0
LINE
  5
3D3
100
AcDbEntity
  8
0
100
AcDbLine
 62
7
  6
CONTINUOUS
 10
45.5803599169
 20
-32.7275828004
 11
45.5803599169
 21
-57.6979819428
  0
LINE
  5
3D4
100
AcDbEntity
  8
0
100
AcDbLine
 62
7
  6
CONTINUOUS
 10
45.5803599169
 20
-4.6394922043
 11
45.5803599169
 21
20.3309069382
  0
LINE
  5
3D5
100
AcDbEntity
  8
0
100
AcDbLine
 62
253
  6
CONTINUOUS
 10
45.5803599169
 20
20.3309069382
 11
45.5803599169
 21
21.889752665
  0
LINE
  5
3D6
100
AcDbEntity
  8
0
100
AcDbLine
 62
7
  6
CONTINUOUS
 10
45.5803599169
 20
-59.2568276696
 11
45.5803599169
 21
-84.2272268121
  0
LINE
  5
3D7
100
AcDbEntity
  8
0
100
AcDbLine
 62
7
  6
CONTINUOUS
 10
45.5803599169
 20
21.889752665
 11
45.5803599169
 21
46.8601518074
  0
LINE
  5
3D8
100
AcDbEntity
  8
0
100
AcDbLine
 62
253
  6
CONTINUOUS
 10
45.5803599169
 20
46.8601518074
 11
45.5803599169
 21
48.4189975342
  0
LINE
  5
3D9
100
AcDbEntity
  8
0
100
AcDbLine
 62
7
  6
CONTINUOUS
 10
45.5803599169
 20
-85.7860725389
 11
45.5803599169
 21
-110.7276041679
  0
LINE
  5
3DA
100
AcDbEntity
  8
0
100
AcDbLine
 62
7
  6
CONTINUOUS
 10
45.5803599169
 20
-112.2864498947
 11
45.5803599169
 21
-114.2783083234
  0
LINE
  5
3DB
100
AcDbEntity
  8
0
100
AcDbLine
 62
7
  6
CONTINUOUS
 10
45.5803599169
 20
48.4189975342
 11
45.5803599169
 21
73.3893966767
  0
LINE
  5
3DC
100
AcDbEntity
  8
0
100
AcDbLine
 62
253
  6
CONTINUOUS
 10
45.5803599169
 20
73.3893966767
 11
45.5803599169
 21
74.9482424035
  0
LINE
  5
3DD
100
AcDbEntity
  8
0
100
AcDbLine
 62
7
  6
CONTINUOUS
 10
45.5803599169
 20
74.9482424035
 11
45.5803599169
 21
99.8897740325
  0
LINE
  5
3DE
100
AcDbEntity
  8
0
100
AcDbLine
 62
253
  6
CONTINUOUS
 10
45.5803599169
 20
99.8897740325
 11
45.5803599169
 21
101.4486197593
  0
LINE
  5
3DF
100
AcDbEntity
  8
0
100
AcDbLine
 62
7
  6
CONTINUOUS
 10
45.5803599169
 20
101.4486197593
 11
45.5803599169
 21
104.6159530101
  0
LINE
  5
3E0
100
AcDbEntity
  8
0
100
AcDbLine
 62
7
  6
CONTINUOUS
 10
45.8878977966
 20
-111.9152188346
 11
45.8878977966
 21
-110.3563731078
  0
LINE
  5
3E1
100
AcDbEntity
  8
0
100
AcDbLine
 62
7
  6
CONTINUOUS
 10
45.8878977966
 20
-85.4148414788
 11
45.8878977966
 21
-83.855995752
  0
LINE
  5
3E2
100
AcDbEntity
  8
0
100
AcDbLine
 62
7
  6
CONTINUOUS
 10
45.8878977966
 20
-58.8855966095
 11
45.8878977966
 21
-57.3267508827
  0
LINE
  5
3E3
100
AcDbEntity
  8
0
100
AcDbLine
 62
7
  6
CONTINUOUS
 10
45.8878977966
 20
-32.3563517402
 11
45.8878977966
 21
-30.7975060134
  0
LINE
  5
3E4
100
AcDbEntity
  8
0
100
AcDbLine
 62
7
  6
CONTINUOUS
 10
45.8878977966
 20
-5.827106871
 11
45.8878977966
 21
-4.2682611442
  0
LINE
  5
3E5
100
AcDbEntity
  8
0
100
AcDbLine
 62
7
  6
CONTINUOUS
 10
45.8878977966
 20
20.7021379983
 11
45.8878977966
 21
22.2609837251
  0
LINE
  5
3E6
100
AcDbEntity
  8
0
100
AcDbLine
 62
7
  6
CONTINUOUS
 10
45.8878977966
 20
47.2313828675
 11
45.8878977966
 21
48.7902285944
  0
LINE
  5
3E7
100
AcDbEntity
  8
0
100
AcDbLine
 62
7
  6
CONTINUOUS
 10
45.8878977966
 20
73.7606277368
 11
45.8878977966
 21
75.3194734636
  0
LINE
  5
3E8
100
AcDbEntity
  8
0
100
AcDbLine
 62
7
  6
CONTINUOUS
 10
45.8878977966
 20
100.2610050926
 11
45.8878977966
 21
101.8198508194
  0
LINE
  5
3E9
100
AcDbEntity
  8
ASSI
100
AcDbLine
 62
7
  6
CONTINUOUS
 10
40.3638864021
 20
-110.7228709674
 11
40.3654474056
 21
-110.6503816718
  0
LWPOLYLINE
  5
3EA
100
AcDbEntity
  8
0
100
AcDbPolyline
 62
7
  6
CONTINUOUS
 90
17
 70
0
 10
42.3630240625
 20
-117.0270957337
 10
42.3617326853
 20
-117.0796174406
 10
42.357972796
 20
-117.1303718026
 10
42.3517443946
 20
-117.1793588196
 10
42.343009786
 20
-117.2267319411
 10
42.3318066653
 20
-117.2723377177
 10
42.3182481178
 20
-117.3157158007
 10
42.3023102874
 20
-117.3568436276
 10
42.2840170301
 20
-117.3957437609
 10
42.2635529997
 20
-117.4320235393
 10
42.2408962103
 20
-117.4656564233
 10
42.2160686477
 20
-117.4966689524
 10
42.1893209237
 20
-117.5247480835
 10
42.1606335903
 20
-117.5498641065
 10
42.1300260955
 20
-117.5720467314
 10
42.0978073938
 20
-117.5910720449
 10
42.090135393
 20
-117.5950115745
  0
LWPOLYLINE
  5
3EB
100
AcDbEntity
  8
0
100
AcDbPolyline
 62
7
  6
CONTINUOUS
 90
17
 70
0
 10
43.6358162686
 20
-116.3906996306
 10
43.6345248914
 20
-116.4432213375
 10
43.6307650021
 20
-116.4939756995
 10
43.6245366007
 20
-116.5429627165
 10
43.6158019921
 20
-116.5903358381
 10
43.6045988715
 20
-116.6359416147
 10
43.591040324
 20
-116.6793196977
 10
43.5751024935
 20
-116.7204475246
 10
43.5568092362
 20
-116.7593476579
 10
43.5363452058
 20
-116.7956274362
 10
43.5136884164
 20
-116.8292603203
 10
43.4888608539
 20
-116.8602728494
 10
43.4621131298
 20
-116.8883519804
 10
43.4334257965
 20
-116.9134680034
 10
43.4028183016
 20
-116.9356506283
 10
43.3705995999
 20
-116.9546759418
 10
43.3629275991
 20
-116.9586154714
  0
LWPOLYLINE
  5
3EC
100
AcDbEntity
  8
ASSI
100
AcDbPolyline
 62
7
  6
CONTINUOUS
 90
13
 70
0
 10
24.9871285981
 20
36.5897696796
 10
25.2300670878
 20
36.5134746271
 10
25.4778677303
 20
36.4495961653
 10
25.7305460056
 20
36.3981738257
 10
25.9880864337
 20
36.3591680767
 10
26.2496699331
 20
36.3327029722
 10
26.5153093762
 20
36.3188184386
 10
26.7849918906
 20
36.3174745496
 10
27.0578597783
 20
36.3286755791
 10
27.3339231807
 20
36.3524614674
 10
27.6131719563
 20
36.3887922742
 10
27.8947179826
 20
36.4375524532
 10
27.9386757992
 20
36.4470345493
  0
LINE
  5
3ED
100
AcDbEntity
  8
ASSI
100
AcDbLine
 62
7
  6
CONTINUOUS
 10
24.7637225281
 20
36.6730575116
 11
24.9871285981
 21
36.5897696796
  0
LWPOLYLINE
  5
3EE
100
AcDbEntity
  8
ASSI
100
AcDbPolyline
 62
7
  6
CONTINUOUS
 90
69
 70
0
 10
25.3328392051
 20
36.9286523726
 10
25.4510840603
 20
36.8716379503
 10
25.6734104961
 20
36.7754313962
 10
25.9011428467
 20
36.6909222875
 10
26.1342640066
 20
36.6180736116
 10
26.3720347836
 20
36.5571163608
 10
26.6144699364
 20
36.5080882809
 10
26.8615547062
 20
36.470951626
 10
27.1125056241
 20
36.445824151
 10
27.3673349619
 20
36.4327439754
 10
27.6260304479
 20
36.4316729798
 10
27.887771797
 20
36.4426145599
 10
28.1525686776
 20
36.4656068463
 10
28.4204114215
 20
36.5006117084
 10
28.6904507391
 20
36.5475181512
 10
28.9626936031
 20
36.6063639528
 10
29.2371330408
 20
36.6771113349
 10
29.5128988459
 20
36.7595359683
 10
29.7899952284
 20
36.8536749189
 10
30.0684179783
 20
36.9594911207
 10
30.3472842584
 20
37.0766490463
 10
30.6265954767
 20
37.2051846968
 10
30.9063502253
 20
37.3450620711
 10
31.1856614436
 20
37.4958376389
 10
31.4645277238
 20
37.6575459934
 10
31.7429504736
 20
37.8301525414
 10
32.0200468561
 20
38.0131099734
 10
32.2958126612
 20
38.2064511451
 10
32.570252099
 20
38.4101432007
 10
32.8424949629
 20
38.6235402631
 10
33.1125342805
 20
38.846673138
 10
33.3803770244
 20
39.0795110196
 10
33.645173905
 20
39.3213156139
 10
33.9069152541
 20
39.5721153829
 10
34.1656107401
 20
39.8318818645
 10
34.4204400779
 20
40.0997913779
 10
34.6713909958
 20
40.3758697708
 10
34.9184757656
 20
40.6600911955
 10
35.1609109184
 20
40.9515544282
 10
35.3986816954
 20
41.250282456
 10
35.6318028554
 20
41.5562522919
 10
35.8595352059
 20
41.8684937511
 10
36.0818616418
 20
42.187026741
 10
36.2987992682
 20
42.5118313543
 10
36.5096602083
 20
42.8418776839
 10
36.7144251735
 20
43.1771823682
 10
36.9131134524
 20
43.5177287688
 10
37.1050950341
 20
43.8624370639
 10
37.2903486301
 20
44.2113204642
 10
37.468895529
 20
44.564365759
 10
37.640169585
 20
44.9204534943
 10
37.8041477127
 20
45.2795933275
 10
37.9608529977
 20
45.6417756012
 10
38.1097885508
 20
46.0058518894
 10
38.2509297092
 20
46.3718282041
 10
38.3843011358
 20
46.7396985334
 10
38.5094799296
 20
47.1082964152
 10
38.6264400854
 20
47.477624159
 10
38.7352076085
 20
47.8476794554
 10
38.8354376133
 20
48.2172889143
 10
38.9271029997
 20
48.5864511203
 10
39.0102308678
 20
48.9551674888
 10
39.0845576315
 20
49.3222688751
 10
39.1500553542
 20
49.6877501529
 10
39.2067519724
 20
50.0516164485
 10
39.2544677096
 20
50.4127139962
 10
39.2931426404
 20
50.7706582073
 10
39.3228366901
 20
51.1258336704
 10
39.3435498589
 20
51.4782403856
  0
LWPOLYLINE
  5
3EF
100
AcDbEntity
  8
ASSI
100
AcDbPolyline
 62
7
  6
CONTINUOUS
 90
69
 70
0
 10
25.1092329725
 20
36.4814399073
 10
25.2252807226
 20
36.4253669785
 10
25.4569316839
 20
36.3246852833
 10
25.6942353793
 20
36.236216289
 10
25.937173869
 20
36.1599212366
 10
26.1849745115
 20
36.0960427747
 10
26.4376527868
 20
36.0446204351
 10
26.6951932149
 20
36.0056146861
 10
26.9567767143
 20
35.9791495816
 10
27.2224161574
 20
35.9652650481
 10
27.4920986718
 20
35.963921159
 10
27.7649665595
 20
35.9751221885
 10
28.0410299619
 20
35.9989080768
 10
28.3202787375
 20
36.0352388837
 10
28.6018247638
 20
36.0839990626
 10
28.8856753545
 20
36.1452281859
 10
29.1718231959
 20
36.2188866813
 10
29.4593582234
 20
36.3047402854
 10
29.7482848535
 20
36.4028278246
 10
30.0385986698
 20
36.5131104724
 10
30.3293763584
 20
36.635237486
 10
30.6206193961
 20
36.7692465752
 10
30.912326306
 20
36.9151000302
 10
31.2035693436
 20
37.0723339787
 10
31.4943470322
 20
37.2409846536
 10
31.7846608485
 20
37.4210158221
 10
32.0735874786
 20
37.611854913
 10
32.3611225061
 20
37.8135363364
 10
32.6472703475
 20
38.0260256824
 10
32.9311209382
 20
38.2486471498
 10
33.2126669645
 20
38.4814329971
 10
33.4919157401
 20
38.7243509659
 10
33.7679791426
 20
38.9766284801
 10
34.0408470302
 20
39.2382953382
 10
34.3105295446
 20
39.5093217417
 10
34.5761689877
 20
39.7888457182
 10
34.8377524871
 20
40.0768943222
 10
35.0952929152
 20
40.3734404993
 10
35.3479711905
 20
40.6775411142
 10
35.595771833
 20
40.9892202186
 10
35.8387103227
 20
41.3084537607
 10
36.0760140181
 20
41.6342264504
 10
36.3076649794
 20
41.9665591069
 10
36.5336811465
 20
42.305430911
 10
36.7533436976
 20
42.6497641151
 10
36.9666324043
 20
42.9995761069
 10
37.173567495
 20
43.3548494986
 10
37.3734908336
 20
43.7144543789
 10
37.5663800961
 20
44.0784045384
 10
37.7522576065
 20
44.4466861864
 10
37.9305321999
 20
44.8181280403
 10
38.1011796705
 20
45.1927401614
 10
38.2642242241
 20
45.5705124884
 10
38.419147314
 20
45.9502435544
 10
38.5659230833
 20
46.3319395955
 10
38.7045773888
 20
46.7155943755
 10
38.8346692545
 20
47.099987719
 10
38.9561714196
 20
47.4851219775
 10
39.0691111448
 20
47.8709947995
 10
39.1731292368
 20
48.2563789552
 10
39.2681972911
 20
48.641272889
 10
39.3543437121
 20
49.0256781565
 10
39.4312945198
 20
49.4083721955
 10
39.4990204376
 20
49.7893495579
 10
39.557550742
 20
50.1686156917
 10
39.6066992834
 20
50.5449643792
 10
39.6464040119
 20
50.9179935478
 10
39.6767269773
 20
51.2881052701
 10
39.6976681797
 20
51.655299546
  0
LINE
  5
3F0
100
AcDbEntity
  8
ASSI
100
AcDbLine
 62
7
  6
CONTINUOUS
 10
24.6257208845
 20
37.2821826842
 11
25.3328276657
 21
36.9286292936
  0
LWPOLYLINE
  5
3F1
100
AcDbEntity
  8
ASSI
100
AcDbPolyline
 62
7
  6
CONTINUOUS
 90
5
 70
0
 10
24.6198322496
 20
37.3710881674
 10
24.8185205285
 20
37.2292300457
 10
25.0232854937
 20
37.0986903266
 10
25.2341464338
 20
36.9795049371
 10
25.3328392051
 20
36.9286523726
  0
LWPOLYLINE
  5
3F2
100
AcDbEntity
  8
ASSI
100
AcDbPolyline
 62
7
  6
CONTINUOUS
 90
13
 70
0
 10
22.6764110572
 20
39.0792342447
 10
22.7160503701
 20
39.0160895802
 10
22.8649859231
 20
38.8009488451
 10
23.0216912081
 20
38.5954718563
 10
23.1856693358
 20
38.4003101509
 10
23.3569433919
 20
38.2154964716
 10
23.5354902907
 20
38.0409980757
 10
23.7207438867
 20
37.8773682714
 10
23.9127254684
 20
37.724641558
 10
24.1114137473
 20
37.5827834363
 10
24.3161787125
 20
37.4522437172
 10
24.5270396526
 20
37.3330583277
 10
24.6257324239
 20
37.2822057632
  0
LWPOLYLINE
  5
3F3
100
AcDbEntity
  8
ASSI
100
AcDbPolyline
 62
7
  6
CONTINUOUS
 90
16
 70
0
 10
31.4893752292
 20
89.1943473783
 10
31.5016211964
 20
89.1154934324
 10
31.5173380909
 20
89.0390156854
 10
31.5364091728
 20
88.9654821897
 10
31.5588594177
 20
88.8949148683
 10
31.5846638498
 20
88.8272917981
 10
31.6136308023
 20
88.7631152616
 10
31.6457838235
 20
88.702410922
 10
31.681099365
 20
88.6451531162
 10
31.7193151142
 20
88.5917671367
 10
31.7604526664
 20
88.5422818137
 10
31.8044904263
 20
88.496668317
 10
31.8511012955
 20
88.4552654491
 10
31.9003044337
 20
88.4181045629
 10
31.9520806813
 20
88.3851543055
 10
31.9933668543
 20
88.3628524575
  0
LWPOLYLINE
  5
3F4
100
AcDbEntity
  8
0
100
AcDbPolyline
 62
7
  6
CONTINUOUS
 90
15
 70
0
 10
45.887875019
 20
101.8198508194
 10
45.887433598
 20
101.8351545669
 10
45.8839022296
 20
101.8656075844
 10
45.8768037266
 20
101.89590456
 10
45.8661738552
 20
101.9260470582
 10
45.8521199142
 20
101.9557308181
 10
45.8346072242
 20
101.9849511935
 10
45.8136704646
 20
102.0137128306
 10
45.789520973
 20
102.0417254068
 10
45.7621262102
 20
102.0689813357
 10
45.7315187154
 20
102.0954882038
 10
45.6980074431
 20
102.1209784485
 10
45.6616953784
 20
102.1453628823
 10
45.6224795363
 20
102.1687306926
 10
45.5803599169
 20
102.1910818795
  0
LWPOLYLINE
  5
3F5
100
AcDbEntity
  8
0
100
AcDbPolyline
 62
7
  6
CONTINUOUS
 90
15
 70
0
 10
45.5803599169
 20
-31.1687370736
 10
45.6224795363
 20
-31.1463858866
 10
45.6616953784
 20
-31.1230180763
 10
45.6980074431
 20
-31.0986336425
 10
45.7315187154
 20
-31.0731433978
 10
45.7621262102
 20
-31.0466365297
 10
45.789520973
 20
-31.0193806008
 10
45.8136704646
 20
-30.9913680246
 10
45.8346072242
 20
-30.9626063875
 10
45.8521199142
 20
-30.9333860121
 10
45.8661738552
 20
-30.9037022522
 10
45.8768037266
 20
-30.873559754
 10
45.8839022296
 20
-30.8432627784
 10
45.887433598
 20
-30.8128097609
 10
45.887875019
 20
-30.7975060134
  0
LWPOLYLINE
  5
3F6
100
AcDbEntity
  8
0
100
AcDbPolyline
 62
7
  6
CONTINUOUS
 90
15
 70
0
 10
45.5803599169
 20
-32.7275828004
 10
45.6224795363
 20
-32.7052316134
 10
45.6616953784
 20
-32.6818638031
 10
45.6980074431
 20
-32.6574793693
 10
45.7315187154
 20
-32.6319891246
 10
45.7621262102
 20
-32.6054822565
 10
45.789520973
 20
-32.5782263277
 10
45.8136704646
 20
-32.5502137514
 10
45.8346072242
 20
-32.5214521143
 10
45.8521199142
 20
-32.4922317389
 10
45.8661738552
 20
-32.462547979
 10
45.8768037266
 20
-32.4324054808
 10
45.8839022296
 20
-32.4021085052
 10
45.887433598
 20
-32.3716554877
 10
45.887875019
 20
-32.3563517402
  0
LINE
  5
3F7
100
AcDbEntity
  8
ASSI
100
AcDbLine
 62
7
  6
CONTINUOUS
 10
22.1893958431
 20
44.113598943
 11
21.8549130878
 21
44.2808403206
  0
LINE
  5
3F8
100
AcDbEntity
  8
0
100
AcDbLine
 62
7
  6
CONTINUOUS
 10
9.1997160248
 20
85.2135563052
 11
7.9976344968
 21
87.2868402556
  0
LINE
  5
3F9
100
AcDbEntity
  8
0
100
AcDbLine
 62
7
  6
CONTINUOUS
 10
-45.1767954484
 20
-95.3286675141
 11
-43.3130032639
 21
-94.3967714218
  0
LINE
  5
3FA
100
AcDbEntity
  8
0
100
AcDbLine
 62
7
  6
CONTINUOUS
 10
-44.1161352766
 20
-95.8589976
 11
-42.9140537486
 21
-95.257956836
  0
LWPOLYLINE
  5
3FB
100
AcDbEntity
  8
ASSI
100
AcDbPolyline
 62
7
  6
CONTINUOUS
 90
65
 70
0
 10
35.3986816954
 20
58.9737657169
 10
35.1609109184
 20
59.0347229678
 10
34.9184757656
 20
59.0837510477
 10
34.6713909958
 20
59.1208877026
 10
34.4204400779
 20
59.1460151776
 10
34.1656107401
 20
59.1590953531
 10
33.9069152541
 20
59.1601663488
 10
33.645173905
 20
59.1492247687
 10
33.3803770244
 20
59.1262324823
 10
33.1125342805
 20
59.0912276201
 10
32.8424949629
 20
59.0443211773
 10
32.570252099
 20
58.9854753758
 10
32.2958126612
 20
58.9147279937
 10
32.0200468561
 20
58.8323033603
 10
31.7429504736
 20
58.7381644097
 10
31.4645277238
 20
58.6323482079
 10
31.1856614436
 20
58.5151902822
 10
30.9063502253
 20
58.3866546318
 10
30.6265954767
 20
58.2467772575
 10
30.3472842584
 20
58.0960016896
 10
30.0684179783
 20
57.9342933351
 10
29.7899952284
 20
57.7616867871
 10
29.5128988459
 20
57.5787293552
 10
29.2371330408
 20
57.3853881835
 10
28.9626936031
 20
57.1816961279
 10
28.6904507391
 20
56.9682990655
 10
28.4204114215
 20
56.7451661906
 10
28.1525686776
 20
56.5123283089
 10
27.887771797
 20
56.2705237147
 10
27.6260304479
 20
56.0197239457
 10
27.3673349619
 20
55.7599574641
 10
27.1125056241
 20
55.4920479507
 10
26.8615547062
 20
55.2159695578
 10
26.6144699364
 20
54.9317481331
 10
26.3720347836
 20
54.6402849003
 10
26.1342640066
 20
54.3415568725
 10
25.9011428467
 20
54.0355870367
 10
25.6734104961
 20
53.7233455775
 10
25.4510840603
 20
53.4048125875
 10
25.2341464338
 20
53.0800079743
 10
25.0232854937
 20
52.7499616446
 10
24.8185205285
 20
52.4146569604
 10
24.6198322496
 20
52.0741105598
 10
24.4278506679
 20
51.7294022647
 10
24.2425970719
 20
51.3805188644
 10
24.064050173
 20
51.0274735696
 10
23.892776117
 20
50.6713858342
 10
23.7287979893
 20
50.3122460011
 10
23.5720927043
 20
49.9500637274
 10
23.4231571513
 20
49.5859874392
 10
23.2820159928
 20
49.2200111245
 10
23.1486445662
 20
48.8521407952
 10
23.0234657725
 20
48.4835429134
 10
22.9065056166
 20
48.1142151695
 10
22.7977380935
 20
47.7441598731
 10
22.6975080888
 20
47.3745504143
 10
22.6058427023
 20
47.0053882082
 10
22.5227148342
 20
46.6366718398
 10
22.4483880705
 20
46.2695704535
 10
22.3828903478
 20
45.9040891757
 10
22.3261937296
 20
45.54022288
 10
22.2784779924
 20
45.1791253324
 10
22.2398030616
 20
44.8211811213
 10
22.2101090119
 20
44.4660056582
 10
22.1893958431
 20
44.113598943
  0
LINE
  5
3FC
100
AcDbEntity
  8
ASSI
100
AcDbLine
 62
7
  6
CONTINUOUS
 10
35.6318028554
 20
58.900917041
 11
35.3986816954
 21
58.9737657169
  0
LINE
  5
3FD
100
AcDbEntity
  8
0
100
AcDbLine
 62
7
  6
CONTINUOUS
 10
14.5030168837
 20
60.824226345
 11
13.7959101025
 21
61.1777797356
  0
LINE
  5
3FE
100
AcDbEntity
  8
0
100
AcDbLine
 62
253
  6
CONTINUOUS
 10
13.6544887463
 20
62.4061071632
 11
12.962039809
 21
62.7523316318
  0
LINE
  5
3FF
100
AcDbEntity
  8
ASSI
100
AcDbLine
 62
7
  6
CONTINUOUS
 10
39.6976681797
 20
52.8677351113
 11
39.3197030664
 21
53.056717668
  0
LWPOLYLINE
  5
400
100
AcDbEntity
  8
0
100
AcDbPolyline
 62
7
  6
CONTINUOUS
 90
17
 70
0
 10
13.207275936
 20
62.377706947
 10
13.1999692686
 20
62.3814588799
 10
13.1692847908
 20
62.3995782261
 10
13.1401347957
 20
62.4207045356
 10
13.1128135259
 20
62.4446245575
 10
13.0873395029
 20
62.4713665871
 10
13.0636942053
 20
62.5009023291
 10
13.0421163106
 20
62.5329336472
 10
13.0226267578
 20
62.5674858171
 10
13.0052046081
 20
62.6045335631
 10
12.9900257219
 20
62.643702922
 10
12.9771128195
 20
62.685015382
 10
12.9664431808
 20
62.728449455
 10
12.958124506
 20
62.7735667136
 10
12.9521926951
 20
62.8202210155
 10
12.9486118482
 20
62.8685585031
 10
12.9473819651
 20
62.9185791764
  0
LWPOLYLINE
  5
401
100
AcDbEntity
  8
ASSI
100
AcDbPolyline
 62
7
  6
CONTINUOUS
 90
12
 70
0
 10
38.1494278636
 20
56.8661584745
 10
38.1275624733
 20
56.9136014036
 10
37.9974706076
 20
57.1679028814
 10
37.8588163021
 20
57.412903356
 10
37.7120405328
 20
57.6478236278
 10
37.5571174429
 20
57.8726316038
 10
37.3940728893
 20
58.0873593772
 10
37.2234254187
 20
58.2913240278
 10
37.0451508253
 20
58.4844912882
 10
36.859273315
 20
58.6668954259
 10
36.6663840524
 20
58.8379563228
 10
36.4664607138
 20
58.9976378646
  0
LWPOLYLINE
  5
402
100
AcDbEntity
  8
0
100
AcDbPolyline
 62
7
  6
CONTINUOUS
 90
3
 70
0
 10
45.5196461418
 20
-114.3593205741
 10
45.5355839722
 20
-114.3022549167
 10
45.536005299
 20
-114.3004856323
  0
LWPOLYLINE
  5
403
100
AcDbEntity
  8
0
100
AcDbPolyline
 62
7
  6
CONTINUOUS
 90
15
 70
0
 10
45.5803599169
 20
-57.6979819428
 10
45.6224795363
 20
-57.6756307559
 10
45.6616953784
 20
-57.6522629455
 10
45.6980074431
 20
-57.6278785118
 10
45.7315187154
 20
-57.6023882671
 10
45.7621262102
 20
-57.575881399
 10
45.789520973
 20
-57.5486254701
 10
45.8136704646
 20
-57.5206128938
 10
45.8346072242
 20
-57.4918512568
 10
45.8521199142
 20
-57.4626308814
 10
45.8661738552
 20
-57.4329471215
 10
45.8768037266
 20
-57.4028046232
 10
45.8839022296
 20
-57.3725076476
 10
45.887433598
 20
-57.3420546301
 10
45.887875019
 20
-57.3267508827
  0
LWPOLYLINE
  5
404
100
AcDbEntity
  8
0
100
AcDbPolyline
 62
7
  6
CONTINUOUS
 90
15
 70
0
 10
45.5803599169
 20
-59.2568276696
 10
45.6224795363
 20
-59.2344764827
 10
45.6616953784
 20
-59.2111086723
 10
45.6980074431
 20
-59.1867242386
 10
45.7315187154
 20
-59.1612339939
 10
45.7621262102
 20
-59.1347271258
 10
45.789520973
 20
-59.1074711969
 10
45.8136704646
 20
-59.0794586206
 10
45.8346072242
 20
-59.0506969836
 10
45.8521199142
 20
-59.0214766082
 10
45.8661738552
 20
-58.9917928483
 10
45.8768037266
 20
-58.96165035
 10
45.8839022296
 20
-58.9313533745
 10
45.887433598
 20
-58.9009003569
 10
45.887875019
 20
-58.8855966095
  0
LINE
  5
405
100
AcDbEntity
  8
0
100
AcDbLine
 62
7
  6
CONTINUOUS
 10
-45.8485468906
 20
-103.6530458309
 11
-45.8052456204
 21
-103.6313951958
  0
LINE
  5
406
100
AcDbEntity
  8
0
100
AcDbLine
 62
7
  6
CONTINUOUS
 10
-41.6767790603
 20
-103.2995735296
 11
-44.1161352766
 21
-104.5192516378
  0
LWPOLYLINE
  5
407
100
AcDbEntity
  8
ASSI
100
AcDbPolyline
 62
7
  6
CONTINUOUS
 90
4
 70
0
 10
36.2001064969
 20
58.663186956
 10
36.0818616418
 20
58.7202013783
 10
35.8595352059
 20
58.8164079324
 10
35.6318028554
 20
58.900917041
  0
LWPOLYLINE
  5
408
100
AcDbEntity
  8
ASSI
100
AcDbPolyline
 62
7
  6
CONTINUOUS
 90
13
 70
0
 10
35.4929997157
 20
59.0167403465
 10
35.3747548606
 20
59.0737547689
 10
35.1524284247
 20
59.169961323
 10
34.9246960742
 20
59.2544704316
 10
34.6915749142
 20
59.3273191075
 10
34.4538041373
 20
59.3882763584
 10
34.2113689844
 20
59.4373044383
 10
33.9642842146
 20
59.4744410932
 10
33.7133332967
 20
59.4995685682
 10
33.4585039589
 20
59.5126487437
 10
33.199808473
 20
59.5137197394
 10
32.9380671238
 20
59.5027781593
 10
32.8871631217
 20
59.4983581699
  0
LWPOLYLINE
  5
409
100
AcDbEntity
  8
ASSI
100
AcDbPolyline
 62
7
  6
CONTINUOUS
 90
69
 70
0
 10
36.4237127295
 20
59.1103994212
 10
36.3076649794
 20
59.1664723501
 10
36.0760140181
 20
59.2671540453
 10
35.8387103227
 20
59.3556230396
 10
35.595771833
 20
59.431918092
 10
35.3479711905
 20
59.4957965538
 10
35.0952929152
 20
59.5472188934
 10
34.8377524871
 20
59.5862246425
 10
34.5761689877
 20
59.612689747
 10
34.3105295446
 20
59.6265742805
 10
34.0408470302
 20
59.6279181696
 10
33.7679791426
 20
59.61671714
 10
33.4919157401
 20
59.5929312518
 10
33.2126669645
 20
59.5566004449
 10
32.9311209382
 20
59.507840266
 10
32.6472703475
 20
59.4466111426
 10
32.3611225061
 20
59.3729526472
 10
32.0735874786
 20
59.2870990432
 10
31.7846608485
 20
59.189011504
 10
31.4943470322
 20
59.0787288561
 10
31.2035693436
 20
58.9566018425
 10
30.912326306
 20
58.8225927533
 10
30.6206193961
 20
58.6767392984
 10
30.3293763584
 20
58.5195053499
 10
30.0385986698
 20
58.350854675
 10
29.7482848535
 20
58.1708235065
 10
29.4593582234
 20
57.9799844156
 10
29.1718231959
 20
57.7783029921
 10
28.8856753545
 20
57.5658136462
 10
28.6018247638
 20
57.3431921788
 10
28.3202787375
 20
57.1104063314
 10
28.0410299619
 20
56.8674883626
 10
27.7649665595
 20
56.6152108485
 10
27.4920986718
 20
56.3535439903
 10
27.2224161574
 20
56.0825175869
 10
26.9567767143
 20
55.8029936103
 10
26.6951932149
 20
55.5149450063
 10
26.4376527868
 20
55.2183988292
 10
26.1849745115
 20
54.9142982143
 10
25.937173869
 20
54.60261911
 10
25.6942353793
 20
54.2833855679
 10
25.4569316839
 20
53.9576128782
 10
25.2252807226
 20
53.6252802217
 10
24.9992645555
 20
53.2864084175
 10
24.7796020044
 20
52.9420752135
 10
24.5663132977
 20
52.5922632217
 10
24.359378207
 20
52.23698983
 10
24.1594548684
 20
51.8773849496
 10
23.9665656059
 20
51.5134347902
 10
23.7806880955
 20
51.1451531422
 10
23.6024135021
 20
50.7737112883
 10
23.4317660315
 20
50.3990991671
 10
23.2687214779
 20
50.0213268401
 10
23.113798388
 20
49.6415957742
 10
22.9670226188
 20
49.2598997331
 10
22.8283683132
 20
48.8762449531
 10
22.6982764475
 20
48.4918516095
 10
22.5767742825
 20
48.1067173511
 10
22.4638345572
 20
47.7208445291
 10
22.3598164652
 20
47.3354603733
 10
22.264748411
 20
46.9505664396
 10
22.1786019899
 20
46.5661611721
 10
22.1016511822
 20
46.183467133
 10
22.0339252645
 20
45.8024897707
 10
21.97539496
 20
45.4232236369
 10
21.9262464186
 20
45.0468749494
 10
21.8865416901
 20
44.6738457808
 10
21.8562187247
 20
44.3037340585
 10
21.8352775223
 20
43.9365397826
  0
LINE
  5
40A
100
AcDbEntity
  8
0
100
AcDbLine
 62
7
  6
CONTINUOUS
 10
14.5030168837
 20
69.4844803829
 11
13.7959101025
 21
69.8380337734
  0
LINE
  5
40B
100
AcDbEntity
  8
ASSI
100
AcDbLine
 62
7
  6
CONTINUOUS
 10
35.4930112551
 20
59.0167634255
 11
36.2001180363
 21
58.6632100349
  0
LINE
  5
40C
100
AcDbEntity
  8
0
100
AcDbLine
 62
253
  6
CONTINUOUS
 10
20.1598711332
 20
72.3129075076
 11
19.452764352
 21
72.6664608982
  0
LINE
  5
40D
100
AcDbEntity
  8
0
100
AcDbLine
 62
7
  6
CONTINUOUS
 10
-45.1767954484
 20
106.0222388658
 11
-44.1161352766
 21
105.4919087799
  0
LINE
  5
40E
100
AcDbEntity
  8
0
100
AcDbLine
 62
7
  6
CONTINUOUS
 10
10.2603761966
 20
78.3036530433
 11
9.1997160248
 21
78.8339831292
  0
LINE
  5
40F
100
AcDbEntity
  8
0
100
AcDbLine
 62
7
  6
CONTINUOUS
 10
20.1598711332
 20
74.0449583152
 11
19.452764352
 21
74.3985117058
  0
LWPOLYLINE
  5
410
100
AcDbEntity
  8
ASSI
100
AcDbPolyline
 62
7
  6
CONTINUOUS
 90
3
 70
0
 10
36.4664607138
 20
58.9976378646
 10
36.2595256231
 20
59.1459761655
 10
36.0621163927
 20
59.2723352075
  0
LWPOLYLINE
  5
411
100
AcDbEntity
  8
0
100
AcDbPolyline
 62
7
  6
CONTINUOUS
 90
4
 70
0
 10
45.4798370595
 20
-114.4758709052
 10
45.4808888541
 20
-114.4732577734
 10
45.5013528845
 20
-114.4165139647
 10
45.5196461418
 20
-114.3593205741
  0
LINE
  5
412
100
AcDbEntity
  8
ASSI
100
AcDbLine
 62
7
  6
CONTINUOUS
 10
39.6976681797
 20
-68.3758214185
 11
39.3435498589
 21
-68.5528805789
  0
LINE
  5
413
100
AcDbEntity
  8
ASSI
100
AcDbLine
 62
7
  6
CONTINUOUS
 10
22.1893958431
 20
-77.1299575869
 11
21.8352775223
 21
-77.3070167473
  0
LINE
  5
414
100
AcDbEntity
  8
ASSI
100
AcDbLine
 62
7
  6
CONTINUOUS
 10
21.8352775223
 20
-78.5194523126
 11
22.1893958431
 21
-78.3423931522
  0
LINE
  5
415
100
AcDbEntity
  8
ASSI
100
AcDbLine
 62
7
  6
CONTINUOUS
 10
39.3435498589
 20
-69.7653161442
 11
39.6976681797
 21
-69.5882569838
  0
LINE
  5
416
100
AcDbEntity
  8
0
100
AcDbLine
 62
7
  6
CONTINUOUS
 10
-30.8932384685
 20
-109.8316619362
 11
-29.9696253363
 21
-109.3698553702
  0
LWPOLYLINE
  5
417
100
AcDbEntity
  8
ASSI
100
AcDbPolyline
 62
7
  6
CONTINUOUS
 90
36
 70
0
 10
24.8209083345
 20
85.5080392079
 10
24.8213252597
 20
85.5080965219
 10
24.8781236058
 20
85.5197949803
 10
24.9353986046
 20
85.5354175941
 10
24.9931541684
 20
85.554996572
 10
25.051386385
 20
85.5784997053
 10
25.1096186015
 20
85.6057346121
 10
25.1678508181
 20
85.6367319219
 10
25.2260830346
 20
85.6714610051
 10
25.2838385984
 20
85.709637591
 10
25.3411135972
 20
85.751289976
 10
25.3979119433
 20
85.7963898638
 10
25.4537687208
 20
85.8445680946
 10
25.5086762013
 20
85.8958499349
 10
25.5626421132
 20
85.9502101183
 10
25.615224725
 20
86.0072036861
 10
25.6664126829
 20
86.0668522526
 10
25.7162173407
 20
86.1291342035
 10
25.7642310285
 20
86.1935397376
 10
25.8104390463
 20
86.2600862846
 10
25.8548560941
 20
86.3287564147
 10
25.8971186015
 20
86.3989880369
 10
25.9372088845
 20
86.4707939675
 10
25.9751446271
 20
86.5441613903
 10
26.010615311
 20
86.6184897651
 10
26.0436007033
 20
86.6937869791
 10
26.0741210369
 20
86.7700451451
 10
26.1019264912
 20
86.8466400612
 10
26.1269947831
 20
86.9235744913
 10
26.1493481957
 20
87.0008456714
 10
26.1688037579
 20
87.0778211077
 10
26.1853376847
 20
87.1544983728
 10
26.1989737612
 20
87.2308798942
 10
26.2096003708
 20
87.30634046
 10
26.217180308
 20
87.3806716666
 10
26.2217507784
 20
87.4540819176
  0
LWPOLYLINE
  5
418
100
AcDbEntity
  8
0
100
AcDbPolyline
 62
7
  6
CONTINUOUS
 90
11
 70
0
 10
10.2603761966
 20
78.0889900772
 10
10.1986617827
 20
78.0996649003
 10
10.1015319817
 20
78.1191154432
 10
10.0061411788
 20
78.1408972032
 10
9.913135207
 20
78.1648627092
 10
9.8225302491
 20
78.1910267796
 10
9.7343101223
 20
78.2193745961
 10
9.6490721115
 20
78.2497142328
 10
9.5670153114
 20
78.2819817144
 10
9.4879406274
 20
78.3162410163
 10
9.4118480592
 20
78.3524921385
  0
LINE
  5
419
100
AcDbEntity
  8
0
100
AcDbLine
 62
253
  6
CONTINUOUS
 10
30.6250514948
 20
71.05030716
 11
30.071092345
 21
71.3272867349
  0
LINE
  5
41A
100
AcDbEntity
  8
0
100
AcDbLine
 62
253
  6
CONTINUOUS
 10
30.9078942072
 20
71.1917285162
 11
30.2007874261
 21
71.5452819068
  0
LINE
  5
41B
100
AcDbEntity
  8
0
100
AcDbLine
 62
253
  6
CONTINUOUS
 10
31.4735796322
 20
72.1673915517
 11
30.766472851
 21
72.5209449423
  0
LINE
  5
41C
100
AcDbEntity
  8
0
100
AcDbLine
 62
7
  6
CONTINUOUS
 10
-30.8932384685
 20
106.241676308
 11
-21.700850313
 21
101.6454822303
  0
LINE
  5
41D
100
AcDbEntity
  8
0
100
AcDbLine
 62
7
  6
CONTINUOUS
 10
-13.2155689388
 20
97.4028415432
 11
-4.0231807834
 21
92.8066474654
  0
LINE
  5
41E
100
AcDbEntity
  8
0
100
AcDbLine
 62
253
  6
CONTINUOUS
 10
31.4735796322
 20
75.1118779246
 11
30.7807593092
 21
75.4582880861
  0
LINE
  5
41F
100
AcDbEntity
  8
0
100
AcDbLine
 62
7
  6
CONTINUOUS
 10
7.9976344968
 20
87.2868402556
 11
-3.5325803531
 21
93.0519476806
  0
LINE
  5
420
100
AcDbEntity
  8
0
100
AcDbLine
 62
7
  6
CONTINUOUS
 10
-13.2155689388
 20
97.8934419734
 11
-21.2102498828
 21
101.8907824454
  0
LINE
  5
421
100
AcDbEntity
  8
0
100
AcDbLine
 62
7
  6
CONTINUOUS
 10
-30.8932384685
 20
106.7322767382
 11
-41.4998401863
 21
112.0355775971
  0
LINE
  5
422
100
AcDbEntity
  8
0
100
AcDbLine
 62
7
  6
CONTINUOUS
 10
-45.8839022296
 20
114.9927450241
 11
-45.1767954484
 21
114.6391916335
  0
LINE
  5
423
100
AcDbEntity
  8
0
100
AcDbLine
 62
7
  6
CONTINUOUS
 10
10.9674829778
 20
86.5670524204
 11
10.2603761966
 21
86.9206058109
  0
LINE
  5
424
100
AcDbEntity
  8
0
100
AcDbLine
 62
7
  6
CONTINUOUS
 10
-45.8485468906
 20
115.0183686247
 11
-30.8932384685
 21
107.5407144137
  0
LINE
  5
425
100
AcDbEntity
  8
0
100
AcDbLine
 62
7
  6
CONTINUOUS
 10
-13.2155689388
 20
98.7018796488
 11
-4.0231807834
 21
94.1056855711
  0
LINE
  5
426
100
AcDbEntity
  8
0
100
AcDbLine
 62
7
  6
CONTINUOUS
 10
-21.700850313
 20
102.944520336
 11
-13.2155689388
 21
98.7018796488
  0
LINE
  5
427
100
AcDbEntity
  8
0
100
AcDbLine
 62
7
  6
CONTINUOUS
 10
-4.0231807834
 20
94.1056855711
 11
10.9321276387
 21
86.6280313601
  0
LINE
  5
428
100
AcDbEntity
  8
0
100
AcDbLine
 62
7
  6
CONTINUOUS
 10
-21.700850313
 20
102.944520336
 11
-30.8932384685
 21
107.5407144137
  0
LINE
  5
429
100
AcDbEntity
  8
0
100
AcDbLine
 62
7
  6
CONTINUOUS
 10
-45.8485468906
 20
115.8843940285
 11
10.9321276387
 21
87.4940567639
  0
LINE
  5
42A
100
AcDbEntity
  8
0
100
AcDbLine
 62
7
  6
CONTINUOUS
 10
31.4735796322
 20
77.9697617571
 11
30.766472851
 21
78.3233151477
  0
LWPOLYLINE
  5
42B
100
AcDbEntity
  8
0
100
AcDbPolyline
 62
7
  6
CONTINUOUS
 90
17
 70
0
 10
30.2672812466
 20
71.0275869871
 10
30.2614359126
 20
71.0305885334
 10
30.2368883304
 20
71.0450840104
 10
30.2135683343
 20
71.0619850579
 10
30.1917113184
 20
71.0811210755
 10
30.1713321001
 20
71.1025146991
 10
30.152415862
 20
71.1261432927
 10
30.1351535462
 20
71.1517683472
 10
30.119561904
 20
71.1794100831
 10
30.1056241842
 20
71.2090482799
 10
30.0934810753
 20
71.2403837671
 10
30.0831507534
 20
71.2734337351
 10
30.0746150424
 20
71.3081809934
 10
30.0679601025
 20
71.3442748004
 10
30.0632146538
 20
71.3815982419
 10
30.0603499763
 20
71.4202682319
 10
30.0593660698
 20
71.4602847705
  0
LWPOLYLINE
  5
42C
100
AcDbEntity
  8
0
100
AcDbPolyline
 62
7
  6
CONTINUOUS
 90
17
 70
0
 10
31.2656644554
 20
75.5445757081
 10
31.2715097894
 20
75.5415741617
 10
31.2960573716
 20
75.5270786848
 10
31.3193773677
 20
75.5101776372
 10
31.3412343836
 20
75.4910416197
 10
31.3616136019
 20
75.469647996
 10
31.38052984
 20
75.4460194024
 10
31.3977921558
 20
75.4203943479
 10
31.413383798
 20
75.392752612
 10
31.4273215178
 20
75.3631144152
 10
31.4394646268
 20
75.3317789281
 10
31.4497949487
 20
75.2987289601
 10
31.4583306596
 20
75.2639817017
 10
31.4649855995
 20
75.2278878948
 10
31.4697310482
 20
75.1905644533
 10
31.4725957257
 20
75.1518944632
 10
31.4735796322
 20
75.1118779246
  0
LWPOLYLINE
  5
42D
100
AcDbEntity
  8
ASSI
100
AcDbPolyline
 62
7
  6
CONTINUOUS
 90
35
 70
0
 10
-22.5069300191
 20
118.5803288334
 10
-22.5479688905
 20
118.6101970176
 10
-22.5981320126
 20
118.6428710204
 10
-22.6517812543
 20
118.6742786161
 10
-22.7084774762
 20
118.7041627216
 10
-22.7682456873
 20
118.7325108326
 10
-22.8310608787
 20
118.7593354535
 10
-22.8964088842
 20
118.7844170145
 10
-22.9643104927
 20
118.8077412092
 10
-23.0347449152
 20
118.829322344
 10
-23.1071356195
 20
118.8489837693
 10
-23.1814986623
 20
118.8667097285
 10
-23.2578179868
 20
118.8825159781
 10
-23.3354688905
 20
118.896273138
 10
-23.4144623026
 20
118.9079643899
 10
-23.494787294
 20
118.917606552
 10
-23.5757863742
 20
118.9251206997
 10
-23.6574650758
 20
118.9304893667
 10
-23.7398178662
 20
118.9337300193
 10
-23.8221706566
 20
118.9348161315
 10
-23.904523447
 20
118.9337300193
 10
-23.9868762374
 20
118.9304893667
 10
-24.068554939
 20
118.9251206997
 10
-24.1495540192
 20
118.917606552
 10
-24.2298790105
 20
118.9079643899
 10
-24.3088724227
 20
118.896273138
 10
-24.3865233264
 20
118.8825159781
 10
-24.4628426509
 20
118.8667097285
 10
-24.5372056937
 20
118.8489837693
 10
-24.609596398
 20
118.829322344
 10
-24.6800308205
 20
118.8077412092
 10
-24.747932429
 20
118.7844170145
 10
-24.8131090458
 20
118.7594086434
 10
-24.8757528484
 20
118.7326572124
 10
-24.935863837
 20
118.7041627216
  0
LINE
  5
42E
100
AcDbEntity
  8
0
100
AcDbLine
 62
7
  6
CONTINUOUS
 10
-20.7772371809
 20
-113.9660494479
 11
-21.700850313
 21
-114.4278560139
  0
LINE
  5
42F
100
AcDbEntity
  8
0
100
AcDbLine
 62
7
  6
CONTINUOUS
 10
-19.4781990752
 20
-114.6155685007
 11
-21.700850313
 21
-115.7268941196
  0
LWPOLYLINE
  5
430
100
AcDbEntity
  8
ASSI
100
AcDbPolyline
 62
7
  6
CONTINUOUS
 90
36
 70
0
 10
38.9630439582
 20
92.5791070197
 10
38.9634608834
 20
92.5791643338
 10
39.0202592295
 20
92.5908627922
 10
39.0775342284
 20
92.606485406
 10
39.1352897922
 20
92.6260643839
 10
39.1935220087
 20
92.6495675172
 10
39.2517542252
 20
92.676802424
 10
39.3099864418
 20
92.7077997337
 10
39.3682186583
 20
92.7425288169
 10
39.4259742221
 20
92.7807054029
 10
39.483249221
 20
92.8223577879
 10
39.5400475671
 20
92.8674576756
 10
39.5959043445
 20
92.9156359065
 10
39.6508118251
 20
92.9669177468
 10
39.704777737
 20
93.0212779302
 10
39.7573603488
 20
93.078271498
 10
39.8085483067
 20
93.1379200645
 10
39.8583529645
 20
93.2002020154
 10
39.9063666522
 20
93.2646075494
 10
39.9525746701
 20
93.3311540964
 10
39.9969917179
 20
93.3998242265
 10
40.0392542252
 20
93.4700558487
 10
40.0793445083
 20
93.5418617794
 10
40.1172802509
 20
93.6152292022
 10
40.1527509347
 20
93.6895575769
 10
40.185736327
 20
93.764854791
 10
40.2162566606
 20
93.841112957
 10
40.2440621149
 20
93.9177078731
 10
40.2691304068
 20
93.9946423031
 10
40.2914838194
 20
94.0719134833
 10
40.3109393816
 20
94.1488889196
 10
40.3274733085
 20
94.2255661847
 10
40.3411093849
 20
94.301947706
 10
40.3517359945
 20
94.3774082719
 10
40.3593159317
 20
94.4517394784
 10
40.3638864021
 20
94.5251497295
  0
LWPOLYLINE
  5
431
100
AcDbEntity
  8
ASSI
100
AcDbPolyline
 62
7
  6
CONTINUOUS
 90
40
 70
0
 10
31.6877273604
 20
88.6358940533
 10
31.7302269285
 20
88.6382085034
 10
31.7977200706
 20
88.6464572614
 10
31.8659942907
 20
88.65928779
 10
31.9350554048
 20
88.6767342058
 10
32.0048975969
 20
88.6987623921
 10
32.0750021015
 20
88.7252087309
 10
32.1453708719
 20
88.75610612
 10
32.2160019548
 20
88.7914216615
 10
32.2863707252
 20
88.8308930427
 10
32.3564752299
 20
88.8745512087
 10
32.426317422
 20
88.9223652144
 10
32.4953785361
 20
88.9739799128
 10
32.5636527562
 20
89.0294236042
 10
32.6311458983
 20
89.0886679883
 10
32.6973566449
 20
89.1512730167
 10
32.7622754472
 20
89.2172637132
 10
32.8259118541
 20
89.286615054
 10
32.8877931946
 20
89.3588119196
 10
32.9479064003
 20
89.4338754981
 10
33.0062645397
 20
89.5117846013
 10
33.0624341472
 20
89.5919605453
 10
33.1163989267
 20
89.6744202094
 10
33.1681751742
 20
89.7591467144
 10
33.2173783124
 20
89.8455107388
 10
33.2639891817
 20
89.9335244759
 10
33.3080269416
 20
90.0231757325
 10
33.3491644938
 20
90.1137986077
 10
33.387380243
 20
90.2054003364
 10
33.4226957844
 20
90.2979736837
 10
33.4548488056
 20
90.3908310444
 10
33.4838157581
 20
90.4839745334
 10
33.5096201903
 20
90.5774020358
 10
33.5320704352
 20
90.670419602
 10
33.551141517
 20
90.7630241797
 10
33.5668584116
 20
90.8552188212
 10
33.5791043787
 20
90.9463187342
 10
33.5878405051
 20
91.0360956547
 10
33.5931057041
 20
91.1247778467
 10
33.5948999758
 20
91.2123653102
  0
LWPOLYLINE
  5
432
100
AcDbEntity
  8
ASSI
100
AcDbPolyline
 62
7
  6
CONTINUOUS
 90
44
 70
0
 10
25.1123724751
 20
85.2074654125
 10
25.1621129557
 20
85.18537392
 10
25.2101266435
 20
85.1689820737
 10
25.2599313013
 20
85.1565047806
 10
25.3111192592
 20
85.148044172
 10
25.363701871
 20
85.143633216
 10
25.4176677829
 20
85.1432389445
 10
25.4725752634
 20
85.1468645848
 10
25.5284320409
 20
85.1545431314
 10
25.585230387
 20
85.1662415897
 10
25.6425053858
 20
85.1818642035
 10
25.7002609496
 20
85.2014431814
 10
25.7584931662
 20
85.2249463147
 10
25.8167253827
 20
85.2521812215
 10
25.8749575992
 20
85.2831785313
 10
25.9331898158
 20
85.3179076145
 10
25.9909453796
 20
85.3560842004
 10
26.0482203784
 20
85.3977365854
 10
26.1050187245
 20
85.4428364732
 10
26.160875502
 20
85.491014704
 10
26.2157829825
 20
85.5422965443
 10
26.2697488944
 20
85.5966567277
 10
26.3223315062
 20
85.6536502956
 10
26.3735194641
 20
85.713298862
 10
26.4233241219
 20
85.7755808129
 10
26.4713378097
 20
85.839986347
 10
26.5175458275
 20
85.906532894
 10
26.5619628753
 20
85.9752030241
 10
26.6042253827
 20
86.0454346463
 10
26.6443156657
 20
86.1172405769
 10
26.6822514083
 20
86.1906079997
 10
26.7177220921
 20
86.2649363745
 10
26.7507074845
 20
86.3402335885
 10
26.7812278181
 20
86.4164917545
 10
26.8090332724
 20
86.4930866706
 10
26.8341015642
 20
86.5700211007
 10
26.8564549769
 20
86.6472922808
 10
26.875910539
 20
86.7242677171
 10
26.8924444659
 20
86.8009449822
 10
26.9060805424
 20
86.8773265036
 10
26.916707152
 20
86.9527870694
 10
26.9242870892
 20
87.027118276
 10
26.9288575596
 20
87.100528527
 10
26.9304185631
 20
87.1730178227
  0
LWPOLYLINE
  5
433
100
AcDbEntity
  8
ASSI
100
AcDbPolyline
 62
7
  6
CONTINUOUS
 90
44
 70
0
 10
26.5210782903
 20
88.0248770525
 10
26.4713378097
 20
88.046968545
 10
26.4233241219
 20
88.0633603913
 10
26.3735194641
 20
88.0758376844
 10
26.3223315062
 20
88.0842982929
 10
26.2697488944
 20
88.088709249
 10
26.2157829825
 20
88.0891035205
 10
26.160875502
 20
88.0854778802
 10
26.1050187245
 20
88.0777993336
 10
26.0482203784
 20
88.0661008753
 10
25.9909453796
 20
88.0504782614
 10
25.9331898158
 20
88.0308992836
 10
25.8749575992
 20
88.0073961502
 10
25.8167253827
 20
87.9801612434
 10
25.7584931662
 20
87.9491639337
 10
25.7002609496
 20
87.9144348505
 10
25.6425053858
 20
87.8762582646
 10
25.585230387
 20
87.8346058796
 10
25.5284320409
 20
87.7895059918
 10
25.4725752634
 20
87.7413277609
 10
25.4176677829
 20
87.6900459207
 10
25.363701871
 20
87.6356857373
 10
25.3111192592
 20
87.5786921694
 10
25.2599313013
 20
87.5190436029
 10
25.2101266435
 20
87.456761652
 10
25.1621129557
 20
87.392356118
 10
25.1159049379
 20
87.325809571
 10
25.0714878901
 20
87.2571394409
 10
25.0292253827
 20
87.1869078187
 10
24.9891350997
 20
87.115101888
 10
24.9511993571
 20
87.0417344653
 10
24.9157286733
 20
86.9674060905
 10
24.8827432809
 20
86.8921088765
 10
24.8522229473
 20
86.8158507104
 10
24.824417493
 20
86.7392557944
 10
24.7993492012
 20
86.6623213643
 10
24.7769957885
 20
86.5850501842
 10
24.7575402264
 20
86.5080747479
 10
24.7410062995
 20
86.4313974827
 10
24.727370223
 20
86.3550159614
 10
24.7167436135
 20
86.2795553955
 10
24.7091636762
 20
86.205224189
 10
24.7045932058
 20
86.1318139379
 10
24.7030322023
 20
86.0593246423
  0
LWPOLYLINE
  5
434
100
AcDbEntity
  8
ASSI
100
AcDbPolyline
 62
7
  6
CONTINUOUS
 90
44
 70
0
 10
31.5084445982
 20
89.0822910463
 10
31.5260739864
 20
89.0744612165
 10
31.5740876741
 20
89.0580693702
 10
31.623892332
 20
89.0455920771
 10
31.6750802899
 20
89.0371314686
 10
31.7276629017
 20
89.0327205125
 10
31.7816288136
 20
89.032326241
 10
31.8365362941
 20
89.0359518813
 10
31.8923930716
 20
89.0436304279
 10
31.9491914177
 20
89.0553288862
 10
32.0064664165
 20
89.0709515001
 10
32.0642219803
 20
89.0905304779
 10
32.1224541968
 20
89.1140336113
 10
32.1806864134
 20
89.1412685181
 10
32.2389186299
 20
89.1722658278
 10
32.2971508465
 20
89.206994911
 10
32.3549064103
 20
89.2451714969
 10
32.4121814091
 20
89.286823882
 10
32.4689797552
 20
89.3319237697
 10
32.5248365326
 20
89.3801020006
 10
32.5797440132
 20
89.4313838409
 10
32.6337099251
 20
89.4857440242
 10
32.6862925369
 20
89.5427375921
 10
32.7374804948
 20
89.6023861586
 10
32.7872851526
 20
89.6646681095
 10
32.8352988404
 20
89.7290736435
 10
32.8815068582
 20
89.7956201905
 10
32.925923906
 20
89.8642903206
 10
32.9681864134
 20
89.9345219428
 10
33.0082766964
 20
90.0063278735
 10
33.046212439
 20
90.0796952962
 10
33.0816831228
 20
90.154023671
 10
33.1146685152
 20
90.229320885
 10
33.1451888487
 20
90.3055790511
 10
33.172994303
 20
90.3821739671
 10
33.1980625949
 20
90.4591083972
 10
33.2204160075
 20
90.5363795773
 10
33.2398715697
 20
90.6133550136
 10
33.2564054966
 20
90.6900322788
 10
33.270041573
 20
90.7664138001
 10
33.2806681826
 20
90.841874366
 10
33.2882481199
 20
90.9162055725
 10
33.2928185902
 20
90.9896158236
 10
33.2943795937
 20
91.0621051192
  0
LWPOLYLINE
  5
435
100
AcDbEntity
  8
ASSI
100
AcDbPolyline
 62
7
  6
CONTINUOUS
 90
47
 70
0
 10
31.9933668543
 20
88.3628524575
 10
32.0060454608
 20
88.3566594209
 10
32.0622150682
 20
88.3326530843
 10
32.1205732076
 20
88.3131021205
 10
32.1806864134
 20
88.2981517478
 10
32.2425677539
 20
88.2878362227
 10
32.3062041607
 20
88.2821212888
 10
32.371122963
 20
88.2810493946
 10
32.4373337097
 20
88.2846551128
 10
32.5048268518
 20
88.2929038708
 10
32.5731010719
 20
88.3057343994
 10
32.642162186
 20
88.3231808152
 10
32.7120043781
 20
88.3452090015
 10
32.7821088827
 20
88.3716553403
 10
32.8524776531
 20
88.4025527294
 10
32.923108736
 20
88.4378682709
 10
32.9934775064
 20
88.4773396521
 10
33.0635820111
 20
88.5209978181
 10
33.1334242032
 20
88.5688118238
 10
33.2024853173
 20
88.6204265222
 10
33.2707595374
 20
88.6758702136
 10
33.3382526795
 20
88.7351145977
 10
33.4044634261
 20
88.7977196261
 10
33.4693822284
 20
88.8637103226
 10
33.5330186353
 20
88.9330616634
 10
33.5948999758
 20
89.005258529
 10
33.6550131815
 20
89.0803221075
 10
33.7133713209
 20
89.1582312107
 10
33.7695409284
 20
89.2384071547
 10
33.8235057078
 20
89.3208668188
 10
33.8752819554
 20
89.4055933238
 10
33.9244850936
 20
89.4919573482
 10
33.9710959629
 20
89.5799710853
 10
34.0151337228
 20
89.6696223419
 10
34.056271275
 20
89.7602452171
 10
34.0944870242
 20
89.8518469458
 10
34.1298025656
 20
89.9444202931
 10
34.1619555868
 20
90.0372776538
 10
34.1909225393
 20
90.1304211428
 10
34.2167269715
 20
90.2238486452
 10
34.2391772163
 20
90.3168662114
 10
34.2582482982
 20
90.4094707891
 10
34.2739651928
 20
90.5016654306
 10
34.2862111599
 20
90.5927653436
 10
34.2949472863
 20
90.6825422641
 10
34.3002124853
 20
90.7712244561
 10
34.3020067569
 20
90.8588119196
  0
LINE
  5
436
100
AcDbEntity
  8
0
100
AcDbLine
 62
7
  6
CONTINUOUS
 10
10.4017975528
 20
94.5474469062
 11
3.8964151659
 21
97.8001380997
  0
LINE
  5
437
100
AcDbEntity
  8
0
100
AcDbLine
 62
7
  6
CONTINUOUS
 10
-7.5587146893
 20
103.5277030273
 11
-13.7812543637
 21
106.6389728645
  0
LINE
  5
438
100
AcDbEntity
  8
0
100
AcDbLine
 62
7
  6
CONTINUOUS
 10
-25.236384219
 20
112.3665377921
 11
-31.7417666059
 21
115.6192289856
  0
LINE
  5
439
100
AcDbEntity
  8
0
100
AcDbLine
 62
7
  6
CONTINUOUS
 10
20.1598711332
 20
90.4561397169
 11
19.452764352
 21
90.8096931075
  0
LINE
  5
43A
100
AcDbEntity
  8
0
100
AcDbLine
 62
253
  6
CONTINUOUS
 10
19.452764352
 20
90.8096931075
 11
19.3741077428
 21
90.8490214121
  0
LINE
  5
43B
100
AcDbEntity
  8
ASSI
100
AcDbLine
 62
253
  6
CONTINUOUS
 10
26.9304185631
 20
87.1730178227
 11
26.2233117819
 21
87.5265712133
  0
LINE
  5
43C
100
AcDbEntity
  8
ASSI
100
AcDbLine
 62
253
  6
CONTINUOUS
 10
26.2229183995
 20
87.544445574
 11
25.6086030093
 21
87.8516032691
  0
LINE
  5
43D
100
AcDbEntity
  8
0
100
AcDbLine
 62
7
  6
CONTINUOUS
 10
-31.2095598859
 20
116.2898617075
 11
-25.5936908778
 21
113.4819272034
  0
LINE
  5
43E
100
AcDbEntity
  8
0
100
AcDbLine
 62
7
  6
CONTINUOUS
 10
4.395143181
 20
98.487510174
 11
10.0110121891
 21
95.67957567
  0
LINE
  5
43F
100
AcDbEntity
  8
0
100
AcDbLine
 62
7
  6
CONTINUOUS
 10
-7.9160213481
 20
104.6430924386
 11
-13.2825263487
 21
107.3263449389
  0
LINE
  5
440
100
AcDbEntity
  8
0
100
AcDbLine
 62
7
  6
CONTINUOUS
 10
-24.4287091882
 20
113.2354924828
 11
-23.9635920128
 21
113.0029338952
  0
LINE
  5
441
100
AcDbEntity
  8
0
100
AcDbLine
 62
7
  6
CONTINUOUS
 10
-6.7510396585
 20
104.396657718
 11
-6.2859224832
 21
104.1640991303
  0
LINE
  5
442
100
AcDbEntity
  8
0
100
AcDbLine
 62
7
  6
CONTINUOUS
 10
11.1759938787
 20
95.4331409494
 11
11.674589759
 21
95.1838430093
  0
LINE
  5
443
100
AcDbEntity
  8
0
100
AcDbLine
 62
7
  6
CONTINUOUS
 10
20.4073585066
 20
91.2869901848
 11
20.3287018974
 21
91.3263184894
  0
LINE
  5
444
100
AcDbEntity
  8
0
100
AcDbLine
 62
7
  6
CONTINUOUS
 10
-30.1488997141
 20
116.8201917933
 11
-24.533030706
 21
114.0122572893
  0
LINE
  5
445
100
AcDbEntity
  8
0
100
AcDbLine
 62
7
  6
CONTINUOUS
 10
5.4558033528
 20
99.0178402599
 11
11.0716723608
 21
96.2099057559
  0
LINE
  5
446
100
AcDbEntity
  8
0
100
AcDbLine
 62
7
  6
CONTINUOUS
 10
-6.8553611763
 20
105.1734225245
 11
-12.2218661769
 21
107.8566750247
  0
LINE
  5
447
100
AcDbEntity
  8
0
100
AcDbLine
 62
7
  6
CONTINUOUS
 10
21.9276380862
 20
91.3400231934
 11
21.220531305
 21
91.693576584
  0
LWPOLYLINE
  5
448
100
AcDbEntity
  8
0
100
AcDbPolyline
 62
7
  6
CONTINUOUS
 90
13
 70
0
 10
-31.7417666059
 20
115.6192289856
 10
-31.7642689061
 20
115.6312639687
 10
-31.7849960446
 20
115.6438920143
 10
-31.8039480214
 20
115.6571131226
 10
-31.8211906006
 20
115.6709888114
 10
-31.8366580181
 20
115.6854575628
 10
-31.8501529815
 20
115.7003348228
 10
-31.8616502242
 20
115.7156258243
 10
-31.8711750129
 20
115.7313253344
 10
-31.8786058555
 20
115.7472331003
 10
-31.8839159291
 20
115.7633517899
 10
-31.8871320566
 20
115.7796787354
 10
-31.8882132153
 20
115.7960056809
  0
LWPOLYLINE
  5
449
100
AcDbEntity
  8
0
100
AcDbPolyline
 62
7
  6
CONTINUOUS
 90
13
 70
0
 10
-13.7812543637
 20
106.6389728645
 10
-13.803756664
 20
106.6510078476
 10
-13.8244838025
 20
106.6636358933
 10
-13.8434357793
 20
106.6768570015
 10
-13.8606783585
 20
106.6907326903
 10
-13.876145776
 20
106.7052014417
 10
-13.8896407394
 20
106.7200787017
 10
-13.9011379821
 20
106.7353697032
 10
-13.9106627707
 20
106.7510692133
 10
-13.9180936134
 20
106.7669769793
 10
-13.9234036869
 20
106.7830956689
 10
-13.9266198145
 20
106.7994226143
 10
-13.9277009732
 20
106.8157495598
  0
LWPOLYLINE
  5
44A
100
AcDbEntity
  8
0
100
AcDbPolyline
 62
7
  6
CONTINUOUS
 90
13
 70
0
 10
3.8964151659
 20
97.8001380997
 10
3.8739128657
 20
97.8121730828
 10
3.8531857272
 20
97.8248011284
 10
3.8342337504
 20
97.8380222367
 10
3.8169911712
 20
97.8518979255
 10
3.8015237537
 20
97.8663666769
 10
3.7880287903
 20
97.8812439369
 10
3.7765315476
 20
97.8965349384
 10
3.7670067589
 20
97.9122344485
 10
3.7595759163
 20
97.9281422144
 10
3.7542658428
 20
97.944260904
 10
3.7510497152
 20
97.9605878495
 10
3.7499685565
 20
97.976914795
  0
LWPOLYLINE
  5
44B
100
AcDbEntity
  8
0
100
AcDbPolyline
 62
7
  6
CONTINUOUS
 90
13
 70
0
 10
-23.9635920128
 20
113.0029338952
 10
-23.9410897126
 20
112.9908989121
 10
-23.9203625741
 20
112.9782708664
 10
-23.9014105973
 20
112.9650497581
 10
-23.8841680181
 20
112.9511740693
 10
-23.8687006006
 20
112.9367053179
 10
-23.8552056372
 20
112.921828058
 10
-23.8437083945
 20
112.9065370565
 10
-23.8341836059
 20
112.8908375464
 10
-23.8267527632
 20
112.8749297804
 10
-23.8214426897
 20
112.8588110908
 10
-23.8182265621
 20
112.8424841453
 10
-23.8171454034
 20
112.8261571999
  0
LWPOLYLINE
  5
44C
100
AcDbEntity
  8
0
100
AcDbPolyline
 62
7
  6
CONTINUOUS
 90
13
 70
0
 10
-6.2859224832
 20
104.1640991303
 10
-6.2634201829
 20
104.1520641472
 10
-6.2426930444
 20
104.1394361015
 10
-6.2237410676
 20
104.1262149933
 10
-6.2064984884
 20
104.1123393045
 10
-6.191031071
 20
104.0978705531
 10
-6.1775361075
 20
104.0829932931
 10
-6.1660388648
 20
104.0677022916
 10
-6.1565140762
 20
104.0520027815
 10
-6.1490832336
 20
104.0360950155
 10
-6.14377316
 20
104.019976326
 10
-6.1405570325
 20
104.0036493805
 10
-6.1394758738
 20
103.987322435
  0
LWPOLYLINE
  5
44D
100
AcDbEntity
  8
0
100
AcDbPolyline
 62
7
  6
CONTINUOUS
 90
13
 70
0
 10
11.674589759
 20
95.1838430093
 10
11.6970920592
 20
95.1718080262
 10
11.7178191977
 20
95.1591799805
 10
11.7367711745
 20
95.1459588722
 10
11.7540137537
 20
95.1320831834
 10
11.7694811712
 20
95.117614432
 10
11.7829761346
 20
95.1027371721
 10
11.7944733773
 20
95.0874461706
 10
11.8039981659
 20
95.0717466605
 10
11.8114290086
 20
95.0558388945
 10
11.8167390821
 20
95.0397202049
 10
11.8199552097
 20
95.0233932594
 10
11.8210363684
 20
95.007066314
  0
LWPOLYLINE
  5
44E
100
AcDbEntity
  8
ASSI
100
AcDbPolyline
 62
7
  6
CONTINUOUS
 90
35
 70
0
 10
-15.4358622072
 20
122.1158627393
 10
-15.4769010786
 20
122.1457309236
 10
-15.5270642007
 20
122.1784049263
 10
-15.5807134424
 20
122.209812522
 10
-15.6374096644
 20
122.2396966276
 10
-15.6971778755
 20
122.2680447386
 10
-15.7599930669
 20
122.2948693594
 10
-15.8253410724
 20
122.3199509205
 10
-15.8932426808
 20
122.3432751151
 10
-15.9636771033
 20
122.3648562499
 10
-16.0360678076
 20
122.3845176752
 10
-16.1104308504
 20
122.4022436344
 10
-16.1867501749
 20
122.418049884
 10
-16.2644010786
 20
122.431807044
 10
-16.3433944908
 20
122.4434982958
 10
-16.4237194822
 20
122.4531404579
 10
-16.5047185623
 20
122.4606546056
 10
-16.5863972639
 20
122.4660232726
 10
-16.6687500543
 20
122.4692639252
 10
-16.7511028447
 20
122.4703500374
 10
-16.8334556351
 20
122.4692639252
 10
-16.9158084255
 20
122.4660232726
 10
-16.9974871272
 20
122.4606546056
 10
-17.0784862073
 20
122.4531404579
 10
-17.1588111987
 20
122.4434982958
 10
-17.2378046109
 20
122.431807044
 10
-17.3154555146
 20
122.418049884
 10
-17.3917748391
 20
122.4022436344
 10
-17.4661378818
 20
122.3845176752
 10
-17.5385285861
 20
122.3648562499
 10
-17.6089630087
 20
122.3432751151
 10
-17.6768646171
 20
122.3199509205
 10
-17.7420412339
 20
122.2949425493
 10
-17.8046850366
 20
122.2681911183
 10
-17.8647960251
 20
122.2396966276
  0
LWPOLYLINE
  5
44F
100
AcDbEntity
  8
ASSI
100
AcDbPolyline
 62
7
  6
CONTINUOUS
 90
35
 70
0
 10
18.5052632897
 20
98.0742321789
 10
18.4642244184
 20
98.1041003632
 10
18.4140612963
 20
98.136774366
 10
18.3604120545
 20
98.1681819617
 10
18.3037158326
 20
98.1980660672
 10
18.2439476215
 20
98.2264141782
 10
18.1811324301
 20
98.2532387991
 10
18.1157844246
 20
98.2783203601
 10
18.0478828162
 20
98.3016445547
 10
17.9774483936
 20
98.3232256896
 10
17.9050576893
 20
98.3428871149
 10
17.8306946466
 20
98.360613074
 10
17.7543753221
 20
98.3764193237
 10
17.6767244184
 20
98.3901764836
 10
17.5977310062
 20
98.4018677354
 10
17.5174060148
 20
98.4115098976
 10
17.4364069347
 20
98.4190240453
 10
17.354728233
 20
98.4243927123
 10
17.2723754426
 20
98.4276333649
 10
17.1900226522
 20
98.4287194771
 10
17.1076698618
 20
98.4276333649
 10
17.0253170714
 20
98.4243927123
 10
16.9436383698
 20
98.4190240453
 10
16.8626392897
 20
98.4115098976
 10
16.7823142983
 20
98.4018677354
 10
16.7033208861
 20
98.3901764836
 10
16.6256699824
 20
98.3764193237
 10
16.5493506579
 20
98.360613074
 10
16.4749876151
 20
98.3428871149
 10
16.4025969108
 20
98.3232256896
 10
16.3321624883
 20
98.3016445547
 10
16.2642608799
 20
98.2783203601
 10
16.1990842631
 20
98.253311989
 10
16.1364404604
 20
98.226560558
 10
16.0763294719
 20
98.1980660672
  0
LWPOLYLINE
  5
450
100
AcDbEntity
  8
0
100
AcDbPolyline
 62
7
  6
CONTINUOUS
 90
28
 70
0
 10
30.2007874261
 20
-102.092811552
 10
30.2338624711
 20
-102.075068995
 10
30.2666058855
 20
-102.0551887887
 10
30.2990176692
 20
-102.0331709329
 10
30.331205007
 20
-102.0089266605
 10
30.3630607141
 20
-101.9825447388
 10
30.3942632362
 20
-101.9542914689
 10
30.4248059578
 20
-101.9241478978
 10
30.4546954944
 20
-101.8921329786
 10
30.4836301385
 20
-101.8585698727
 10
30.5116002188
 20
-101.8234428999
 10
30.5386154066
 20
-101.7867677403
 10
30.5644030082
 20
-101.7489145964
 10
30.5889505904
 20
-101.7098715372
 10
30.6122705865
 20
-101.6696504935
 10
30.6341276024
 20
-101.6286574601
 10
30.6545068207
 20
-101.5868846182
 10
30.6734230589
 20
-101.5443397864
 10
30.6906853746
 20
-101.5014524162
 10
30.7062770168
 20
-101.4582190381
 10
30.7202147366
 20
-101.4146431214
 10
30.7323578456
 20
-101.3711645254
 10
30.7426881675
 20
-101.3277842355
 10
30.7512238784
 20
-101.2845012661
 10
30.7578788183
 20
-101.2417525193
 10
30.762624267
 20
-101.1996836291
 10
30.7654889446
 20
-101.1581489615
 10
30.766472851
 20
-101.1171485165
  0
LWPOLYLINE
  5
451
100
AcDbEntity
  8
0
100
AcDbPolyline
 62
7
  6
CONTINUOUS
 90
15
 70
0
 10
45.5803599169
 20
-84.2272268121
 10
45.6224795363
 20
-84.2048756251
 10
45.6616953784
 20
-84.1815078148
 10
45.6980074431
 20
-84.157123381
 10
45.7315187154
 20
-84.1316331364
 10
45.7621262102
 20
-84.1051262683
 10
45.789520973
 20
-84.0778703394
 10
45.8136704646
 20
-84.0498577631
 10
45.8346072242
 20
-84.021096126
 10
45.8521199142
 20
-83.9918757506
 10
45.8661738552
 20
-83.9621919907
 10
45.8768037266
 20
-83.9320494925
 10
45.8839022296
 20
-83.9017525169
 10
45.887433598
 20
-83.8712994994
 10
45.887875019
 20
-83.855995752
  0
LWPOLYLINE
  5
452
100
AcDbEntity
  8
0
100
AcDbPolyline
 62
7
  6
CONTINUOUS
 90
15
 70
0
 10
45.5803599169
 20
-85.7860725389
 10
45.6224795363
 20
-85.763721352
 10
45.6616953784
 20
-85.7403535416
 10
45.6980074431
 20
-85.7159691079
 10
45.7315187154
 20
-85.6904788632
 10
45.7621262102
 20
-85.6639719951
 10
45.789520973
 20
-85.6367160662
 10
45.8136704646
 20
-85.6087034899
 10
45.8346072242
 20
-85.5799418528
 10
45.8521199142
 20
-85.5507214775
 10
45.8661738552
 20
-85.5210377175
 10
45.8768037266
 20
-85.4908952193
 10
45.8839022296
 20
-85.4605982437
 10
45.887433598
 20
-85.4301452262
 10
45.887875019
 20
-85.4148414788
  0
LINE
  5
453
100
AcDbEntity
  8
0
100
AcDbLine
 62
7
  6
CONTINUOUS
 10
42.9289660025
 20
-89.2335317353
 11
13.7959101025
 21
-103.8000596853
  0
LINE
  5
454
100
AcDbEntity
  8
0
100
AcDbLine
 62
7
  6
CONTINUOUS
 10
43.6360727837
 20
-89.5870851259
 11
14.5030168837
 21
-104.1536130759
  0
LINE
  5
455
100
AcDbEntity
  8
0
100
AcDbLine
 62
7
  6
CONTINUOUS
 10
13.7959101025
 20
-105.099097791
 11
13.6544887463
 21
-105.1698084691
  0
LINE
  5
456
100
AcDbEntity
  8
0
100
AcDbLine
 62
7
  6
CONTINUOUS
 10
-13.2155689388
 20
-118.6704967011
 11
-12.2919558067
 21
-118.208690135
  0
LINE
  5
457
100
AcDbEntity
  8
0
100
AcDbLine
 62
7
  6
CONTINUOUS
 10
30.6250514948
 20
-98.2576592799
 11
30.9078942072
 21
-98.1162379236
  0
LWPOLYLINE
  5
458
100
AcDbEntity
  8
0
100
AcDbPolyline
 62
7
  6
CONTINUOUS
 90
13
 70
0
 10
30.9078942072
 20
-98.1162379236
 10
30.9409692523
 20
-98.1009054355
 10
30.9737126667
 20
-98.0880422274
 10
31.0061244504
 20
-98.0776482995
 10
31.0383117882
 20
-98.0697052341
 10
31.0701674952
 20
-98.0642314488
 10
31.1013700174
 20
-98.0612821965
 10
31.131912739
 20
-98.0608830461
 10
31.1618022756
 20
-98.0630084287
 10
31.1907369197
 20
-98.0676368904
 10
31.218707
 20
-98.074793783
 10
31.2457221878
 20
-98.0844537547
 10
31.2656644554
 20
-98.0935177507
  0
LWPOLYLINE
  5
459
100
AcDbEntity
  8
ASSI
100
AcDbPolyline
 62
7
  6
CONTINUOUS
 90
68
 70
0
 10
6.0350808998
 20
104.1020611474
 10
6.2999132372
 20
103.9909907495
 10
6.5715758842
 20
103.8847875767
 10
6.8500688407
 20
103.7834516289
 10
7.1357395273
 20
103.6868739763
 10
7.4282405235
 20
103.5951635487
 10
7.7265295681
 20
103.5086471355
 10
8.0306273099
 20
103.4273432664
 10
8.3405131001
 20
103.3512334118
 10
8.6550827307
 20
103.2805887718
 10
8.9743529112
 20
103.2154288437
 10
9.2983069321
 20
103.1557341303
 10
9.6257904564
 20
103.1017173402
 10
9.9568160755
 20
103.0533987295
 10
10.291371198
 20
103.010758042
 10
10.6282637123
 20
102.9739472184
 10
10.9675019569
 20
102.9429870566
 10
11.3090775933
 20
102.9178567586
 10
11.6517734938
 20
102.8986458705
 10
11.995593655
 20
102.8853755099
 10
12.3405340802
 20
102.8780245592
 10
12.6853656523
 20
102.8766192119
 10
13.0300879829
 20
102.8811806789
 10
13.3747014602
 20
102.8916877493
 10
13.7179781321
 20
102.9081029835
 10
14.0599132294
 20
102.9304474589
 10
14.4005115213
 20
102.9587000981
 10
14.7385593625
 20
102.9927602292
 10
15.0740476544
 20
103.0326485705
 10
15.4069854958
 20
103.0783444037
 10
15.7361865378
 20
103.129684902
 10
16.0616374493
 20
103.1866902028
 10
16.3833515615
 20
103.2493401687
 10
16.7001825187
 20
103.3174115608
 10
17.0121129003
 20
103.3909237199
 10
17.3191601269
 20
103.4698573052
 10
17.6202301051
 20
103.5539310545
 10
17.915301511
 20
103.6431633056
 10
18.2043956685
 20
103.7375357207
 10
18.4864824559
 20
103.8367120252
 10
18.7615368743
 20
103.940709357
 10
19.0295839226
 20
104.049510578
 10
19.2896684756
 20
104.1627279998
 10
19.5417621271
 20
104.2803773772
 10
19.7858932833
 20
104.4024429553
 10
20.021192038
 20
104.528489781
 10
20.2476268816
 20
104.6585320575
 10
20.4652293237
 20
104.7925555817
 10
20.6732239872
 20
104.9300827909
 10
20.8715765961
 20
105.0711261846
 10
21.0603214265
 20
105.2156732633
 10
21.2387859286
 20
105.3632089663
 10
21.4069334273
 20
105.5137439554
 10
21.5648005978
 20
105.6672675687
 10
21.7118249161
 20
105.8232327595
 10
21.8479677002
 20
105.9816482381
 10
21.973267632
 20
106.1425052942
 10
22.0872782337
 20
106.3052307499
 10
22.1899592302
 20
106.4698312709
 10
22.2813508966
 20
106.6363001916
 10
22.3611275792
 20
106.8040443376
 10
22.4292478414
 20
106.9730682582
 10
22.4857531198
 20
107.1433674041
 10
22.5304420707
 20
107.3143349528
 10
22.5632725391
 20
107.4859732887
 10
22.5842866798
 20
107.6582800274
 10
22.5934096139
 20
107.8306411927
 10
22.593825775
 20
107.8764097315
  0
LWPOLYLINE
  5
45A
100
AcDbEntity
  8
ASSI
100
AcDbPolyline
 62
7
  6
CONTINUOUS
 90
68
 70
0
 10
-11.6425886299
 20
112.9408959122
 10
-11.3777562925
 20
112.8298255144
 10
-11.1060936455
 20
112.7236223416
 10
-10.8276006889
 20
112.6222863937
 10
-10.5419300024
 20
112.5257087411
 10
-10.2494290062
 20
112.4339983135
 10
-9.9511399616
 20
112.3474819003
 10
-9.6470422198
 20
112.2661780313
 10
-9.3371564296
 20
112.1900681766
 10
-9.022586799
 20
112.1194235366
 10
-8.7033166184
 20
112.0542636085
 10
-8.3793625975
 20
111.9945688951
 10
-8.0518790733
 20
111.940552105
 10
-7.7208534541
 20
111.8922334943
 10
-7.3862983316
 20
111.8495928069
 10
-7.0494058174
 20
111.8127819832
 10
-6.7101675727
 20
111.7818218214
 10
-6.3685919363
 20
111.7566915234
 10
-6.0258960358
 20
111.7374806354
 10
-5.6820758747
 20
111.7242102747
 10
-5.3371354494
 20
111.716859324
 10
-4.9923038773
 20
111.7154539767
 10
-4.6475815468
 20
111.7200154437
 10
-4.3029680694
 20
111.7305225141
 10
-3.9596913976
 20
111.7469377483
 10
-3.6177563002
 20
111.7692822237
 10
-3.2771580084
 20
111.7975348629
 10
-2.9391101672
 20
111.831594994
 10
-2.6036218752
 20
111.8714833353
 10
-2.2706840339
 20
111.9171791685
 10
-1.9414829919
 20
111.9685196668
 10
-1.6160320803
 20
112.0255249676
 10
-1.2943179682
 20
112.0881749336
 10
-0.977487011
 20
112.1562463256
 10
-0.6655566294
 20
112.2297584847
 10
-0.3585094028
 20
112.30869207
 10
-0.0574394246
 20
112.3927658194
 10
0.2376319813
 20
112.4819980704
 10
0.5267261388
 20
112.5763704856
 10
0.8088129262
 20
112.6755467901
 10
1.0838673446
 20
112.7795441218
 10
1.3519143929
 20
112.8883453428
 10
1.6119989459
 20
113.0015627646
 10
1.8640925974
 20
113.119212142
 10
2.1082237536
 20
113.2412777201
 10
2.3435225084
 20
113.3673245459
 10
2.569957352
 20
113.4973668224
 10
2.7875597941
 20
113.6313903465
 10
2.9955544575
 20
113.7689175557
 10
3.1939070665
 20
113.9099609494
 10
3.3826518968
 20
114.0545080282
 10
3.5611163989
 20
114.2020437311
 10
3.7292638976
 20
114.3525787202
 10
3.8871310681
 20
114.5061023335
 10
4.0341553864
 20
114.6620675243
 10
4.1702981705
 20
114.8204830029
 10
4.2955981024
 20
114.981340059
 10
4.409608704
 20
115.1440655148
 10
4.5122897006
 20
115.3086660358
 10
4.603681367
 20
115.4751349564
 10
4.6834580495
 20
115.6428791024
 10
4.7515783117
 20
115.811903023
 10
4.8080835902
 20
115.9822021689
 10
4.852772541
 20
116.1531697176
 10
4.8856030094
 20
116.3248080535
 10
4.9066171502
 20
116.4971147922
 10
4.9157400842
 20
116.6694759575
 10
4.9161562454
 20
116.7152444963
  0
LWPOLYLINE
  5
45B
100
AcDbEntity
  8
ASSI
100
AcDbPolyline
 62
7
  6
CONTINUOUS
 90
70
 70
0
 10
5.6806996504
 20
103.9248705227
 10
5.9491899026
 20
103.8113731363
 10
6.2244749423
 20
103.7026506473
 10
6.5065547693
 20
103.5987030557
 10
6.7957594182
 20
103.4994249918
 10
7.0917588546
 20
103.4049218252
 10
7.3935629746
 20
103.3155096644
 10
7.7011912163
 20
103.2312055576
 10
8.0146241418
 20
103.1519924565
 10
8.3328133331
 20
103.0781353253
 10
8.6557747175
 20
103.0096520992
 10
8.9834923678
 20
102.9465248428
 10
9.3148700844
 20
102.8889647138
 10
9.6499201237
 20
102.8369903547
 10
9.9886302293
 20
102.7905831229
 10
10.3298674324
 20
102.7498982484
 10
10.6736401955
 20
102.7149548936
 10
11.0199400561
 20
102.6857338959
 10
11.3676086581
 20
102.6623329984
 10
11.716650585
 20
102.6447716906
 10
12.0670612532
 20
102.6330304829
 10
12.4176685563
 20
102.6271486491
 10
12.7684731527
 20
102.6271458103
 10
13.1194743838
 20
102.6330023453
 10
13.4694981677
 20
102.6446986643
 10
13.8185412313
 20
102.662254323
 10
14.1666068477
 20
102.6856497657
 10
14.5125307544
 20
102.7148067358
 10
14.8563057795
 20
102.7497445268
 10
15.1979390949
 20
102.7904438452
 10
15.5362879538
 20
102.8367685538
 10
15.8713413577
 20
102.8887374903
 10
16.203110305
 20
102.9463318169
 10
16.530485045
 20
103.0093588834
 10
16.8534508628
 20
103.0778368825
 10
17.1720224731
 20
103.1517476215
 10
17.4851342695
 20
103.2308438726
 10
17.7927679688
 20
103.3151430006
 10
18.0949418542
 20
103.4046276407
 10
18.3906451688
 20
103.4989984711
 10
18.6798562447
 20
103.5982718543
 10
18.9625967498
 20
103.7024314279
 10
19.2379209309
 20
103.8111287831
 10
19.5058039531
 20
103.9243791157
 10
19.7662706512
 20
104.0421672299
 10
20.018449777
 20
104.1640991303
 10
20.2623135779
 20
104.2901886932
 10
20.4978898063
 20
104.4204220423
 10
20.7243904714
 20
104.5543635534
 10
20.9417851819
 20
104.6920256439
 10
21.150104329
 20
104.8333958964
 10
21.3486510954
 20
104.9780014344
 10
21.5373927563
 20
105.1258530917
 10
21.7163620365
 20
105.2769400344
 10
21.8849602923
 20
105.4307568841
 10
22.0431527947
 20
105.5873127823
 10
22.1909742727
 20
105.7465985874
 10
22.3279302708
 20
105.9080814963
 10
22.4539844039
 20
106.0717688663
 10
22.5691730571
 20
106.23765334
 10
22.67311093
 20
106.4051800419
 10
22.7657603472
 20
106.5743544714
 10
22.847158984
 20
106.7451711291
 10
22.9170345661
 20
106.9170586416
 10
22.9753485063
 20
107.090020595
 10
23.0221393916
 20
107.2640534032
 10
23.057250709
 20
107.438574935
 10
23.080643347
 20
107.6135868269
 10
23.0923564171
 20
107.7890874425
 10
23.0938208454
 20
107.8764097318
  0
LWPOLYLINE
  5
45C
100
AcDbEntity
  8
ASSI
100
AcDbPolyline
 62
7
  6
CONTINUOUS
 90
70
 70
0
 10
-11.9969698793
 20
112.7637052875
 10
-11.728479627
 20
112.6502079012
 10
-11.4531945874
 20
112.5414854122
 10
-11.1711147604
 20
112.4375378205
 10
-10.8819101114
 20
112.3382597566
 10
-10.5859106751
 20
112.24375659
 10
-10.2841065551
 20
112.1543444292
 10
-9.9764783133
 20
112.0700403224
 10
-9.6630453878
 20
111.9908272214
 10
-9.3448561965
 20
111.9169700901
 10
-9.0218948121
 20
111.848486864
 10
-8.6941771618
 20
111.7853596077
 10
-8.3627994453
 20
111.7277994787
 10
-8.027749406
 20
111.6758251195
 10
-7.6890393004
 20
111.6294178878
 10
-7.3478020973
 20
111.5887330133
 10
-7.0040293342
 20
111.5537896584
 10
-6.6577294736
 20
111.5245686608
 10
-6.3100608716
 20
111.5011677632
 10
-5.9610189447
 20
111.4836064555
 10
-5.6106082764
 20
111.4718652478
 10
-5.2600009733
 20
111.4659834139
 10
-4.909196377
 20
111.4659805751
 10
-4.5581951459
 20
111.4718371101
 10
-4.2081713619
 20
111.4835334292
 10
-3.8591282983
 20
111.5010890878
 10
-3.5110626819
 20
111.5244845305
 10
-3.1651387752
 20
111.5536415006
 10
-2.8213637502
 20
111.5885792916
 10
-2.4797304348
 20
111.6292786101
 10
-2.1413815758
 20
111.6756033187
 10
-1.806328172
 20
111.7275722551
 10
-1.4745592246
 20
111.7851665817
 10
-1.1471844847
 20
111.8481936483
 10
-0.8242186669
 20
111.9166716473
 10
-0.5056470566
 20
111.9905823863
 10
-0.1925352602
 20
112.0696786375
 10
0.1150984392
 20
112.1539777654
 10
0.4172723246
 20
112.2434624055
 10
0.7129756392
 20
112.337833236
 10
1.0021867151
 20
112.4371066191
 10
1.2849272202
 20
112.5412661927
 10
1.5602514013
 20
112.6499635479
 10
1.8281344234
 20
112.7632138805
 10
2.0886011216
 20
112.8810019947
 10
2.3407802473
 20
113.0029338952
 10
2.5846440482
 20
113.129023458
 10
2.8202202767
 20
113.2592568071
 10
3.0467209418
 20
113.3931983182
 10
3.2641156523
 20
113.5308604087
 10
3.4724347994
 20
113.6722306613
 10
3.6709815657
 20
113.8168361992
 10
3.8597232266
 20
113.9646878565
 10
4.0386925068
 20
114.1157747992
 10
4.2072907627
 20
114.2695916489
 10
4.365483265
 20
114.4261475471
 10
4.513304743
 20
114.5854333523
 10
4.6502607411
 20
114.7469162611
 10
4.7763148742
 20
114.9106036311
 10
4.8915035274
 20
115.0764881048
 10
4.9954414003
 20
115.2440148067
 10
5.0880908175
 20
115.4131892362
 10
5.1694894544
 20
115.5840058939
 10
5.2393650364
 20
115.7558934064
 10
5.2976789766
 20
115.9288553598
 10
5.344469862
 20
116.102888168
 10
5.3795811793
 20
116.2774096998
 10
5.4029738174
 20
116.4524215918
 10
5.4146868874
 20
116.6279222073
 10
5.4161513158
 20
116.7152444967
  0
LWPOLYLINE
  5
45D
100
AcDbEntity
  8
ASSI
100
AcDbPolyline
 62
7
  6
CONTINUOUS
 90
44
 70
0
 10
39.2545080989
 20
92.2785332244
 10
39.3042485794
 20
92.2564417318
 10
39.3522622672
 20
92.2400498856
 10
39.402066925
 20
92.2275725925
 10
39.4532548829
 20
92.2191119839
 10
39.5058374947
 20
92.2147010279
 10
39.5598034066
 20
92.2143067564
 10
39.6147108872
 20
92.2179323966
 10
39.6705676646
 20
92.2256109432
 10
39.7273660107
 20
92.2373094016
 10
39.7846410095
 20
92.2529320154
 10
39.8423965734
 20
92.2725109933
 10
39.9006287899
 20
92.2960141266
 10
39.9588610064
 20
92.3232490334
 10
40.017093223
 20
92.3542463432
 10
40.0753254395
 20
92.3889754263
 10
40.1330810033
 20
92.4271520123
 10
40.1903560022
 20
92.4688043973
 10
40.2471543483
 20
92.513904285
 10
40.3030111257
 20
92.5620825159
 10
40.3579186063
 20
92.6133643562
 10
40.4118845181
 20
92.6677245396
 10
40.4644671299
 20
92.7247181074
 10
40.5156550878
 20
92.7843666739
 10
40.5654597457
 20
92.8466486248
 10
40.6134734334
 20
92.9110541588
 10
40.6596814513
 20
92.9776007058
 10
40.704098499
 20
93.0462708359
 10
40.7463610064
 20
93.1165024581
 10
40.7864512894
 20
93.1883083888
 10
40.8243870321
 20
93.2616758116
 10
40.8598577159
 20
93.3360041864
 10
40.8928431082
 20
93.4113014004
 10
40.9233634418
 20
93.4875595664
 10
40.9511688961
 20
93.5641544825
 10
40.976237188
 20
93.6410889125
 10
40.9985906006
 20
93.7183600927
 10
41.0180461628
 20
93.795335529
 10
41.0345800896
 20
93.8720127941
 10
41.0482161661
 20
93.9483943154
 10
41.0588427757
 20
94.0238548813
 10
41.0664227129
 20
94.0981860878
 10
41.0709931833
 20
94.1715963389
 10
41.0725541868
 20
94.2440856345
  0
LWPOLYLINE
  5
45E
100
AcDbEntity
  8
ASSI
100
AcDbPolyline
 62
7
  6
CONTINUOUS
 90
44
 70
0
 10
40.663213914
 20
95.0959448644
 10
40.6134734334
 20
95.1180363569
 10
40.5654597457
 20
95.1344282031
 10
40.5156550878
 20
95.1469054962
 10
40.4644671299
 20
95.1553661048
 10
40.4118845181
 20
95.1597770608
 10
40.3579186063
 20
95.1601713323
 10
40.3030111257
 20
95.1565456921
 10
40.2471543483
 20
95.1488671455
 10
40.1903560022
 20
95.1371686871
 10
40.1330810033
 20
95.1215460733
 10
40.0753254395
 20
95.1019670954
 10
40.017093223
 20
95.0784639621
 10
39.9588610064
 20
95.0512290553
 10
39.9006287899
 20
95.0202317456
 10
39.8423965734
 20
94.9855026624
 10
39.7846410095
 20
94.9473260764
 10
39.7273660107
 20
94.9056736914
 10
39.6705676646
 20
94.8605738037
 10
39.6147108872
 20
94.8123955728
 10
39.5598034066
 20
94.7611137325
 10
39.5058374947
 20
94.7067535491
 10
39.4532548829
 20
94.6497599813
 10
39.402066925
 20
94.5901114148
 10
39.3522622672
 20
94.5278294639
 10
39.3042485794
 20
94.4634239299
 10
39.2580405616
 20
94.3968773829
 10
39.2136235138
 20
94.3282072528
 10
39.1713610064
 20
94.2579756306
 10
39.1312707234
 20
94.1861696999
 10
39.0933349808
 20
94.1128022771
 10
39.057864297
 20
94.0384739024
 10
39.0248789046
 20
93.9631766883
 10
38.9943585711
 20
93.8869185223
 10
38.9665531168
 20
93.8103236062
 10
38.9414848249
 20
93.7333891762
 10
38.9191314123
 20
93.656117996
 10
38.8996758501
 20
93.5791425597
 10
38.8831419232
 20
93.5024652946
 10
38.8695058468
 20
93.4260837733
 10
38.8588792372
 20
93.3506232074
 10
38.8512992999
 20
93.2762920009
 10
38.8467288296
 20
93.2028817498
 10
38.8451678261
 20
93.1303924542
  0
LWPOLYLINE
  5
45F
100
AcDbEntity
  8
ASSI
100
AcDbPolyline
 62
7
  6
CONTINUOUS
 90
15
 70
0
 10
33.7822195348
 20
91.9405578193
 10
33.7695409284
 20
91.9467508559
 10
33.7133713209
 20
91.9707571925
 10
33.6550131815
 20
91.9903081563
 10
33.5948999758
 20
92.005258529
 10
33.5330186353
 20
92.0155740541
 10
33.4693822284
 20
92.0212889881
 10
33.4044634261
 20
92.0223608823
 10
33.3382526795
 20
92.0187551641
 10
33.2707595374
 20
92.0105064061
 10
33.2024853173
 20
91.9976758774
 10
33.1334242032
 20
91.9802294617
 10
33.0635820111
 20
91.9582012753
 10
32.9934775064
 20
91.9317549366
 10
32.923108736
 20
91.9008575474
  0
LINE
  5
460
100
AcDbEntity
  8
ASSI
100
AcDbLine
 62
253
  6
CONTINUOUS
 10
33.2943795937
 20
91.0621051192
 11
32.5872728126
 21
91.4156585098
  0
LINE
  5
461
100
AcDbEntity
  8
ASSI
100
AcDbLine
 62
253
  6
CONTINUOUS
 10
34.3020067569
 20
90.8588119196
 11
33.5948999758
 21
91.2123653102
  0
LINE
  5
462
100
AcDbEntity
  8
0
100
AcDbLine
 62
7
  6
CONTINUOUS
 10
32.2513970915
 20
96.501902696
 11
31.5442903103
 21
96.8554560866
  0
LINE
  5
463
100
AcDbEntity
  8
ASSI
100
AcDbLine
 62
253
  6
CONTINUOUS
 10
41.0725541868
 20
94.2440856345
 11
40.3654474056
 21
94.5976390251
  0
LINE
  5
464
100
AcDbEntity
  8
ASSI
100
AcDbLine
 62
253
  6
CONTINUOUS
 10
40.3650540232
 20
94.6155133858
 11
39.7507386331
 21
94.9226710809
  0
LWPOLYLINE
  5
465
100
AcDbEntity
  8
ASSI
100
AcDbPolyline
 62
7
  6
CONTINUOUS
 90
35
 70
0
 10
-8.3647943954
 20
125.6513966452
 10
-8.4058332667
 20
125.6812648295
 10
-8.4559963888
 20
125.7139388323
 10
-8.5096456305
 20
125.745346428
 10
-8.5663418525
 20
125.7752305335
 10
-8.6261100636
 20
125.8035786445
 10
-8.688925255
 20
125.8304032653
 10
-8.7542732605
 20
125.8554848264
 10
-8.8221748689
 20
125.878809021
 10
-8.8926092915
 20
125.9003901559
 10
-8.9649999958
 20
125.9200515811
 10
-9.0393630385
 20
125.9377775403
 10
-9.115682363
 20
125.95358379
 10
-9.1933332667
 20
125.9673409499
 10
-9.2723266789
 20
125.9790322017
 10
-9.3526516703
 20
125.9886743639
 10
-9.4336507504
 20
125.9961885115
 10
-9.5153294521
 20
126.0015571786
 10
-9.5976822425
 20
126.0047978311
 10
-9.6800350329
 20
126.0058839433
 10
-9.7623878233
 20
126.0047978311
 10
-9.8447406137
 20
126.0015571786
 10
-9.9264193153
 20
125.9961885115
 10
-10.0074183954
 20
125.9886743639
 10
-10.0877433868
 20
125.9790322017
 10
-10.166736799
 20
125.9673409499
 10
-10.2443877027
 20
125.95358379
 10
-10.3207070272
 20
125.9377775403
 10
-10.39507007
 20
125.9200515811
 10
-10.4674607743
 20
125.9003901559
 10
-10.5378951968
 20
125.878809021
 10
-10.6057968052
 20
125.8554848264
 10
-10.670973422
 20
125.8304764552
 10
-10.7336172247
 20
125.8037250243
 10
-10.7937282132
 20
125.7752305335
  0
LWPOLYLINE
  5
466
100
AcDbEntity
  8
ASSI
100
AcDbPolyline
 62
7
  6
CONTINUOUS
 90
35
 70
0
 10
25.5763311016
 20
101.6097660849
 10
25.5352922302
 20
101.6396342692
 10
25.4851291081
 20
101.6723082719
 10
25.4314798664
 20
101.7037158676
 10
25.3747836445
 20
101.7335999732
 10
25.3150154333
 20
101.7619480841
 10
25.252200242
 20
101.788772705
 10
25.1868522365
 20
101.8138542661
 10
25.118950628
 20
101.8371784607
 10
25.0485162055
 20
101.8587595955
 10
24.9761255012
 20
101.8784210208
 10
24.9017624584
 20
101.89614698
 10
24.8254431339
 20
101.9119532296
 10
24.7477922302
 20
101.9257103896
 10
24.668798818
 20
101.9374016414
 10
24.5884738267
 20
101.9470438035
 10
24.5074747465
 20
101.9545579512
 10
24.4257960449
 20
101.9599266182
 10
24.3434432545
 20
101.9631672708
 10
24.2610904641
 20
101.964253383
 10
24.1787376737
 20
101.9631672708
 10
24.0963848833
 20
101.9599266182
 10
24.0147061817
 20
101.9545579512
 10
23.9337071015
 20
101.9470438035
 10
23.8533821101
 20
101.9374016414
 10
23.7743886979
 20
101.9257103896
 10
23.6967377943
 20
101.9119532296
 10
23.6204184698
 20
101.89614698
 10
23.546055427
 20
101.8784210208
 10
23.4736647227
 20
101.8587595955
 10
23.4032303001
 20
101.8371784607
 10
23.3353286917
 20
101.8138542661
 10
23.2701520749
 20
101.7888458949
 10
23.2075082723
 20
101.7620944639
 10
23.1473972837
 20
101.7335999732
  0
LWPOLYLINE
  5
467
100
AcDbEntity
  8
ASSI
100
AcDbPolyline
 62
7
  6
CONTINUOUS
 90
35
 70
0
 10
32.6473989135
 20
105.1452999908
 10
32.6063600421
 20
105.1751681751
 10
32.55619692
 20
105.2078421779
 10
32.5025476783
 20
105.2392497735
 10
32.4458514563
 20
105.2691338791
 10
32.3860832452
 20
105.2974819901
 10
32.3232680538
 20
105.3243066109
 10
32.2579200483
 20
105.349388172
 10
32.1900184399
 20
105.3727123666
 10
32.1195840173
 20
105.3942935014
 10
32.047193313
 20
105.4139549267
 10
31.9728302703
 20
105.4316808859
 10
31.8965109458
 20
105.4474871355
 10
31.8188600421
 20
105.4612442955
 10
31.7398666299
 20
105.4729355473
 10
31.6595416385
 20
105.4825777094
 10
31.5785425584
 20
105.4900918571
 10
31.4968638567
 20
105.4954605242
 10
31.4145110664
 20
105.4987011767
 10
31.332158276
 20
105.4997872889
 10
31.2498054856
 20
105.4987011767
 10
31.1674526952
 20
105.4954605242
 10
31.0857739935
 20
105.4900918571
 10
31.0047749134
 20
105.4825777094
 10
30.924449922
 20
105.4729355473
 10
30.8454565098
 20
105.4612442955
 10
30.7678056061
 20
105.4474871355
 10
30.6914862816
 20
105.4316808859
 10
30.6171232389
 20
105.4139549267
 10
30.5447325346
 20
105.3942935014
 10
30.474298112
 20
105.3727123666
 10
30.4063965036
 20
105.349388172
 10
30.3412198868
 20
105.3243798008
 10
30.2785760841
 20
105.2976283699
 10
30.2184650956
 20
105.2691338791
  0
LWPOLYLINE
  5
468
100
AcDbEntity
  8
ASSI
100
AcDbPolyline
 62
7
  6
CONTINUOUS
 90
25
 70
0
 10
24.7050833959
 20
-119.1083333945
 10
24.7521246399
 20
-119.0677588391
 10
24.8079036678
 20
-119.0156630014
 10
24.8627261814
 20
-118.9604399579
 10
24.9161434379
 20
-118.9025417303
 10
24.968143903
 20
-118.8419463612
 10
25.018739111
 20
-118.7786758078
 10
25.0675149208
 20
-118.7132479638
 10
25.1144563992
 20
-118.6456451224
 10
25.1595784795
 20
-118.5758849902
 10
25.2025118203
 20
-118.5045385804
 10
25.243238457
 20
-118.431592873
 10
25.2817763543
 20
-118.357060888
 10
25.3178100648
 20
-118.2815526977
 10
25.3513190349
 20
-118.2050602898
 10
25.3823238182
 20
-118.1275916767
 10
25.4105706289
 20
-118.0497809683
 10
25.4360368301
 20
-117.9716253568
 10
25.4587450588
 20
-117.89312765
 10
25.4785094395
 20
-117.8149303814
 10
25.4953058096
 20
-117.7370360168
 10
25.5091583317
 20
-117.6594420904
 10
25.5199536177
 20
-117.5827837378
 10
25.5276538714
 20
-117.5072726708
 10
25.5308069122
 20
-117.4566289736
  0
LWPOLYLINE
  5
469
100
AcDbEntity
  8
ASSI
100
AcDbPolyline
 62
7
  6
CONTINUOUS
 90
25
 70
0
 10
38.8472190197
 20
-112.0372655827
 10
38.8942602636
 20
-111.9966910273
 10
38.9500392915
 20
-111.9445951895
 10
39.0048618052
 20
-111.8893721461
 10
39.0582790616
 20
-111.8314739184
 10
39.1102795268
 20
-111.7708785493
 10
39.1608747347
 20
-111.707607996
 10
39.2096505445
 20
-111.6421801519
 10
39.2565920229
 20
-111.5745773105
 10
39.3017141032
 20
-111.5048171783
 10
39.3446474441
 20
-111.4334707685
 10
39.3853740808
 20
-111.3605250611
 10
39.423911978
 20
-111.2859930761
 10
39.4599456886
 20
-111.2104848858
 10
39.4934546586
 20
-111.1339924779
 10
39.5244594419
 20
-111.0565238648
 10
39.5527062526
 20
-110.9787131565
 10
39.5781724539
 20
-110.900557545
 10
39.6008806826
 20
-110.8220598382
 10
39.6206450632
 20
-110.7438625695
 10
39.6374414334
 20
-110.665968205
 10
39.6512939555
 20
-110.5883742785
 10
39.6620892414
 20
-110.5117159259
 10
39.6697894951
 20
-110.436204859
 10
39.6729425359
 20
-110.3855611618
  0
LINE
  5
46A
100
AcDbEntity
  8
0
100
AcDbLine
 62
7
  6
CONTINUOUS
 10
7.9976344968
 20
-128.3534852867
 11
9.1997160248
 21
-127.4822828643
  0
LINE
  5
46B
100
AcDbEntity
  8
0
100
AcDbLine
 62
7
  6
CONTINUOUS
 10
30.2007874261
 20
-102.092811552
 11
30.0593660698
 21
-102.1635222301
  0
LINE
  5
46C
100
AcDbEntity
  8
0
100
AcDbLine
 62
7
  6
CONTINUOUS
 10
12.9595653313
 20
-110.8723412219
 11
13.7959101025
 21
-110.4541688363
  0
LINE
  5
46D
100
AcDbEntity
  8
0
100
AcDbLine
 62
7
  6
CONTINUOUS
 10
30.9078942072
 20
-102.4463649425
 11
30.6250514948
 21
-102.5877862988
  0
LINE
  5
46E
100
AcDbEntity
  8
0
100
AcDbLine
 62
7
  6
CONTINUOUS
 10
13.6544887463
 20
-111.2319862956
 11
13.7959101025
 21
-111.1612756175
  0
LINE
  5
46F
100
AcDbEntity
  8
0
100
AcDbLine
 62
7
  6
CONTINUOUS
 10
14.5030168837
 20
-112.8138671138
 11
31.4735796322
 21
-104.3285857395
  0
LINE
  5
470
100
AcDbEntity
  8
0
100
AcDbLine
 62
7
  6
CONTINUOUS
 10
30.766472851
 20
-105.7070831565
 11
19.452764352
 21
-111.363937406
  0
LINE
  5
471
100
AcDbEntity
  8
0
100
AcDbLine
 62
7
  6
CONTINUOUS
 10
-3.0995676512
 20
-122.8048842127
 11
-4.0231807834
 21
-123.2666907788
  0
LINE
  5
472
100
AcDbEntity
  8
0
100
AcDbLine
 62
7
  6
CONTINUOUS
 10
31.4735796322
 20
-106.0606365471
 11
20.1598711332
 21
-111.7174907966
  0
LINE
  5
473
100
AcDbEntity
  8
0
100
AcDbLine
 62
7
  6
CONTINUOUS
 10
-4.0231807834
 20
-124.5657288844
 11
-1.8005295456
 21
-123.4544032655
  0
LINE
  5
474
100
AcDbEntity
  8
0
100
AcDbLine
 62
7
  6
CONTINUOUS
 10
10.2603761966
 20
-121.9865931648
 11
9.1997160248
 21
-122.5169232507
  0
LWPOLYLINE
  5
475
100
AcDbEntity
  8
0
100
AcDbPolyline
 62
7
  6
CONTINUOUS
 90
13
 70
0
 10
30.6250514948
 20
-102.5877862988
 10
30.5919764497
 20
-102.603118787
 10
30.5592330353
 20
-102.615981995
 10
30.5268212516
 20
-102.6263759229
 10
30.4946339138
 20
-102.6343189883
 10
30.4627782068
 20
-102.6397927736
 10
30.4315756847
 20
-102.6427420259
 10
30.4010329631
 20
-102.6431411763
 10
30.3711434264
 20
-102.6410157938
 10
30.3422087823
 20
-102.636387332
 10
30.314238702
 20
-102.6292304394
 10
30.2872235142
 20
-102.6195704677
 10
30.2672812466
 20
-102.6105064717
  0
LWPOLYLINE
  5
476
100
AcDbEntity
  8
0
100
AcDbPolyline
 62
7
  6
CONTINUOUS
 90
13
 70
0
 10
13.6544887463
 20
-111.2319862956
 10
13.6131449399
 20
-111.2511519058
 10
13.5722156719
 20
-111.2672309159
 10
13.5317009423
 20
-111.2802233258
 10
13.4914667701
 20
-111.2901521575
 10
13.4516471363
 20
-111.2969943891
 10
13.4126439836
 20
-111.3006809545
 10
13.3744655817
 20
-111.3011798925
 10
13.3371036608
 20
-111.2985231643
 10
13.3009353557
 20
-111.2927375871
 10
13.2659727553
 20
-111.2837914714
 10
13.2322037706
 20
-111.2717165068
 10
13.207275936
 20
-111.2603865118
  0
LWPOLYLINE
  5
477
100
AcDbEntity
  8
ASSI
100
AcDbPolyline
 62
7
  6
CONTINUOUS
 90
68
 70
0
 10
19.1525762492
 20
111.6507583157
 10
18.8877439118
 20
111.7618287136
 10
18.6160812649
 20
111.8680318864
 10
18.3375883083
 20
111.9693678342
 10
18.0519176217
 20
112.0659454868
 10
17.7594166255
 20
112.1576559144
 10
17.461127581
 20
112.2441723276
 10
17.1570298391
 20
112.3254761967
 10
16.8471440489
 20
112.4015860514
 10
16.5325744184
 20
112.4722306913
 10
16.2133042378
 20
112.5373906194
 10
15.8893502169
 20
112.5970853328
 10
15.5618666927
 20
112.6511021229
 10
15.2308410735
 20
112.6994207337
 10
14.896285951
 20
112.7420614211
 10
14.5593934368
 20
112.7788722447
 10
14.2201551921
 20
112.8098324065
 10
13.8785795557
 20
112.8349627045
 10
13.5358836552
 20
112.8541735926
 10
13.192063494
 20
112.8674439532
 10
12.8471230688
 20
112.8747949039
 10
12.5022914967
 20
112.8762002513
 10
12.1575691662
 20
112.8716387842
 10
11.8129556888
 20
112.8611317138
 10
11.4696790169
 20
112.8447164796
 10
11.1277439196
 20
112.8223720042
 10
10.7871456278
 20
112.794119365
 10
10.4490977865
 20
112.7600592339
 10
10.1136094946
 20
112.7201708926
 10
9.7806716532
 20
112.6744750594
 10
9.4514706112
 20
112.6231345611
 10
9.1260196997
 20
112.5661292603
 10
8.8043055875
 20
112.5034792944
 10
8.4874746303
 20
112.4354079024
 10
8.1755442488
 20
112.3618957432
 10
7.8684970222
 20
112.282962158
 10
7.567427044
 20
112.1988884086
 10
7.272355638
 20
112.1096561575
 10
6.9832614805
 20
112.0152837424
 10
6.7011746931
 20
111.9161074379
 10
6.4261202747
 20
111.8121101062
 10
6.1580732265
 20
111.7033088851
 10
5.8979886735
 20
111.5900914633
 10
5.645895022
 20
111.4724420859
 10
5.4017638657
 20
111.3503765078
 10
5.166465111
 20
111.2243296821
 10
4.9400302674
 20
111.0942874056
 10
4.7224278253
 20
110.9602638815
 10
4.5144331618
 20
110.8227366723
 10
4.3160805529
 20
110.6816932786
 10
4.1273357226
 20
110.5371461998
 10
3.9488712204
 20
110.3896104968
 10
3.7807237217
 20
110.2390755077
 10
3.6228565512
 20
110.0855518944
 10
3.4758322329
 20
109.9295867037
 10
3.3396894489
 20
109.771171225
 10
3.214389517
 20
109.610314169
 10
3.1003789154
 20
109.4475887132
 10
2.9976979188
 20
109.2829881922
 10
2.9063062524
 20
109.1165192715
 10
2.8265295698
 20
108.9487751256
 10
2.7584093076
 20
108.7797512049
 10
2.7019040292
 20
108.609452059
 10
2.6572150783
 20
108.4384845104
 10
2.62438461
 20
108.2668461744
 10
2.6033704692
 20
108.0945394357
 10
2.5942475351
 20
107.9221782705
 10
2.593831374
 20
107.8764097316
  0
LWPOLYLINE
  5
478
100
AcDbEntity
  8
ASSI
100
AcDbPolyline
 62
7
  6
CONTINUOUS
 90
68
 70
0
 10
1.4749067195
 20
120.4895930806
 10
1.2100743822
 20
120.6006634784
 10
0.9384117352
 20
120.7068666512
 10
0.6599187786
 20
120.8082025991
 10
0.3742480921
 20
120.9047802517
 10
0.0817470959
 20
120.9964906793
 10
-0.2165419487
 20
121.0830070924
 10
-0.5206396905
 20
121.1643109615
 10
-0.8305254808
 20
121.2404208162
 10
-1.1450951113
 20
121.3110654562
 10
-1.4643652919
 20
121.3762253843
 10
-1.7883193128
 20
121.4359200977
 10
-2.115802837
 20
121.4899368878
 10
-2.4468284562
 20
121.5382554985
 10
-2.7813835787
 20
121.5808961859
 10
-3.1182760929
 20
121.6177070096
 10
-3.4575143376
 20
121.6486671713
 10
-3.799089974
 20
121.6737974693
 10
-4.1417858745
 20
121.6930083574
 10
-4.4856060356
 20
121.706278718
 10
-4.8305464609
 20
121.7136296687
 10
-5.175378033
 20
121.7150350161
 10
-5.5201003635
 20
121.7104735491
 10
-5.8647138409
 20
121.6999664787
 10
-6.2079905127
 20
121.6835512445
 10
-6.5499256101
 20
121.6612067691
 10
-6.8905239019
 20
121.6329541298
 10
-7.2285717432
 20
121.5988939987
 10
-7.5640600351
 20
121.5590056574
 10
-7.8969978764
 20
121.5133098243
 10
-8.2261989184
 20
121.461969326
 10
-8.55164983
 20
121.4049640251
 10
-8.8733639421
 20
121.3423140592
 10
-9.1901948993
 20
121.2742426672
 10
-9.5021252809
 20
121.200730508
 10
-9.8091725075
 20
121.1217969228
 10
-10.1102424857
 20
121.0377231734
 10
-10.4053138916
 20
120.9484909224
 10
-10.6944080491
 20
120.8541185072
 10
-10.9764948365
 20
120.7549422027
 10
-11.2515492549
 20
120.650944871
 10
-11.5195963032
 20
120.5421436499
 10
-11.7796808562
 20
120.4289262282
 10
-12.0317745077
 20
120.3112768508
 10
-12.2759056639
 20
120.1892112727
 10
-12.5112044187
 20
120.0631644469
 10
-12.7376392623
 20
119.9331221704
 10
-12.9552417044
 20
119.7990986463
 10
-13.1632363678
 20
119.6615714371
 10
-13.3615889768
 20
119.5205280434
 10
-13.5503338071
 20
119.3759809646
 10
-13.7287983092
 20
119.2284452617
 10
-13.8969458079
 20
119.0779102726
 10
-14.0548129784
 20
118.9243866593
 10
-14.2018372967
 20
118.7684214685
 10
-14.3379800808
 20
118.6100059899
 10
-14.4632800127
 20
118.4491489338
 10
-14.5772906143
 20
118.286423478
 10
-14.6799716109
 20
118.121822957
 10
-14.7713632773
 20
117.9553540364
 10
-14.8511399598
 20
117.7876098904
 10
-14.9192602221
 20
117.6185859698
 10
-14.9757655005
 20
117.4482868238
 10
-15.0204544513
 20
117.2773192752
 10
-15.0532849197
 20
117.1056809393
 10
-15.0742990605
 20
116.9333742006
 10
-15.0834219945
 20
116.7610130353
 10
-15.0838381557
 20
116.7152444965
  0
LWPOLYLINE
  5
479
100
AcDbEntity
  8
ASSI
100
AcDbPolyline
 62
7
  6
CONTINUOUS
 90
70
 70
0
 10
19.5069574987
 20
111.8279489405
 10
19.2384672464
 20
111.9414463268
 10
18.9631822067
 20
112.0501688158
 10
18.6811023797
 20
112.1541164075
 10
18.3918977308
 20
112.2533944714
 10
18.0958982945
 20
112.3478976379
 10
17.7940941744
 20
112.4373097987
 10
17.4864659327
 20
112.5216139055
 10
17.1730330072
 20
112.6008270066
 10
16.8548438159
 20
112.6746841379
 10
16.5318824315
 20
112.743167364
 10
16.2041647812
 20
112.8062946203
 10
15.8727870646
 20
112.8638547493
 10
15.5377370254
 20
112.9158291084
 10
15.1990269198
 20
112.9622363402
 10
14.8577897167
 20
113.0029212147
 10
14.5140169536
 20
113.0378645696
 10
14.1677170929
 20
113.0670855672
 10
13.8200484909
 20
113.0904864647
 10
13.4710065641
 20
113.1080477725
 10
13.1205958958
 20
113.1197889802
 10
12.7699885927
 20
113.125670814
 10
12.4191839964
 20
113.1256736529
 10
12.0681827652
 20
113.1198171178
 10
11.7181589813
 20
113.1081207988
 10
11.3691159177
 20
113.0905651401
 10
11.0210503013
 20
113.0671696974
 10
10.6751263946
 20
113.0380127274
 10
10.3313513695
 20
113.0030749363
 10
9.9897180541
 20
112.9623756179
 10
9.6513691952
 20
112.9160509093
 10
9.3163157914
 20
112.8640819729
 10
8.984546844
 20
112.8064876463
 10
8.657172104
 20
112.7434605797
 10
8.3342062863
 20
112.6749825806
 10
8.0156346759
 20
112.6010718416
 10
7.7025228795
 20
112.5219755905
 10
7.3948891802
 20
112.4376764625
 10
7.0927152948
 20
112.3481918225
 10
6.7970119802
 20
112.253820992
 10
6.5078009043
 20
112.1545476088
 10
6.2250603992
 20
112.0503880353
 10
5.9497362181
 20
111.94169068
 10
5.681853196
 20
111.8284403475
 10
5.4213864978
 20
111.7106522332
 10
5.1692073721
 20
111.5887203328
 10
4.9253435712
 20
111.4626307699
 10
4.6897673427
 20
111.3323974208
 10
4.4632666776
 20
111.1984559098
 10
4.2458719671
 20
111.0607938192
 10
4.03755282
 20
110.9194235667
 10
3.8390060537
 20
110.7748180287
 10
3.6502643927
 20
110.6269663714
 10
3.4712951126
 20
110.4758794287
 10
3.3026968567
 20
110.3220625791
 10
3.1445043544
 20
110.1655066808
 10
2.9966828764
 20
110.0062208757
 10
2.8597268782
 20
109.8447379668
 10
2.7336727451
 20
109.6810505968
 10
2.6184840919
 20
109.5151661231
 10
2.5145462191
 20
109.3476394212
 10
2.4218968018
 20
109.1784649918
 10
2.340498165
 20
109.0076483341
 10
2.2706225829
 20
108.8357608215
 10
2.2123086428
 20
108.6627988682
 10
2.1655177574
 20
108.48876606
 10
2.1304064401
 20
108.3142445282
 10
2.107013802
 20
108.1392326362
 10
2.0953007319
 20
107.9637320206
 10
2.0938363036
 20
107.8764097313
  0
LWPOLYLINE
  5
47A
100
AcDbEntity
  8
ASSI
100
AcDbPolyline
 62
7
  6
CONTINUOUS
 90
70
 70
0
 10
1.829287969
 20
120.6667837053
 10
1.5607977167
 20
120.7802810916
 10
1.2855126771
 20
120.8890035806
 10
1.0034328501
 20
120.9929511723
 10
0.7142282011
 20
121.0922292362
 10
0.4182287648
 20
121.1867324028
 10
0.1164246448
 20
121.2761445635
 10
-0.191203597
 20
121.3604486704
 10
-0.5046365225
 20
121.4396617714
 10
-0.8228257138
 20
121.5135189027
 10
-1.1457870982
 20
121.5820021288
 10
-1.4735047485
 20
121.6451293851
 10
-1.804882465
 20
121.7026895141
 10
-2.1399325043
 20
121.7546638732
 10
-2.4786426099
 20
121.801071105
 10
-2.819879813
 20
121.8417559795
 10
-3.1636525761
 20
121.8766993344
 10
-3.5099524367
 20
121.905920332
 10
-3.8576210387
 20
121.9293212295
 10
-4.2066629656
 20
121.9468825373
 10
-4.5570736339
 20
121.958623745
 10
-4.907680937
 20
121.9645055789
 10
-5.2584855333
 20
121.9645084177
 10
-5.6094867644
 20
121.9586518827
 10
-5.9595105484
 20
121.9469555636
 10
-6.308553612
 20
121.929399905
 10
-6.6566192284
 20
121.9060044623
 10
-7.0025431351
 20
121.8768474922
 10
-7.3463181601
 20
121.8419097012
 10
-7.6879514755
 20
121.8012103827
 10
-8.0263003345
 20
121.7548856741
 10
-8.3613537383
 20
121.7029167377
 10
-8.6931226857
 20
121.6453224111
 10
-9.0204974257
 20
121.5822953445
 10
-9.3434632434
 20
121.5138173455
 10
-9.6620348537
 20
121.4399066065
 10
-9.9751466501
 20
121.3608103553
 10
-10.2827803495
 20
121.2765112274
 10
-10.5849542349
 20
121.1870265873
 10
-10.8806575495
 20
121.0926557568
 10
-11.1698686254
 20
120.9933823737
 10
-11.4526091305
 20
120.8892228001
 10
-11.7279333116
 20
120.7805254448
 10
-11.9958163337
 20
120.6672751123
 10
-12.2562830319
 20
120.5494869981
 10
-12.5084621576
 20
120.4275550976
 10
-12.7523259585
 20
120.3014655347
 10
-12.987902187
 20
120.1712321857
 10
-13.2144028521
 20
120.0372906746
 10
-13.4317975626
 20
119.8996285841
 10
-13.6401167097
 20
119.7582583315
 10
-13.838663476
 20
119.6136527936
 10
-14.0274051369
 20
119.4658011363
 10
-14.2063744171
 20
119.3147141935
 10
-14.374972673
 20
119.1608973439
 10
-14.5331651753
 20
119.0043414457
 10
-14.6809866533
 20
118.8450556405
 10
-14.8179426514
 20
118.6835727316
 10
-14.9439967845
 20
118.5198853617
 10
-15.0591854377
 20
118.354000888
 10
-15.1631233106
 20
118.1864741861
 10
-15.2557727278
 20
118.0172997566
 10
-15.3371713647
 20
117.8464830989
 10
-15.4070469467
 20
117.6745955863
 10
-15.4653608869
 20
117.501633633
 10
-15.5121517723
 20
117.3276008248
 10
-15.5472630896
 20
117.153079293
 10
-15.5706557277
 20
116.978067401
 10
-15.5823687977
 20
116.8025667855
 10
-15.5838332261
 20
116.7152444961
  0
LINE
  5
47B
100
AcDbEntity
  8
0
100
AcDbLine
 62
7
  6
CONTINUOUS
 10
42.5751560968
 20
101.6637821987
 11
41.8680493156
 21
102.0173355893
  0
LINE
  5
47C
100
AcDbEntity
  8
0
100
AcDbLine
 62
7
  6
CONTINUOUS
 10
45.5507582373
 20
103.1515832689
 11
44.8436514561
 21
103.5051366595
  0
LINE
  5
47D
100
AcDbEntity
  8
0
100
AcDbLine
 62
7
  6
CONTINUOUS
 10
45.5803599169
 20
103.440478188
 11
44.8732531357
 21
103.7940315786
  0
LINE
  5
47E
100
AcDbEntity
  8
0
100
AcDbLine
 62
7
  6
CONTINUOUS
 10
44.8732531357
 20
104.4646195123
 11
44.1661463545
 21
104.8181729029
  0
LINE
  5
47F
100
AcDbEntity
  8
0
100
AcDbLine
 62
7
  6
CONTINUOUS
 10
-11.2003146124
 20
132.5014033864
 11
-11.9074213936
 21
132.854956777
  0
LWPOLYLINE
  5
480
100
AcDbEntity
  8
0
100
AcDbPolyline
 62
7
  6
CONTINUOUS
 90
14
 70
0
 10
-8.7861975134
 20
132.2307032313
 10
-8.7785255126
 20
132.2267637018
 10
-8.7463068109
 20
132.2077383882
 10
-8.715699316
 20
132.1855557633
 10
-8.6870119827
 20
132.1604397403
 10
-8.6602642586
 20
132.1323606093
 10
-8.6354366961
 20
132.1013480802
 10
-8.6127799067
 20
132.0677151961
 10
-8.5923158763
 20
132.0314354178
 10
-8.574022619
 20
131.9925352845
 10
-8.5580847885
 20
131.9514074576
 10
-8.5445262411
 20
131.9080293746
 10
-8.5333231204
 20
131.862423598
 10
-8.52869958
 20
131.8373473123
  0
LWPOLYLINE
  5
481
100
AcDbEntity
  8
ASSI
100
AcDbPolyline
 62
7
  6
CONTINUOUS
 90
30
 70
0
 10
31.5318118487
 20
-115.7222014785
 10
31.5900440653
 20
-115.6874723953
 10
31.6477996291
 20
-115.6492958094
 10
31.7050746279
 20
-115.6076434244
 10
31.761872974
 20
-115.5625435366
 10
31.8177297514
 20
-115.5143653058
 10
31.872637232
 20
-115.4630834655
 10
31.9266031439
 20
-115.4087232821
 10
31.9791857557
 20
-115.3517297142
 10
32.0303737136
 20
-115.2920811478
 10
32.0801783714
 20
-115.2297991968
 10
32.1281920592
 20
-115.1653936628
 10
32.174400077
 20
-115.0988471158
 10
32.2188171248
 20
-115.0301769857
 10
32.2610796322
 20
-114.9599453635
 10
32.3011699152
 20
-114.8881394328
 10
32.3391056578
 20
-114.8147720101
 10
32.3745763416
 20
-114.7404436353
 10
32.407561734
 20
-114.6651464213
 10
32.4380820676
 20
-114.5888882553
 10
32.4658875218
 20
-114.5122933392
 10
32.4909558137
 20
-114.4353589091
 10
32.5133092263
 20
-114.358087729
 10
32.5327647885
 20
-114.2811122927
 10
32.5492987154
 20
-114.2044350276
 10
32.5629347919
 20
-114.1280535062
 10
32.5735614014
 20
-114.0525929404
 10
32.5811413387
 20
-113.9782617338
 10
32.5857118091
 20
-113.9048514827
 10
32.5872728126
 20
-113.8323621871
  0
LWPOLYLINE
  5
482
100
AcDbEntity
  8
ASSI
100
AcDbPolyline
 62
7
  6
CONTINUOUS
 90
32
 70
0
 10
32.8524776531
 20
-113.3824786909
 10
32.7821088827
 20
-113.4219500722
 10
32.7120043781
 20
-113.4656082381
 10
32.642162186
 20
-113.5134222439
 10
32.5731010719
 20
-113.5650369422
 10
32.5048268518
 20
-113.6204806337
 10
32.4373337097
 20
-113.6797250178
 10
32.371122963
 20
-113.7423300462
 10
32.3062041607
 20
-113.8083207427
 10
32.2425677539
 20
-113.8776720835
 10
32.1806864134
 20
-113.9498689491
 10
32.1205732076
 20
-114.0249325275
 10
32.0622150682
 20
-114.1028416307
 10
32.0060454608
 20
-114.1830175748
 10
31.9520806813
 20
-114.2654772389
 10
31.9003044337
 20
-114.3502037438
 10
31.8511012955
 20
-114.4365677683
 10
31.8044904263
 20
-114.5245815054
 10
31.7604526664
 20
-114.614232762
 10
31.7193151142
 20
-114.7048556372
 10
31.681099365
 20
-114.7964573659
 10
31.6457838235
 20
-114.8890307132
 10
31.6136308023
 20
-114.9818880739
 10
31.5846638498
 20
-115.0750315629
 10
31.5588594177
 20
-115.1684590653
 10
31.5364091728
 20
-115.2614766315
 10
31.5173380909
 20
-115.3540812092
 10
31.5016211964
 20
-115.4462758506
 10
31.4893752292
 20
-115.5373757637
 10
31.4806391028
 20
-115.6271526841
 10
31.4753739038
 20
-115.7158348761
 10
31.4735796322
 20
-115.8034223397
  0
LINE
  5
483
100
AcDbEntity
  8
ASSI
100
AcDbLine
 62
7
  6
CONTINUOUS
 10
31.4746198288
 20
-115.7526450862
 11
31.5318118487
 21
-115.7222014785
  0
LWPOLYLINE
  5
484
100
AcDbEntity
  8
0
100
AcDbPolyline
 62
7
  6
CONTINUOUS
 90
15
 70
0
 10
45.5803599169
 20
-110.7276041679
 10
45.6224795363
 20
-110.7052529809
 10
45.6616953784
 20
-110.6818851706
 10
45.6980074431
 20
-110.6575007368
 10
45.7315187154
 20
-110.6320104922
 10
45.7621262102
 20
-110.6055036241
 10
45.789520973
 20
-110.5782476952
 10
45.8136704646
 20
-110.5502351189
 10
45.8346072242
 20
-110.5214734818
 10
45.8521199142
 20
-110.4922531064
 10
45.8661738552
 20
-110.4625693465
 10
45.8768037266
 20
-110.4324268483
 10
45.8839022296
 20
-110.4021298727
 10
45.887433598
 20
-110.3716768552
 10
45.887875019
 20
-110.3563731078
  0
LWPOLYLINE
  5
485
100
AcDbEntity
  8
0
100
AcDbPolyline
 62
7
  6
CONTINUOUS
 90
15
 70
0
 10
45.5803599169
 20
-112.2864498947
 10
45.6224795363
 20
-112.2640987078
 10
45.6616953784
 20
-112.2407308974
 10
45.6980074431
 20
-112.2163464637
 10
45.7315187154
 20
-112.190856219
 10
45.7621262102
 20
-112.1643493509
 10
45.789520973
 20
-112.137093422
 10
45.8136704646
 20
-112.1090808457
 10
45.8346072242
 20
-112.0803192087
 10
45.8521199142
 20
-112.0510988333
 10
45.8661738552
 20
-112.0214150733
 10
45.8768037266
 20
-111.9912725751
 10
45.8839022296
 20
-111.9609755995
 10
45.887433598
 20
-111.930522582
 10
45.887875019
 20
-111.9152188346
  0
LINE
  5
486
100
AcDbEntity
  8
ASSI
100
AcDbLine
 62
7
  6
CONTINUOUS
 10
25.3747836445
 20
-118.0515076628
 11
25.41731718
 21
-118.0290758452
  0
LINE
  5
487
100
AcDbEntity
  8
ASSI
100
AcDbLine
 62
7
  6
CONTINUOUS
 10
32.4458514563
 20
-114.5159737568
 11
32.4685970052
 21
-114.5039779517
  0
LINE
  5
488
100
AcDbEntity
  8
ASSI
100
AcDbLine
 62
7
  6
CONTINUOUS
 10
32.923108736
 20
-113.3471631495
 11
32.8524776531
 21
-113.3824786909
  0
LINE
  5
489
100
AcDbEntity
  8
0
100
AcDbLine
 62
7
  6
CONTINUOUS
 10
9.1997160248
 20
-127.7524445227
 11
7.9976344968
 21
-128.3534852867
  0
LINE
  5
48A
100
AcDbEntity
  8
0
100
AcDbLine
 62
7
  6
CONTINUOUS
 10
10.2603761966
 20
-131.7075073744
 11
10.3036774668
 21
-131.6858567393
  0
LINE
  5
48B
100
AcDbEntity
  8
0
100
AcDbLine
 62
7
  6
CONTINUOUS
 10
45.5803599169
 20
-114.2783083234
 11
45.4693147202
 21
-114.3338309217
  0
LINE
  5
48C
100
AcDbEntity
  8
0
100
AcDbLine
 62
7
  6
CONTINUOUS
 10
10.9674829778
 20
-132.0177594948
 11
19.452764352
 21
-127.7751188077
  0
LINE
  5
48D
100
AcDbEntity
  8
0
100
AcDbLine
 62
7
  6
CONTINUOUS
 10
10.9321276387
 20
-132.0433830955
 11
19.4559427245
 21
-127.7814755526
  0
LINE
  5
48E
100
AcDbEntity
  8
0
100
AcDbLine
 62
253
  6
CONTINUOUS
 10
44.8378977966
 20
105.154048624
 11
43.5651055905
 21
105.7904447271
  0
LINE
  5
48F
100
AcDbEntity
  8
0
100
AcDbLine
 62
7
  6
CONTINUOUS
 10
43.5651055905
 20
105.7904447271
 11
26.8066748764
 21
114.1696600841
  0
LINE
  5
490
100
AcDbEntity
  8
0
100
AcDbLine
 62
253
  6
CONTINUOUS
 10
26.8066748764
 20
114.1696600841
 11
25.5338826702
 21
114.8060561872
  0
LINE
  5
491
100
AcDbEntity
  8
0
100
AcDbLine
 62
7
  6
CONTINUOUS
 10
25.5338826702
 20
114.8060561872
 11
8.7754519561
 21
123.1852715443
  0
LINE
  5
492
100
AcDbEntity
  8
0
100
AcDbLine
 62
253
  6
CONTINUOUS
 10
8.7754519561
 20
123.1852715443
 11
7.50265975
 21
123.8216676473
  0
LINE
  5
493
100
AcDbEntity
  8
0
100
AcDbLine
 62
7
  6
CONTINUOUS
 10
7.50265975
 20
123.8216676473
 11
-9.2557709642
 21
132.2008830044
  0
LINE
  5
494
100
AcDbEntity
  8
0
100
AcDbLine
 62
253
  6
CONTINUOUS
 10
-9.2557709642
 20
132.2008830044
 11
-10.5285631703
 21
132.8372791074
  0
LINE
  5
495
100
AcDbEntity
  8
0
100
AcDbLine
 62
7
  6
CONTINUOUS
 10
45.3074720719
 20
105.1838705006
 11
44.0346798658
 21
105.8202666036
  0
LINE
  5
496
100
AcDbEntity
  8
0
100
AcDbLine
 62
7
  6
CONTINUOUS
 10
27.2762491516
 20
114.1994819607
 11
26.0034569455
 21
114.8358780638
  0
LINE
  5
497
100
AcDbEntity
  8
0
100
AcDbLine
 62
7
  6
CONTINUOUS
 10
9.2450262314
 20
123.2150934208
 11
7.9722340252
 21
123.8514895239
  0
LINE
  5
498
100
AcDbEntity
  8
0
100
AcDbLine
 62
7
  6
CONTINUOUS
 10
-8.7861966889
 20
132.230704881
 11
-10.058988895
 21
132.867100984
  0
LWPOLYLINE
  5
499
100
AcDbEntity
  8
0
100
AcDbPolyline
 62
7
  6
CONTINUOUS
 90
14
 70
0
 10
9.2450254069
 20
123.2150917712
 10
9.2526974077
 20
123.2111522416
 10
9.2849161094
 20
123.1921269281
 10
9.3155236042
 20
123.1699443032
 10
9.3442109375
 20
123.1448282802
 10
9.3709586616
 20
123.1167491492
 10
9.3957862242
 20
123.08573662
 10
9.4184430136
 20
123.052103736
 10
9.438907044
 20
123.0158239576
 10
9.4572003013
 20
122.9769238244
 10
9.4731381317
 20
122.9357959974
 10
9.4866966792
 20
122.8924179145
 10
9.4978997999
 20
122.8468121379
 10
9.5025233402
 20
122.8217358522
  0
LWPOLYLINE
  5
49A
100
AcDbEntity
  8
0
100
AcDbPolyline
 62
7
  6
CONTINUOUS
 90
14
 70
0
 10
27.2762483271
 20
114.1994803111
 10
27.2839203279
 20
114.1955407815
 10
27.3161390296
 20
114.176515468
 10
27.3467465245
 20
114.1543328431
 10
27.3754338578
 20
114.1292168201
 10
27.4021815819
 20
114.101137689
 10
27.4270091444
 20
114.0701251599
 10
27.4496659338
 20
114.0364922759
 10
27.4701299642
 20
114.0002124975
 10
27.4884232215
 20
113.9613123642
 10
27.504361052
 20
113.9201845373
 10
27.5179195995
 20
113.8768064543
 10
27.5291227201
 20
113.8312006777
 10
27.5337462605
 20
113.8061243921
  0
LWPOLYLINE
  5
49B
100
AcDbEntity
  8
0
100
AcDbPolyline
 62
7
  6
CONTINUOUS
 90
17
 70
0
 10
45.3074712474
 20
105.1838688509
 10
45.3151432482
 20
105.1799293214
 10
45.3473619499
 20
105.1609040079
 10
45.3779694447
 20
105.1387213829
 10
45.4066567781
 20
105.1136053599
 10
45.4334045021
 20
105.0855262289
 10
45.4582320647
 20
105.0545136998
 10
45.4808888541
 20
105.0208808157
 10
45.5013528845
 20
104.9846010374
 10
45.5196461418
 20
104.9457009041
 10
45.5355839722
 20
104.9045730772
 10
45.5491425197
 20
104.8611949942
 10
45.5603456404
 20
104.8155892176
 10
45.569080249
 20
104.768216096
 10
45.5753086503
 20
104.719229079
 10
45.5790685397
 20
104.6684747171
 10
45.5803599169
 20
104.6159530101
  0
LINE
  5
49C
100
AcDbEntity
  8
0
100
AcDbLine
 62
253
  6
CONTINUOUS
 10
22.1397701205
 20
-127.1387227046
 11
23.4125623267
 21
-126.5023266016
  0
LINE
  5
49D
100
AcDbEntity
  8
0
100
AcDbLine
 62
253
  6
CONTINUOUS
 10
32.2513970915
 20
-122.0829092192
 11
33.5241892976
 21
-121.4465131161
  0
LINE
  5
49E
100
AcDbEntity
  8
0
100
AcDbLine
 62
253
  6
CONTINUOUS
 10
42.3630240625
 20
-117.0270957337
 11
43.6358162686
 21
-116.3906996306
  0
LINE
  5
49F
100
AcDbEntity
  8
0
100
AcDbLine
 62
7
  6
CONTINUOUS
 10
45.5507582373
 20
-115.4332286463
 11
43.6358162686
 21
-116.3906996306
  0
LINE
  5
4A0
100
AcDbEntity
  8
0
100
AcDbLine
 62
7
  6
CONTINUOUS
 10
42.3630240625
 20
-117.0270957337
 11
33.5241892976
 21
-121.4465131161
  0
LINE
  5
4A1
100
AcDbEntity
  8
0
100
AcDbLine
 62
7
  6
CONTINUOUS
 10
32.2513970915
 20
-122.0829092192
 11
23.4125623267
 21
-126.5023266016
  0
LINE
  5
4A2
100
AcDbEntity
  8
0
100
AcDbLine
 62
7
  6
CONTINUOUS
 10
22.1397701205
 20
-127.1387227046
 11
20.1598711332
 21
-128.1286721983
  0
LINE
  5
4A3
100
AcDbEntity
  8
0
100
AcDbLine
 62
7
  6
CONTINUOUS
 10
10.9321276387
 20
-132.9094084993
 11
21.3973080003
 21
-127.6768183185
  0
LINE
  5
4A4
100
AcDbEntity
  8
0
100
AcDbLine
 62
7
  6
CONTINUOUS
 10
44.8732531357
 20
-115.9388457508
 11
43.6204255325
 21
-116.5652595524
  0
LINE
  5
4A5
100
AcDbEntity
  8
0
100
AcDbLine
 62
7
  6
CONTINUOUS
 10
41.6205619422
 20
-117.5651913475
 11
33.5087985615
 21
-121.6210730379
  0
LINE
  5
4A6
100
AcDbEntity
  8
0
100
AcDbLine
 62
7
  6
CONTINUOUS
 10
31.5089349713
 20
-122.621004833
 11
23.3971715905
 21
-126.6768865234
  0
LINE
  5
4A7
100
AcDbEntity
  8
0
100
AcDbLine
 62
7
  6
CONTINUOUS
 10
21.8668822756
 20
-127.7066401951
 11
23.1396744817
 21
-127.070244092
  0
LINE
  5
4A8
100
AcDbEntity
  8
0
100
AcDbLine
 62
7
  6
CONTINUOUS
 10
31.9785092465
 20
-122.6508267096
 11
33.2513014527
 21
-122.0144306065
  0
LINE
  5
4A9
100
AcDbEntity
  8
0
100
AcDbLine
 62
7
  6
CONTINUOUS
 10
42.0901362175
 20
-117.5950132241
 11
43.3629284236
 21
-116.958617121
  0
LWPOLYLINE
  5
4AA
100
AcDbEntity
  8
0
100
AcDbPolyline
 62
7
  6
CONTINUOUS
 90
13
 70
0
 10
42.090135393
 20
-117.5950115745
 10
42.0639611667
 20
-117.6069080692
 10
42.0285037327
 20
-117.6195867821
 10
41.9917930023
 20
-117.6289802036
 10
41.9538162819
 20
-117.6350550597
 10
41.9145862651
 20
-117.6378446243
 10
41.874498943
 20
-117.6373207394
 10
41.8335456327
 20
-117.6334498457
 10
41.7917350172
 20
-117.6262655025
 10
41.7494891364
 20
-117.6158402292
 10
41.7069486703
 20
-117.6021981988
 10
41.6639729389
 20
-117.5853152383
 10
41.6205619422
 20
-117.5651913475
  0
LWPOLYLINE
  5
4AB
100
AcDbEntity
  8
0
100
AcDbPolyline
 62
7
  6
CONTINUOUS
 90
13
 70
0
 10
31.978508422
 20
-122.65082506
 10
31.9523341957
 20
-122.6627215547
 10
31.9168767618
 20
-122.6754002676
 10
31.8801660314
 20
-122.6847936891
 10
31.842189311
 20
-122.6908685452
 10
31.8029592941
 20
-122.6936581098
 10
31.762871972
 20
-122.6931342248
 10
31.7219186618
 20
-122.6892633312
 10
31.6801080462
 20
-122.682078988
 10
31.6378621654
 20
-122.6716537147
 10
31.5953216993
 20
-122.6580116843
 10
31.5523459679
 20
-122.6411287237
 10
31.5089349713
 20
-122.621004833
  0
LWPOLYLINE
  5
4AC
100
AcDbEntity
  8
0
100
AcDbPolyline
 62
7
  6
CONTINUOUS
 90
13
 70
0
 10
21.866881451
 20
-127.7066385454
 10
21.8407072247
 20
-127.7185350402
 10
21.8052497908
 20
-127.7312137531
 10
21.7685390604
 20
-127.7406071746
 10
21.73056234
 20
-127.7466820306
 10
21.6913323232
 20
-127.7494715953
 10
21.6512450011
 20
-127.7489477103
 10
21.6102916908
 20
-127.7450768167
 10
21.5684810753
 20
-127.7378924735
 10
21.5262351945
 20
-127.7274672002
 10
21.4836947283
 20
-127.7138251698
 10
21.440718997
 20
-127.6969422092
 10
21.3973080003
 20
-127.6768183185
  0
ENDSEC
  0
SECTION
  2
OBJECTS
  0
DICTIONARY
  5
C
100
AcDbDictionary
280
0
281
1
  3
ACAD_GROUP
350
D
  3
ACAD_MLINESTYLE
350
17
  3
ACAD_LAYOUT
350
1A
  3
ACAD_PLOTSETTINGS
350
19
  3
ACAD_PLOTSTYLENAME
350
E
  0
DICTIONARY
  5
D
102
{ACAD_REACTORS
330
C
102
}
100
AcDbDictionary
280
0
281
1
  0
ACDBDICTIONARYWDFLT
  5
E
102
{ACAD_REACTORS
330
C
102
}
100
AcDbDictionary
281
1
  3
Normal
350
F
100
AcDbDictionaryWithDefault
340
F
  0
DICTIONARY
  5
17
102
{ACAD_REACTORS
330
C
102
}
100
AcDbDictionary
280
0
281
1
  3
Standard
350
18
  0
DICTIONARY
  5
19
102
{ACAD_REACTORS
330
C
102
}
100
AcDbDictionary
281
1
  0
DICTIONARY
  5
1A
102
{ACAD_REACTORS
330
C
102
}
100
AcDbDictionary
281
1
  3
Model
350
4AD
  3
Layout1
350
4AE
  0
ACDBPLACEHOLDER
  5
F
102
{ACAD_REACTORS
330
E
102
}
  0
MLINESTYLE
  5
18
102
{ACAD_REACTORS
330
17
102
}
100
AcDbMlineStyle
  2
STANDARD
 70
0
  3

 62
256
 51
90.0
 52
90.0
 71
2
 49
0.5
 62
256
  6
BYLAYER
 49
-0.5
 62
256
  6
BYLAYER
  0
LAYOUT
  5
4AD
102
{ACAD_REACTORS
330
1A
102
}
100
AcDbPlotSettings
  1

  2
none_device
  4
ISO_A4_(297.00_x_210.00_MM)
  6

 40
0.0
 41
0.0
 42
0.0
 43
0.0
 44
297.0
 45
210.0
 46
0.0
 47
0.0
 48
0.0
 49
0.0
140
0.0
141
0.0
142
1.0
143
1.0
 70
1024
 72
1
 73
0
 74
0
  7

 75
0
147
1.0
148
0.0
149
0.0
100
AcDbLayout
  1
Model
 70
0
 71
0
 10
0.0
 20
0.0
 11
297.0
 21
210.0
 12
0.0
 22
0.0
 32
0.0
 14
0.0
 24
0.0
 34
0.0
 15
0.0
 25
0.0
 35
0.0
146
0.0
 13
0.0
 23
0.0
 33
0.0
 16
1.0
 26
0.0
 36
0.0
 17
0.0
 27
1.0
 37
0.0
 76
0
330
212
345
0
346
0
  0
LAYOUT
  5
4AE
102
{ACAD_REACTORS
330
1A
102
}
100
AcDbPlotSettings
  1

  2
none_device
  4
ISO_A4_(297.00_x_210.00_MM)
  6

 40
0.0
 41
0.0
 42
0.0
 43
0.0
 44
297.0
 45
210.0
 46
0.0
 47
0.0
 48
0.0
 49
0.0
140
0.0
141
0.0
142
1.0
143
1.0
 70
0
 72
1
 73
0
 74
0
  7

 75
0
147
1.0
148
0.0
149
0.0
100
AcDbLayout
  1
Layout1
 70
0
 71
1
 10
0.0
 20
0.0
 11
297.0
 21
210.0
 12
0.0
 22
0.0
 32
0.0
 14
0.0
 24
0.0
 34
0.0
 15
0.0
 25
0.0
 35
0.0
146
0.0
 13
0.0
 23
0.0
 33
0.0
 16
1.0
 26
0.0
 36
0.0
 17
0.0
 27
1.0
 37
0.0
 76
0
330
213
345
0
346
0
  0
ENDSEC
  0
EOF
