  0
SECTION
  2
HEADER
  9
$ACADVER
  1
AC1021
  9
$DWGCODEPAGE
  3
ANSI_1252
  9
$EXTMAX
 10
297.0
 20
210.0
 30
0.0
  9
$EXTMIN
 10
0.0
 20
0.0
 30
0.0
  9
$LIMMIN
 10
0.0
 20
0.0
  9
$LIMMAX
 10
297.0
 20
210.0
  9
$VIEWCTR
 10
148.5
 20
105.0
  9
$VIEWSIZE
 40
210.0
  9
$CLAYER
  8
0
  9
$LTSCALE
 40
16.335
  9
$CELTYPE
  6
BYLAYER
  9
$DIMSCALE
 40
1.0
  9
$DIMASZ
 40
3.0
  9
$DIMEXO
 40
0.5
  9
$DIMDLI
 40
11.286
  9
$DIMEXE
 40
1.5
  9
$DIMCEN
 40
2.673
  9
$DIMLFAC
 40
1.0
  9
$DIMBLK
  1
_FILLED
  9
$DIMALT
 70
0
  9
$DIMALTF
 40
0.0393700787
  9
$DIMTXT
 40
3.0
  9
$DIMTOL
 70
1
  9
$DIMLIM
 70
0
  9
$DIMTFAC
 40
1.0
  9
$DIMTP
 40
0.01
  9
$DIMTM
 40
0.01
  9
$DIMGAP
 40
0.625
  9
$DIMDSEP
 70
44
  9
$AUNITS
 70
0
  9
$PDMODE
 70
3
  9
$PDSIZE
 40
3.0
  9
$HANDSEED
  5
508
  9
$TILEMODE
 70
1
  9
$MEASUREMENT
 70
1
  9
$INSUNITS
 70
4
  0
ENDSEC
  0
SECTION
  2
CLASSES
  0
CLASS
  1
ACDBDICTIONARYWDFLT
  2
AcDbDictionaryWithDefault
  3
AutoCAD 2000
 90
0
 91
1
280
0
281
0
  0
CLASS
  1
ACDBPLACEHOLDER
  2
AcDbPlaceHolder
  3
AutoCAD 2000
 90
0
 91
1
280
0
281
0
  0
CLASS
  1
LAYOUT
  2
AcDbLayout
  3
AutoCAD 2000
 90
0
 91
0
280
0
281
0
  0
ENDSEC
  0
SECTION
  2
TABLES
  0
TABLE
  2
VPORT
  5
8
100
AcDbSymbolTable
 70
2
  0
VPORT
  5
1F4
100
AcDbSymbolTableRecord
100
AcDbViewportTableRecord
  2
*ACTIVE
 70
0
 10
0.0
 20
0.0
 11
1.0
 21
1.0
 12
148.5
 22
105.0
 13
0.0
 23
0.0
 14
1.0
 24
1.0
 15
0.0
 25
0.0
 16
0.0
 26
0.0
 36
1.0
 17
0.0
 27
0.0
 37
0.0
 40
210.0
 41
1.4142857143
 42
50.0
 43
0.0
 44
0.0
 50
0.0
 51
0.0
 71
0
 72
100
 73
1
 74
1
 75
0
 76
0
 77
0
 78
0
  0
ENDTAB
  0
TABLE
  2
LTYPE
  5
5
100
AcDbSymbolTable
 70
6
  0
LTYPE
  5
14
100
AcDbSymbolTableRecord
100
AcDbLinetypeTableRecord
  2
BYBLOCK
 70
0
  3

 72
65
 73
0
 40
0.0
  0
LTYPE
  5
15
100
AcDbSymbolTableRecord
100
AcDbLinetypeTableRecord
  2
BYLAYER
 70
0
  3

 72
65
 73
0
 40
0.0
  0
LTYPE
  5
16
100
AcDbSymbolTableRecord
100
AcDbLinetypeTableRecord
  2
CONTINUOUS
 70
64
  3
Solid line
 72
65
 73
0
 40
0.0
  0
LTYPE
  5
1F5
100
AcDbSymbolTableRecord
100
AcDbLinetypeTableRecord
  2
CENTER
 70
64
  3
____ _ ____ _ ____ _ ____ _ ____ _ ____ _ ____
 72
65
 73
4
 40
0.6
 49
0.375
 74
0
 49
-0.075
 74
0
 49
0.075
 74
0
 49
-0.075
 74
0
  0
LTYPE
  5
1F6
100
AcDbSymbolTableRecord
100
AcDbLinetypeTableRecord
  2
HIDDEN
 70
64
  3
- - - - - - - - - - - - - - - - - - - -
 72
65
 73
2
 40
0.2
 49
0.1
 74
0
 49
-0.1
 74
0
  0
LTYPE
  5
1F7
100
AcDbSymbolTableRecord
100
AcDbLinetypeTableRecord
  2
PHANTOM
 70
64
  3
_____ _ _ _____ _ _ _____ _ _ _____
 72
65
 73
6
 40
0.8
 49
0.45
 74
0
 49
-0.05
 74
0
 49
0.1
 74
0
 49
-0.05
 74
0
 49
0.1
 74
0
 49
-0.05
 74
0
  0
LTYPE
  5
1F8
100
AcDbSymbolTableRecord
100
AcDbLinetypeTableRecord
  2
DOT
 70
64
  3
. . . . . . . . . . . . . . . . . . . .
 72
65
 73
2
 40
0.2
 49
0.1
 74
0
 49
-0.1
 74
0
  0
LTYPE
  5
1F9
100
AcDbSymbolTableRecord
100
AcDbLinetypeTableRecord
  2
DASHED
 70
64
  3
- - - - - - - - - - - - - - - - - - - -
 72
65
 73
2
 40
0.2
 49
0.1
 74
0
 49
-0.1
 74
0
  0
ENDTAB
  0
TABLE
  2
LAYER
  5
2
100
AcDbSymbolTable
 70
36
  0
LAYER
  5
10
100
AcDbSymbolTableRecord
100
AcDbLayerTableRecord
  2
0
 70
0
 62
7
  6
CONTINUOUS
370
-3
390
F
  0
LAYER
  5
1FA
100
AcDbSymbolTableRecord
100
AcDbLayerTableRecord
  2
DEFAULT_1
 70
0
 62
7
  6
CENTER
370
-3
390
F
  0
LAYER
  5
1FB
100
AcDbSymbolTableRecord
100
AcDbLayerTableRecord
  2
DEFAULT_2
 70
0
 62
7
  6
HIDDEN
370
-3
390
F
  0
LAYER
  5
1FC
100
AcDbSymbolTableRecord
100
AcDbLayerTableRecord
  2
DEFAULT_3
 70
0
 62
7
  6
PHANTOM
370
-3
390
F
  0
LAYER
  5
1FD
100
AcDbSymbolTableRecord
100
AcDbLayerTableRecord
  2
ASSI
 70
0
 62
7
  6
CONTINUOUS
370
-3
390
F
  0
LAYER
  5
1FE
100
AcDbSymbolTableRecord
100
AcDbLayerTableRecord
  2
COORDINATE
 70
0
 62
7
  6
CONTINUOUS
370
-3
390
F
  0
LAYER
  5
1FF
100
AcDbSymbolTableRecord
100
AcDbLayerTableRecord
  2
COPY_PUBLISH
 70
0
 62
7
  6
CONTINUOUS
370
-3
390
F
  0
LAYER
  5
200
100
AcDbSymbolTableRecord
100
AcDbLayerTableRecord
  2
COSMETICI
 70
0
 62
7
  6
CONTINUOUS
370
-3
390
F
  0
LAYER
  5
201
100
AcDbSymbolTableRecord
100
AcDbLayerTableRecord
  2
CURVE
 70
0
 62
7
  6
CONTINUOUS
370
-3
390
F
  0
LAYER
  5
202
100
AcDbSymbolTableRecord
100
AcDbLayerTableRecord
  2
DRAFT
 70
0
 62
7
  6
CONTINUOUS
370
-3
390
F
  0
LAYER
  5
203
100
AcDbSymbolTableRecord
100
AcDbLayerTableRecord
  2
IMPORT_IGES
 70
0
 62
7
  6
CONTINUOUS
370
-3
390
F
  0
LAYER
  5
204
100
AcDbSymbolTableRecord
100
AcDbLayerTableRecord
  2
NOTE
 70
0
 62
7
  6
CONTINUOUS
370
-3
390
F
  0
LAYER
  5
205
100
AcDbSymbolTableRecord
100
AcDbLayerTableRecord
  2
PIANI
 70
0
 62
7
  6
CONTINUOUS
370
-3
390
F
  0
LAYER
  5
206
100
AcDbSymbolTableRecord
100
AcDbLayerTableRecord
  2
PUNTI
 70
0
 62
7
  6
CONTINUOUS
370
-3
390
F
  0
LAYER
  5
207
100
AcDbSymbolTableRecord
100
AcDbLayerTableRecord
  2
RACCORDO
 70
0
 62
7
  6
CONTINUOUS
370
-3
390
F
  0
LAYER
  5
208
100
AcDbSymbolTableRecord
100
AcDbLayerTableRecord
  2
SIMBOLI
 70
0
 62
7
  6
CONTINUOUS
370
-3
390
F
  0
LAYER
  5
209
100
AcDbSymbolTableRecord
100
AcDbLayerTableRecord
  2
SMUSSO
 70
0
 62
7
  6
CONTINUOUS
370
-3
390
F
  0
LAYER
  5
20A
100
AcDbSymbolTableRecord
100
AcDbLayerTableRecord
  2
SNAPLINE
 70
0
 62
7
  6
CONTINUOUS
370
-3
390
F
  0
LAYER
  5
20B
100
AcDbSymbolTableRecord
100
AcDbLayerTableRecord
  2
SUPERFICI
 70
0
 62
7
  6
CONTINUOUS
370
-3
390
F
  0
LAYER
  5
20C
100
AcDbSymbolTableRecord
100
AcDbLayerTableRecord
  2
TRASH
 70
0
 62
7
  6
CONTINUOUS
370
-3
390
F
  0
ENDTAB
  0
TABLE
  2
STYLE
  5
3
100
AcDbSymbolTable
 70
1
  0
STYLE
  5
11
100
AcDbSymbolTableRecord
100
AcDbTextStyleTableRecord
  2
STANDARD
 70
0
 40
0.0
 41
0.8
 50
0.0
 71
0
 42
0.2
  3
txt
  4

  0
STYLE
  5
20D
100
AcDbSymbolTableRecord
100
AcDbTextStyleTableRecord
  2
TEXTSTYLE_1
 70
0
 40
0.0
 41
0.8
 50
0.0
 71
0
 42
0.2
  3
gdt
  4

  0
ENDTAB
  0
TABLE
  2
VIEW
  5
6
100
AcDbSymbolTable
 70
0
  0
ENDTAB
  0
TABLE
  2
UCS
  5
7
100
AcDbSymbolTable
 70
0
  0
ENDTAB
  0
TABLE
  2
APPID
  5
9
100
AcDbSymbolTable
 70
1
  0
APPID
  5
20E
100
AcDbSymbolTableRecord
100
AcDbRegAppTableRecord
  2
ACAD
 70
0
  0
ENDTAB
  0
TABLE
  2
BLOCK_RECORD
  5
1
100
AcDbSymbolTable
 70
0
  0
BLOCK_RECORD
  5
20F
100
AcDbSymbolTableRecord
100
AcDbBlockTableRecord
  2
*Model_Space
  0
BLOCK_RECORD
  5
210
100
AcDbSymbolTableRecord
100
AcDbBlockTableRecord
  2
*Paper_Space
  0
BLOCK_RECORD
  5
211
100
AcDbSymbolTableRecord
100
AcDbBlockTableRecord
  2
_FILLED
  0
ENDTAB
  0
TABLE
  2
DIMSTYLE
  5
A
100
AcDbSymbolTable
 70
1
100
AcDbDimStyleTable
 71
0
  0
DIMSTYLE
105
212
100
AcDbSymbolTableRecord
100
AcDbDimStyleTableRecord
  2
STANDARD
 70
0
  3

  4

 40
1.0
 41
3.0
 42
0.5
 43
0.38
 44
1.5
 45
0.0
 46
0.0
 47
0.01
 48
0.01
140
3.0
141
0.09
142
0.0
143
25.4
144
1.0
145
0.0
146
1.0
147
0.625
 71
1.0
 72
0.0
 73
0
 74
0
 75
0
 76
0
 77
1
 78
8
 79
2
170
0
171
1
172
0
173
0
174
0
175
0
176
0
177
0
178
0
270
2
179
2
271
2
272
2
273
2
274
2
275
0
280
0
281
0
282
0
283
1
284
8
285
0
286
0
287
3
288
0
340
11
278
44
341
211
342
211
343
211
344
211
  0
ENDTAB
  0
ENDSEC
  0
SECTION
  2
BLOCKS
  0
BLOCK
  5
20
100
AcDbEntity
  8
0
100
AcDbBlockBegin
  2
*Model_Space
 70
0
 10
0.0
 20
0.0
 30
0.0
  3
*Model_Space
  1

  0
ENDBLK
  5
21
100
AcDbEntity
  8
0
100
AcDbBlockEnd
  0
BLOCK
  5
1C
100
AcDbEntity
  8
0
100
AcDbBlockBegin
  2
*Paper_Space
 70
0
 10
0.0
 20
0.0
 30
0.0
  3
*Paper_Space
  1

  0
ENDBLK
  5
1D
100
AcDbEntity
  8
0
100
AcDbBlockEnd
  0
BLOCK
  5
213
100
AcDbEntity
  8
0
100
AcDbBlockBegin
  2
_FILLED
 70
64
 10
0.0
 20
0.0
  3
_FILLED
  1

  0
SOLID
  5
214
100
AcDbEntity
  8
0
  6
BYBLOCK
 62
0
100
AcDbTrace
 10
0.0
 20
0.0
 11
-1.0
 21
0.3166666667
 12
-1.0
 22
-0.3166666667
 13
-1.0
 23
-0.3166666667
  0
ENDBLK
  5
215
100
AcDbEntity
  8
0
  6
BYBLOCK
 62
0
100
AcDbBlockEnd
  0
ENDSEC
  0
SECTION
  2
ENTITIES
  0
LWPOLYLINE
  5
216
100
AcDbEntity
  8
0
100
AcDbPolyline
 62
7
  6
CONTINUOUS
 90
18
 70
0
 10
109.3020687822
 20
197.994141003
 10
109.2958582891
 20
197.9903843812
 10
109.2839219019
 20
197.9821221545
 10
109.2726651386
 20
197.9728622444
 10
109.2620668306
 20
197.9626108063
 10
109.2521924705
 20
197.9514607745
 10
109.2430596573
 20
197.9394395459
 10
109.2346507922
 20
197.9265197237
 10
109.2269785708
 20
197.9127120516
 10
109.2200230786
 20
197.8979754985
 10
109.2138042303
 20
197.8823510956
 10
109.2083944654
 20
197.86597268
 10
109.2038078926
 20
197.8488216343
 10
109.2000304033
 20
197.8309165761
 10
109.1970921106
 20
197.8124471943
 10
109.1950030526
 20
197.7934767189
 10
109.1937531912
 20
197.7739419201
 10
109.1933425266
 20
197.7538427978
  0
LWPOLYLINE
  5
217
100
AcDbEntity
  8
0
100
AcDbPolyline
 62
7
  6
CONTINUOUS
 90
18
 70
0
 10
115.6306744738
 20
201.6481986133
 10
115.6244639808
 20
201.6444419914
 10
115.6125275936
 20
201.6361797648
 10
115.6012708302
 20
201.6269198547
 10
115.5906725222
 20
201.6166684166
 10
115.5807981621
 20
201.6055183848
 10
115.571665349
 20
201.5934971562
 10
115.5632564838
 20
201.580577334
 10
115.5555842624
 20
201.5667696619
 10
115.5486287703
 20
201.5520331088
 10
115.5424099219
 20
201.5364087059
 10
115.537000157
 20
201.5200302902
 10
115.5324135842
 20
201.5028792446
 10
115.5286360949
 20
201.4849741863
 10
115.5256978023
 20
201.4665048046
 10
115.5236087442
 20
201.4475343292
 10
115.5223588828
 20
201.4279995304
 10
115.5219482182
 20
201.4079004081
  0
LWPOLYLINE
  5
218
100
AcDbEntity
  8
0
100
AcDbPolyline
 62
7
  6
CONTINUOUS
 90
18
 70
0
 10
121.9592801654
 20
205.3022562236
 10
121.9530696724
 20
205.2984996017
 10
121.9411332852
 20
205.2902373751
 10
121.9298765219
 20
205.280977465
 10
121.9192782138
 20
205.2707260268
 10
121.9094038537
 20
205.2595759951
 10
121.9002710406
 20
205.2475547665
 10
121.8918621754
 20
205.2346349443
 10
121.884189954
 20
205.2208272722
 10
121.8772344619
 20
205.2060907191
 10
121.8710156135
 20
205.1904663161
 10
121.8656058486
 20
205.1740879005
 10
121.8610192758
 20
205.1569368549
 10
121.8572417865
 20
205.1390317966
 10
121.8543034939
 20
205.1205624149
 10
121.8522144358
 20
205.1015919395
 10
121.8509645744
 20
205.0820571407
 10
121.8505539098
 20
205.0619580184
  0
LINE
  5
219
100
AcDbEntity
  8
0
100
AcDbLine
 62
7
  6
CONTINUOUS
 10
109.3020609026
 20
197.9941546499
 11
109.9384570057
 21
198.3616017839
  0
LINE
  5
21A
100
AcDbEntity
  8
0
100
AcDbLine
 62
7
  6
CONTINUOUS
 10
115.6306665943
 20
201.6482122602
 11
116.2670626973
 21
202.0156593942
  0
LINE
  5
21B
100
AcDbEntity
  8
0
100
AcDbLine
 62
7
  6
CONTINUOUS
 10
121.9592722859
 20
205.3022698705
 11
122.595668389
 21
205.6697170045
  0
LINE
  5
21C
100
AcDbEntity
  8
0
100
AcDbLine
 62
7
  6
CONTINUOUS
 10
103.200612556
 20
194.2936741917
 11
109.5645735867
 21
197.9681455317
  0
LINE
  5
21D
100
AcDbEntity
  8
0
100
AcDbLine
 62
250
  6
CONTINUOUS
 10
109.5645735867
 20
197.9681455317
 11
110.2009696898
 21
198.3355926657
  0
LINE
  5
21E
100
AcDbEntity
  8
0
100
AcDbLine
 62
7
  6
CONTINUOUS
 10
110.2009696898
 20
198.3355926657
 11
115.8931792783
 21
201.6222031419
  0
LINE
  5
21F
100
AcDbEntity
  8
0
100
AcDbLine
 62
250
  6
CONTINUOUS
 10
115.8931792783
 20
201.6222031419
 11
116.5295753814
 21
201.9896502759
  0
LINE
  5
220
100
AcDbEntity
  8
0
100
AcDbLine
 62
7
  6
CONTINUOUS
 10
116.5295753814
 20
201.9896502759
 11
122.22178497
 21
205.2762607522
  0
LINE
  5
221
100
AcDbEntity
  8
0
100
AcDbLine
 62
250
  6
CONTINUOUS
 10
122.22178497
 20
205.2762607522
 11
122.858181073
 21
205.6437078862
  0
LINE
  5
222
100
AcDbEntity
  8
0
100
AcDbLine
 62
7
  6
CONTINUOUS
 10
122.858181073
 20
205.6437078862
 11
123.8834859057
 21
206.2357060465
  0
LINE
  5
223
100
AcDbEntity
  8
0
100
AcDbLine
 62
7
  6
CONTINUOUS
 10
103.200612556
 20
193.8650272964
 11
103.2182885172
 21
193.8752331749
  0
LINE
  5
224
100
AcDbEntity
  8
0
100
AcDbLine
 62
7
  6
CONTINUOUS
 10
124.4138159916
 20
206.1132236685
 11
124.2547169659
 21
206.0213618851
  0
LINE
  5
225
100
AcDbEntity
  8
0
100
AcDbLine
 62
7
  6
CONTINUOUS
 10
103.5718419078
 20
193.6710958782
 11
103.5541659466
 21
193.6608899997
  0
LINE
  5
226
100
AcDbEntity
  8
0
100
AcDbLine
 62
7
  6
CONTINUOUS
 10
103.5541659466
 20
193.1301843198
 11
103.6602217138
 21
193.1914195906
  0
LINE
  5
227
100
AcDbEntity
  8
0
100
AcDbLine
 62
7
  6
CONTINUOUS
 10
103.9077193372
 20
192.9260470232
 11
104.0137751044
 21
192.9872822939
  0
LINE
  5
228
100
AcDbEntity
  8
0
100
AcDbLine
 62
7
  6
CONTINUOUS
 10
104.1551998773
 20
192.9056254025
 11
104.0844960325
 21
192.8648018887
  0
LWPOLYLINE
  5
229
100
AcDbEntity
  8
ASSI
100
AcDbPolyline
 62
7
  6
CONTINUOUS
 90
41
 70
0
 10
156.0763302996
 20
24.9488180868
 10
156.0944170009
 20
24.9525819111
 10
156.1199987771
 20
24.9594422787
 10
156.1459354046
 20
24.9679029578
 10
156.1720512821
 20
24.9779066665
 10
156.1983476262
 20
24.9894638752
 10
156.2248232204
 20
25.0025641135
 10
156.2512988146
 20
25.0171186875
 10
156.2777744088
 20
25.033137466
 10
156.3042500029
 20
25.0506105803
 10
156.330546347
 20
25.0694197305
 10
156.3566622246
 20
25.0895739827
 10
156.382598852
 20
25.1110642708
 10
156.4081806282
 20
25.1337450971
 10
156.4334051452
 20
25.1576245405
 10
156.4582748109
 20
25.1826945221
 10
156.4826212481
 20
25.2087853084
 10
156.5064409061
 20
25.2359038263
 10
156.5297373355
 20
25.2640431489
 10
156.5523528103
 20
25.293012762
 10
156.5742827098
 20
25.3228182996
 10
156.5955316547
 20
25.3534541278
 10
156.6159557813
 20
25.3847128298
 10
156.6355494927
 20
25.4165986324
 10
156.6543183859
 20
25.449107309
 10
156.6721353881
 20
25.482018763
 10
156.68899404
 20
25.5153357276
 10
156.7049008009
 20
25.5490554696
 10
156.7197479758
 20
25.5829496933
 10
156.7335283747
 20
25.6170195825
 10
156.7462491875
 20
25.6512639534
 10
156.7578242895
 20
25.6854509581
 10
156.7682459061
 20
25.7195802073
 10
156.7775218119
 20
25.7536520903
 10
156.7855892052
 20
25.7874359271
 10
156.7924398856
 20
25.8209297632
 10
156.7980820535
 20
25.8541355531
 10
156.8024775094
 20
25.8868284806
 10
156.8056135199
 20
25.918933607
 10
156.8075028184
 20
25.950525871
 10
156.8081454047
 20
25.9816052727
  0
LWPOLYLINE
  5
22A
100
AcDbEntity
  8
ASSI
100
AcDbPolyline
 62
7
  6
CONTINUOUS
 90
40
 70
0
 10
156.0720459862
 20
24.9618120956
 10
156.0767393314
 20
24.962788776
 10
156.1023211076
 20
24.9696491435
 10
156.128257735
 20
24.9781098226
 10
156.1543736126
 20
24.9881135313
 10
156.1806699567
 20
24.99967074
 10
156.2071455508
 20
25.0127709783
 10
156.233621145
 20
25.0273255523
 10
156.2600967392
 20
25.0433443308
 10
156.2865723334
 20
25.0608174451
 10
156.3128686775
 20
25.0796265954
 10
156.338984555
 20
25.0997808475
 10
156.3649211825
 20
25.1212711356
 10
156.3905029587
 20
25.143951962
 10
156.4157274757
 20
25.1678314053
 10
156.4405971414
 20
25.1929013869
 10
156.4649435785
 20
25.2189921732
 10
156.4887632366
 20
25.2461106911
 10
156.5120596659
 20
25.2742500137
 10
156.5346751407
 20
25.3032196268
 10
156.5566050402
 20
25.3330251645
 10
156.5778539851
 20
25.3636609926
 10
156.5982781118
 20
25.3949196946
 10
156.6178718232
 20
25.4268054973
 10
156.6366407164
 20
25.4593141738
 10
156.6544577185
 20
25.4922256278
 10
156.6713163705
 20
25.5255425924
 10
156.6872231314
 20
25.5592623345
 10
156.7020703063
 20
25.5931565581
 10
156.7158507051
 20
25.6272264474
 10
156.728571518
 20
25.6614708182
 10
156.74014662
 20
25.6956578229
 10
156.7505682366
 20
25.7297870721
 10
156.7598441423
 20
25.7638589551
 10
156.7679115357
 20
25.7976427919
 10
156.774762216
 20
25.831136628
 10
156.780404384
 20
25.8643424179
 10
156.7847998398
 20
25.8970353454
 10
156.7879358504
 20
25.9291404718
 10
156.7898251488
 20
25.9607327359
  0
LWPOLYLINE
  5
22B
100
AcDbEntity
  8
0
100
AcDbPolyline
 62
7
  6
CONTINUOUS
 90
25
 70
0
 10
145.9805728178
 20
19.4505939386
 10
145.9535198376
 20
19.4467735673
 10
145.9063896938
 20
19.4413606935
 10
145.8589865863
 20
19.4371449547
 10
145.8113089583
 20
19.4341331787
 10
145.7633583666
 20
19.4323185378
 10
145.7154077749
 20
19.4317113619
 10
145.6674571832
 20
19.4323185378
 10
145.6195065915
 20
19.4341331787
 10
145.5718289634
 20
19.4371449547
 10
145.524425856
 20
19.4413606935
 10
145.4772957122
 20
19.4467735673
 10
145.4307068253
 20
19.4533527629
 10
145.3846622823
 20
19.4611049321
 10
145.3391589963
 20
19.470023423
 10
145.2944559993
 20
19.4800574662
 10
145.2505578558
 20
19.4912134242
 10
145.2074600013
 20
19.5034849343
 10
145.1654077749
 20
19.51680214
 10
145.1244071402
 20
19.531171005
 10
145.0844521336
 20
19.5465855655
 10
145.045770203
 20
19.5629580725
 10
145.0084371645
 20
19.5802592762
 10
144.972377202
 20
19.5985184264
 10
144.9375903156
 20
19.617735523
  0
LINE
  5
22C
100
AcDbEntity
  8
0
100
AcDbLine
 62
7
  6
CONTINUOUS
 10
106.2765185125
 20
192.1094495042
 11
106.1881387066
 21
192.0584201119
  0
LINE
  5
22D
100
AcDbEntity
  8
0
100
AcDbLine
 62
7
  6
CONTINUOUS
 10
103.5541659466
 20
189.5785386158
 11
103.6602217138
 21
189.6397738865
  0
LINE
  5
22E
100
AcDbEntity
  8
RACCORDO
100
AcDbLine
 62
7
  6
CONTINUOUS
 10
118.4510394304
 20
197.9756890944
 11
118.4933233603
 21
198.0001033056
  0
LINE
  5
22F
100
AcDbEntity
  8
0
100
AcDbLine
 62
7
  6
CONTINUOUS
 10
104.0844960325
 20
189.598940509
 11
103.9077193372
 21
189.4968718606
  0
LINE
  5
230
100
AcDbEntity
  8
0
100
AcDbLine
 62
250
  6
CONTINUOUS
 10
104.5971484489
 20
188.0782162861
 11
105.0213715175
 21
188.3231573692
  0
LINE
  5
231
100
AcDbEntity
  8
ASSI
100
AcDbLine
 62
7
  6
CONTINUOUS
 10
119.7007309539
 20
196.757485295
 11
119.8777901143
 21
196.8597170351
  0
LINE
  5
232
100
AcDbEntity
  8
ASSI
100
AcDbLine
 62
7
  6
CONTINUOUS
 10
128.4548671222
 20
201.8120138035
 11
128.6319262826
 21
201.9142455436
  0
LINE
  5
233
100
AcDbEntity
  8
ASSI
100
AcDbLine
 62
7
  6
CONTINUOUS
 10
129.1269010294
 20
201.6284533283
 11
128.949841869
 21
201.5262215882
  0
LINE
  5
234
100
AcDbEntity
  8
ASSI
100
AcDbLine
 62
7
  6
CONTINUOUS
 10
120.3727648611
 20
196.5739248198
 11
120.1957057007
 21
196.4716930797
  0
LWPOLYLINE
  5
235
100
AcDbEntity
  8
ASSI
100
AcDbPolyline
 62
7
  6
CONTINUOUS
 90
41
 70
0
 10
163.1473981115
 20
29.0315640201
 10
163.1654848128
 20
29.0353278444
 10
163.191066589
 20
29.0421882119
 10
163.2170032164
 20
29.0506488911
 10
163.243119094
 20
29.0606525998
 10
163.2694154381
 20
29.0722098085
 10
163.2958910322
 20
29.0853100467
 10
163.3223666264
 20
29.0998646208
 10
163.3488422206
 20
29.1158833993
 10
163.3753178148
 20
29.1333565136
 10
163.4016141589
 20
29.1521656638
 10
163.4277300364
 20
29.1723199159
 10
163.4536666639
 20
29.193810204
 10
163.4792484401
 20
29.2164910304
 10
163.5044729571
 20
29.2403704737
 10
163.5293426228
 20
29.2654404553
 10
163.5536890599
 20
29.2915312417
 10
163.5775087179
 20
29.3186497596
 10
163.6008051473
 20
29.3467890822
 10
163.6234206221
 20
29.3757586952
 10
163.6453505216
 20
29.4055642329
 10
163.6665994665
 20
29.436200061
 10
163.6870235932
 20
29.4674587631
 10
163.7066173046
 20
29.4993445657
 10
163.7253861978
 20
29.5318532423
 10
163.7432031999
 20
29.5647646963
 10
163.7600618519
 20
29.5980816609
 10
163.7759686128
 20
29.6318014029
 10
163.7908157877
 20
29.6656956266
 10
163.8045961865
 20
29.6997655158
 10
163.8173169994
 20
29.7340098867
 10
163.8288921014
 20
29.7681968913
 10
163.839313718
 20
29.8023261405
 10
163.8485896237
 20
29.8363980235
 10
163.8566570171
 20
29.8701818604
 10
163.8635076974
 20
29.9036756965
 10
163.8691498654
 20
29.9368814863
 10
163.8735453212
 20
29.9695744139
 10
163.8766813318
 20
30.0016795403
 10
163.8785706302
 20
30.0332718043
 10
163.8792132166
 20
30.064351206
  0
LWPOLYLINE
  5
236
100
AcDbEntity
  8
ASSI
100
AcDbPolyline
 62
7
  6
CONTINUOUS
 90
40
 70
0
 10
163.1431137981
 20
29.0445580288
 10
163.1478071433
 20
29.0455347093
 10
163.1733889195
 20
29.0523950768
 10
163.1993255469
 20
29.0608557559
 10
163.2254414245
 20
29.0708594646
 10
163.2517377685
 20
29.0824166733
 10
163.2782133627
 20
29.0955169116
 10
163.3046889569
 20
29.1100714856
 10
163.3311645511
 20
29.1260902641
 10
163.3576401453
 20
29.1435633784
 10
163.3839364893
 20
29.1623725286
 10
163.4100523669
 20
29.1825267808
 10
163.4359889943
 20
29.2040170689
 10
163.4615707705
 20
29.2266978952
 10
163.4867952875
 20
29.2505773386
 10
163.5116649533
 20
29.2756473202
 10
163.5360113904
 20
29.3017381065
 10
163.5598310484
 20
29.3288566244
 10
163.5831274778
 20
29.356995947
 10
163.6057429526
 20
29.3859655601
 10
163.6276728521
 20
29.4157710977
 10
163.648921797
 20
29.4464069259
 10
163.6693459236
 20
29.4776656279
 10
163.6889396351
 20
29.5095514305
 10
163.7077085282
 20
29.5420601071
 10
163.7255255304
 20
29.5749715611
 10
163.7423841823
 20
29.6082885257
 10
163.7582909432
 20
29.6420082677
 10
163.7731381181
 20
29.6759024914
 10
163.786918517
 20
29.7099723807
 10
163.7996393299
 20
29.7442167515
 10
163.8112144318
 20
29.7784037562
 10
163.8216360485
 20
29.8125330054
 10
163.8309119542
 20
29.8466048884
 10
163.8389793476
 20
29.8803887252
 10
163.8458300279
 20
29.9138825613
 10
163.8514721958
 20
29.9470883512
 10
163.8558676517
 20
29.9797812787
 10
163.8590036622
 20
30.0118864051
 10
163.8608929607
 20
30.0434786692
  0
LINE
  5
237
100
AcDbEntity
  8
0
100
AcDbLine
 62
7
  6
CONTINUOUS
 10
146.3341262084
 20
13.4022776175
 11
103.200612556
 21
38.3070278104
  0
LINE
  5
238
100
AcDbEntity
  8
0
100
AcDbLine
 62
7
  6
CONTINUOUS
 10
146.3341262084
 20
13.8105127558
 11
103.200612556
 21
38.7152629488
  0
LINE
  5
239
100
AcDbEntity
  8
0
100
AcDbLine
 62
7
  6
CONTINUOUS
 10
146.3341262084
 20
13.8309245128
 11
145.9805728178
 21
14.0350618094
  0
LINE
  5
23A
100
AcDbEntity
  8
0
100
AcDbLine
 62
7
  6
CONTINUOUS
 10
145.9805728178
 20
14.0350618094
 11
144.2128058649
 21
15.0557482928
  0
LINE
  5
23B
100
AcDbEntity
  8
0
100
AcDbLine
 62
7
  6
CONTINUOUS
 10
105.3219328996
 20
37.5108509258
 11
103.5541659466
 21
38.5315374091
  0
LINE
  5
23C
100
AcDbEntity
  8
0
100
AcDbLine
 62
7
  6
CONTINUOUS
 10
103.200612556
 20
38.7356747058
 11
103.5541659466
 21
38.5315374091
  0
LINE
  5
23D
100
AcDbEntity
  8
0
100
AcDbLine
 62
7
  6
CONTINUOUS
 10
106.1881387066
 20
37.0923615766
 11
143.3466000579
 21
15.6375316973
  0
LINE
  5
23E
100
AcDbEntity
  8
0
100
AcDbLine
 62
7
  6
CONTINUOUS
 10
145.9805728178
 20
14.4432969478
 11
144.2128058649
 21
15.4639834311
  0
LINE
  5
23F
100
AcDbEntity
  8
0
100
AcDbLine
 62
7
  6
CONTINUOUS
 10
105.3219328996
 20
37.9190860642
 11
103.5541659466
 21
38.9397725475
  0
LINE
  5
240
100
AcDbEntity
  8
0
100
AcDbLine
 62
7
  6
CONTINUOUS
 10
145.4502427319
 20
14.8311499205
 11
143.3466000579
 21
16.0457668357
  0
LINE
  5
241
100
AcDbEntity
  8
0
100
AcDbLine
 62
7
  6
CONTINUOUS
 10
104.0844960325
 20
38.7152136302
 11
106.1881387066
 21
37.500596715
  0
LINE
  5
242
100
AcDbEntity
  8
0
100
AcDbLine
 62
7
  6
CONTINUOUS
 10
145.9805728178
 20
14.5657674893
 11
145.6270194272
 21
14.769904786
  0
LINE
  5
243
100
AcDbEntity
  8
0
100
AcDbLine
 62
7
  6
CONTINUOUS
 10
103.5541659466
 20
39.062243089
 11
103.9077193372
 21
38.8581057923
  0
LINE
  5
244
100
AcDbEntity
  8
0
100
AcDbLine
 62
7
  6
CONTINUOUS
 10
147.8190504489
 20
14.6066462401
 11
147.5715630755
 21
14.7495423478
  0
LINE
  5
245
100
AcDbEntity
  8
0
100
AcDbLine
 62
7
  6
CONTINUOUS
 10
147.8190504489
 20
15.0148813785
 11
147.7129878484
 21
15.0761205947
  0
LINE
  5
246
100
AcDbEntity
  8
0
100
AcDbLine
 62
7
  6
CONTINUOUS
 10
149.5161067238
 20
15.6681601827
 11
149.4100407066
 21
15.7294013717
  0
LINE
  5
247
100
AcDbEntity
  8
0
100
AcDbLine
 62
7
  6
CONTINUOUS
 10
149.3039781061
 20
15.9947384297
 11
149.4100407066
 21
15.9334992135
  0
LINE
  5
248
100
AcDbEntity
  8
0
100
AcDbLine
 62
7
  6
CONTINUOUS
 10
145.9805728178
 20
17.9949426519
 11
145.6270194272
 21
18.1990799485
  0
LINE
  5
249
100
AcDbEntity
  8
0
100
AcDbLine
 62
7
  6
CONTINUOUS
 10
145.4502427319
 20
18.3011485969
 11
143.3466000579
 21
19.515765512
  0
LINE
  5
24A
100
AcDbEntity
  8
0
100
AcDbLine
 62
7
  6
CONTINUOUS
 10
103.5541659466
 20
42.4914182515
 11
103.9077193372
 21
42.2872809549
  0
LINE
  5
24B
100
AcDbEntity
  8
0
100
AcDbLine
 62
7
  6
CONTINUOUS
 10
104.0844960325
 20
42.1852123065
 11
106.1881387066
 21
40.9705953914
  0
LINE
  5
24C
100
AcDbEntity
  8
0
100
AcDbLine
 62
7
  6
CONTINUOUS
 10
103.5541659466
 20
42.6138887931
 11
105.3219328996
 21
41.5932023097
  0
LINE
  5
24D
100
AcDbEntity
  8
0
100
AcDbLine
 62
7
  6
CONTINUOUS
 10
144.2128058649
 20
19.1380996767
 11
145.9805728178
 21
18.1174131934
  0
LINE
  5
24E
100
AcDbEntity
  8
0
100
AcDbLine
 62
7
  6
CONTINUOUS
 10
103.5541659466
 20
43.0221239315
 11
105.3219328996
 21
42.0014374481
  0
LINE
  5
24F
100
AcDbEntity
  8
0
100
AcDbLine
 62
7
  6
CONTINUOUS
 10
144.2128058649
 20
19.5463348151
 11
145.9805728178
 21
18.5256483318
  0
LINE
  5
250
100
AcDbEntity
  8
0
100
AcDbLine
 62
7
  6
CONTINUOUS
 10
106.1021213886
 20
37.5502620364
 11
105.3219328996
 21
37.5108509258
  0
LINE
  5
251
100
AcDbEntity
  8
0
100
AcDbLine
 62
7
  6
CONTINUOUS
 10
105.4519643144
 20
37.9256545826
 11
105.3219328996
 21
37.9190860642
  0
LWPOLYLINE
  5
252
100
AcDbEntity
  8
0
100
AcDbPolyline
 62
7
  6
CONTINUOUS
 90
18
 70
0
 10
152.6980872391
 20
17.0767489574
 10
152.7156995025
 20
17.0670540366
 10
152.7332426707
 20
17.0583680003
 10
152.7507167436
 20
17.0506908484
 10
152.7681815009
 20
17.0439996551
 10
152.785577163
 20
17.0383173463
 10
152.8027243908
 20
17.0337126993
 10
152.8196141156
 20
17.0302072411
 10
152.8362554061
 20
17.0277794447
 10
152.8524961288
 20
17.0264335068
 10
152.8682907903
 20
17.0261726999
 10
152.883684884
 20
17.0269937515
 10
152.8986627566
 20
17.0288910401
 10
152.9132569357
 20
17.0318661056
 10
152.9274348937
 20
17.0359174081
 10
152.9410833951
 20
17.0410347063
 10
152.9542076942
 20
17.0472394092
 10
152.9605920436
 20
17.050753486
  0
LINE
  5
253
100
AcDbEntity
  8
0
100
AcDbLine
 62
7
  6
CONTINUOUS
 10
144.2526338212
 20
19.809182159
 11
144.0537068391
 21
19.9240401054
  0
LINE
  5
254
100
AcDbEntity
  8
0
100
AcDbLine
 62
7
  6
CONTINUOUS
 10
144.9375903156
 20
19.617735523
 11
143.3466000579
 21
20.536353358
  0
LINE
  5
255
100
AcDbEntity
  8
0
100
AcDbLine
 62
7
  6
CONTINUOUS
 10
104.5971484489
 20
42.9098010724
 11
106.1881387066
 21
41.9911832374
  0
LINE
  5
256
100
AcDbEntity
  8
0
100
AcDbLine
 62
7
  6
CONTINUOUS
 10
147.5715630755
 20
18.8318937317
 11
147.8190504489
 21
18.6889976241
  0
LINE
  5
257
100
AcDbEntity
  8
0
100
AcDbLine
 62
7
  6
CONTINUOUS
 10
147.7129878484
 20
19.1584719787
 11
147.8190504489
 21
19.0972327625
  0
LINE
  5
258
100
AcDbEntity
  8
0
100
AcDbLine
 62
7
  6
CONTINUOUS
 10
152.0086581274
 20
16.6786398012
 11
151.6551047369
 21
16.8827770979
  0
LINE
  5
259
100
AcDbEntity
  8
0
100
AcDbLine
 62
7
  6
CONTINUOUS
 10
149.5161067238
 20
19.7096880529
 11
149.4100407066
 21
19.7709292419
  0
LINE
  5
25A
100
AcDbEntity
  8
0
100
AcDbLine
 62
7
  6
CONTINUOUS
 10
149.4100407066
 20
20.0158505974
 11
149.3039781061
 21
20.0770898137
  0
LINE
  5
25B
100
AcDbEntity
  8
0
100
AcDbLine
 62
7
  6
CONTINUOUS
 10
148.4731242215
 20
24.4144983992
 11
148.1195708309
 21
24.6186356958
  0
LWPOLYLINE
  5
25C
100
AcDbEntity
  8
0
100
AcDbPolyline
 62
7
  6
CONTINUOUS
 90
19
 70
0
 10
104.5971484489
 20
42.9098010724
 10
104.5638656055
 20
42.9298865846
 10
104.5322418672
 20
42.950707155
 10
104.5022772339
 20
42.9722627835
 10
104.4739210469
 20
42.9945972455
 10
104.447223965
 20
43.0176667655
 10
104.422337964
 20
43.0413400182
 10
104.3992733733
 20
43.0656204466
 10
104.3780198635
 20
43.0905046077
 10
104.3586984224
 20
43.1158508456
 10
104.3413200695
 20
43.1416617958
 10
104.3258737852
 20
43.1679348228
 10
104.3124474993
 20
43.1945203649
 10
104.3010527325
 20
43.2214202043
 10
104.291677964
 20
43.2486325586
 10
104.2843765607
 20
43.2760025188
 10
104.2791603477
 20
43.3035309836
 10
104.2760174999
 20
43.3312170543
 10
104.2749659082
 20
43.358903125
  0
LWPOLYLINE
  5
25D
100
AcDbEntity
  8
ASSI
100
AcDbPolyline
 62
7
  6
CONTINUOUS
 90
12
 70
0
 10
159.2065579436
 20
51.5597278682
 10
159.1049968074
 20
51.5482392409
 10
158.9929246879
 20
51.5397087173
 10
158.882303758
 20
51.5354801982
 10
158.7731372617
 20
51.5355633007
 10
158.6654219549
 20
51.5399484079
 10
158.5593984509
 20
51.5486257242
 10
158.4550705315
 20
51.5616048448
 10
158.3524344148
 20
51.5788761745
 10
158.251719368
 20
51.6004011331
 10
158.1529296857
 20
51.6261892291
 10
158.0560610734
 20
51.6562309539
  0
LINE
  5
25E
100
AcDbEntity
  8
0
100
AcDbLine
 62
7
  6
CONTINUOUS
 10
105.3219328996
 20
41.5932023097
 11
106.1881387066
 21
41.6369585729
  0
LINE
  5
25F
100
AcDbEntity
  8
0
100
AcDbLine
 62
7
  6
CONTINUOUS
 10
105.3219328996
 20
42.0014374481
 11
106.1021213886
 21
42.0408485587
  0
LWPOLYLINE
  5
260
100
AcDbEntity
  8
0
100
AcDbPolyline
 62
7
  6
CONTINUOUS
 90
18
 70
0
 10
159.0266929307
 20
20.7308065677
 10
159.0443051941
 20
20.7211116469
 10
159.0618483623
 20
20.7124256105
 10
159.0793224352
 20
20.7047484586
 10
159.0967871925
 20
20.6980572654
 10
159.1141828547
 20
20.6923749566
 10
159.1313300824
 20
20.6877703096
 10
159.1482198073
 20
20.6842648514
 10
159.1648610978
 20
20.681837055
 10
159.1811018204
 20
20.6804911171
 10
159.1968964819
 20
20.6802303102
 10
159.2122905756
 20
20.6810513618
 10
159.2272684482
 20
20.6829486504
 10
159.2418626273
 20
20.6859237159
 10
159.2560405853
 20
20.6899750184
 10
159.2696890867
 20
20.6950923166
 10
159.2828133858
 20
20.7012970195
 10
159.2891977353
 20
20.7048110963
  0
LWPOLYLINE
  5
261
100
AcDbEntity
  8
ASSI
100
AcDbPolyline
 62
7
  6
CONTINUOUS
 90
51
 70
0
 10
156.2110870101
 20
24.7739743486
 10
156.220601527
 20
24.7687382842
 10
156.2401952384
 20
24.7594788084
 10
156.2606193651
 20
24.7518053759
 10
156.28186831
 20
24.7457072967
 10
156.3037982094
 20
24.7412258572
 10
156.3264136843
 20
24.7383720276
 10
156.3497101136
 20
24.7371348377
 10
156.3735297717
 20
24.7375226638
 10
156.3978762088
 20
24.7395465328
 10
156.4227458745
 20
24.7431954178
 10
156.4479703915
 20
24.7484446145
 10
156.4735521677
 20
24.755304982
 10
156.4994887952
 20
24.7637656612
 10
156.5256046727
 20
24.7737693698
 10
156.5519010168
 20
24.7853265785
 10
156.578376611
 20
24.7984268168
 10
156.6048522052
 20
24.8129813908
 10
156.6313277993
 20
24.8290001693
 10
156.6578033935
 20
24.8464732836
 10
156.6840997376
 20
24.8652824339
 10
156.7102156152
 20
24.885436686
 10
156.7361522426
 20
24.9069269741
 10
156.7617340188
 20
24.9296078005
 10
156.7869585358
 20
24.9534872438
 10
156.8118282015
 20
24.9785572254
 10
156.8361746387
 20
25.0046480117
 10
156.8599942967
 20
25.0317665296
 10
156.8832907261
 20
25.0599058522
 10
156.9059062009
 20
25.0888754653
 10
156.9278361003
 20
25.118681003
 10
156.9490850453
 20
25.1493168311
 10
156.9695091719
 20
25.1805755332
 10
156.9891028833
 20
25.2124613358
 10
157.0078717765
 20
25.2449700123
 10
157.0256887787
 20
25.2778814663
 10
157.0425474306
 20
25.3111984309
 10
157.0584541915
 20
25.344918173
 10
157.0733013664
 20
25.3788123966
 10
157.0870817653
 20
25.4128822859
 10
157.0998025781
 20
25.4471266567
 10
157.1113776801
 20
25.4813136614
 10
157.1217992967
 20
25.5154429106
 10
157.1310752025
 20
25.5495147936
 10
157.1391425958
 20
25.5832986304
 10
157.1459932762
 20
25.6167924665
 10
157.1516354441
 20
25.6499982564
 10
157.1560309
 20
25.6826911839
 10
157.1591669105
 20
25.7147963103
 10
157.161056209
 20
25.7463885744
 10
157.1616987953
 20
25.7774679761
  0
LWPOLYLINE
  5
262
100
AcDbEntity
  8
ASSI
100
AcDbPolyline
 62
7
  6
CONTINUOUS
 90
51
 70
0
 10
156.9986174002
 20
26.137929119
 10
156.9891028833
 20
26.1431651834
 10
156.9695091719
 20
26.1524246592
 10
156.9490850453
 20
26.1600980918
 10
156.9278361003
 20
26.1661961709
 10
156.9059062009
 20
26.1706776104
 10
156.8832907261
 20
26.17353144
 10
156.8599942967
 20
26.1747686299
 10
156.8361746387
 20
26.1743808038
 10
156.8118282015
 20
26.1723569348
 10
156.7869585358
 20
26.1687080498
 10
156.7617340188
 20
26.1634588531
 10
156.7361522426
 20
26.1565984856
 10
156.7102156152
 20
26.1481378065
 10
156.6840997376
 20
26.1381340978
 10
156.6578033935
 20
26.1265768891
 10
156.6313277993
 20
26.1134766508
 10
156.6048522052
 20
26.0989220768
 10
156.578376611
 20
26.0829032983
 10
156.5519010168
 20
26.065430184
 10
156.5256046727
 20
26.0466210338
 10
156.4994887952
 20
26.0264667816
 10
156.4735521677
 20
26.0049764935
 10
156.4479703915
 20
25.9822956671
 10
156.4227458745
 20
25.9584162238
 10
156.3978762088
 20
25.9333462422
 10
156.3735297717
 20
25.9072554559
 10
156.3497101136
 20
25.880136938
 10
156.3264136843
 20
25.8519976154
 10
156.3037982094
 20
25.8230280023
 10
156.28186831
 20
25.7932224646
 10
156.2606193651
 20
25.7625866365
 10
156.2401952384
 20
25.7313279345
 10
156.220601527
 20
25.6994421318
 10
156.2018326338
 20
25.6669334553
 10
156.1840156316
 20
25.6340220013
 10
156.1671569797
 20
25.6007050367
 10
156.1512502188
 20
25.5669852946
 10
156.1364030439
 20
25.533091071
 10
156.1226226451
 20
25.4990211817
 10
156.1099018322
 20
25.4647768109
 10
156.0983267302
 20
25.4305898062
 10
156.0879051136
 20
25.396460557
 10
156.0786292078
 20
25.362388674
 10
156.0705618145
 20
25.3286048372
 10
156.0637111342
 20
25.2951110011
 10
156.0580689662
 20
25.2619052112
 10
156.0536735104
 20
25.2292122837
 10
156.0505374998
 20
25.1971071573
 10
156.0486482013
 20
25.1655148932
 10
156.048005615
 20
25.1344354916
  0
LWPOLYLINE
  5
263
100
AcDbEntity
  8
0
100
AcDbPolyline
 62
7
  6
CONTINUOUS
 90
18
 70
0
 10
165.3552986223
 20
24.384864178
 10
165.3729108857
 20
24.3751692572
 10
165.3904540539
 20
24.3664832208
 10
165.4079281268
 20
24.3588060689
 10
165.4253928842
 20
24.3521148757
 10
165.4427885463
 20
24.3464325669
 10
165.459935774
 20
24.3418279199
 10
165.4768254989
 20
24.3383224617
 10
165.4934667894
 20
24.3358946653
 10
165.5097075121
 20
24.3345487273
 10
165.5255021735
 20
24.3342879205
 10
165.5408962672
 20
24.3351089721
 10
165.5558741399
 20
24.3370062607
 10
165.5704683189
 20
24.3399813262
 10
165.5846462769
 20
24.3440326286
 10
165.5982947783
 20
24.3491499269
 10
165.6114190774
 20
24.3553546298
 10
165.6178034269
 20
24.3588687066
  0
LINE
  5
264
100
AcDbEntity
  8
0
100
AcDbLine
 62
7
  6
CONTINUOUS
 10
152.0086581274
 20
25.2311659506
 11
151.6551047369
 21
25.4353032473
  0
LINE
  5
265
100
AcDbEntity
  8
0
100
AcDbLine
 62
7
  6
CONTINUOUS
 10
148.4731242215
 20
28.4968497831
 11
148.1195708309
 21
28.7009870798
  0
LINE
  5
266
100
AcDbEntity
  8
ASSI
100
AcDbLine
 62
250
  6
CONTINUOUS
 10
157.1616987953
 20
25.7774679761
 11
156.8081454047
 21
25.9816052727
  0
LINE
  5
267
100
AcDbEntity
  8
ASSI
100
AcDbLine
 62
250
  6
CONTINUOUS
 10
156.7904677352
 20
25.9918121375
 11
156.604907338
 21
26.0989523853
  0
LWPOLYLINE
  5
268
100
AcDbEntity
  8
ASSI
100
AcDbPolyline
 62
7
  6
CONTINUOUS
 90
51
 70
0
 10
163.282154822
 20
28.8567202819
 10
163.2916693389
 20
28.8514842175
 10
163.3112630503
 20
28.8422247417
 10
163.3316871769
 20
28.8345513091
 10
163.3529361218
 20
28.82845323
 10
163.3748660213
 20
28.8239717905
 10
163.3974814961
 20
28.8211179609
 10
163.4207779255
 20
28.819880771
 10
163.4445975835
 20
28.8202685971
 10
163.4689440206
 20
28.8222924661
 10
163.4938136864
 20
28.8259413511
 10
163.5190382034
 20
28.8311905478
 10
163.5446199796
 20
28.8380509153
 10
163.570556607
 20
28.8465115944
 10
163.5966724846
 20
28.8565153031
 10
163.6229688286
 20
28.8680725118
 10
163.6494444228
 20
28.8811727501
 10
163.675920017
 20
28.8957273241
 10
163.7023956112
 20
28.9117461026
 10
163.7288712054
 20
28.9292192169
 10
163.7551675494
 20
28.9480283671
 10
163.781283427
 20
28.9681826193
 10
163.8072200545
 20
28.9896729074
 10
163.8328018306
 20
29.0123537338
 10
163.8580263477
 20
29.0362331771
 10
163.8828960134
 20
29.0613031587
 10
163.9072424505
 20
29.087393945
 10
163.9310621085
 20
29.1145124629
 10
163.9543585379
 20
29.1426517855
 10
163.9769740127
 20
29.1716213986
 10
163.9989039122
 20
29.2014269362
 10
164.0201528571
 20
29.2320627644
 10
164.0405769838
 20
29.2633214664
 10
164.0601706952
 20
29.2952072691
 10
164.0789395884
 20
29.3277159456
 10
164.0967565905
 20
29.3606273996
 10
164.1136152424
 20
29.3939443642
 10
164.1295220034
 20
29.4276641062
 10
164.1443691783
 20
29.4615583299
 10
164.1581495771
 20
29.4956282192
 10
164.17087039
 20
29.52987259
 10
164.182445492
 20
29.5640595947
 10
164.1928671086
 20
29.5981888439
 10
164.2021430143
 20
29.6322607269
 10
164.2102104077
 20
29.6660445637
 10
164.217061088
 20
29.6995383998
 10
164.222703256
 20
29.7327441897
 10
164.2270987118
 20
29.7654371172
 10
164.2302347224
 20
29.7975422436
 10
164.2321240208
 20
29.8291345077
 10
164.2327666072
 20
29.8602139093
  0
LWPOLYLINE
  5
269
100
AcDbEntity
  8
ASSI
100
AcDbPolyline
 62
7
  6
CONTINUOUS
 90
51
 70
0
 10
164.069685212
 20
30.2206750523
 10
164.0601706952
 20
30.2259111167
 10
164.0405769838
 20
30.2351705925
 10
164.0201528571
 20
30.242844025
 10
163.9989039122
 20
30.2489421042
 10
163.9769740127
 20
30.2534235436
 10
163.9543585379
 20
30.2562773733
 10
163.9310621085
 20
30.2575145632
 10
163.9072424505
 20
30.2571267371
 10
163.8828960134
 20
30.2551028681
 10
163.8580263477
 20
30.251453983
 10
163.8328018306
 20
30.2462047864
 10
163.8072200545
 20
30.2393444189
 10
163.781283427
 20
30.2308837397
 10
163.7551675494
 20
30.2208800311
 10
163.7288712054
 20
30.2093228223
 10
163.7023956112
 20
30.1962225841
 10
163.675920017
 20
30.1816680101
 10
163.6494444228
 20
30.1656492316
 10
163.6229688286
 20
30.1481761173
 10
163.5966724846
 20
30.129366967
 10
163.570556607
 20
30.1092127149
 10
163.5446199796
 20
30.0877224268
 10
163.5190382034
 20
30.0650416004
 10
163.4938136864
 20
30.0411621571
 10
163.4689440206
 20
30.0160921755
 10
163.4445975835
 20
29.9900013892
 10
163.4207779255
 20
29.9628828713
 10
163.3974814961
 20
29.9347435487
 10
163.3748660213
 20
29.9057739356
 10
163.3529361218
 20
29.8759683979
 10
163.3316871769
 20
29.8453325698
 10
163.3112630503
 20
29.8140738677
 10
163.2916693389
 20
29.7821880651
 10
163.2729004457
 20
29.7496793886
 10
163.2550834435
 20
29.7167679346
 10
163.2382247916
 20
29.68345097
 10
163.2223180307
 20
29.6497312279
 10
163.2074708558
 20
29.6158370043
 10
163.1936904569
 20
29.581767115
 10
163.1809696441
 20
29.5475227442
 10
163.1693945421
 20
29.5133357395
 10
163.1589729255
 20
29.4792064903
 10
163.1496970197
 20
29.4451346073
 10
163.1416296264
 20
29.4113507704
 10
163.134778946
 20
29.3778569344
 10
163.1291367781
 20
29.3446511445
 10
163.1247413222
 20
29.311958217
 10
163.1216053117
 20
29.2798530906
 10
163.1197160132
 20
29.2482608265
 10
163.1190734268
 20
29.2171814248
  0
LINE
  5
26A
100
AcDbEntity
  8
0
100
AcDbLine
 62
7
  6
CONTINUOUS
 10
157.6655123769
 20
28.4973626973
 11
157.3119589863
 21
28.7014999939
  0
LINE
  5
26B
100
AcDbEntity
  8
0
100
AcDbLine
 62
7
  6
CONTINUOUS
 10
157.6655123769
 20
30.9467735276
 11
157.3119589863
 21
31.1509108243
  0
LINE
  5
26C
100
AcDbEntity
  8
ASSI
100
AcDbLine
 62
250
  6
CONTINUOUS
 10
164.2327666072
 20
29.8602139093
 11
163.8792132166
 21
30.064351206
  0
LINE
  5
26D
100
AcDbEntity
  8
ASSI
100
AcDbLine
 62
250
  6
CONTINUOUS
 10
163.8615355471
 20
30.0745580708
 11
163.6759751499
 21
30.1816983185
  0
LWPOLYLINE
  5
26E
100
AcDbEntity
  8
0
100
AcDbPolyline
 62
7
  6
CONTINUOUS
 90
18
 70
0
 10
167.1760985839
 20
28.1305645969
 10
167.1933001827
 20
28.1201583841
 10
167.2095934895
 20
28.1093075244
 10
167.2249785043
 20
28.0980120178
 10
167.2395049691
 20
28.0862315524
 10
167.2531231418
 20
28.0740064401
 10
167.2656837968
 20
28.0614576161
 10
167.2771637567
 20
28.0485821702
 10
167.2875861989
 20
28.0353830125
 10
167.2968714294
 20
28.0219898088
 10
167.3049938695
 20
28.0084403247
 10
167.311979098
 20
27.9946967946
 10
167.3178241575
 20
27.9807755868
 10
167.3225439765
 20
27.966647759
 10
167.3261236265
 20
27.9523422535
 10
167.3285153646
 20
27.9379622658
 10
167.3297032764
 20
27.9234925396
 10
167.3298517654
 20
27.9162204354
  0
LINE
  5
26F
100
AcDbEntity
  8
ASSI
100
AcDbLine
 62
7
  6
CONTINUOUS
 10
150.1063225449
 20
179.2016777819
 11
150.2833817053
 21
179.303909522
  0
LINE
  5
270
100
AcDbEntity
  8
ASSI
100
AcDbLine
 62
7
  6
CONTINUOUS
 10
158.8604587132
 20
184.2562062904
 11
159.0375178736
 21
184.3584380305
  0
LINE
  5
271
100
AcDbEntity
  8
ASSI
100
AcDbLine
 62
7
  6
CONTINUOUS
 10
159.5324926204
 20
184.0726458152
 11
159.35543346
 21
183.9704140751
  0
LINE
  5
272
100
AcDbEntity
  8
ASSI
100
AcDbLine
 62
7
  6
CONTINUOUS
 10
150.7783564521
 20
179.0181173067
 11
150.6012972917
 21
178.9158855666
  0
LINE
  5
273
100
AcDbEntity
  8
0
100
AcDbLine
 62
7
  6
CONTINUOUS
 10
143.4349798639
 20
170.6546196248
 11
143.3466000579
 21
170.6035902325
  0
LINE
  5
274
100
AcDbEntity
  8
0
100
AcDbLine
 62
7
  6
CONTINUOUS
 10
143.7884990877
 20
170.4505020556
 11
143.3466000579
 21
170.1953550941
  0
LWPOLYLINE
  5
275
100
AcDbEntity
  8
ASSI
100
AcDbPolyline
 62
7
  6
CONTINUOUS
 90
4
 70
0
 10
158.0560610734
 20
51.6562309539
 10
157.961329915
 20
51.6904592005
 10
157.8687409887
 20
51.7288833278
 10
157.8495899442
 20
51.7379051648
  0
LWPOLYLINE
  5
276
100
AcDbEntity
  8
ASSI
100
AcDbPolyline
 62
7
  6
CONTINUOUS
 90
22
 70
0
 10
125.2093111205
 20
57.9997480969
 10
125.3218278366
 20
57.9504843347
 10
125.4337673813
 20
57.9050505319
 10
125.5451297545
 20
57.8634466884
 10
125.6559967411
 20
57.8256476147
 10
125.7662865563
 20
57.7916785002
 10
125.8757538458
 20
57.7616149138
 10
125.9843967786
 20
57.7354655503
 10
126.0922171857
 20
57.7132217149
 10
126.1989752065
 20
57.6949328919
 10
126.3046684758
 20
57.6806078863
 10
126.4092993588
 20
57.6702378931
 10
126.5126350904
 20
57.6638459817
 10
126.6146727871
 20
57.6614410085
 10
126.7154153323
 20
57.6630141171
 10
126.8146386111
 20
57.668561808
 10
126.9123392409
 20
57.6780929296
 10
127.0085206043
 20
57.6915986335
 10
127.1029687331
 20
57.7090488744
 10
127.1956123045
 20
57.7304336373
 10
127.2865226414
 20
57.7557629372
 10
127.3756997436
 20
57.7850367741
  0
LWPOLYLINE
  5
277
100
AcDbEntity
  8
ASSI
100
AcDbPolyline
 62
7
  6
CONTINUOUS
 90
22
 70
0
 10
125.2093111205
 20
57.8971190826
 10
125.3251485098
 20
57.8461136542
 10
125.440392235
 20
57.7990790212
 10
125.555042296
 20
57.7560151837
 10
125.6691842091
 20
57.7168956702
 10
125.782732458
 20
57.6817469522
 10
125.8954304943
 20
57.6506484438
 10
126.0072763956
 20
57.623609303
 10
126.1182720843
 20
57.6006203719
 10
126.2281667791
 20
57.5817335912
 10
126.3369579906
 20
57.5669582362
 10
126.4446482083
 20
57.5562850316
 10
126.5509941192
 20
57.5497380921
 10
126.6559926837
 20
57.5473267477
 10
126.7596469414
 20
57.5490416685
 10
126.8617226981
 20
57.5548789798
 10
126.9622163847
 20
57.5648480028
 10
127.0611315703
 20
57.5789394162
 10
127.1582447681
 20
57.5971213824
 10
127.2534814825
 20
57.6193832887
 10
127.3469162091
 20
57.6457357476
 10
127.4385489478
 20
57.6761787593
  0
LWPOLYLINE
  5
278
100
AcDbEntity
  8
CURVE
100
AcDbPolyline
 62
250
  6
CONTINUOUS
 90
17
 70
0
 10
147.9251164661
 20
168.450071954
 10
147.7877720392
 20
168.3552214537
 10
147.6556590189
 20
168.2328846802
 10
147.533809549
 20
168.0877214034
 10
147.4251164661
 20
167.922239613
 10
147.3375217128
 20
167.7485306661
 10
147.2723082611
 20
167.5704441097
 10
147.2319600711
 20
167.3947632055
 10
147.2180096849
 20
167.2253270839
 10
147.2314764237
 20
167.0745160356
 10
147.2713636962
 20
166.9450003857
 10
147.3361522086
 20
166.841713345
 10
147.4251164661
 20
166.7675762743
 10
147.531756064
 20
166.7280061914
 10
147.6533786375
 20
166.7229299591
 10
147.7853516204
 20
166.7525409297
 10
147.9251165279
 20
166.8171314361
  0
LINE
  5
279
100
AcDbEntity
  8
0
100
AcDbLine
 62
7
  6
CONTINUOUS
 10
166.645768498
 20
181.5453000151
 11
166.8048675238
 21
181.6371617986
  0
LINE
  5
27A
100
AcDbEntity
  8
0
100
AcDbLine
 62
7
  6
CONTINUOUS
 10
145.5209465767
 20
169.0215616928
 11
145.4502427319
 21
168.980738179
  0
LINE
  5
27B
100
AcDbEntity
  8
0
100
AcDbLine
 62
7
  6
CONTINUOUS
 10
167.1760985839
 20
181.4228590647
 11
167.0169816188
 21
181.3309869233
  0
LINE
  5
27C
100
AcDbEntity
  8
0
100
AcDbLine
 62
7
  6
CONTINUOUS
 10
167.0169995581
 20
181.3309558536
 11
165.9916947254
 21
180.7389576932
  0
LINE
  5
27D
100
AcDbEntity
  8
0
100
AcDbLine
 62
250
  6
CONTINUOUS
 10
165.9916947254
 20
180.7389576932
 11
165.3552986223
 21
180.3715105592
  0
LINE
  5
27E
100
AcDbEntity
  8
0
100
AcDbLine
 62
7
  6
CONTINUOUS
 10
165.3552986223
 20
180.3715105592
 11
159.6630890338
 21
177.0849000829
  0
LINE
  5
27F
100
AcDbEntity
  8
0
100
AcDbLine
 62
250
  6
CONTINUOUS
 10
159.6630890338
 20
177.0849000829
 11
159.0266929307
 21
176.717452949
  0
LINE
  5
280
100
AcDbEntity
  8
0
100
AcDbLine
 62
7
  6
CONTINUOUS
 10
159.0266929307
 20
176.717452949
 11
153.3344833422
 21
173.4308424727
  0
LINE
  5
281
100
AcDbEntity
  8
0
100
AcDbLine
 62
250
  6
CONTINUOUS
 10
153.3344833422
 20
173.4308424727
 11
152.6980872391
 21
173.0633953387
  0
LINE
  5
282
100
AcDbEntity
  8
0
100
AcDbLine
 62
7
  6
CONTINUOUS
 10
146.3341262084
 20
169.3889239987
 11
152.6980872391
 21
173.0633953387
  0
LINE
  5
283
100
AcDbEntity
  8
0
100
AcDbLine
 62
7
  6
CONTINUOUS
 10
145.9805728178
 20
169.1644144001
 11
145.998248779
 21
169.1746202785
  0
LINE
  5
284
100
AcDbEntity
  8
0
100
AcDbLine
 62
7
  6
CONTINUOUS
 10
145.7330751944
 20
168.8990812876
 11
145.6270194272
 21
168.8378460168
  0
LINE
  5
285
100
AcDbEntity
  8
0
100
AcDbLine
 62
7
  6
CONTINUOUS
 10
167.0169995581
 20
180.9227207152
 11
166.2451404724
 21
180.4770589527
  0
LINE
  5
286
100
AcDbEntity
  8
0
100
AcDbLine
 62
7
  6
CONTINUOUS
 10
165.3552986223
 20
179.9632754208
 11
159.9165347808
 21
176.8230013424
  0
LINE
  5
287
100
AcDbEntity
  8
0
100
AcDbLine
 62
7
  6
CONTINUOUS
 10
159.0266929307
 20
176.3092178106
 11
153.5879290891
 21
173.1689437322
  0
LINE
  5
288
100
AcDbEntity
  8
0
100
AcDbLine
 62
7
  6
CONTINUOUS
 10
146.3341262084
 20
168.9806888603
 11
152.6980872391
 21
172.6551602003
  0
LINE
  5
289
100
AcDbEntity
  8
0
100
AcDbLine
 62
7
  6
CONTINUOUS
 10
146.3341262084
 20
168.9602771034
 11
147.5715630755
 21
169.6747576417
  0
LINE
  5
28A
100
AcDbEntity
  8
0
100
AcDbLine
 62
7
  6
CONTINUOUS
 10
149.5161067238
 20
170.7975127734
 11
152.7105655656
 21
172.6419532727
  0
LINE
  5
28B
100
AcDbEntity
  8
0
100
AcDbLine
 62
7
  6
CONTINUOUS
 10
153.5968885381
 20
173.1537050488
 11
159.0391712572
 21
176.2960108829
  0
LINE
  5
28C
100
AcDbEntity
  8
0
100
AcDbLine
 62
7
  6
CONTINUOUS
 10
159.9254942297
 20
176.807762659
 11
165.3677769488
 21
179.9500684932
  0
LINE
  5
28D
100
AcDbEntity
  8
0
100
AcDbLine
 62
7
  6
CONTINUOUS
 10
166.2540999213
 20
180.4618202693
 11
167.1760985839
 21
180.9941707417
  0
LINE
  5
28E
100
AcDbEntity
  8
0
100
AcDbLine
 62
7
  6
CONTINUOUS
 10
167.0021987183
 20
180.8733494092
 11
166.262819303
 21
180.4464410013
  0
LINE
  5
28F
100
AcDbEntity
  8
0
100
AcDbLine
 62
7
  6
CONTINUOUS
 10
151.6551047369
 20
172.0121296885
 11
152.7157649086
 21
172.6245415785
  0
LINE
  5
290
100
AcDbEntity
  8
0
100
AcDbLine
 62
7
  6
CONTINUOUS
 10
153.6056079197
 20
173.1383257808
 11
159.0443706003
 21
176.2785991888
  0
LINE
  5
291
100
AcDbEntity
  8
0
100
AcDbLine
 62
7
  6
CONTINUOUS
 10
159.9342136113
 20
176.7923833911
 11
165.3729762919
 21
179.9326567991
  0
LINE
  5
292
100
AcDbEntity
  8
0
100
AcDbLine
 62
7
  6
CONTINUOUS
 10
147.8190504489
 20
169.7359988307
 11
149.4100407066
 21
170.6546166657
  0
LINE
  5
293
100
AcDbEntity
  8
0
100
AcDbLine
 62
7
  6
CONTINUOUS
 10
167.3557521089
 20
180.6692121125
 11
166.3629257855
 21
180.0959666364
  0
LINE
  5
294
100
AcDbEntity
  8
0
100
AcDbLine
 62
250
  6
CONTINUOUS
 10
166.3629257855
 20
180.0959666364
 11
165.7265296825
 21
179.7285195024
  0
LINE
  5
295
100
AcDbEntity
  8
0
100
AcDbLine
 62
250
  6
CONTINUOUS
 10
160.0343200939
 20
176.4419090261
 11
159.3979239908
 21
176.0744618921
  0
LINE
  5
296
100
AcDbEntity
  8
0
100
AcDbLine
 62
250
  6
CONTINUOUS
 10
153.7057144023
 20
172.7878514159
 11
153.0693182992
 21
172.4204042819
  0
LINE
  5
297
100
AcDbEntity
  8
0
100
AcDbLine
 62
7
  6
CONTINUOUS
 10
152.0086581274
 20
171.8079923919
 11
153.0693182992
 21
172.4204042819
  0
LINE
  5
298
100
AcDbEntity
  8
0
100
AcDbLine
 62
7
  6
CONTINUOUS
 10
153.7057144023
 20
172.7878514159
 11
159.3979239908
 21
176.0744618921
  0
LINE
  5
299
100
AcDbEntity
  8
0
100
AcDbLine
 62
7
  6
CONTINUOUS
 10
160.0343200939
 20
176.4419090261
 11
165.7265296825
 21
179.7285195024
  0
LINE
  5
29A
100
AcDbEntity
  8
0
100
AcDbLine
 62
7
  6
CONTINUOUS
 10
149.5161067238
 20
170.3484541211
 11
149.4100407066
 21
170.2872129321
  0
LINE
  5
29B
100
AcDbEntity
  8
0
100
AcDbLine
 62
7
  6
CONTINUOUS
 10
147.7836916932
 20
169.3481793947
 11
147.5715630755
 21
169.2256989895
  0
LINE
  5
29C
100
AcDbEntity
  8
0
100
AcDbLine
 62
7
  6
CONTINUOUS
 10
147.8190504489
 20
169.3277636923
 11
149.4100407066
 21
170.2463815273
  0
LINE
  5
29D
100
AcDbEntity
  8
0
100
AcDbLine
 62
7
  6
CONTINUOUS
 10
144.0537068391
 20
166.1130431651
 11
143.3466000579
 21
165.7047685718
  0
LINE
  5
29E
100
AcDbEntity
  8
0
100
AcDbLine
 62
7
  6
CONTINUOUS
 10
145.4502427319
 20
165.5107395026
 11
145.6270194272
 21
165.612808151
  0
LINE
  5
29F
100
AcDbEntity
  8
0
100
AcDbLine
 62
250
  6
CONTINUOUS
 10
144.9375903156
 20
164.7861507368
 11
145.3618133842
 21
165.0310918198
  0
LINE
  5
2A0
100
AcDbEntity
  8
0
100
AcDbLine
 62
7
  6
CONTINUOUS
 10
147.5715630755
 20
165.6332297716
 11
149.5161067238
 21
166.7559849033
  0
LINE
  5
2A1
100
AcDbEntity
  8
0
100
AcDbLine
 62
7
  6
CONTINUOUS
 10
149.4100407066
 20
166.5722652818
 11
147.8190504489
 21
165.6536474468
  0
LINE
  5
2A2
100
AcDbEntity
  8
0
100
AcDbLine
 62
7
  6
CONTINUOUS
 10
149.5161067238
 20
166.2661027372
 11
149.4100407066
 21
166.2048615482
  0
LINE
  5
2A3
100
AcDbEntity
  8
0
100
AcDbLine
 62
7
  6
CONTINUOUS
 10
147.7836916932
 20
165.2658280108
 11
147.5715630755
 21
165.1433476055
  0
LINE
  5
2A4
100
AcDbEntity
  8
0
100
AcDbLine
 62
7
  6
CONTINUOUS
 10
149.4100407066
 20
166.1640301434
 11
147.8190504489
 21
165.2454123084
  0
LINE
  5
2A5
100
AcDbEntity
  8
ASSI
100
AcDbLine
 62
7
  6
CONTINUOUS
 10
122.5298685572
 20
150.1250273618
 11
122.1590390208
 21
149.9109150351
  0
LINE
  5
2A6
100
AcDbEntity
  8
ASSI
100
AcDbLine
 62
7
  6
CONTINUOUS
 10
120.6489118988
 20
147.6764801777
 11
120.5478092748
 21
147.6181047897
  0
LWPOLYLINE
  5
2A7
100
AcDbEntity
  8
ASSI
100
AcDbPolyline
 62
7
  6
CONTINUOUS
 90
13
 70
0
 10
162.8066258925
 20
62.8537649011
 10
162.9058006385
 20
62.8498364214
 10
163.0075256003
 20
62.8416324488
 10
163.1076291121
 20
62.8293089262
 10
163.2061147798
 20
62.8128750148
 10
163.302763268
 20
62.792367314
 10
163.3975704823
 20
62.7677767445
 10
163.4905405171
 20
62.7391123857
 10
163.581466321
 20
62.7064380753
 10
163.6703433381
 20
62.6697448761
 10
163.7571761242
 20
62.6290417254
 10
163.8417712961
 20
62.5844192721
 10
163.8674615603
 20
62.5698338651
  0
LINE
  5
2A8
100
AcDbEntity
  8
ASSI
100
AcDbLine
 62
7
  6
CONTINUOUS
 10
120.5478092748
 20
64.9504892645
 11
120.6366914718
 21
64.8991697979
  0
LINE
  5
2A9
100
AcDbEntity
  8
ASSI
100
AcDbLine
 62
7
  6
CONTINUOUS
 10
128.8980472927
 20
60.129166486
 11
128.9869294896
 21
60.0778470194
  0
LINE
  5
2AA
100
AcDbEntity
  8
0
100
AcDbLine
 62
7
  6
CONTINUOUS
 10
166.3056136413
 20
38.7931056805
 11
165.9520602507
 21
38.9972429772
  0
LINE
  5
2AB
100
AcDbEntity
  8
ASSI
100
AcDbLine
 62
7
  6
CONTINUOUS
 10
128.9869294896
 20
61.0984348654
 11
128.8980472927
 21
61.149754332
  0
LINE
  5
2AC
100
AcDbEntity
  8
ASSI
100
AcDbLine
 62
7
  6
CONTINUOUS
 10
120.6366914718
 20
65.9197576439
 11
120.5478092748
 21
65.9710771104
  0
LWPOLYLINE
  5
2AD
100
AcDbEntity
  8
0
100
AcDbPolyline
 62
7
  6
CONTINUOUS
 90
9
 70
0
 10
104.2749659082
 20
188.5273183388
 10
104.2760174999
 20
188.5550044095
 10
104.2791603477
 20
188.5826904802
 10
104.2843765607
 20
188.6102189451
 10
104.291677964
 20
188.6375889052
 10
104.3010527325
 20
188.6648012596
 10
104.3124474993
 20
188.691701099
 10
104.3258737852
 20
188.718286641
 10
104.3287014886
 20
188.7230963626
  0
LWPOLYLINE
  5
2AE
100
AcDbEntity
  8
ASSI
100
AcDbPolyline
 62
7
  6
CONTINUOUS
 90
12
 70
0
 10
118.1316338349
 20
199.2089256513
 10
118.154045725
 20
199.3078467522
 10
118.1811019265
 20
199.4063046894
 10
118.2128128215
 20
199.5042984275
 10
118.2491680278
 20
199.6018290019
 10
118.2900863358
 20
199.69867855
 10
118.3355779459
 20
199.7948455494
 10
118.3856326575
 20
199.8903315225
 10
118.4401386591
 20
199.9849231739
 10
118.4991059014
 20
200.0786185043
 10
118.5625244336
 20
200.1714195131
 10
118.6234762332
 20
200.2539441664
  0
LWPOLYLINE
  5
2AF
100
AcDbEntity
  8
ASSI
100
AcDbPolyline
 62
7
  6
CONTINUOUS
 90
22
 70
0
 10
121.5340390208
 20
149.5501176153
 10
121.4640934572
 20
149.4875337765
 10
121.3966973717
 20
149.4214765985
 10
121.3318507646
 20
149.3519460813
 10
121.2695092973
 20
149.2788854714
 10
121.2097173083
 20
149.2023515224
 10
121.1526078127
 20
149.1225144939
 10
121.0981867825
 20
149.0393670324
 10
121.0464482457
 20
148.9529164914
 10
120.9975073015
 20
148.8633551917
 10
120.9513701781
 20
148.7706762077
 10
120.9080306473
 20
148.6748864649
 10
120.8675851236
 20
148.5761990601
 10
120.8300400498
 20
148.4746075424
 10
120.7953889832
 20
148.3701183628
 10
120.7637090094
 20
148.2629639711
 10
120.7350067431
 20
148.153138434
 10
120.7092755697
 20
148.0406476848
 10
120.6865727317
 20
147.9257419741
 10
120.6669173097
 20
147.8085047186
 10
120.6502902231
 20
147.6888525017
 10
120.6366914718
 20
147.5667853232
  0
LWPOLYLINE
  5
2B0
100
AcDbEntity
  8
ASSI
100
AcDbPolyline
 62
7
  6
CONTINUOUS
 90
22
 70
0
 10
121.4711898167
 20
149.65897563
 10
121.3990037484
 20
149.5948499971
 10
121.3294592358
 20
149.5271184738
 10
121.2625562789
 20
149.45578106
 10
121.1982484353
 20
149.3807785537
 10
121.1365821473
 20
149.3021701571
 10
121.0776967425
 20
149.2201334761
 10
121.0215985087
 20
149.1346607592
 10
120.9682811581
 20
149.0457597579
 10
120.9178651547
 20
148.9536313334
 10
120.8703570588
 20
148.8582681881
 10
120.8257503101
 20
148.7596776194
 10
120.7841456921
 20
148.6580823808
 10
120.745549993
 20
148.5534756785
 10
120.7099564247
 20
148.4458643063
 10
120.6774454065
 20
148.3354913989
 10
120.6480239082
 20
148.2223507124
 10
120.6216849601
 20
148.1064484908
 10
120.5984880718
 20
147.988046601
 10
120.5784530797
 20
147.8672323321
 10
120.5615601474
 20
147.743918395
 10
120.5478092748
 20
147.6181047897
  0
LWPOLYLINE
  5
2B1
100
AcDbEntity
  8
CURVE
100
AcDbPolyline
 62
250
  6
CONTINUOUS
 90
17
 70
0
 10
147.9251164661
 20
166.8171314004
 10
148.062460893
 20
166.9119819008
 10
148.1945739133
 20
167.0343186742
 10
148.3164233832
 20
167.179481951
 10
148.4251164661
 20
167.3449637414
 10
148.5127112194
 20
167.5186726883
 10
148.5779246711
 20
167.6967592447
 10
148.6182728611
 20
167.872440149
 10
148.6322232473
 20
168.0418762705
 10
148.6187565085
 20
168.1926873188
 10
148.578869236
 20
168.3222029688
 10
148.5140807236
 20
168.4254900094
 10
148.4251164661
 20
168.4996270801
 10
148.3184768682
 20
168.539197163
 10
148.1968542947
 20
168.5442733953
 10
148.0648813118
 20
168.5146624247
 10
147.9251164043
 20
168.4500719183
  0
LWPOLYLINE
  5
2B2
100
AcDbEntity
  8
0
100
AcDbPolyline
 62
250
  6
CONTINUOUS
 90
17
 70
0
 10
153.4228716898
 20
166.5214262595
 10
153.2855272629
 20
166.4265757592
 10
153.1534142426
 20
166.3042389857
 10
153.0315647727
 20
166.1590757089
 10
152.9228716898
 20
165.9935939185
 10
152.8352769365
 20
165.8198849716
 10
152.7700634848
 20
165.6417984152
 10
152.7297152948
 20
165.4661175109
 10
152.7157649086
 20
165.2966813894
 10
152.7292316474
 20
165.1458703411
 10
152.7691189199
 20
165.0163546912
 10
152.8339074323
 20
164.9130676505
 10
152.9228716898
 20
164.8389305798
 10
153.0295112878
 20
164.7993604969
 10
153.1511338612
 20
164.7942842646
 10
153.2831068441
 20
164.8238952352
 10
153.4228717516
 20
164.8884857416
  0
LWPOLYLINE
  5
2B3
100
AcDbEntity
  8
0
100
AcDbPolyline
 62
250
  6
CONTINUOUS
 90
17
 70
0
 10
153.4228716898
 20
164.8884857059
 10
153.5602161167
 20
164.9833362062
 10
153.692329137
 20
165.1056729797
 10
153.8141786069
 20
165.2508362565
 10
153.9228716898
 20
165.4163180469
 10
154.0104664431
 20
165.5900269938
 10
154.0756798948
 20
165.7681135502
 10
154.1160280848
 20
165.9437944545
 10
154.129978471
 20
166.113230576
 10
154.1165117322
 20
166.2640416243
 10
154.0766244597
 20
166.3935572742
 10
154.0118359473
 20
166.4968443149
 10
153.9228716898
 20
166.5709813856
 10
153.8162320919
 20
166.6105514685
 10
153.6946095184
 20
166.6156277008
 10
153.5626365355
 20
166.5860167302
 10
153.422871628
 20
166.5214262238
  0
LINE
  5
2B4
100
AcDbEntity
  8
ASSI
100
AcDbLine
 62
7
  6
CONTINUOUS
 10
125.2887549844
 20
149.231730362
 11
125.2093111205
 21
149.1858604706
  0
LINE
  5
2B5
100
AcDbEntity
  8
0
100
AcDbLine
 62
7
  6
CONTINUOUS
 10
152.0086581274
 20
163.2554662425
 11
157.6655123769
 21
166.5216629891
  0
LINE
  5
2B6
100
AcDbEntity
  8
0
100
AcDbLine
 62
7
  6
CONTINUOUS
 10
157.3119589863
 20
165.5010948706
 11
148.1195708309
 21
160.1935251573
  0
LINE
  5
2B7
100
AcDbEntity
  8
0
100
AcDbLine
 62
7
  6
CONTINUOUS
 10
147.6776290927
 20
159.5301203708
 11
148.1195708309
 21
159.7852919916
  0
LINE
  5
2B8
100
AcDbEntity
  8
0
100
AcDbLine
 62
7
  6
CONTINUOUS
 10
157.6655123769
 20
165.2969575739
 11
148.4731242215
 21
159.9893878606
  0
LINE
  5
2B9
100
AcDbEntity
  8
0
100
AcDbLine
 62
7
  6
CONTINUOUS
 10
157.6655123769
 20
164.0722521587
 11
157.135182291
 21
163.7660462137
  0
LINE
  5
2BA
100
AcDbEntity
  8
0
100
AcDbLine
 62
7
  6
CONTINUOUS
 10
157.135182291
 20
162.5413802534
 11
157.3119589863
 21
162.6434489018
  0
LINE
  5
2BB
100
AcDbEntity
  8
0
100
AcDbLine
 62
7
  6
CONTINUOUS
 10
148.1195708309
 20
156.9276854778
 11
147.6776290927
 21
156.672513857
  0
LINE
  5
2BC
100
AcDbEntity
  8
0
100
AcDbLine
 62
7
  6
CONTINUOUS
 10
157.135182291
 20
162.1331056601
 11
157.6655123769
 21
162.4393116051
  0
LINE
  5
2BD
100
AcDbEntity
  8
0
100
AcDbLine
 62
7
  6
CONTINUOUS
 10
148.1195708309
 20
156.5194108845
 11
147.6776290927
 21
156.2642392636
  0
LINE
  5
2BE
100
AcDbEntity
  8
0
100
AcDbLine
 62
7
  6
CONTINUOUS
 10
148.4731242215
 20
155.9070364767
 11
166.3056136413
 21
166.2032923741
  0
LINE
  5
2BF
100
AcDbEntity
  8
ASSI
100
AcDbLine
 62
7
  6
CONTINUOUS
 10
127.4385489478
 20
146.935161843
 11
127.3756997436
 21
146.8988805139
  0
LINE
  5
2C0
100
AcDbEntity
  8
ASSI
100
AcDbLine
 62
7
  6
CONTINUOUS
 10
121.5340390208
 20
143.5266307282
 11
121.4711898167
 21
143.4903493991
  0
LINE
  5
2C1
100
AcDbEntity
  8
ASSI
100
AcDbLine
 62
7
  6
CONTINUOUS
 10
128.0006997436
 20
145.8163487603
 11
128.0635489478
 21
145.8526300894
  0
LWPOLYLINE
  5
2C2
100
AcDbEntity
  8
ASSI
100
AcDbPolyline
 62
7
  6
CONTINUOUS
 90
6
 70
0
 10
163.8440939077
 20
62.534975089
 10
163.9350197116
 20
62.5023007786
 10
164.0238967286
 20
62.4656075795
 10
164.1107295148
 20
62.4249044287
 10
164.1953246867
 20
62.3802819755
 10
164.2210149509
 20
62.3656965685
  0
LINE
  5
2C3
100
AcDbEntity
  8
ASSI
100
AcDbLine
 62
7
  6
CONTINUOUS
 10
158.1457218405
 20
51.8436581504
 11
157.7921684499
 21
52.0477954471
  0
LINE
  5
2C4
100
AcDbEntity
  8
ASSI
100
AcDbLine
 62
7
  6
CONTINUOUS
 10
156.8948301094
 20
54.914293949
 11
156.7303220365
 21
55.0092788485
  0
LWPOLYLINE
  5
2C5
100
AcDbEntity
  8
ASSI
100
AcDbPolyline
 62
7
  6
CONTINUOUS
 90
13
 70
0
 10
157.7921688852
 20
52.0477962009
 10
157.7355065787
 20
52.0817612847
 10
157.6553916223
 20
52.1342310781
 10
157.5776927023
 20
52.1905033197
 10
157.5024152034
 20
52.2505864842
 10
157.4295537409
 20
52.3144720969
 10
157.359270583
 20
52.3820178797
 10
157.2915714759
 20
52.45323199
 10
157.2264506734
 20
52.5281062703
 10
157.1640532045
 20
52.6064739699
 10
157.1043851388
 20
52.6883428746
 10
157.0474404068
 20
52.7737051984
 10
157.0159046297
 20
52.8253950311
  0
LWPOLYLINE
  5
2C6
100
AcDbEntity
  8
ASSI
100
AcDbPolyline
 62
7
  6
CONTINUOUS
 90
5
 70
0
 10
158.1457222757
 20
51.8436589042
 10
158.0890599693
 20
51.8776239881
 10
158.0089450129
 20
51.9300937814
 10
157.9312460928
 20
51.986366023
 10
157.855968594
 20
52.0464491875
  0
LWPOLYLINE
  5
2C7
100
AcDbEntity
  8
ASSI
100
AcDbPolyline
 62
7
  6
CONTINUOUS
 90
28
 70
0
 10
158.0207161483
 20
51.6271558893
 10
157.9579637016
 20
51.6648611411
 10
157.8745359689
 20
51.7197549526
 10
157.7936340992
 20
51.7786174817
 10
157.7152637391
 20
51.8414576004
 10
157.6394192421
 20
51.9082664366
 10
157.5662700288
 20
51.9788947538
 10
157.4958221242
 20
52.0533510901
 10
157.4280695033
 20
52.1316269073
 10
157.3631635109
 20
52.2135473538
 10
157.3011105107
 20
52.299120577
 10
157.241904139
 20
52.3883384296
 10
157.1856766503
 20
52.4810016178
 10
157.1324347039
 20
52.5771178434
 10
157.0821716405
 20
52.6766794046
 10
157.0349997371
 20
52.7794639021
 10
156.990925904
 20
52.8854785404
 10
156.9499432309
 20
52.994716115
 10
156.9121432645
 20
53.1069326122
 10
156.8775331195
 20
53.2221346913
 10
156.8461056811
 20
53.3403156931
 10
156.8179311516
 20
53.4612116263
 10
156.7930168027
 20
53.58482856
 10
156.7713553627
 20
53.711160425
 10
156.7529952186
 20
53.839925023
 10
156.7379524995
 20
53.9710282875
 10
156.7262110763
 20
54.1045642849
 10
156.717770949
 20
54.2405330151
  0
LWPOLYLINE
  5
2C8
100
AcDbEntity
  8
0
100
AcDbPolyline
 62
7
  6
CONTINUOUS
 90
18
 70
0
 10
167.1760985839
 20
47.1543220462
 10
167.1933001827
 20
47.1439158334
 10
167.2095934895
 20
47.1330649737
 10
167.2249785043
 20
47.121769467
 10
167.2395049691
 20
47.1099890017
 10
167.2531231418
 20
47.0977638894
 10
167.2656837968
 20
47.0852150654
 10
167.2771637567
 20
47.0723396195
 10
167.2875861989
 20
47.0591404618
 10
167.2968714294
 20
47.0457472581
 10
167.3049938695
 20
47.032197774
 10
167.311979098
 20
47.0184542439
 10
167.3178241575
 20
47.0045330361
 10
167.3225439765
 20
46.9904052083
 10
167.3261236265
 20
46.9760997028
 10
167.3285153646
 20
46.9617197151
 10
167.3297032764
 20
46.9472499889
 10
167.3298517654
 20
46.9399778847
  0
LWPOLYLINE
  5
2C9
100
AcDbEntity
  8
ASSI
100
AcDbPolyline
 62
7
  6
CONTINUOUS
 90
22
 70
0
 10
122.1590390208
 20
60.7970712953
 10
122.2482161231
 20
60.664817976
 10
122.3391264599
 20
60.5345076979
 10
122.4317700314
 20
60.4061404609
 10
122.5262181601
 20
60.2796238883
 10
122.6223995235
 20
60.1550503569
 10
122.7201001534
 20
60.0326969968
 10
122.8193234321
 20
59.9125687508
 10
122.9200659774
 20
59.7946606761
 10
123.0221036741
 20
59.6792350748
 10
123.1254394056
 20
59.5662974736
 10
123.2300702887
 20
59.4558423458
 10
123.335763558
 20
59.3481154133
 10
123.4425215788
 20
59.2431227498
 10
123.5503419859
 20
59.1408582817
 10
123.6589849186
 20
59.0415495097
 10
123.7684522082
 20
58.9452030141
 10
123.8787420233
 20
58.8518122145
 10
123.9896090099
 20
58.7615848711
 10
124.1009713832
 20
58.6745902374
 10
124.2129109279
 20
58.5907590598
 10
124.325427644
 20
58.5100913385
  0
LWPOLYLINE
  5
2CA
100
AcDbEntity
  8
ASSI
100
AcDbPolyline
 62
7
  6
CONTINUOUS
 90
22
 70
0
 10
122.0961898167
 20
60.7607899662
 10
122.1878225554
 20
60.6245317646
 10
122.281257282
 20
60.4902832255
 10
122.3764939963
 20
60.3580443486
 10
122.4736071941
 20
60.2277184959
 10
122.5725223797
 20
60.0994023054
 10
122.6730160663
 20
59.9733856922
 10
122.7750918231
 20
59.8496738556
 10
122.8787460807
 20
59.7282615963
 10
122.9837446452
 20
59.6094232303
 10
123.0900905561
 20
59.4931645775
 10
123.1977807738
 20
59.3794798181
 10
123.3065719854
 20
59.2686258089
 10
123.4164666802
 20
59.1606089507
 10
123.5274623689
 20
59.0554228427
 10
123.6393082702
 20
58.9533051402
 10
123.7520063065
 20
58.8542627811
 10
123.8655545554
 20
58.7582888275
 10
123.9796964684
 20
58.6656001208
 10
124.0943465295
 20
58.5762689417
 10
124.2095902547
 20
58.4902230095
 10
124.325427644
 20
58.4074623242
  0
LINE
  5
2CB
100
AcDbEntity
  8
0
100
AcDbLine
 62
7
  6
CONTINUOUS
 10
103.200612556
 20
194.2936741917
 11
103.200612556
 21
193.8854390533
  0
LINE
  5
2CC
100
AcDbEntity
  8
0
100
AcDbLine
 62
7
  6
CONTINUOUS
 10
103.200612556
 20
38.3070278104
 11
103.200612556
 21
38.7152629488
  0
LINE
  5
2CD
100
AcDbEntity
  8
0
100
AcDbLine
 62
7
  6
CONTINUOUS
 10
103.200612556
 20
38.7356747058
 11
103.200612556
 21
193.8650272964
  0
LINE
  5
2CE
100
AcDbEntity
  8
0
100
AcDbLine
 62
7
  6
CONTINUOUS
 10
103.5541659466
 20
38.5315374091
 11
103.5541659466
 21
39.062243089
  0
LINE
  5
2CF
100
AcDbEntity
  8
0
100
AcDbLine
 62
7
  6
CONTINUOUS
 10
103.5541659466
 20
39.062243089
 11
103.5541659466
 21
42.4914182515
  0
LINE
  5
2D0
100
AcDbEntity
  8
0
100
AcDbLine
 62
7
  6
CONTINUOUS
 10
103.5541659466
 20
42.4914182515
 11
103.5541659466
 21
114.3816261231
  0
LINE
  5
2D1
100
AcDbEntity
  8
0
100
AcDbLine
 62
7
  6
CONTINUOUS
 10
103.5541659466
 20
114.3816261231
 11
103.5541659466
 21
117.8108012857
  0
LINE
  5
2D2
100
AcDbEntity
  8
0
100
AcDbLine
 62
7
  6
CONTINUOUS
 10
103.5541659466
 20
117.8108012857
 11
103.5541659466
 21
189.7010091573
  0
LINE
  5
2D3
100
AcDbEntity
  8
0
100
AcDbLine
 62
7
  6
CONTINUOUS
 10
103.5541659466
 20
189.7010091573
 11
103.5541659466
 21
193.1301843198
  0
LINE
  5
2D4
100
AcDbEntity
  8
0
100
AcDbLine
 62
7
  6
CONTINUOUS
 10
103.5541659466
 20
193.1301843198
 11
103.5541659466
 21
193.6608899997
  0
LINE
  5
2D5
100
AcDbEntity
  8
0
100
AcDbLine
 62
7
  6
CONTINUOUS
 10
103.9077193372
 20
38.8581057923
 11
103.9077193372
 21
42.2872809549
  0
LINE
  5
2D6
100
AcDbEntity
  8
0
100
AcDbLine
 62
7
  6
CONTINUOUS
 10
103.9077193372
 20
114.1774888265
 11
103.9077193372
 21
117.606663989
  0
LINE
  5
2D7
100
AcDbEntity
  8
0
100
AcDbLine
 62
7
  6
CONTINUOUS
 10
103.9077193372
 20
189.4968718606
 11
103.9077193372
 21
192.9260470232
  0
LINE
  5
2D8
100
AcDbEntity
  8
0
100
AcDbLine
 62
7
  6
CONTINUOUS
 10
104.0844960325
 20
192.8648018887
 11
104.0844960325
 21
189.3948032123
  0
LINE
  5
2D9
100
AcDbEntity
  8
0
100
AcDbLine
 62
7
  6
CONTINUOUS
 10
104.0844960325
 20
117.422948313
 11
104.0844960325
 21
114.1570672058
  0
LINE
  5
2DA
100
AcDbEntity
  8
0
100
AcDbLine
 62
7
  6
CONTINUOUS
 10
104.0844960325
 20
38.7152136302
 11
104.0844960325
 21
42.1852123065
  0
LINE
  5
2DB
100
AcDbEntity
  8
0
100
AcDbLine
 62
7
  6
CONTINUOUS
 10
104.2749659082
 20
43.358903125
 11
104.2749659082
 21
113.2895823323
  0
LINE
  5
2DC
100
AcDbEntity
  8
0
100
AcDbLine
 62
7
  6
CONTINUOUS
 10
104.2749659082
 20
118.5966391315
 11
104.2749659082
 21
188.5273183388
  0
LINE
  5
2DD
100
AcDbEntity
  8
0
100
AcDbLine
 62
250
  6
CONTINUOUS
 10
104.5971484489
 20
42.9098010724
 11
104.5971484489
 21
112.8404802797
  0
LINE
  5
2DE
100
AcDbEntity
  8
0
100
AcDbLine
 62
250
  6
CONTINUOUS
 10
104.5971484489
 20
118.1475370788
 11
104.5971484489
 21
188.0782162861
  0
LINE
  5
2DF
100
AcDbEntity
  8
0
100
AcDbLine
 62
7
  6
CONTINUOUS
 10
105.3219328996
 20
192.6402035164
 11
105.3219328996
 21
192.231968378
  0
LINE
  5
2E0
100
AcDbEntity
  8
0
100
AcDbLine
 62
7
  6
CONTINUOUS
 10
105.3219328996
 20
117.3208204823
 11
105.3219328996
 21
116.9125853439
  0
LINE
  5
2E1
100
AcDbEntity
  8
0
100
AcDbLine
 62
7
  6
CONTINUOUS
 10
105.3219328996
 20
42.0014374481
 11
105.3219328996
 21
41.5932023097
  0
LINE
  5
2E2
100
AcDbEntity
  8
0
100
AcDbLine
 62
7
  6
CONTINUOUS
 10
105.3219328996
 20
37.5108509258
 11
105.3219328996
 21
37.9190860642
  0
LINE
  5
2E3
100
AcDbEntity
  8
0
100
AcDbLine
 62
7
  6
CONTINUOUS
 10
105.3219328996
 20
112.8302339599
 11
105.3219328996
 21
113.2384690983
  0
LINE
  5
2E4
100
AcDbEntity
  8
0
100
AcDbLine
 62
7
  6
CONTINUOUS
 10
105.3219328996
 20
188.1496169941
 11
105.3219328996
 21
188.5578521324
  0
LINE
  5
2E5
100
AcDbEntity
  8
0
100
AcDbLine
 62
7
  6
CONTINUOUS
 10
106.1881387066
 20
192.0584201119
 11
106.1881387066
 21
191.6501849735
  0
LINE
  5
2E6
100
AcDbEntity
  8
0
100
AcDbLine
 62
7
  6
CONTINUOUS
 10
106.1881387066
 20
117.2289192438
 11
106.1881387066
 21
116.2083313979
  0
LINE
  5
2E7
100
AcDbEntity
  8
0
100
AcDbLine
 62
7
  6
CONTINUOUS
 10
106.1881387066
 20
41.9911832374
 11
106.1881387066
 21
40.9705953914
  0
LINE
  5
2E8
100
AcDbEntity
  8
0
100
AcDbLine
 62
7
  6
CONTINUOUS
 10
106.1881387066
 20
37.0923615766
 11
106.1881387066
 21
37.500596715
  0
LINE
  5
2E9
100
AcDbEntity
  8
0
100
AcDbLine
 62
7
  6
CONTINUOUS
 10
106.1881387066
 20
111.9218624447
 11
106.1881387066
 21
112.9424502907
  0
LINE
  5
2EA
100
AcDbEntity
  8
0
100
AcDbLine
 62
7
  6
CONTINUOUS
 10
106.1881387066
 20
187.1595984511
 11
106.1881387066
 21
188.1801862971
  0
LWPOLYLINE
  5
2EB
100
AcDbEntity
  8
0
100
AcDbPolyline
 62
7
  6
CONTINUOUS
 90
6
 70
0
 10
104.2749659082
 20
113.2895823323
 10
104.2760174999
 20
113.317268403
 10
104.2791603477
 20
113.3449544737
 10
104.2843765607
 20
113.3724829386
 10
104.291677964
 20
113.3998528988
 10
104.2989298459
 20
113.4209031019
  0
LINE
  5
2EC
100
AcDbEntity
  8
ASSI
100
AcDbLine
 62
7
  6
CONTINUOUS
 10
118.1139163196
 20
199.1097623553
 11
118.1316338349
 21
199.2089256513
  0
LWPOLYLINE
  5
2ED
100
AcDbEntity
  8
ASSI
100
AcDbPolyline
 62
7
  6
CONTINUOUS
 90
22
 70
0
 10
128.0006997436
 20
139.7928618732
 10
128.0706453073
 20
139.8554457119
 10
128.1380413927
 20
139.9215028899
 10
128.2028879999
 20
139.9910334072
 10
128.2652294672
 20
140.064094017
 10
128.3250214562
 20
140.1406279661
 10
128.3821309518
 20
140.2204649946
 10
128.436551982
 20
140.3036124561
 10
128.4882905188
 20
140.390062997
 10
128.537231463
 20
140.4796242967
 10
128.5833685864
 20
140.5723032807
 10
128.6267081172
 20
140.6680930236
 10
128.6671536409
 20
140.7667804283
 10
128.7046987146
 20
140.868371946
 10
128.7393497813
 20
140.9728611257
 10
128.7710297551
 20
141.0800155173
 10
128.7997320214
 20
141.1898410545
 10
128.8254631947
 20
141.3023318037
 10
128.8481660328
 20
141.4172375144
 10
128.8678214547
 20
141.5344747698
 10
128.8844485414
 20
141.6541269868
 10
128.8980472927
 20
141.7761941653
  0
LWPOLYLINE
  5
2EE
100
AcDbEntity
  8
ASSI
100
AcDbPolyline
 62
7
  6
CONTINUOUS
 90
22
 70
0
 10
128.0635489478
 20
139.6840038584
 10
128.1357350161
 20
139.7481294913
 10
128.2052795287
 20
139.8158610147
 10
128.2721824855
 20
139.8871984285
 10
128.3364903292
 20
139.9622009347
 10
128.3981566172
 20
140.0408093314
 10
128.4570420219
 20
140.1228460123
 10
128.5131402557
 20
140.2083187293
 10
128.5664576064
 20
140.2972197305
 10
128.6168736097
 20
140.3893481551
 10
128.6643817057
 20
140.4847113004
 10
128.7089884544
 20
140.5833018691
 10
128.7505930723
 20
140.6848971076
 10
128.7891887714
 20
140.7895038099
 10
128.8247823398
 20
140.8971151822
 10
128.857293358
 20
141.0074880895
 10
128.8867148562
 20
141.120628776
 10
128.9130538043
 20
141.2365309977
 10
128.9362506927
 20
141.3549328875
 10
128.9562856848
 20
141.4757471564
 10
128.9731786171
 20
141.5990610935
 10
128.9869294896
 20
141.7248746987
  0
LWPOLYLINE
  5
2EF
100
AcDbEntity
  8
0
100
AcDbPolyline
 62
250
  6
CONTINUOUS
 90
17
 70
0
 10
165.0097256673
 20
167.9044737296
 10
164.8723812405
 20
167.8096232292
 10
164.7402682201
 20
167.6872864558
 10
164.6184187502
 20
167.542123179
 10
164.5097256673
 20
167.3766413886
 10
164.4221309141
 20
167.2029324417
 10
164.3569174624
 20
167.0248458853
 10
164.3165692724
 20
166.849164981
 10
164.3026188862
 20
166.6797288595
 10
164.316085625
 20
166.5289178112
 10
164.3559728975
 20
166.3994021612
 10
164.4207614098
 20
166.2961151206
 10
164.5097256673
 20
166.2219780499
 10
164.6163652653
 20
166.182407967
 10
164.7379878387
 20
166.1773317347
 10
164.8699608216
 20
166.2069427053
 10
165.0097257292
 20
166.2715332117
  0
LWPOLYLINE
  5
2F0
100
AcDbEntity
  8
0
100
AcDbPolyline
 62
250
  6
CONTINUOUS
 90
17
 70
0
 10
165.0097256673
 20
166.271533176
 10
165.1470700942
 20
166.3663836763
 10
165.2791831146
 20
166.4887204498
 10
165.4010325845
 20
166.6338837266
 10
165.5097256673
 20
166.799365517
 10
165.5973204206
 20
166.9730744639
 10
165.6625338723
 20
167.1511610203
 10
165.7028820623
 20
167.3268419246
 10
165.7168324485
 20
167.4962780461
 10
165.7033657097
 20
167.6470890944
 10
165.6634784372
 20
167.7766047443
 10
165.5986899248
 20
167.879891785
 10
165.5097256673
 20
167.9540288557
 10
165.4030860694
 20
167.9935989386
 10
165.281463496
 20
167.9986751709
 10
165.1494905131
 20
167.9690642003
 10
165.0097256055
 20
167.9044736939
  0
LINE
  5
2F1
100
AcDbEntity
  8
ASSI
100
AcDbLine
 62
7
  6
CONTINUOUS
 10
128.9774972052
 20
142.842655395
 11
128.8980472927
 21
142.7967820113
  0
LINE
  5
2F2
100
AcDbEntity
  8
ASSI
100
AcDbLine
 62
7
  6
CONTINUOUS
 10
128.3716838113
 20
140.0070634243
 11
128.0006997436
 21
139.7928618732
  0
LINE
  5
2F3
100
AcDbEntity
  8
ASSI
100
AcDbLine
 62
7
  6
CONTINUOUS
 10
165.6489662777
 20
59.9688224575
 11
165.4560361328
 21
60.0802179052
  0
LINE
  5
2F4
100
AcDbEntity
  8
ASSI
100
AcDbLine
 62
7
  6
CONTINUOUS
 10
164.2210153862
 20
62.3656973223
 11
163.8674619956
 21
62.5698346189
  0
LWPOLYLINE
  5
2F5
100
AcDbEntity
  8
ASSI
100
AcDbPolyline
 62
7
  6
CONTINUOUS
 90
24
 70
0
 10
157.855968594
 20
52.0464491875
 10
157.7831071315
 20
52.1103348003
 10
157.7128239736
 20
52.177880583
 10
157.6451248665
 20
52.2490946933
 10
157.580004064
 20
52.3239689737
 10
157.5176065951
 20
52.4023366732
 10
157.4579385294
 20
52.4842055779
 10
157.4009937974
 20
52.5695679018
 10
157.3468992192
 20
52.6582335364
 10
157.2956611472
 20
52.7502098439
 10
157.2472732292
 20
52.8454894621
 10
157.2018432287
 20
52.9438601959
 10
157.1593777382
 20
53.0453289346
 10
157.1198701653
 20
53.149888789
 10
157.0834084964
 20
53.257306896
 10
157.04999952
 20
53.3675896261
 10
157.0196364475
 20
53.480730609
 10
156.9923869
 20
53.5964778708
 10
156.9682578166
 20
53.7148372204
 10
156.9472422582
 20
53.8358028489
 10
156.9293870279
 20
53.9591053567
 10
156.9147077268
 20
54.0846549437
 10
156.903188754
 20
54.2125414099
 10
156.8948301094
 20
54.3427647553
  0
LINE
  5
2F6
100
AcDbEntity
  8
ASSI
100
AcDbLine
 62
7
  6
CONTINUOUS
 10
121.4711898167
 20
68.0119479508
 11
121.5340390208
 21
67.903089936
  0
LINE
  5
2F7
100
AcDbEntity
  8
ASSI
100
AcDbLine
 62
7
  6
CONTINUOUS
 10
127.3756997436
 20
57.7850367741
 11
127.4385489478
 21
57.6761787593
  0
LINE
  5
2F8
100
AcDbEntity
  8
ASSI
100
AcDbLine
 62
7
  6
CONTINUOUS
 10
128.0635489478
 20
58.0369761791
 11
128.0006997436
 21
58.1458341939
  0
LWPOLYLINE
  5
2F9
100
AcDbEntity
  8
ASSI
100
AcDbPolyline
 62
7
  6
CONTINUOUS
 90
3
 70
0
 10
118.0991547732
 20
198.9894054835
 10
118.1009036732
 20
199.010356323
 10
118.1139163196
 20
199.1097623553
  0
LINE
  5
2FA
100
AcDbEntity
  8
ASSI
100
AcDbLine
 62
7
  6
CONTINUOUS
 10
130.4641378424
 20
198.8771270191
 11
130.4469770288
 21
198.7820366185
  0
LWPOLYLINE
  5
2FB
100
AcDbEntity
  8
ASSI
100
AcDbPolyline
 62
7
  6
CONTINUOUS
 90
81
 70
0
 10
130.4469770288
 20
198.7820366185
 10
130.4253213668
 20
198.6871808605
 10
130.3992190851
 20
198.5927709963
 10
130.3686602734
 20
198.4988080195
 10
130.3336548421
 20
198.4052909365
 10
130.2942807509
 20
198.3124280169
 10
130.2505282633
 20
198.2202207188
 10
130.2024071159
 20
198.1286675842
 10
130.1500244782
 20
198.037972509
 10
130.0933708524
 20
197.9481374056
 10
130.0324557363
 20
197.8591603616
 10
129.9674147925
 20
197.7712395358
 10
129.8982388258
 20
197.6843772823
 10
129.8249370314
 20
197.5985712468
 10
129.7476726581
 20
197.5140125263
 10
129.6664368744
 20
197.4307039005
 10
129.5812385119
 20
197.3486425896
 10
129.4922673138
 20
197.2680113505
 10
129.3995148716
 20
197.1888133703
 10
129.3029895938
 20
197.111045462
 10
129.2029064498
 20
197.0348808205
 10
129.09925751
 20
196.9603230191
 10
128.9920507039
 20
196.8873684847
 10
128.8815247894
 20
196.8161796926
 10
128.7676723691
 20
196.7467605781
 10
128.6505008404
 20
196.6791072059
 10
128.5302711534
 20
196.6133702454
 10
128.4069764922
 20
196.5495539676
 10
128.2806236726
 20
196.4876541013
 10
128.1514940922
 20
196.4278085025
 10
128.0195815624
 20
196.3700217495
 10
127.8848922717
 20
196.3142892639
 10
127.7477261836
 20
196.2607351662
 10
127.6080777781
 20
196.2093643115
 10
127.4659525752
 20
196.1601718447
 10
127.3216670988
 20
196.1132673213
 10
127.1752165342
 20
196.0686558406
 10
127.0266056961
 20
196.0263323032
 10
126.8761655522
 20
195.9863909669
 10
126.7238920257
 20
195.9488371412
 10
126.5697891934
 20
195.9136655166
 10
126.4142002544
 20
195.8809544231
 10
126.2571218966
 20
195.8507093446
 10
126.0985574319
 20
195.8229247971
 10
125.9388599959
 20
195.7976626592
 10
125.7780270633
 20
195.7749285524
 10
125.6160611593
 20
195.7547168551
 10
125.4533229945
 20
195.7370725802
 10
125.2898108477
 20
195.7220014499
 10
125.1255264401
 20
195.709497742
 10
124.9608356458
 20
195.6995893034
 10
124.7957375591
 20
195.692281918
 10
124.6302330856
 20
195.6875698018
 10
124.4646908167
 20
195.6854634491
 10
124.2991106681
 20
195.6859686674
 10
124.133492724
 20
195.689079649
 10
123.9682058285
 20
195.6947894657
 10
123.8032507193
 20
195.7031039096
 10
123.6386266586
 20
195.7140171884
 10
123.474700277
 20
195.7275049976
 10
123.3114731294
 20
195.7435730751
 10
123.1489436609
 20
195.7622156828
 10
122.9874738371
 20
195.7833913023
 10
122.8270660198
 20
195.8071055791
 10
122.6677178472
 20
195.8333528676
 10
122.5097842001
 20
195.8620747131
 10
122.3532682311
 20
195.8932766308
 10
122.1981667875
 20
195.9269531056
 10
122.0448252924
 20
195.9630291373
 10
121.8932476681
 20
196.0015100738
 10
121.7434299922
 20
196.0423905673
 10
121.5957059202
 20
196.0855795737
 10
121.4500801183
 20
196.1310822381
 10
121.3065479204
 20
196.1788934153
 10
121.1654289837
 20
196.2289066263
 10
121.0267286868
 20
196.2811267787
 10
120.8904416512
 20
196.3355489648
 10
120.7568713987
 20
196.3920519823
 10
120.6261191031
 20
196.4505954301
 10
120.4980835906
 20
196.5112197093
 10
120.3727648611
 20
196.5739248198
  0
LWPOLYLINE
  5
2FC
100
AcDbEntity
  8
ASSI
100
AcDbPolyline
 62
7
  6
CONTINUOUS
 90
18
 70
0
 10
156.0885864862
 20
168.2809903901
 10
156.1113901879
 20
168.3054279086
 10
156.135209846
 20
168.3325464265
 10
156.1585062753
 20
168.3606857491
 10
156.1811217502
 20
168.3896553622
 10
156.2030516496
 20
168.4194608999
 10
156.2243005945
 20
168.450096728
 10
156.2447247212
 20
168.4813554301
 10
156.2643184326
 20
168.5132412327
 10
156.2830873258
 20
168.5457499092
 10
156.300904328
 20
168.5786613632
 10
156.3177629799
 20
168.6119783278
 10
156.3336697408
 20
168.6456980699
 10
156.3485169157
 20
168.6795922935
 10
156.3622973145
 20
168.7136621828
 10
156.3750181274
 20
168.7479065536
 10
156.3865932294
 20
168.7820935583
 10
156.3963334734
 20
168.8139914132
  0
LWPOLYLINE
  5
2FD
100
AcDbEntity
  8
ASSI
100
AcDbPolyline
 62
7
  6
CONTINUOUS
 90
18
 70
0
 10
163.1596542981
 20
172.3637363233
 10
163.1824579998
 20
172.3881738419
 10
163.2062776578
 20
172.4152923598
 10
163.2295740872
 20
172.4434316824
 10
163.252189562
 20
172.4724012955
 10
163.2741194615
 20
172.5022068331
 10
163.2953684064
 20
172.5328426613
 10
163.315792533
 20
172.5641013633
 10
163.3353862445
 20
172.595987166
 10
163.3541551376
 20
172.6284958425
 10
163.3719721398
 20
172.6614072965
 10
163.3888307917
 20
172.6947242611
 10
163.4047375526
 20
172.7284440032
 10
163.4195847275
 20
172.7623382268
 10
163.4333651264
 20
172.7964081161
 10
163.4460859393
 20
172.8306524869
 10
163.4576610412
 20
172.8648394916
 10
163.4674012853
 20
172.8967373465
  0
LINE
  5
2FE
100
AcDbEntity
  8
0
100
AcDbLine
 62
7
  6
CONTINUOUS
 10
104.2749659082
 20
118.7576878297
 11
103.5541659466
 21
118.3415069656
  0
LINE
  5
2FF
100
AcDbEntity
  8
0
100
AcDbLine
 62
7
  6
CONTINUOUS
 10
103.5541659466
 20
117.8108012857
 11
103.6602217138
 21
117.8720365564
  0
LINE
  5
300
100
AcDbEntity
  8
0
100
AcDbLine
 62
7
  6
CONTINUOUS
 10
103.9077193372
 20
117.606663989
 11
104.0137751044
 21
117.6678992598
  0
LINE
  5
301
100
AcDbEntity
  8
0
100
AcDbLine
 62
7
  6
CONTINUOUS
 10
104.0844960325
 20
117.422948313
 11
104.2612556444
 21
117.5250070976
  0
LINE
  5
302
100
AcDbEntity
  8
0
100
AcDbLine
 62
7
  6
CONTINUOUS
 10
103.5541659466
 20
114.2591555816
 11
103.6602217138
 21
114.3203908524
  0
LINE
  5
303
100
AcDbEntity
  8
0
100
AcDbLine
 62
7
  6
CONTINUOUS
 10
104.0844960325
 20
114.2795574748
 11
103.9077193372
 21
114.1774888265
  0
LWPOLYLINE
  5
304
100
AcDbEntity
  8
0
100
AcDbPolyline
 62
7
  6
CONTINUOUS
 90
24
 70
0
 10
145.9428473662
 20
89.3762270466
 10
145.9063896938
 20
89.3720399008
 10
145.8589865863
 20
89.367824162
 10
145.8113089583
 20
89.3648123861
 10
145.7633583666
 20
89.3629977451
 10
145.7154077749
 20
89.3623905692
 10
145.6674571832
 20
89.3629977451
 10
145.6195065915
 20
89.3648123861
 10
145.5718289634
 20
89.367824162
 10
145.524425856
 20
89.3720399008
 10
145.4772957122
 20
89.3774527746
 10
145.4307068253
 20
89.3840319702
 10
145.3846622823
 20
89.3917841394
 10
145.3391589963
 20
89.4007026303
 10
145.2944559993
 20
89.4107366735
 10
145.2505578558
 20
89.4218926315
 10
145.2074600013
 20
89.4341641417
 10
145.1654077749
 20
89.4474813473
 10
145.1244071402
 20
89.4618502123
 10
145.0844521336
 20
89.4772647728
 10
145.045770203
 20
89.4936372798
 10
145.0084371645
 20
89.5109384835
 10
144.972377202
 20
89.5291976337
 10
144.9375903156
 20
89.5484147303
  0
LWPOLYLINE
  5
305
100
AcDbEntity
  8
ASSI
100
AcDbPolyline
 62
7
  6
CONTINUOUS
 90
28
 70
0
 10
164.2210149509
 20
62.3656965685
 10
164.2776772574
 20
62.3317314846
 10
164.3577922138
 20
62.2792616913
 10
164.4354911338
 20
62.2229894496
 10
164.5107686327
 20
62.1629062852
 10
164.5836300952
 20
62.0990206724
 10
164.6539132531
 20
62.0314748897
 10
164.7216123602
 20
61.9602607794
 10
164.7867331627
 20
61.885386499
 10
164.8491306315
 20
61.8070187995
 10
164.9087986972
 20
61.7251498948
 10
164.9657434293
 20
61.6397875709
 10
165.0198380075
 20
61.5511219363
 10
165.0710760795
 20
61.4591456288
 10
165.1194639975
 20
61.3638660106
 10
165.164893998
 20
61.2654952768
 10
165.2073594885
 20
61.1640265381
 10
165.2468670614
 20
61.0594666837
 10
165.2833287303
 20
60.9520485766
 10
165.3167377067
 20
60.8417658465
 10
165.3471007791
 20
60.7286248637
 10
165.3743503267
 20
60.6128776019
 10
165.39847941
 20
60.4945182523
 10
165.4194949685
 20
60.3735526238
 10
165.4373501988
 20
60.250250116
 10
165.4520294998
 20
60.124700529
 10
165.4635484727
 20
59.9968140628
 10
165.4719071173
 20
59.8665907174
  0
LWPOLYLINE
  5
306
100
AcDbEntity
  8
ASSI
100
AcDbPolyline
 62
7
  6
CONTINUOUS
 90
28
 70
0
 10
164.3460210783
 20
62.5821995834
 10
164.4087735251
 20
62.5444943316
 10
164.4922012578
 20
62.4896005201
 10
164.5731031275
 20
62.430737991
 10
164.6514734876
 20
62.3678978723
 10
164.7273179845
 20
62.3010890361
 10
164.8004671979
 20
62.2304607189
 10
164.8709151024
 20
62.1560043826
 10
164.9386677234
 20
62.0777285654
 10
165.0035737158
 20
61.9958081189
 10
165.065626716
 20
61.9102348957
 10
165.1248330877
 20
61.8210170431
 10
165.1810605764
 20
61.7283538549
 10
165.2343025228
 20
61.6322376293
 10
165.2845655862
 20
61.5326760681
 10
165.3317374895
 20
61.4298915706
 10
165.3758113227
 20
61.3238769323
 10
165.4167939958
 20
61.2146393577
 10
165.4545939622
 20
61.1024228605
 10
165.4892041072
 20
60.9872207814
 10
165.5206315456
 20
60.8690397796
 10
165.548806075
 20
60.7481438464
 10
165.5737204239
 20
60.6245269127
 10
165.595381864
 20
60.4981950477
 10
165.613742008
 20
60.3694304497
 10
165.6287847272
 20
60.2383271852
 10
165.6405261504
 20
60.1047911878
 10
165.6489662777
 20
59.9688224575
  0
LWPOLYLINE
  5
307
100
AcDbEntity
  8
0
100
AcDbPolyline
 62
7
  6
CONTINUOUS
 90
18
 70
0
 10
167.1760985839
 20
66.1780794954
 10
167.1933001827
 20
66.1676732827
 10
167.2095934895
 20
66.156822423
 10
167.2249785043
 20
66.1455269163
 10
167.2395049691
 20
66.133746451
 10
167.2531231418
 20
66.1215213387
 10
167.2656837968
 20
66.1089725147
 10
167.2771637567
 20
66.0960970687
 10
167.2875861989
 20
66.0828979111
 10
167.2968714294
 20
66.0695047073
 10
167.3049938695
 20
66.0559552233
 10
167.311979098
 20
66.0422116932
 10
167.3178241575
 20
66.0282904854
 10
167.3225439765
 20
66.0141626575
 10
167.3261236265
 20
65.999857152
 10
167.3285153646
 20
65.9854771643
 10
167.3297032764
 20
65.9710074381
 10
167.3298517654
 20
65.9637353339
  0
LWPOLYLINE
  5
308
100
AcDbEntity
  8
ASSI
100
AcDbPolyline
 62
7
  6
CONTINUOUS
 90
3
 70
0
 10
164.1635938919
 20
62.6755876045
 10
164.2195497369
 20
62.6348752876
 10
164.297920097
 20
62.572035169
  0
LWPOLYLINE
  5
309
100
AcDbEntity
  8
ASSI
100
AcDbPolyline
 62
7
  6
CONTINUOUS
 90
22
 70
0
 10
120.6366914718
 20
64.8991697979
 10
120.6502902231
 20
64.7613991222
 10
120.6669173097
 20
64.6225463624
 10
120.6865727317
 20
64.4826115184
 10
120.7092755697
 20
64.3414891393
 10
120.7350067431
 20
64.1992846761
 10
120.7637090094
 20
64.0563144812
 10
120.7953889832
 20
63.91257685
 10
120.8300400498
 20
63.7680734871
 10
120.8675851236
 20
63.6231258594
 10
120.9080306473
 20
63.4777329776
 10
120.9513701781
 20
63.331895831
 10
120.9975073015
 20
63.1859388534
 10
121.0464482457
 20
63.039861778
 10
121.0981867825
 20
62.8936648717
 10
121.1526078127
 20
62.7476733686
 10
121.2097173083
 20
62.6018877261
 10
121.2695092973
 20
62.4563074868
 10
121.3318507646
 20
62.3112565133
 10
121.3966973717
 20
62.1668427595
 10
121.4640934572
 20
62.0229582714
 10
121.5340390208
 20
61.8796030489
  0
LWPOLYLINE
  5
30A
100
AcDbEntity
  8
ASSI
100
AcDbPolyline
 62
7
  6
CONTINUOUS
 90
22
 70
0
 10
120.5478092748
 20
64.9504892645
 10
120.5615601474
 20
64.8087964963
 10
120.5784530797
 20
64.6659750244
 10
120.5984880718
 20
64.5220248488
 10
120.6216849601
 20
64.3768357738
 10
120.6480239082
 20
64.2305179951
 10
120.6774454065
 20
64.0834020999
 10
120.7099564247
 20
63.9354862836
 10
120.745549993
 20
63.7867723508
 10
120.7841456921
 20
63.6375963026
 10
120.8257503101
 20
63.4879570941
 10
120.8703570588
 20
63.3378557702
 10
120.9178651547
 20
63.1876314665
 10
120.9682811581
 20
63.0372839049
 10
121.0215985087
 20
62.8868133636
 10
121.0776967425
 20
62.7365598125
 10
121.1365821473
 20
62.5865237421
 10
121.1982484353
 20
62.4367046618
 10
121.2625562789
 20
62.2874410696
 10
121.3294592358
 20
62.1388457982
 10
121.3990037484
 20
61.9908060149
 10
121.4711898167
 20
61.8433217198
  0
LINE
  5
30B
100
AcDbEntity
  8
ASSI
100
AcDbLine
 62
7
  6
CONTINUOUS
 10
118.3388159916
 20
199.1929693116
 11
118.3388159916
 21
198.7847341732
  0
LINE
  5
30C
100
AcDbEntity
  8
ASSI
100
AcDbLine
 62
7
  6
CONTINUOUS
 10
120.3727648611
 20
196.5739248198
 11
120.3727648611
 21
196.3839534032
  0
LWPOLYLINE
  5
30D
100
AcDbEntity
  8
ASSI
100
AcDbPolyline
 62
7
  6
CONTINUOUS
 90
86
 70
0
 10
118.088816679
 20
199.1929693117
 10
118.0889800858
 20
199.2192754048
 10
118.0925854015
 20
199.3189432341
 10
118.1009036732
 20
199.4185914614
 10
118.1139163196
 20
199.5179974937
 10
118.1316338349
 20
199.6171607897
 10
118.154045725
 20
199.7160818906
 10
118.1811019265
 20
199.8145398278
 10
118.2128128215
 20
199.9125335659
 10
118.2491680278
 20
200.0100641403
 10
118.2900863358
 20
200.1069136884
 10
118.3355779459
 20
200.2030806878
 10
118.3856326575
 20
200.2985666609
 10
118.4401386591
 20
200.3931583123
 10
118.4991059014
 20
200.4868536427
 10
118.5625244336
 20
200.5796546515
 10
118.6302525922
 20
200.6713540408
 10
118.7023000112
 20
200.761949348
 10
118.7786570567
 20
200.8514430358
 10
118.8591531632
 20
200.9396351943
 10
118.9437975833
 20
201.0265229139
 10
119.0325810645
 20
201.1121091042
 10
119.1253052833
 20
201.1962025837
 10
119.2219790489
 20
201.2788000157
 10
119.3225935521
 20
201.3599047369
 10
119.4269240414
 20
201.4393355767
 10
119.5349788238
 20
201.5170887932
 10
119.6467495923
 20
201.5931681282
 10
119.7619866747
 20
201.6674036368
 10
119.88069782
 20
201.739791197
 10
120.0028752791
 20
201.8103349307
 10
120.1282461338
 20
201.8788772581
 10
120.2568175226
 20
201.9454137053
 10
120.3885823069
 20
202.0099487462
 10
120.523246152
 20
202.0723382233
 10
120.6608155389
 20
202.1325773402
 10
120.8012839866
 20
202.1906708934
 10
120.9443377186
 20
202.2464891141
 10
121.0899825141
 20
202.3000269159
 10
121.2382125938
 20
202.3512893852
 10
121.3886968432
 20
202.4001620125
 10
121.5414403015
 20
202.4466394555
 10
121.6964379294
 20
202.4907270566
 10
121.8533434953
 20
202.5323263334
 10
122.0121612642
 20
202.5714317234
 10
122.172886971
 20
202.608048789
 10
122.3351615887
 20
202.6420957357
 10
122.4989885797
 20
202.6735668179
 10
122.6643644815
 20
202.7024677811
 10
122.8309198795
 20
202.7287340666
 10
122.9986574104
 20
202.7523597848
 10
123.1675744375
 20
202.7733508253
 10
123.337293636
 20
202.7916602986
 10
123.5078167991
 20
202.8072822102
 10
123.6791421336
 20
202.8202225547
 10
123.8508869351
 20
202.830452426
 10
124.0230521413
 20
202.837965765
 10
124.1956368145
 20
202.8427686308
 10
124.3682554371
 20
202.8448502949
 10
124.5409080852
 20
202.8442046741
 10
124.7135946827
 20
202.8408378516
 10
124.8859294845
 20
202.834757348
 10
125.0579117042
 20
202.8259570973
 10
125.2295421282
 20
202.8144431655
 10
125.4004373705
 20
202.8002412724
 10
125.5705957877
 20
202.7833454092
 10
125.7400190234
 20
202.7637615847
 10
125.9083286218
 20
202.7415335451
 10
126.0755220936
 20
202.7166553792
 10
126.2416019282
 20
202.6891329981
 10
126.4061971386
 20
202.659027881
 10
126.569304406
 20
202.6263342542
 10
126.7309270491
 20
202.5910578914
 10
126.8907040372
 20
202.5532775925
 10
127.0486312446
 20
202.51298776
 10
127.2047127971
 20
202.4701939914
 10
127.3586000416
 20
202.4249918788
 10
127.5102880729
 20
202.3773760385
 10
127.6597817963
 20
202.3273518543
 10
127.8067472744
 20
202.2750310696
 10
127.9511788556
 20
202.2204085504
 10
128.0930821916
 20
202.1634894306
 10
128.2321403005
 20
202.1044008555
 10
128.3682475216
 20
202.0431852069
 10
128.5015095157
 20
201.9798001029
 10
128.6319262826
 20
201.9142455436
  0
LWPOLYLINE
  5
30E
100
AcDbEntity
  8
ASSI
100
AcDbPolyline
 62
7
  6
CONTINUOUS
 90
86
 70
0
 10
118.3388168533
 20
199.1929693117
 10
118.3390290199
 20
199.222343798
 10
118.3426770948
 20
199.3179258294
 10
118.3508381936
 20
199.4134860381
 10
118.3634941409
 20
199.5088116042
 10
118.3806549544
 20
199.6039020048
 10
118.4023106165
 20
199.6987577628
 10
118.4284128982
 20
199.793167627
 10
118.4589717099
 20
199.8871306038
 10
118.4939771412
 20
199.9806476868
 10
118.5333512324
 20
200.0735106064
 10
118.5771037199
 20
200.1657179045
 10
118.6252248674
 20
200.2572710391
 10
118.6776075051
 20
200.3479661143
 10
118.7342611309
 20
200.4378012177
 10
118.795176247
 20
200.5267782616
 10
118.8602171907
 20
200.6146990874
 10
118.9293931575
 20
200.701561341
 10
119.0026949519
 20
200.7873673764
 10
119.0799593252
 20
200.871926097
 10
119.1611951088
 20
200.9552347228
 10
119.2463934714
 20
201.0372960337
 10
119.3353646695
 20
201.1179272728
 10
119.4281171117
 20
201.1971252529
 10
119.5246423895
 20
201.2748931613
 10
119.6247255335
 20
201.3510578028
 10
119.7283744733
 20
201.4256156042
 10
119.8355812794
 20
201.4985701386
 10
119.9461071939
 20
201.5697589307
 10
120.0599596142
 20
201.6391780452
 10
120.1771311429
 20
201.7068314174
 10
120.2973608299
 20
201.7725683779
 10
120.4206554911
 20
201.8363846557
 10
120.5470083107
 20
201.8982845219
 10
120.676137891
 20
201.9581301208
 10
120.8080504209
 20
202.0159168738
 10
120.9427397116
 20
202.0716493594
 10
121.0799057996
 20
202.1252034571
 10
121.2195542052
 20
202.1765743118
 10
121.361679408
 20
202.2257667786
 10
121.5059648845
 20
202.2726713019
 10
121.6524154491
 20
202.3172827827
 10
121.8010262872
 20
202.3596063201
 10
121.951466431
 20
202.3995476563
 10
122.1037399576
 20
202.4371014821
 10
122.2578427898
 20
202.4722731067
 10
122.4134317288
 20
202.5049842002
 10
122.5705100867
 20
202.5352292787
 10
122.7290745514
 20
202.5630138261
 10
122.8887719874
 20
202.5882759641
 10
123.04960492
 20
202.6110100709
 10
123.211570824
 20
202.6312217682
 10
123.3743089888
 20
202.6488660431
 10
123.5378211355
 20
202.6639371734
 10
123.7021055431
 20
202.6764408813
 10
123.8667963374
 20
202.6863493199
 10
124.0318944242
 20
202.6936567053
 10
124.1973988977
 20
202.6983688214
 10
124.3629411666
 20
202.7004751742
 10
124.5285213152
 20
202.6999699559
 10
124.6941392593
 20
202.6968589743
 10
124.8594261548
 20
202.6911491576
 10
125.024381264
 20
202.6828347137
 10
125.1890053247
 20
202.6719214348
 10
125.3529317062
 20
202.6584336257
 10
125.5161588538
 20
202.6423655482
 10
125.6786883224
 20
202.6237229405
 10
125.8401581462
 20
202.6025473209
 10
126.0005659635
 20
202.5788330442
 10
126.1599141361
 20
202.5525857557
 10
126.3178477832
 20
202.5238639102
 10
126.4743637522
 20
202.4926619925
 10
126.6294651958
 20
202.4589855177
 10
126.7828066909
 20
202.422909486
 10
126.9343843152
 20
202.3844285495
 10
127.0842019911
 20
202.343548056
 10
127.231926063
 20
202.3003590496
 10
127.3775518649
 20
202.2548563852
 10
127.5210840629
 20
202.207045208
 10
127.6622029996
 20
202.157031997
 10
127.8009032964
 20
202.1048118446
 10
127.937190332
 20
202.0503896584
 10
128.0707605846
 20
201.993886641
 10
128.2015128802
 20
201.9353431931
 10
128.3295483927
 20
201.874718914
 10
128.4548671222
 20
201.8120138035
  0
LINE
  5
30F
100
AcDbEntity
  8
0
100
AcDbLine
 62
250
  6
CONTINUOUS
 10
104.5971484489
 20
112.8404802797
 11
104.9506676727
 21
113.0445978489
  0
LINE
  5
310
100
AcDbEntity
  8
ASSI
100
AcDbLine
 62
7
  6
CONTINUOUS
 10
156.717770949
 20
140.5414412721
 11
156.8948301094
 21
140.6436730123
  0
LINE
  5
311
100
AcDbEntity
  8
ASSI
100
AcDbLine
 62
7
  6
CONTINUOUS
 10
165.4719071173
 20
145.5959697806
 11
165.6489662777
 21
145.6982015208
  0
LINE
  5
312
100
AcDbEntity
  8
ASSI
100
AcDbLine
 62
7
  6
CONTINUOUS
 10
165.6489662777
 20
145.126672327
 11
165.4719071173
 21
145.0244405869
  0
LINE
  5
313
100
AcDbEntity
  8
ASSI
100
AcDbLine
 62
7
  6
CONTINUOUS
 10
156.8948301094
 20
140.0721438185
 11
156.717770949
 21
139.9699120784
  0
LINE
  5
314
100
AcDbEntity
  8
0
100
AcDbLine
 62
7
  6
CONTINUOUS
 10
144.9375903156
 20
89.5484147303
 11
143.3466000579
 21
90.4670325653
  0
LINE
  5
315
100
AcDbEntity
  8
0
100
AcDbLine
 62
7
  6
CONTINUOUS
 10
104.5971484489
 20
112.8404802797
 11
106.1881387066
 21
111.9218624447
  0
LWPOLYLINE
  5
316
100
AcDbEntity
  8
0
100
AcDbPolyline
 62
7
  6
CONTINUOUS
 90
19
 70
0
 10
104.5971484489
 20
112.8404802797
 10
104.5638656055
 20
112.8605657919
 10
104.5322418672
 20
112.8813863623
 10
104.5022772339
 20
112.9029419908
 10
104.4739210469
 20
112.9252764528
 10
104.447223965
 20
112.9483459728
 10
104.422337964
 20
112.9720192255
 10
104.3992733733
 20
112.9962996539
 10
104.3780198635
 20
113.021183815
 10
104.3586984224
 20
113.0465300529
 10
104.3413200695
 20
113.0723410031
 10
104.3258737852
 20
113.0986140301
 10
104.3124474993
 20
113.1251995722
 10
104.3010527325
 20
113.1520994116
 10
104.291677964
 20
113.1793117659
 10
104.2843765607
 20
113.2066817261
 10
104.2791603477
 20
113.234210191
 10
104.2760174999
 20
113.2618962616
 10
104.2749659082
 20
113.2895823323
  0
LWPOLYLINE
  5
317
100
AcDbEntity
  8
ASSI
100
AcDbPolyline
 62
7
  6
CONTINUOUS
 90
13
 70
0
 10
164.297920097
 20
62.572035169
 10
164.3737645939
 20
62.5052263327
 10
164.4469138073
 20
62.4345980156
 10
164.5173617119
 20
62.3601416793
 10
164.5851143328
 20
62.2818658621
 10
164.6500203252
 20
62.1999454156
 10
164.7120733254
 20
62.1143721923
 10
164.7712796971
 20
62.0251543398
 10
164.8275071858
 20
61.9324911516
 10
164.8807491322
 20
61.836374926
 10
164.9310121956
 20
61.7368133647
 10
164.9781840989
 20
61.6340288673
 10
164.9972792064
 20
61.5880977383
  0
LWPOLYLINE
  5
318
100
AcDbEntity
  8
ASSI
100
AcDbPolyline
 62
7
  6
CONTINUOUS
 90
22
 70
0
 10
128.8980472927
 20
61.149754332
 10
128.8844485414
 20
61.2875250077
 10
128.8678214547
 20
61.4263777675
 10
128.8481660328
 20
61.5663126115
 10
128.8254631947
 20
61.7074349906
 10
128.7997320214
 20
61.8496394538
 10
128.7710297551
 20
61.9926096486
 10
128.7393497813
 20
62.1363472799
 10
128.7046987146
 20
62.2808506427
 10
128.6671536409
 20
62.4257982705
 10
128.6267081172
 20
62.5711911522
 10
128.5833685864
 20
62.7170282989
 10
128.537231463
 20
62.8629852765
 10
128.4882905188
 20
63.0090623519
 10
128.436551982
 20
63.1552592582
 10
128.3821309518
 20
63.3012507613
 10
128.3250214562
 20
63.4470364038
 10
128.2652294672
 20
63.592616643
 10
128.2028879999
 20
63.7376676166
 10
128.1380413927
 20
63.8820813704
 10
128.0706453073
 20
64.0259658585
 10
128.0006997436
 20
64.169321081
  0
LWPOLYLINE
  5
319
100
AcDbEntity
  8
ASSI
100
AcDbPolyline
 62
7
  6
CONTINUOUS
 90
22
 70
0
 10
120.6366914718
 20
146.5461974772
 10
120.6502902231
 20
146.4084268015
 10
120.6669173097
 20
146.2695740417
 10
120.6865727317
 20
146.1296391977
 10
120.7092755697
 20
145.9885168186
 10
120.7350067431
 20
145.8463123554
 10
120.7637090094
 20
145.7033421605
 10
120.7953889832
 20
145.5596045293
 10
120.8300400498
 20
145.4151011664
 10
120.8675851236
 20
145.2701535386
 10
120.9080306473
 20
145.1247606569
 10
120.9513701781
 20
144.9789235103
 10
120.9975073015
 20
144.8329665327
 10
121.0464482457
 20
144.6868894573
 10
121.0981867825
 20
144.540692551
 10
121.1526078127
 20
144.3947010479
 10
121.2097173083
 20
144.2489154054
 10
121.2695092973
 20
144.1033351661
 10
121.3318507646
 20
143.9582841925
 10
121.3966973717
 20
143.8138704388
 10
121.4640934572
 20
143.6699859506
 10
121.5340390208
 20
143.5266307282
  0
LWPOLYLINE
  5
31A
100
AcDbEntity
  8
ASSI
100
AcDbPolyline
 62
7
  6
CONTINUOUS
 90
22
 70
0
 10
120.5478092748
 20
146.5975169437
 10
120.5615601474
 20
146.4558241755
 10
120.5784530797
 20
146.3130027037
 10
120.5984880718
 20
146.1690525281
 10
120.6216849601
 20
146.0238634531
 10
120.6480239082
 20
145.8775456743
 10
120.6774454065
 20
145.7304297792
 10
120.7099564247
 20
145.5825139629
 10
120.745549993
 20
145.4338000301
 10
120.7841456921
 20
145.2846239819
 10
120.8257503101
 20
145.1349847734
 10
120.8703570588
 20
144.9848834495
 10
120.9178651547
 20
144.8346591457
 10
120.9682811581
 20
144.6843115842
 10
121.0215985087
 20
144.5338410429
 10
121.0776967425
 20
144.3835874918
 10
121.1365821473
 20
144.2335514214
 10
121.1982484353
 20
144.0837323411
 10
121.2625562789
 20
143.9344687489
 10
121.3294592358
 20
143.7858734775
 10
121.3990037484
 20
143.6378336942
 10
121.4711898167
 20
143.4903493991
  0
LWPOLYLINE
  5
31B
100
AcDbEntity
  8
ASSI
100
AcDbPolyline
 62
7
  6
CONTINUOUS
 90
22
 70
0
 10
128.9869294896
 20
61.0984348654
 10
128.9731786171
 20
61.2401276336
 10
128.9562856848
 20
61.3829491055
 10
128.9362506927
 20
61.5268992811
 10
128.9130538043
 20
61.6720883561
 10
128.8867148562
 20
61.8184061348
 10
128.857293358
 20
61.96552203
 10
128.8247823398
 20
62.1134378463
 10
128.7891887714
 20
62.2621517791
 10
128.7505930723
 20
62.4113278272
 10
128.7089884544
 20
62.5609670358
 10
128.6643817057
 20
62.7110683597
 10
128.6168736097
 20
62.8612926634
 10
128.5664576064
 20
63.011640225
 10
128.5131402557
 20
63.1621107662
 10
128.4570420219
 20
63.3123643174
 10
128.3981566172
 20
63.4624003878
 10
128.3364903292
 20
63.6122194681
 10
128.2721824855
 20
63.7614830603
 10
128.2052795287
 20
63.9100783317
 10
128.1357350161
 20
64.0581181149
 10
128.0635489478
 20
64.2056024101
  0
LWPOLYLINE
  5
31C
100
AcDbEntity
  8
0
100
AcDbPolyline
 62
7
  6
CONTINUOUS
 90
18
 70
0
 10
126.4113926485
 20
204.9598893701
 10
126.4109819839
 20
204.9799884923
 10
126.4097321225
 20
204.9995232912
 10
126.4076430644
 20
205.0184937666
 10
126.4047047718
 20
205.0369631483
 10
126.4009272825
 20
205.0548682066
 10
126.3963407097
 20
205.0720192522
 10
126.3909309448
 20
205.0883976678
 10
126.3847120964
 20
205.1040220708
 10
126.3777566043
 20
205.1187586238
 10
126.3700843829
 20
205.1325662959
 10
126.3616755177
 20
205.1454861182
 10
126.3525427046
 20
205.1575073467
 10
126.3426683445
 20
205.1686573785
 10
126.3320700365
 20
205.1789088166
 10
126.3208132732
 20
205.1881687268
 10
126.3088768859
 20
205.1964309534
 10
126.3026663929
 20
205.2001875753
  0
LINE
  5
31D
100
AcDbEntity
  8
ASSI
100
AcDbLine
 62
7
  6
CONTINUOUS
 10
124.325427644
 20
149.7988327266
 11
124.325427644
 21
149.6962037123
  0
LINE
  5
31E
100
AcDbEntity
  8
ASSI
100
AcDbLine
 62
7
  6
CONTINUOUS
 10
124.325427644
 20
58.5100913385
 11
124.325427644
 21
58.4074623242
  0
LINE
  5
31F
100
AcDbEntity
  8
ASSI
100
AcDbLine
 62
7
  6
CONTINUOUS
 10
125.2093111205
 20
57.8971190826
 11
125.2093111205
 21
57.9997480969
  0
LINE
  5
320
100
AcDbEntity
  8
ASSI
100
AcDbLine
 62
7
  6
CONTINUOUS
 10
125.2093111205
 20
149.1858604706
 11
125.2093111205
 21
149.2884894849
  0
LINE
  5
321
100
AcDbEntity
  8
ASSI
100
AcDbLine
 62
7
  6
CONTINUOUS
 10
129.1269010294
 20
201.6284533283
 11
129.1269010294
 21
201.4056647952
  0
LWPOLYLINE
  5
322
100
AcDbEntity
  8
0
100
AcDbPolyline
 62
7
  6
CONTINUOUS
 90
25
 70
0
 10
144.9375903156
 20
94.8554715295
 10
144.972377202
 20
94.8362544329
 10
145.0084371645
 20
94.8179952827
 10
145.045770203
 20
94.800694079
 10
145.0844521336
 20
94.784321572
 10
145.1244071402
 20
94.7689070115
 10
145.1654077749
 20
94.7545381464
 10
145.2074600013
 20
94.7412209408
 10
145.2505578558
 20
94.7289494306
 10
145.2944559993
 20
94.7177934727
 10
145.3391589963
 20
94.7077594295
 10
145.3846622823
 20
94.6988409386
 10
145.4307068253
 20
94.6910887693
 10
145.4772957122
 20
94.6845095738
 10
145.524425856
 20
94.6790967
 10
145.5718289634
 20
94.6748809612
 10
145.6195065915
 20
94.6718691852
 10
145.6674571832
 20
94.6700545443
 10
145.7154077749
 20
94.6694473684
 10
145.7633583666
 20
94.6700545443
 10
145.8113089583
 20
94.6718691852
 10
145.8589865863
 20
94.6748809612
 10
145.9063896938
 20
94.6790967
 10
145.9535198376
 20
94.6845095738
 10
145.9805728178
 20
94.6883299451
  0
LINE
  5
323
100
AcDbEntity
  8
0
100
AcDbLine
 62
7
  6
CONTINUOUS
 10
145.9805728178
 20
89.3544448436
 11
144.2128058649
 21
90.3751313269
  0
LINE
  5
324
100
AcDbEntity
  8
0
100
AcDbLine
 62
7
  6
CONTINUOUS
 10
105.3219328996
 20
112.8302339599
 11
103.5541659466
 21
113.8509204432
  0
LINE
  5
325
100
AcDbEntity
  8
0
100
AcDbLine
 62
7
  6
CONTINUOUS
 10
145.9805728178
 20
89.762679982
 11
144.2128058649
 21
90.7833664653
  0
LINE
  5
326
100
AcDbEntity
  8
0
100
AcDbLine
 62
7
  6
CONTINUOUS
 10
105.3219328996
 20
113.2384690983
 11
103.5541659466
 21
114.2591555816
  0
LINE
  5
327
100
AcDbEntity
  8
0
100
AcDbLine
 62
7
  6
CONTINUOUS
 10
144.2128400349
 20
90.7834256458
 11
144.0537068391
 21
90.8753071586
  0
LINE
  5
328
100
AcDbEntity
  8
0
100
AcDbLine
 62
7
  6
CONTINUOUS
 10
105.9722156459
 20
112.8630829004
 11
106.1881387066
 21
112.7384116313
  0
LINE
  5
329
100
AcDbEntity
  8
0
100
AcDbLine
 62
7
  6
CONTINUOUS
 10
145.9805728178
 20
89.8851505235
 11
145.6270194272
 21
90.0892878201
  0
LINE
  5
32A
100
AcDbEntity
  8
0
100
AcDbLine
 62
7
  6
CONTINUOUS
 10
103.5541659466
 20
114.3816261231
 11
103.9077193372
 21
114.1774888265
  0
LINE
  5
32B
100
AcDbEntity
  8
0
100
AcDbLine
 62
7
  6
CONTINUOUS
 10
145.4502427319
 20
90.2730034962
 11
143.3466000579
 21
91.4876204113
  0
LINE
  5
32C
100
AcDbEntity
  8
0
100
AcDbLine
 62
7
  6
CONTINUOUS
 10
104.0844960325
 20
114.1570672058
 11
106.1881387066
 21
112.9424502907
  0
LINE
  5
32D
100
AcDbEntity
  8
0
100
AcDbLine
 62
7
  6
CONTINUOUS
 10
147.8190504489
 20
89.9260292742
 11
147.5715630755
 21
90.0689253819
  0
LINE
  5
32E
100
AcDbEntity
  8
0
100
AcDbLine
 62
7
  6
CONTINUOUS
 10
147.8190504489
 20
90.3342644126
 11
147.7129878484
 21
90.3955036289
  0
LINE
  5
32F
100
AcDbEntity
  8
0
100
AcDbLine
 62
7
  6
CONTINUOUS
 10
149.5161067238
 20
90.946719703
 11
149.4100407066
 21
91.007960892
  0
LINE
  5
330
100
AcDbEntity
  8
0
100
AcDbLine
 62
7
  6
CONTINUOUS
 10
145.4502427319
 20
93.5388846033
 11
143.3466000579
 21
94.7535015185
  0
LINE
  5
331
100
AcDbEntity
  8
0
100
AcDbLine
 62
7
  6
CONTINUOUS
 10
104.0844960325
 20
117.422948313
 11
106.1881387066
 21
116.2083313979
  0
LINE
  5
332
100
AcDbEntity
  8
0
100
AcDbLine
 62
7
  6
CONTINUOUS
 10
149.3039781061
 20
91.3141214639
 11
149.4100407066
 21
91.2528822476
  0
LINE
  5
333
100
AcDbEntity
  8
0
100
AcDbLine
 62
7
  6
CONTINUOUS
 10
145.9805728178
 20
93.314325686
 11
145.6270194272
 21
93.5184629827
  0
LINE
  5
334
100
AcDbEntity
  8
0
100
AcDbLine
 62
7
  6
CONTINUOUS
 10
103.5541659466
 20
117.8108012857
 11
103.9077193372
 21
117.606663989
  0
LINE
  5
335
100
AcDbEntity
  8
0
100
AcDbLine
 62
7
  6
CONTINUOUS
 10
103.5541659466
 20
117.9332718272
 11
105.3219328996
 21
116.9125853439
  0
LINE
  5
336
100
AcDbEntity
  8
0
100
AcDbLine
 62
7
  6
CONTINUOUS
 10
144.2128058649
 20
94.4574827109
 11
145.9805728178
 21
93.4367962275
  0
LINE
  5
337
100
AcDbEntity
  8
0
100
AcDbLine
 62
7
  6
CONTINUOUS
 10
103.5541659466
 20
118.3415069656
 11
105.3219328996
 21
117.3208204823
  0
LINE
  5
338
100
AcDbEntity
  8
0
100
AcDbLine
 62
7
  6
CONTINUOUS
 10
144.2128058649
 20
94.8657178492
 11
145.9805728178
 21
93.8450313659
  0
LINE
  5
339
100
AcDbEntity
  8
0
100
AcDbLine
 62
7
  6
CONTINUOUS
 10
144.2412575465
 20
95.0534866839
 11
144.0537068391
 21
95.1617761118
  0
LINE
  5
33A
100
AcDbEntity
  8
0
100
AcDbLine
 62
7
  6
CONTINUOUS
 10
144.9375903156
 20
94.8554715295
 11
143.3466000579
 21
95.7740893645
  0
LINE
  5
33B
100
AcDbEntity
  8
0
100
AcDbLine
 62
7
  6
CONTINUOUS
 10
104.5971484489
 20
118.1475370788
 11
106.1881387066
 21
117.2289192438
  0
LINE
  5
33C
100
AcDbEntity
  8
0
100
AcDbLine
 62
7
  6
CONTINUOUS
 10
147.5715630755
 20
94.1512767659
 11
147.8190504489
 21
94.0083806582
  0
LINE
  5
33D
100
AcDbEntity
  8
0
100
AcDbLine
 62
7
  6
CONTINUOUS
 10
147.7129878484
 20
94.4778550128
 11
147.8190504489
 21
94.4166157966
  0
LWPOLYLINE
  5
33E
100
AcDbEntity
  8
0
100
AcDbPolyline
 62
7
  6
CONTINUOUS
 90
19
 70
0
 10
104.5971484489
 20
118.1475370788
 10
104.5638656055
 20
118.1676225911
 10
104.5322418672
 20
118.1884431615
 10
104.5022772339
 20
118.20999879
 10
104.4739210469
 20
118.2323332519
 10
104.447223965
 20
118.255402772
 10
104.422337964
 20
118.2790760246
 10
104.3992733733
 20
118.3033564531
 10
104.3780198635
 20
118.3282406141
 10
104.3586984224
 20
118.353586852
 10
104.3413200695
 20
118.3793978022
 10
104.3258737852
 20
118.4056708293
 10
104.3124474993
 20
118.4322563713
 10
104.3010527325
 20
118.4591562107
 10
104.291677964
 20
118.4863685651
 10
104.2843765607
 20
118.5137385252
 10
104.2791603477
 20
118.5412669901
 10
104.2760174999
 20
118.5689530608
 10
104.2749659082
 20
118.5966391315
  0
LWPOLYLINE
  5
33F
100
AcDbEntity
  8
ASSI
100
AcDbPolyline
 62
7
  6
CONTINUOUS
 90
22
 70
0
 10
128.8980472927
 20
142.7967820113
 10
128.8844485414
 20
142.9345526869
 10
128.8678214547
 20
143.0734054468
 10
128.8481660328
 20
143.2133402908
 10
128.8254631947
 20
143.3544626698
 10
128.7997320214
 20
143.4966671331
 10
128.7710297551
 20
143.6396373279
 10
128.7393497813
 20
143.7833749591
 10
128.7046987146
 20
143.927878322
 10
128.6671536409
 20
144.0728259498
 10
128.6267081172
 20
144.2182188315
 10
128.5833685864
 20
144.3640559782
 10
128.537231463
 20
144.5100129558
 10
128.4882905188
 20
144.6560900311
 10
128.436551982
 20
144.8022869375
 10
128.3821309518
 20
144.9482784406
 10
128.3250214562
 20
145.0940640831
 10
128.2652294672
 20
145.2396443223
 10
128.2028879999
 20
145.3846952959
 10
128.1380413927
 20
145.5291090497
 10
128.0706453073
 20
145.6729935378
 10
128.0006997436
 20
145.8163487603
  0
LWPOLYLINE
  5
340
100
AcDbEntity
  8
ASSI
100
AcDbPolyline
 62
7
  6
CONTINUOUS
 90
22
 70
0
 10
128.9869294896
 20
142.7454625447
 10
128.9731786171
 20
142.8871553129
 10
128.9562856848
 20
143.0299767848
 10
128.9362506927
 20
143.1739269604
 10
128.9130538043
 20
143.3191160354
 10
128.8867148562
 20
143.4654338141
 10
128.857293358
 20
143.6125497093
 10
128.8247823398
 20
143.7604655256
 10
128.7891887714
 20
143.9091794583
 10
128.7505930723
 20
144.0583555065
 10
128.7089884544
 20
144.207994715
 10
128.6643817057
 20
144.358096039
 10
128.6168736097
 20
144.5083203427
 10
128.5664576064
 20
144.6586679042
 10
128.5131402557
 20
144.8091384455
 10
128.4570420219
 20
144.9593919967
 10
128.3981566172
 20
145.1094280671
 10
128.3364903292
 20
145.2592471474
 10
128.2721824855
 20
145.4085107395
 10
128.2052795287
 20
145.5571060109
 10
128.1357350161
 20
145.7051457942
 10
128.0635489478
 20
145.8526300894
  0
LINE
  5
341
100
AcDbEntity
  8
ASSI
100
AcDbLine
 62
7
  6
CONTINUOUS
 10
130.4888159916
 20
199.1929693116
 11
130.4888159916
 21
198.7847341732
  0
LWPOLYLINE
  5
342
100
AcDbEntity
  8
ASSI
100
AcDbPolyline
 62
7
  6
CONTINUOUS
 90
86
 70
0
 10
130.7388153043
 20
199.1929693116
 10
130.7386518975
 20
199.1666632185
 10
130.7350465818
 20
199.0669953892
 10
130.7267283101
 20
198.9673471619
 10
130.7137156636
 20
198.8679411295
 10
130.6959981483
 20
198.7687778336
 10
130.6735862582
 20
198.6698567327
 10
130.6465300568
 20
198.5713987955
 10
130.6148191618
 20
198.4734050573
 10
130.5784639554
 20
198.3758744829
 10
130.5375456475
 20
198.2790249349
 10
130.4920540374
 20
198.1828579355
 10
130.4419993258
 20
198.0873719624
 10
130.3874933242
 20
197.992780311
 10
130.3285260819
 20
197.8990849806
 10
130.2651075497
 20
197.8062839718
 10
130.1973793911
 20
197.7145845825
 10
130.125331972
 20
197.6239892753
 10
130.0489749266
 20
197.5344955875
 10
129.9684788201
 20
197.446303429
 10
129.8838343999
 20
197.3594157094
 10
129.7950509188
 20
197.2738295191
 10
129.7023267
 20
197.1897360395
 10
129.6056529344
 20
197.1071386076
 10
129.5050384312
 20
197.0260338864
 10
129.4007079419
 20
196.9466030466
 10
129.2926531595
 20
196.8688498301
 10
129.180882391
 20
196.792770495
 10
129.0656453085
 20
196.7185349865
 10
128.9469341633
 20
196.6461474263
 10
128.8247567041
 20
196.5756036926
 10
128.6993858495
 20
196.5070613652
 10
128.5708144607
 20
196.440524918
 10
128.4390496764
 20
196.3759898771
 10
128.3043858312
 20
196.3136004
 10
128.1668164444
 20
196.2533612831
 10
128.0263479967
 20
196.1952677299
 10
127.8832942647
 20
196.1394495092
 10
127.7376494692
 20
196.0859117074
 10
127.5894193895
 20
196.0346492381
 10
127.4389351401
 20
195.9857766108
 10
127.2861916818
 20
195.9392991677
 10
127.1311940539
 20
195.8952115667
 10
126.974288488
 20
195.8536122899
 10
126.8154707191
 20
195.8145068999
 10
126.6547450123
 20
195.7778898342
 10
126.4924703946
 20
195.7438428876
 10
126.3286434036
 20
195.7123718054
 10
126.1632675018
 20
195.6834708422
 10
125.9967121038
 20
195.6572045567
 10
125.8289745729
 20
195.6335788385
 10
125.6600575458
 20
195.612587798
 10
125.4903383473
 20
195.5942783247
 10
125.3198151842
 20
195.5786564131
 10
125.1484898497
 20
195.5657160686
 10
124.9767450482
 20
195.5554861973
 10
124.804579842
 20
195.5479728583
 10
124.6319951688
 20
195.5431699925
 10
124.4593765461
 20
195.5410883284
 10
124.2867238981
 20
195.5417339492
 10
124.1140373006
 20
195.5451007717
 10
123.9417024988
 20
195.5511812752
 10
123.7697202791
 20
195.559981526
 10
123.5980898551
 20
195.5714954578
 10
123.4271946128
 20
195.5856973509
 10
123.2570361955
 20
195.6025932141
 10
123.0876129599
 20
195.6221770385
 10
122.9193033615
 20
195.6444050782
 10
122.7521098897
 20
195.6692832441
 10
122.586030055
 20
195.6968056252
 10
122.4214348446
 20
195.7269107423
 10
122.2583275773
 20
195.7596043691
 10
122.0967049342
 20
195.7948807319
 10
121.936927946
 20
195.8326610308
 10
121.7790007386
 20
195.8729508633
 10
121.6229191862
 20
195.9157446319
 10
121.4690319416
 20
195.9609467445
 10
121.3173439103
 20
196.0085625848
 10
121.167850187
 20
196.058586769
 10
121.0208847088
 20
196.1109075537
 10
120.8764531277
 20
196.1655300729
 10
120.7345497917
 20
196.2224491927
 10
120.5954916828
 20
196.2815377678
 10
120.4593844616
 20
196.3427534164
 10
120.3261224676
 20
196.4061385204
 10
120.1957057007
 20
196.4716930797
  0
LWPOLYLINE
  5
343
100
AcDbEntity
  8
ASSI
100
AcDbPolyline
 62
7
  6
CONTINUOUS
 90
5
 70
0
 10
130.48881513
 20
199.1929693116
 10
130.4886029634
 20
199.1635948253
 10
130.4849548885
 20
199.0680127939
 10
130.4767937897
 20
198.9724525852
 10
130.4641378424
 20
198.8771270191
  0
LWPOLYLINE
  5
344
100
AcDbEntity
  8
ASSI
100
AcDbPolyline
 62
7
  6
CONTINUOUS
 90
13
 70
0
 10
130.48881513
 20
198.7847341732
 10
130.4886029634
 20
198.7553596869
 10
130.4849548885
 20
198.6597776555
 10
130.4767937897
 20
198.5642174468
 10
130.4641378424
 20
198.4688918807
 10
130.4469770288
 20
198.3738014801
 10
130.4253213668
 20
198.2789457221
 10
130.3992190851
 20
198.1845358579
 10
130.3686602734
 20
198.0905728811
 10
130.3336548421
 20
197.9970557981
 10
130.2942807509
 20
197.9041928785
 10
130.2505282633
 20
197.8119855804
 10
130.20415575
 20
197.7237593185
  0
LINE
  5
345
100
AcDbEntity
  8
0
100
AcDbLine
 62
7
  6
CONTINUOUS
 10
144.2156499335
 20
170.2038705107
 11
144.2128058649
 21
170.1851008834
  0
LINE
  5
346
100
AcDbEntity
  8
0
100
AcDbLine
 62
7
  6
CONTINUOUS
 10
144.2128058649
 20
166.1027494994
 11
144.2298702769
 21
166.2153672633
  0
LINE
  5
347
100
AcDbEntity
  8
ASSI
100
AcDbLine
 62
7
  6
CONTINUOUS
 10
148.5195079107
 20
181.5539548423
 11
148.537225426
 21
181.6531181382
  0
LWPOLYLINE
  5
348
100
AcDbEntity
  8
ASSI
100
AcDbPolyline
 62
7
  6
CONTINUOUS
 90
12
 70
0
 10
148.537225426
 20
181.6531181382
 10
148.5596373161
 20
181.7520392391
 10
148.5866935175
 20
181.8504971763
 10
148.6184044125
 20
181.9484909145
 10
148.6547596189
 20
182.0460214889
 10
148.6956779268
 20
182.1428710369
 10
148.7411695369
 20
182.2390380363
 10
148.7912242485
 20
182.3345240094
 10
148.8457302501
 20
182.4291156608
 10
148.9046974924
 20
182.5228109912
 10
148.9681160246
 20
182.615612
 10
149.0290678243
 20
182.6981366533
  0
LINE
  5
349
100
AcDbEntity
  8
0
100
AcDbLine
 62
7
  6
CONTINUOUS
 10
149.5161067238
 20
95.029071087
 11
149.4100407066
 21
95.090312276
  0
LINE
  5
34A
100
AcDbEntity
  8
0
100
AcDbLine
 62
7
  6
CONTINUOUS
 10
149.4100407066
 20
95.3352336316
 11
149.3039781061
 21
95.3964728478
  0
LWPOLYLINE
  5
34B
100
AcDbEntity
  8
0
100
AcDbPolyline
 62
7
  6
CONTINUOUS
 90
18
 70
0
 10
167.1760985839
 20
85.2018369447
 10
167.1933001827
 20
85.1914307319
 10
167.2095934895
 20
85.1805798722
 10
167.2249785043
 20
85.1692843656
 10
167.2395049691
 20
85.1575039003
 10
167.2531231418
 20
85.145278788
 10
167.2656837968
 20
85.1327299639
 10
167.2771637567
 20
85.119854518
 10
167.2875861989
 20
85.1066553603
 10
167.2968714294
 20
85.0932621566
 10
167.3049938695
 20
85.0797126726
 10
167.311979098
 20
85.0659691424
 10
167.3178241575
 20
85.0520479346
 10
167.3225439765
 20
85.0379201068
 10
167.3261236265
 20
85.0236146013
 10
167.3285153646
 20
85.0092346136
 10
167.3297032764
 20
84.9947648874
 10
167.3298517654
 20
84.9874927832
  0
LWPOLYLINE
  5
34C
100
AcDbEntity
  8
ASSI
100
AcDbPolyline
 62
7
  6
CONTINUOUS
 90
6
 70
0
 10
118.3884823609
 20
198.7453847062
 10
118.3695812252
 20
198.8404365756
 10
118.3551811138
 20
198.9356795882
 10
118.3452920584
 20
199.0311141702
 10
118.3399040272
 20
199.1267398954
 10
118.3388168533
 20
199.1929693117
  0
LWPOLYLINE
  5
34D
100
AcDbEntity
  8
0
100
AcDbPolyline
 62
7
  6
CONTINUOUS
 90
18
 70
0
 10
134.4016992759
 20
200.3463864655
 10
134.4012886113
 20
200.3664855877
 10
134.4000387499
 20
200.3860203866
 10
134.3979496919
 20
200.404990862
 10
134.3950113992
 20
200.4234602437
 10
134.3912339099
 20
200.441365302
 10
134.3866473371
 20
200.4585163476
 10
134.3812375722
 20
200.4748947632
 10
134.3750187239
 20
200.4905191662
 10
134.3680632317
 20
200.5052557192
 10
134.3603910103
 20
200.5190633913
 10
134.3519821452
 20
200.5319832136
 10
134.342849332
 20
200.5440044421
 10
134.3329749719
 20
200.5551544739
 10
134.3223766639
 20
200.565405912
 10
134.3111199006
 20
200.5746658221
 10
134.2991835134
 20
200.5829280488
 10
134.2929730203
 20
200.5866846707
  0
LWPOLYLINE
  5
34E
100
AcDbEntity
  8
ASSI
100
AcDbPolyline
 62
7
  6
CONTINUOUS
 90
3
 70
0
 10
148.5047463643
 20
181.4335979704
 10
148.5064952642
 20
181.4545488099
 10
148.5195079107
 20
181.5539548423
  0
LINE
  5
34F
100
AcDbEntity
  8
0
100
AcDbLine
 62
7
  6
CONTINUOUS
 10
106.1881387066
 20
112.8739902231
 11
105.3219328996
 21
112.8302339599
  0
LINE
  5
350
100
AcDbEntity
  8
0
100
AcDbLine
 62
7
  6
CONTINUOUS
 10
105.6470114367
 20
113.2548903944
 11
105.3219328996
 21
113.2384690983
  0
LWPOLYLINE
  5
351
100
AcDbEntity
  8
0
100
AcDbPolyline
 62
7
  6
CONTINUOUS
 90
18
 70
0
 10
142.3920059033
 20
195.7328835609
 10
142.3915952387
 20
195.7529826831
 10
142.3903453774
 20
195.772517482
 10
142.3882563193
 20
195.7914879574
 10
142.3853180267
 20
195.8099573391
 10
142.3815405373
 20
195.8278623974
 10
142.3769539645
 20
195.845013443
 10
142.3715441996
 20
195.8613918586
 10
142.3653253513
 20
195.8770162616
 10
142.3583698591
 20
195.8917528146
 10
142.3506976377
 20
195.9055604867
 10
142.3422887726
 20
195.918480309
 10
142.3331559594
 20
195.9305015375
 10
142.3232815993
 20
195.9416515693
 10
142.3126832913
 20
195.9519030074
 10
142.301426528
 20
195.9611629175
 10
142.2894901408
 20
195.9694251442
 10
142.2832796477
 20
195.9731817661
  0
LINE
  5
352
100
AcDbEntity
  8
0
100
AcDbLine
 62
7
  6
CONTINUOUS
 10
143.3466000579
 20
170.6035902325
 11
143.3466000579
 21
170.1953550941
  0
LINE
  5
353
100
AcDbEntity
  8
0
100
AcDbLine
 62
7
  6
CONTINUOUS
 10
143.3466000579
 20
95.7740893645
 11
143.3466000579
 21
94.7535015185
  0
LINE
  5
354
100
AcDbEntity
  8
0
100
AcDbLine
 62
7
  6
CONTINUOUS
 10
143.3466000579
 20
20.536353358
 11
143.3466000579
 21
19.515765512
  0
LINE
  5
355
100
AcDbEntity
  8
0
100
AcDbLine
 62
7
  6
CONTINUOUS
 10
143.3466000579
 20
15.6375316973
 11
143.3466000579
 21
16.0457668357
  0
LINE
  5
356
100
AcDbEntity
  8
0
100
AcDbLine
 62
7
  6
CONTINUOUS
 10
143.3466000579
 20
90.4670325653
 11
143.3466000579
 21
91.4876204113
  0
LINE
  5
357
100
AcDbEntity
  8
0
100
AcDbLine
 62
7
  6
CONTINUOUS
 10
143.3466000579
 20
165.7047685718
 11
143.3466000579
 21
166.7253564178
  0
LINE
  5
358
100
AcDbEntity
  8
0
100
AcDbLine
 62
7
  6
CONTINUOUS
 10
144.0537068391
 20
95.3658147711
 11
144.0537068391
 21
95.1617761118
  0
LINE
  5
359
100
AcDbEntity
  8
0
100
AcDbLine
 62
7
  6
CONTINUOUS
 10
144.0537068391
 20
20.1280787647
 11
144.0537068391
 21
19.9240401054
  0
LINE
  5
35A
100
AcDbEntity
  8
0
100
AcDbLine
 62
7
  6
CONTINUOUS
 10
144.0537068391
 20
90.8753071586
 11
144.0537068391
 21
91.079345818
  0
LINE
  5
35B
100
AcDbEntity
  8
0
100
AcDbLine
 62
7
  6
CONTINUOUS
 10
144.0537068391
 20
166.1130431651
 11
144.0537068391
 21
166.3170818244
  0
LINE
  5
35C
100
AcDbEntity
  8
0
100
AcDbLine
 62
7
  6
CONTINUOUS
 10
144.2128058649
 20
170.1851008834
 11
144.2128058649
 21
169.776865745
  0
LINE
  5
35D
100
AcDbEntity
  8
0
100
AcDbLine
 62
7
  6
CONTINUOUS
 10
144.2128058649
 20
94.8657178492
 11
144.2128058649
 21
94.4574827109
  0
LINE
  5
35E
100
AcDbEntity
  8
0
100
AcDbLine
 62
7
  6
CONTINUOUS
 10
144.2128058649
 20
19.5463348151
 11
144.2128058649
 21
19.1380996767
  0
LINE
  5
35F
100
AcDbEntity
  8
0
100
AcDbLine
 62
7
  6
CONTINUOUS
 10
144.2128058649
 20
15.0557482928
 11
144.2128058649
 21
15.4639834311
  0
LINE
  5
360
100
AcDbEntity
  8
0
100
AcDbLine
 62
7
  6
CONTINUOUS
 10
144.2128058649
 20
90.3751313269
 11
144.2128058649
 21
90.7833664653
  0
LINE
  5
361
100
AcDbEntity
  8
0
100
AcDbLine
 62
7
  6
CONTINUOUS
 10
144.2128058649
 20
165.694514361
 11
144.2128058649
 21
166.1027494994
  0
LINE
  5
362
100
AcDbEntity
  8
0
100
AcDbLine
 62
250
  6
CONTINUOUS
 10
144.9375903156
 20
164.7861507368
 11
144.9375903156
 21
94.8554715295
  0
LINE
  5
363
100
AcDbEntity
  8
0
100
AcDbLine
 62
250
  6
CONTINUOUS
 10
144.9375903156
 20
89.5484147303
 11
144.9375903156
 21
19.617735523
  0
LINE
  5
364
100
AcDbEntity
  8
0
100
AcDbLine
 62
7
  6
CONTINUOUS
 10
145.4502427319
 20
168.980738179
 11
145.4502427319
 21
165.5107395026
  0
LINE
  5
365
100
AcDbEntity
  8
0
100
AcDbLine
 62
7
  6
CONTINUOUS
 10
145.4502427319
 20
14.8311499205
 11
145.4502427319
 21
18.3011485969
  0
LINE
  5
366
100
AcDbEntity
  8
0
100
AcDbLine
 62
7
  6
CONTINUOUS
 10
145.4502427319
 20
90.2730034962
 11
145.4502427319
 21
93.5388846033
  0
LINE
  5
367
100
AcDbEntity
  8
0
100
AcDbLine
 62
7
  6
CONTINUOUS
 10
145.6270194272
 20
168.8378460168
 11
145.6270194272
 21
165.4086708543
  0
LINE
  5
368
100
AcDbEntity
  8
0
100
AcDbLine
 62
7
  6
CONTINUOUS
 10
145.6270194272
 20
93.5184629827
 11
145.6270194272
 21
90.0892878201
  0
LINE
  5
369
100
AcDbEntity
  8
0
100
AcDbLine
 62
7
  6
CONTINUOUS
 10
145.6270194272
 20
18.1990799485
 11
145.6270194272
 21
14.769904786
  0
LINE
  5
36A
100
AcDbEntity
  8
0
100
AcDbLine
 62
7
  6
CONTINUOUS
 10
145.9805728178
 20
168.6337087202
 11
145.9805728178
 21
165.2045335576
  0
LINE
  5
36B
100
AcDbEntity
  8
0
100
AcDbLine
 62
7
  6
CONTINUOUS
 10
145.9805728178
 20
93.314325686
 11
145.9805728178
 21
89.8851505235
  0
LINE
  5
36C
100
AcDbEntity
  8
0
100
AcDbLine
 62
7
  6
CONTINUOUS
 10
145.9805728178
 20
17.9949426519
 11
145.9805728178
 21
14.5657674893
  0
LINE
  5
36D
100
AcDbEntity
  8
0
100
AcDbLine
 62
7
  6
CONTINUOUS
 10
145.9805728178
 20
14.0350618094
 11
145.9805728178
 21
14.5657674893
  0
LINE
  5
36E
100
AcDbEntity
  8
0
100
AcDbLine
 62
7
  6
CONTINUOUS
 10
145.9805728178
 20
17.9949426519
 11
145.9805728178
 21
89.8851505235
  0
LINE
  5
36F
100
AcDbEntity
  8
0
100
AcDbLine
 62
7
  6
CONTINUOUS
 10
145.9805728178
 20
93.314325686
 11
145.9805728178
 21
165.2045335576
  0
LINE
  5
370
100
AcDbEntity
  8
0
100
AcDbLine
 62
7
  6
CONTINUOUS
 10
145.9805728178
 20
168.6337087202
 11
145.9805728178
 21
169.1644144001
  0
LINE
  5
371
100
AcDbEntity
  8
0
100
AcDbLine
 62
7
  6
CONTINUOUS
 10
146.3341262084
 20
169.3889239987
 11
146.3341262084
 21
168.9806888603
  0
LINE
  5
372
100
AcDbEntity
  8
0
100
AcDbLine
 62
7
  6
CONTINUOUS
 10
146.3341262084
 20
13.4022776175
 11
146.3341262084
 21
13.8105127558
  0
LINE
  5
373
100
AcDbEntity
  8
0
100
AcDbLine
 62
7
  6
CONTINUOUS
 10
146.3341262084
 20
13.8309245128
 11
146.3341262084
 21
168.9602771034
  0
LINE
  5
374
100
AcDbEntity
  8
0
100
AcDbLine
 62
7
  6
CONTINUOUS
 10
147.5715630755
 20
169.6747576417
 11
147.5715630755
 21
169.2256989895
  0
LINE
  5
375
100
AcDbEntity
  8
0
100
AcDbLine
 62
7
  6
CONTINUOUS
 10
147.5715630755
 20
14.5454050511
 11
147.5715630755
 21
14.9944637033
  0
LINE
  5
376
100
AcDbEntity
  8
0
100
AcDbLine
 62
7
  6
CONTINUOUS
 10
147.5715630755
 20
18.5869329212
 11
147.5715630755
 21
19.0768150873
  0
LINE
  5
377
100
AcDbEntity
  8
0
100
AcDbLine
 62
7
  6
CONTINUOUS
 10
147.5715630755
 20
89.8239645714
 11
147.5715630755
 21
90.3138467375
  0
LINE
  5
378
100
AcDbEntity
  8
0
100
AcDbLine
 62
7
  6
CONTINUOUS
 10
147.5715630755
 20
93.9063159554
 11
147.5715630755
 21
94.3961981214
  0
LINE
  5
379
100
AcDbEntity
  8
0
100
AcDbLine
 62
7
  6
CONTINUOUS
 10
147.5715630755
 20
165.1433476055
 11
147.5715630755
 21
165.6332297716
  0
LINE
  5
37A
100
AcDbEntity
  8
0
100
AcDbLine
 62
7
  6
CONTINUOUS
 10
147.6776290927
 20
24.8125247
 11
147.6776290927
 21
28.0784058072
  0
LINE
  5
37B
100
AcDbEntity
  8
0
100
AcDbLine
 62
7
  6
CONTINUOUS
 10
147.6776290927
 20
156.2642392636
 11
147.6776290927
 21
159.5301203708
  0
LINE
  5
37C
100
AcDbEntity
  8
0
100
AcDbLine
 62
7
  6
CONTINUOUS
 10
147.8190504489
 20
169.7359988307
 11
147.8190504489
 21
169.3277636923
  0
LINE
  5
37D
100
AcDbEntity
  8
0
100
AcDbLine
 62
7
  6
CONTINUOUS
 10
147.8190504489
 20
94.4166157966
 11
147.8190504489
 21
94.0083806582
  0
LINE
  5
37E
100
AcDbEntity
  8
0
100
AcDbLine
 62
7
  6
CONTINUOUS
 10
147.8190504489
 20
19.0972327625
 11
147.8190504489
 21
18.6889976241
  0
LINE
  5
37F
100
AcDbEntity
  8
0
100
AcDbLine
 62
7
  6
CONTINUOUS
 10
147.8190504489
 20
14.6066462401
 11
147.8190504489
 21
15.0148813785
  0
LINE
  5
380
100
AcDbEntity
  8
0
100
AcDbLine
 62
7
  6
CONTINUOUS
 10
147.8190504489
 20
89.9260292742
 11
147.8190504489
 21
90.3342644126
  0
LINE
  5
381
100
AcDbEntity
  8
0
100
AcDbLine
 62
7
  6
CONTINUOUS
 10
147.8190504489
 20
165.2454123084
 11
147.8190504489
 21
165.6536474468
  0
LINE
  5
382
100
AcDbEntity
  8
0
100
AcDbLine
 62
7
  6
CONTINUOUS
 10
148.1195708309
 20
160.1935251573
 11
148.1195708309
 21
156.1111737733
  0
LINE
  5
383
100
AcDbEntity
  8
0
100
AcDbLine
 62
7
  6
CONTINUOUS
 10
148.1195708309
 20
28.7009870798
 11
148.1195708309
 21
24.6186356958
  0
LINE
  5
384
100
AcDbEntity
  8
0
100
AcDbLine
 62
7
  6
CONTINUOUS
 10
148.4731242215
 20
159.9893878606
 11
148.4731242215
 21
155.9070364767
  0
LINE
  5
385
100
AcDbEntity
  8
0
100
AcDbLine
 62
7
  6
CONTINUOUS
 10
148.4731242215
 20
28.4968497831
 11
148.4731242215
 21
24.4144983992
  0
LINE
  5
386
100
AcDbEntity
  8
ASSI
100
AcDbLine
 62
7
  6
CONTINUOUS
 10
148.7444075827
 20
181.6371617986
 11
148.7444075827
 21
181.2289266602
  0
LINE
  5
387
100
AcDbEntity
  8
0
100
AcDbLine
 62
7
  6
CONTINUOUS
 10
149.4100407066
 20
170.6546166657
 11
149.4100407066
 21
170.2463815273
  0
LINE
  5
388
100
AcDbEntity
  8
0
100
AcDbLine
 62
7
  6
CONTINUOUS
 10
149.4100407066
 20
95.3352336316
 11
149.4100407066
 21
94.9269984932
  0
LINE
  5
389
100
AcDbEntity
  8
0
100
AcDbLine
 62
7
  6
CONTINUOUS
 10
149.4100407066
 20
20.0158505974
 11
149.4100407066
 21
19.607615459
  0
LINE
  5
38A
100
AcDbEntity
  8
0
100
AcDbLine
 62
7
  6
CONTINUOUS
 10
149.4100407066
 20
15.5252640751
 11
149.4100407066
 21
15.9334992135
  0
LINE
  5
38B
100
AcDbEntity
  8
0
100
AcDbLine
 62
7
  6
CONTINUOUS
 10
149.4100407066
 20
90.8446471092
 11
149.4100407066
 21
91.2528822476
  0
LINE
  5
38C
100
AcDbEntity
  8
0
100
AcDbLine
 62
7
  6
CONTINUOUS
 10
149.4100407066
 20
166.1640301434
 11
149.4100407066
 21
166.5722652818
  0
LINE
  5
38D
100
AcDbEntity
  8
0
100
AcDbLine
 62
7
  6
CONTINUOUS
 10
149.5161067238
 20
170.7975127734
 11
149.5161067238
 21
170.3484541211
  0
LINE
  5
38E
100
AcDbEntity
  8
0
100
AcDbLine
 62
7
  6
CONTINUOUS
 10
149.5161067238
 20
166.7559849033
 11
149.5161067238
 21
166.2661027372
  0
LINE
  5
38F
100
AcDbEntity
  8
0
100
AcDbLine
 62
7
  6
CONTINUOUS
 10
149.5161067238
 20
95.5189532531
 11
149.5161067238
 21
95.029071087
  0
LINE
  5
390
100
AcDbEntity
  8
0
100
AcDbLine
 62
7
  6
CONTINUOUS
 10
149.5161067238
 20
91.4366018691
 11
149.5161067238
 21
90.946719703
  0
LINE
  5
391
100
AcDbEntity
  8
0
100
AcDbLine
 62
7
  6
CONTINUOUS
 10
149.5161067238
 20
20.1995702189
 11
149.5161067238
 21
19.7096880529
  0
LINE
  5
392
100
AcDbEntity
  8
0
100
AcDbLine
 62
7
  6
CONTINUOUS
 10
149.5161067238
 20
15.6681601827
 11
149.5161067238
 21
16.117218835
  0
LWPOLYLINE
  5
393
100
AcDbEntity
  8
ASSI
100
AcDbPolyline
 62
7
  6
CONTINUOUS
 90
86
 70
0
 10
148.49440827
 20
181.6371617986
 10
148.4945716768
 20
181.6634678917
 10
148.4981769925
 20
181.763135721
 10
148.5064952642
 20
181.8627839483
 10
148.5195079107
 20
181.9621899807
 10
148.537225426
 20
182.0613532766
 10
148.5596373161
 20
182.1602743775
 10
148.5866935175
 20
182.2587323147
 10
148.6184044125
 20
182.3567260529
 10
148.6547596189
 20
182.4542566273
 10
148.6956779268
 20
182.5511061753
 10
148.7411695369
 20
182.6472731747
 10
148.7912242485
 20
182.7427591478
 10
148.8457302501
 20
182.8373507992
 10
148.9046974924
 20
182.9310461296
 10
148.9681160246
 20
183.0238471384
 10
149.0358441832
 20
183.1155465277
 10
149.1078916023
 20
183.2061418349
 10
149.1842486477
 20
183.2956355227
 10
149.2647447542
 20
183.3838276812
 10
149.3493891744
 20
183.4707154008
 10
149.4381726555
 20
183.5563015911
 10
149.5308968743
 20
183.6403950706
 10
149.6275706399
 20
183.7229925026
 10
149.7281851431
 20
183.8040972238
 10
149.8325156324
 20
183.8835280636
 10
149.9405704148
 20
183.9612812801
 10
150.0523411833
 20
184.0373606152
 10
150.1675782658
 20
184.1115961237
 10
150.286289411
 20
184.1839836839
 10
150.4084668702
 20
184.2545274176
 10
150.5338377248
 20
184.323069745
 10
150.6624091136
 20
184.3896061922
 10
150.7941738979
 20
184.4541412331
 10
150.9288377431
 20
184.5165307102
 10
151.0664071299
 20
184.5767698271
 10
151.2068755776
 20
184.6348633803
 10
151.3499293096
 20
184.690681601
 10
151.4955741051
 20
184.7442194028
 10
151.6438041848
 20
184.7954818721
 10
151.7942884342
 20
184.8443544994
 10
151.9470318925
 20
184.8908319425
 10
152.1020295204
 20
184.9349195435
 10
152.2589350863
 20
184.9765188203
 10
152.4177528552
 20
185.0156242103
 10
152.578478562
 20
185.052241276
 10
152.7407531797
 20
185.0862882226
 10
152.9045801707
 20
185.1177593048
 10
153.0699560725
 20
185.146660268
 10
153.2365114705
 20
185.1729265535
 10
153.4042490014
 20
185.1965522717
 10
153.5731660285
 20
185.2175433122
 10
153.742885227
 20
185.2358527855
 10
153.9134083901
 20
185.2514746971
 10
154.0847337246
 20
185.2644150416
 10
154.2564785261
 20
185.2746449129
 10
154.4286437323
 20
185.2821582519
 10
154.6012284055
 20
185.2869611177
 10
154.7738470282
 20
185.2890427818
 10
154.9464996762
 20
185.288397161
 10
155.1191862737
 20
185.2850303385
 10
155.2915210755
 20
185.278949835
 10
155.4635032952
 20
185.2701495842
 10
155.6351337192
 20
185.2586356524
 10
155.8060289615
 20
185.2444337593
 10
155.9761873788
 20
185.2275378961
 10
156.1456106144
 20
185.2079540717
 10
156.3139202128
 20
185.185726032
 10
156.4811136846
 20
185.1608478661
 10
156.6471935193
 20
185.133325485
 10
156.8117887297
 20
185.1032203679
 10
156.974895997
 20
185.0705267411
 10
157.1365186401
 20
185.0352503783
 10
157.2962956283
 20
184.9974700794
 10
157.4542228357
 20
184.9571802469
 10
157.6103043881
 20
184.9143864783
 10
157.7641916327
 20
184.8691843657
 10
157.915879664
 20
184.8215685254
 10
158.0653733873
 20
184.7715443412
 10
158.2123388655
 20
184.7192235565
 10
158.3567704466
 20
184.6646010373
 10
158.4986737826
 20
184.6076819175
 10
158.6377318915
 20
184.5485933424
 10
158.7738391127
 20
184.4873776938
 10
158.9071011067
 20
184.4239925898
 10
159.0375178736
 20
184.3584380305
  0
LWPOLYLINE
  5
394
100
AcDbEntity
  8
ASSI
100
AcDbPolyline
 62
7
  6
CONTINUOUS
 90
86
 70
0
 10
148.7444084443
 20
181.6371617986
 10
148.7446206109
 20
181.6665362849
 10
148.7482686858
 20
181.7621183163
 10
148.7564297846
 20
181.857678525
 10
148.7690857319
 20
181.9530040911
 10
148.7862465455
 20
182.0480944917
 10
148.8079022075
 20
182.1429502497
 10
148.8340044892
 20
182.2373601139
 10
148.8645633009
 20
182.3313230907
 10
148.8995687322
 20
182.4248401737
 10
148.9389428234
 20
182.5177030933
 10
148.982695311
 20
182.6099103914
 10
149.0308164584
 20
182.701463526
 10
149.0831990961
 20
182.7921586012
 10
149.1398527219
 20
182.8819937046
 10
149.200767838
 20
182.9709707486
 10
149.2658087818
 20
183.0588915744
 10
149.3349847485
 20
183.1457538279
 10
149.4082865429
 20
183.2315598634
 10
149.4855509162
 20
183.3161185839
 10
149.5667866999
 20
183.3994272097
 10
149.6519850624
 20
183.4814885206
 10
149.7409562605
 20
183.5621197597
 10
149.8337087027
 20
183.6413177399
 10
149.9302339805
 20
183.7190856482
 10
150.0303171245
 20
183.7952502897
 10
150.1339660643
 20
183.8698080911
 10
150.2411728704
 20
183.9427626255
 10
150.3516987849
 20
184.0139514176
 10
150.4655512052
 20
184.0833705321
 10
150.5827227339
 20
184.1510239043
 10
150.7029524209
 20
184.2167608648
 10
150.8262470821
 20
184.2805771426
 10
150.9525999017
 20
184.3424770089
 10
151.0817294821
 20
184.4023226077
 10
151.2136420119
 20
184.4601093607
 10
151.3483313026
 20
184.5158418463
 10
151.4854973907
 20
184.569395944
 10
151.6251457962
 20
184.6207667987
 10
151.7672709991
 20
184.6699592655
 10
151.9115564755
 20
184.7168637888
 10
152.0580070401
 20
184.7614752696
 10
152.2066178782
 20
184.803798807
 10
152.3570580221
 20
184.8437401433
 10
152.5093315486
 20
184.881293969
 10
152.6634343809
 20
184.9164655936
 10
152.8190233199
 20
184.9491766871
 10
152.9761016777
 20
184.9794217656
 10
153.1346661424
 20
185.0072063131
 10
153.2943635784
 20
185.032468451
 10
153.455196511
 20
185.0552025578
 10
153.617162415
 20
185.0754142551
 10
153.7799005798
 20
185.09305853
 10
153.9434127266
 20
185.1081296603
 10
154.1076971342
 20
185.1206333682
 10
154.2723879285
 20
185.1305418068
 10
154.4374860152
 20
185.1378491922
 10
154.6029904887
 20
185.1425613083
 10
154.7685327576
 20
185.1446676611
 10
154.9341129063
 20
185.1441624428
 10
155.0997308503
 20
185.1410514612
 10
155.2650177458
 20
185.1353416445
 10
155.429972855
 20
185.1270272006
 10
155.5945969157
 20
185.1161139218
 10
155.7585232973
 20
185.1026261126
 10
155.9217504449
 20
185.0865580351
 10
156.0842799134
 20
185.0679154274
 10
156.2457497372
 20
185.0467398078
 10
156.4061575545
 20
185.0230255311
 10
156.5655057271
 20
184.9967782426
 10
156.7234393742
 20
184.9680563971
 10
156.8799553432
 20
184.9368544794
 10
157.0350567868
 20
184.9031780046
 10
157.1883982819
 20
184.8671019729
 10
157.3399759062
 20
184.8286210364
 10
157.4897935821
 20
184.7877405429
 10
157.6375176541
 20
184.7445515365
 10
157.783143456
 20
184.6990488721
 10
157.9266756539
 20
184.6512376949
 10
158.0677945906
 20
184.6012244839
 10
158.2064948875
 20
184.5490043315
 10
158.3427819231
 20
184.4945821454
 10
158.4763521756
 20
184.4380791279
 10
158.6071044712
 20
184.37953568
 10
158.7351399837
 20
184.3189114009
 10
158.8604587132
 20
184.2562062904
  0
LINE
  5
395
100
AcDbEntity
  8
0
100
AcDbLine
 62
7
  6
CONTINUOUS
 10
144.2696872384
 20
95.2411103955
 11
144.2128058649
 21
94.8657178492
  0
LINE
  5
396
100
AcDbEntity
  8
0
100
AcDbLine
 62
7
  6
CONTINUOUS
 10
144.2128058649
 20
90.7833664653
 11
144.2412465516
 21
90.9710627384
  0
LINE
  5
397
100
AcDbEntity
  8
ASSI
100
AcDbLine
 62
7
  6
CONTINUOUS
 10
160.8697294334
 20
181.321319506
 11
160.8525686199
 21
181.2262291054
  0
LWPOLYLINE
  5
398
100
AcDbEntity
  8
ASSI
100
AcDbPolyline
 62
7
  6
CONTINUOUS
 90
81
 70
0
 10
160.8525686199
 20
181.2262291054
 10
160.8309129578
 20
181.1313733474
 10
160.8048106761
 20
181.0369634832
 10
160.7742518644
 20
180.9430005064
 10
160.7392464331
 20
180.8494834234
 10
160.6998723419
 20
180.7566205038
 10
160.6561198544
 20
180.6644132057
 10
160.607998707
 20
180.5728600711
 10
160.5556160692
 20
180.4821649959
 10
160.4989624434
 20
180.3923298925
 10
160.4380473273
 20
180.3033528485
 10
160.3730063836
 20
180.2154320228
 10
160.3038304168
 20
180.1285697692
 10
160.2305286224
 20
180.0427637338
 10
160.1532642491
 20
179.9582050132
 10
160.0720284655
 20
179.8748963874
 10
159.9868301029
 20
179.7928350765
 10
159.8978589048
 20
179.7122038374
 10
159.8051064626
 20
179.6330058573
 10
159.7085811848
 20
179.5552379489
 10
159.6084980408
 20
179.4790733074
 10
159.504849101
 20
179.404515506
 10
159.3976422949
 20
179.3315609716
 10
159.2871163804
 20
179.2603721795
 10
159.1732639601
 20
179.190953065
 10
159.0560924314
 20
179.1232996928
 10
158.9358627444
 20
179.0575627323
 10
158.8125680832
 20
178.9937464545
 10
158.6862152636
 20
178.9318465882
 10
158.5570856833
 20
178.8720009894
 10
158.4251731534
 20
178.8142142364
 10
158.2904838627
 20
178.7584817508
 10
158.1533177747
 20
178.7049276531
 10
158.0136693691
 20
178.6535567984
 10
157.8715441663
 20
178.6043643316
 10
157.7272586898
 20
178.5574598083
 10
157.5808081252
 20
178.5128483275
 10
157.4321972871
 20
178.4705247901
 10
157.2817571433
 20
178.4305834538
 10
157.1294836167
 20
178.3930296281
 10
156.9753807845
 20
178.3578580035
 10
156.8197918455
 20
178.32514691
 10
156.6627134876
 20
178.2949018315
 10
156.5041490229
 20
178.2671172841
 10
156.3444515869
 20
178.2418551461
 10
156.1836186543
 20
178.2191210393
 10
156.0216527503
 20
178.198909342
 10
155.8589145855
 20
178.1812650671
 10
155.6954024388
 20
178.1661939368
 10
155.5311180312
 20
178.1536902289
 10
155.3664272369
 20
178.1437817903
 10
155.2013291501
 20
178.1364744049
 10
155.0358246766
 20
178.1317622888
 10
154.8702824077
 20
178.129655936
 10
154.7047022591
 20
178.1301611543
 10
154.539084315
 20
178.1332721359
 10
154.3737974195
 20
178.1389819526
 10
154.2088423103
 20
178.1472963965
 10
154.0442182496
 20
178.1582096754
 10
153.8802918681
 20
178.1716974845
 10
153.7170647205
 20
178.187765562
 10
153.5545352519
 20
178.2064081697
 10
153.3930654282
 20
178.2275837893
 10
153.2326576108
 20
178.251298066
 10
153.0733094382
 20
178.2775453545
 10
152.9153757911
 20
178.3062672
 10
152.7588598221
 20
178.3374691177
 10
152.6037583785
 20
178.3711455925
 10
152.4504168834
 20
178.4072216242
 10
152.2988392591
 20
178.4457025607
 10
152.1490215832
 20
178.4865830542
 10
152.0012975113
 20
178.5297720606
 10
151.8556717094
 20
178.575274725
 10
151.7121395114
 20
178.6230859022
 10
151.5710205747
 20
178.6730991132
 10
151.4323202779
 20
178.7253192656
 10
151.2960332423
 20
178.7797414517
 10
151.1624629897
 20
178.8362444692
 10
151.0317106941
 20
178.8947879171
 10
150.9036751816
 20
178.9554121962
 10
150.7783564521
 20
179.0181173067
  0
LINE
  5
399
100
AcDbEntity
  8
0
100
AcDbLine
 62
7
  6
CONTINUOUS
 10
105.3219328996
 20
116.9125853439
 11
106.1881387066
 21
116.9563416071
  0
LINE
  5
39A
100
AcDbEntity
  8
0
100
AcDbLine
 62
7
  6
CONTINUOUS
 10
105.3219328996
 20
117.3208204823
 11
105.9720899737
 21
117.3536630744
  0
LWPOLYLINE
  5
39B
100
AcDbEntity
  8
0
100
AcDbPolyline
 62
7
  6
CONTINUOUS
 90
18
 70
0
 10
167.1760985839
 20
104.225594394
 10
167.1933001827
 20
104.2151881812
 10
167.2095934895
 20
104.2043373215
 10
167.2249785043
 20
104.1930418149
 10
167.2395049691
 20
104.1812613495
 10
167.2531231418
 20
104.1690362372
 10
167.2656837968
 20
104.1564874132
 10
167.2771637567
 20
104.1436119673
 10
167.2875861989
 20
104.1304128096
 10
167.2968714294
 20
104.1170196059
 10
167.3049938695
 20
104.1034701218
 10
167.311979098
 20
104.0897265917
 10
167.3178241575
 20
104.0758053839
 10
167.3225439765
 20
104.0616775561
 10
167.3261236265
 20
104.0473720506
 10
167.3285153646
 20
104.0329920629
 10
167.3297032764
 20
104.0185223367
 10
167.3298517654
 20
104.0112502325
  0
LWPOLYLINE
  5
39C
100
AcDbEntity
  8
ASSI
100
AcDbPolyline
 62
7
  6
CONTINUOUS
 90
22
 70
0
 10
127.3756997436
 20
146.8988805139
 10
127.2865226414
 20
147.0311338331
 10
127.1956123045
 20
147.1614441113
 10
127.1029687331
 20
147.2898113483
 10
127.0085206043
 20
147.4163279208
 10
126.9123392409
 20
147.5409014523
 10
126.8146386111
 20
147.6632548124
 10
126.7154153323
 20
147.7833830584
 10
126.6146727871
 20
147.901291133
 10
126.5126350904
 20
148.0167167343
 10
126.4092993588
 20
148.1296543355
 10
126.3046684758
 20
148.2401094634
 10
126.1989752065
 20
148.3478363959
 10
126.0922171857
 20
148.4528290593
 10
125.9843967786
 20
148.5550935274
 10
125.8757538458
 20
148.6544022994
 10
125.7662865563
 20
148.7507487951
 10
125.6559967411
 20
148.8441395947
 10
125.5451297545
 20
148.934366938
 10
125.4337673813
 20
149.0213615718
 10
125.3218278366
 20
149.1051927493
 10
125.2093111205
 20
149.1858604706
  0
LWPOLYLINE
  5
39D
100
AcDbEntity
  8
ASSI
100
AcDbPolyline
 62
7
  6
CONTINUOUS
 90
22
 70
0
 10
127.4385489478
 20
146.935161843
 10
127.3469162091
 20
147.0714200445
 10
127.2534814825
 20
147.2056685837
 10
127.1582447681
 20
147.3379074605
 10
127.0611315703
 20
147.4682333133
 10
126.9622163847
 20
147.5965495037
 10
126.8617226981
 20
147.722566117
 10
126.7596469414
 20
147.8462779535
 10
126.6559926837
 20
147.9676902129
 10
126.5509941192
 20
148.0865285789
 10
126.4446482083
 20
148.2027872317
 10
126.3369579906
 20
148.3164719911
 10
126.2281667791
 20
148.4273260002
 10
126.1182720843
 20
148.5353428585
 10
126.0072763956
 20
148.6405289665
 10
125.8954304943
 20
148.742646669
 10
125.782732458
 20
148.8416890281
 10
125.6691842091
 20
148.9376629817
 10
125.555042296
 20
149.0303516883
 10
125.440392235
 20
149.1196828675
 10
125.3251485098
 20
149.2057287997
 10
125.2093111205
 20
149.2884894849
  0
LINE
  5
39E
100
AcDbEntity
  8
ASSI
100
AcDbLine
 62
7
  6
CONTINUOUS
 10
121.4711898167
 20
149.65897563
 11
121.5340390208
 21
149.5501176153
  0
LINE
  5
39F
100
AcDbEntity
  8
ASSI
100
AcDbLine
 62
7
  6
CONTINUOUS
 10
128.0635489478
 20
139.6840038584
 11
128.0006997436
 21
139.7928618732
  0
LINE
  5
3A0
100
AcDbEntity
  8
ASSI
100
AcDbLine
 62
7
  6
CONTINUOUS
 10
122.1590390208
 20
149.9109150351
 11
122.0961898167
 21
150.0197730498
  0
LINE
  5
3A1
100
AcDbEntity
  8
ASSI
100
AcDbLine
 62
7
  6
CONTINUOUS
 10
130.6859885975
 20
199.255724221
 11
130.7059300275
 21
199.1566269653
  0
LWPOLYLINE
  5
3A2
100
AcDbEntity
  8
ASSI
100
AcDbPolyline
 62
7
  6
CONTINUOUS
 90
3
 70
0
 10
130.7059300275
 20
199.1566269653
 10
130.721171527
 20
199.0573265871
 10
130.72847721
 20
198.9882980014
  0
LWPOLYLINE
  5
3A3
100
AcDbEntity
  8
ASSI
100
AcDbPolyline
 62
7
  6
CONTINUOUS
 90
7
 70
0
 10
156.7898251488
 20
26.0221494966
 10
156.7879358504
 20
26.0515600461
 10
156.7847998398
 20
26.0800437862
 10
156.780404384
 20
26.1076609514
 10
156.774762216
 20
26.1343513072
 10
156.7679115357
 20
26.1599341493
 10
156.766427364
 20
26.1644355335
  0
LWPOLYLINE
  5
3A4
100
AcDbEntity
  8
ASSI
100
AcDbPolyline
 62
7
  6
CONTINUOUS
 90
18
 70
0
 10
156.048005615
 20
25.1344354916
 10
156.0486482013
 20
25.1040981325
 10
156.0505374998
 20
25.074687583
 10
156.0536735104
 20
25.0462038429
 10
156.0580689662
 20
25.0185866777
 10
156.0637111342
 20
24.9918963219
 10
156.0705618145
 20
24.9663134798
 10
156.0786292078
 20
24.9418456666
 10
156.0879051136
 20
24.918485367
 10
156.0983267302
 20
24.8963907394
 10
156.1099018322
 20
24.8755703724
 10
156.1226226451
 20
24.8560156774
 10
156.1364030439
 20
24.8378590473
 10
156.1512502188
 20
24.8211099691
 10
156.1671569797
 20
24.8057589558
 10
156.1840156316
 20
24.7919099399
 10
156.2018326338
 20
24.7795731134
 10
156.2110870101
 20
24.7739743486
  0
LINE
  5
3A5
100
AcDbEntity
  8
ASSI
100
AcDbLine
 62
7
  6
CONTINUOUS
 10
156.7904677352
 20
25.9918121375
 11
156.7898251488
 21
26.0221494966
  0
LWPOLYLINE
  5
3A6
100
AcDbEntity
  8
ASSI
100
AcDbPolyline
 62
7
  6
CONTINUOUS
 90
8
 70
0
 10
156.8081454047
 20
25.9816052727
 10
156.8075028184
 20
26.0119426317
 10
156.8056135199
 20
26.0413531813
 10
156.8024775094
 20
26.0698369213
 10
156.7980820535
 20
26.0974540866
 10
156.7924398856
 20
26.1241444424
 10
156.7855892052
 20
26.1497272845
 10
156.7798207201
 20
26.1672226775
  0
LWPOLYLINE
  5
3A7
100
AcDbEntity
  8
ASSI
100
AcDbPolyline
 62
7
  6
CONTINUOUS
 90
18
 70
0
 10
157.1616987953
 20
25.7774679761
 10
157.161056209
 20
25.8078053351
 10
157.1591669105
 20
25.8372158846
 10
157.1560309
 20
25.8656996247
 10
157.1516354441
 20
25.8933167899
 10
157.1459932762
 20
25.9200071457
 10
157.1391425958
 20
25.9455899878
 10
157.1310752025
 20
25.9700578011
 10
157.1217992967
 20
25.9934181006
 10
157.1113776801
 20
26.0155127282
 10
157.0998025781
 20
26.0363330952
 10
157.0870817653
 20
26.0558877902
 10
157.0733013664
 20
26.0740444203
 10
157.0584541915
 20
26.0907934985
 10
157.0425474306
 20
26.1061445118
 10
157.0256887787
 20
26.1199935277
 10
157.0078717765
 20
26.1323303542
 10
156.9986174002
 20
26.137929119
  0
LWPOLYLINE
  5
3A8
100
AcDbEntity
  8
0
100
AcDbPolyline
 62
7
  6
CONTINUOUS
 90
18
 70
0
 10
150.3823125307
 20
191.1193806563
 10
150.3819018661
 20
191.1394797785
 10
150.3806520048
 20
191.1590145774
 10
150.3785629467
 20
191.1779850528
 10
150.3756246541
 20
191.1964544345
 10
150.3718471647
 20
191.2143594928
 10
150.3672605919
 20
191.2315105384
 10
150.361850827
 20
191.247888954
 10
150.3556319787
 20
191.2635133569
 10
150.3486764865
 20
191.27824991
 10
150.3410042651
 20
191.2920575821
 10
150.3325954
 20
191.3049774044
 10
150.3234625868
 20
191.3169986329
 10
150.3135882267
 20
191.3281486647
 10
150.3029899187
 20
191.3384001028
 10
150.2917331554
 20
191.3476600129
 10
150.2797967682
 20
191.3559222396
 10
150.2735862751
 20
191.3596788615
  0
LINE
  5
3A9
100
AcDbEntity
  8
ASSI
100
AcDbLine
 62
7
  6
CONTINUOUS
 10
150.7783564521
 20
179.0181173067
 11
150.7783564521
 21
178.8281458901
  0
LINE
  5
3AA
100
AcDbEntity
  8
0
100
AcDbLine
 62
250
  6
CONTINUOUS
 10
151.6374270673
 20
172.4509834487
 11
151.6374270673
 21
172.0427483103
  0
LINE
  5
3AB
100
AcDbEntity
  8
0
100
AcDbLine
 62
250
  6
CONTINUOUS
 10
151.6374270673
 20
16.4643370674
 11
151.6374270673
 21
16.8725722058
  0
LINE
  5
3AC
100
AcDbEntity
  8
0
100
AcDbLine
 62
7
  6
CONTINUOUS
 10
151.6551047369
 20
172.0121296885
 11
151.6551047369
 21
163.4596035391
  0
LINE
  5
3AD
100
AcDbEntity
  8
0
100
AcDbLine
 62
7
  6
CONTINUOUS
 10
151.6551047369
 20
25.4353032473
 11
151.6551047369
 21
16.8827770979
  0
LINE
  5
3AE
100
AcDbEntity
  8
0
100
AcDbLine
 62
7
  6
CONTINUOUS
 10
152.0086581274
 20
171.8079923919
 11
152.0086581274
 21
163.2554662425
  0
LINE
  5
3AF
100
AcDbEntity
  8
0
100
AcDbLine
 62
7
  6
CONTINUOUS
 10
152.0086581274
 20
25.2311659506
 11
152.0086581274
 21
16.6786398012
  0
LINE
  5
3B0
100
AcDbEntity
  8
0
100
AcDbLine
 62
7
  6
CONTINUOUS
 10
152.6980872391
 20
173.0633953387
 11
152.6980872391
 21
172.6551602003
  0
LINE
  5
3B1
100
AcDbEntity
  8
ASSI
100
AcDbLine
 62
7
  6
CONTINUOUS
 10
156.7898251488
 20
168.8430311746
 11
156.7904677352
 21
168.8741105763
  0
LWPOLYLINE
  5
3B2
100
AcDbEntity
  8
ASSI
100
AcDbPolyline
 62
7
  6
CONTINUOUS
 90
86
 70
0
 10
156.717770949
 20
140.5414412721
 10
156.7262110763
 20
140.6871564498
 10
156.7379524995
 20
140.8342511484
 10
156.7529952186
 20
140.982725368
 10
156.7713553627
 20
141.1326918001
 10
156.7930168027
 20
141.2840377532
 10
156.8179311516
 20
141.4364251524
 10
156.8461056811
 20
141.5898563261
 10
156.8775331195
 20
141.7443289459
 10
156.9121432645
 20
141.8994979529
 10
156.9499432309
 20
142.0553649039
 10
156.990925904
 20
142.2119282421
 10
157.0349997371
 20
142.3688382382
 10
157.0821716405
 20
142.5260956672
 10
157.1324347039
 20
142.6836997541
 10
157.1856766503
 20
142.841298445
 10
157.241904139
 20
142.9988917276
 10
157.3011105107
 20
143.1564796142
 10
157.3631635109
 20
143.3137100867
 10
157.4280695033
 20
143.4705823463
 10
157.4958221242
 20
143.6270971919
 10
157.5662700288
 20
143.7829050025
 10
157.6394192421
 20
143.9380041977
 10
157.7152637391
 20
144.092396358
 10
157.7936340992
 20
144.245736604
 10
157.8745359689
 20
144.3980225843
 10
157.9579637016
 20
144.5492566504
 10
158.0437309377
 20
144.6991009775
 10
158.1318429068
 20
144.8475524589
 10
158.2222943793
 20
144.9946142012
 10
158.3148833056
 20
145.1399576999
 10
158.409614464
 20
145.2835791137
 10
158.5064830763
 20
145.4254822839
 10
158.6052727586
 20
145.5653502288
 10
158.7059878053
 20
145.7031783987
 10
158.8086239221
 20
145.8389713434
 10
158.9129518415
 20
145.9724257303
 10
159.0189753455
 20
146.1035363315
 10
159.1266906523
 20
146.2323083749
 10
159.2358571486
 20
146.3584542109
 10
159.3464780785
 20
146.481967969
 10
159.458550198
 20
146.6028555198
 10
159.5718231618
 20
146.7208468262
 10
159.6862996543
 20
146.8359354138
 10
159.801976991
 20
146.948127757
 10
159.9185967733
 20
147.0571732419
 10
160.0361611081
 20
147.1630648339
 10
160.1546678886
 20
147.2658095677
 10
160.2738523957
 20
147.3651779333
 10
160.3937161445
 20
147.461162383
 10
160.51425762
 20
147.5537704645
 10
160.635207558
 20
147.6427953111
 10
160.7565668718
 20
147.7282289125
 10
160.8783346482
 20
147.810079279
 10
161.0002388838
 20
147.8881635742
 10
161.1222798837
 20
147.9624733792
 10
161.2444573429
 20
148.0330171129
 10
161.3664983429
 20
148.0996371955
 10
161.4884025785
 20
148.162324856
 10
161.6101703549
 20
148.2210888655
 10
161.7315296687
 20
148.2757979576
 10
161.8524796067
 20
148.3264430678
 10
161.9730210822
 20
148.3730332607
 10
162.092884831
 20
148.4154644636
 10
162.2120693381
 20
148.4537273794
 10
162.3305761186
 20
148.4878313052
 10
162.4481404534
 20
148.5177000601
 10
162.5647602357
 20
148.5433241767
 10
162.6804375724
 20
148.5647131224
 10
162.7949140649
 20
148.5818191188
 10
162.9081870287
 20
148.5946325917
 10
163.0202591482
 20
148.6031631153
 10
163.1308800781
 20
148.6073916344
 10
163.2400465744
 20
148.6073085319
 10
163.3477618812
 20
148.6029234247
 10
163.4537853852
 20
148.5942461084
 10
163.5581133046
 20
148.5812669878
 10
163.6607494213
 20
148.5639956581
 10
163.7614644681
 20
148.5424706995
 10
163.8602541504
 20
148.5166826035
 10
163.9571227627
 20
148.4866408787
 10
164.0518539211
 20
148.4524126321
 10
164.1444428474
 20
148.4139885048
 10
164.2348943198
 20
148.3713778555
 10
164.323006289
 20
148.3246758675
 10
164.3460210783
 20
148.3115786466
  0
LWPOLYLINE
  5
3B3
100
AcDbEntity
  8
ASSI
100
AcDbPolyline
 62
7
  6
CONTINUOUS
 90
81
 70
0
 10
156.8948301094
 20
140.6436730123
 10
156.903188754
 20
140.783548711
 10
156.9147077268
 20
140.9247369983
 10
156.9293870279
 20
141.0672378742
 10
156.9472422582
 20
141.2111591543
 10
156.9682578166
 20
141.356393023
 10
156.9923869
 20
141.5026160333
 10
157.0196364475
 20
141.6498303895
 10
157.04999952
 20
141.7980338873
 10
157.0834084964
 20
141.946896466
 10
157.1198701653
 20
142.0964195944
 10
157.1593777382
 20
142.2466018036
 10
157.2018432287
 20
142.3971086263
 10
157.2472732292
 20
142.547940786
 10
157.2956611472
 20
142.699097559
 10
157.3468992192
 20
142.8502423077
 10
157.4009937974
 20
143.0013750052
 10
157.4579385294
 20
143.1524956784
 10
157.5176065951
 20
143.3032677697
 10
157.580004064
 20
143.4536905022
 10
157.6451248665
 20
143.603764653
 10
157.7128239736
 20
143.7531559952
 10
157.7831071315
 20
143.901863007
 10
157.855968594
 20
144.0498872102
 10
157.9312460928
 20
144.1968989436
 10
158.0089450129
 20
144.3428959504
 10
158.0890599693
 20
144.4878804873
 10
158.17141254
 20
144.6315296626
 10
158.2560077119
 20
144.7738404999
 10
158.342840498
 20
144.9148159755
 10
158.4317175151
 20
145.0541421261
 10
158.522643319
 20
145.1918152758
 10
158.6156133538
 20
145.3278391005
 10
158.7104205681
 20
145.4619106645
 10
158.8070690563
 20
145.594025617
 10
158.9055547239
 20
145.7241883088
 10
159.0056582358
 20
145.8521088576
 10
159.1073831976
 20
145.9777822663
 10
159.2107260037
 20
146.101213532
 10
159.3154565015
 20
146.2221277638
 10
159.4215777839
 20
146.3405193517
 10
159.529086758
 20
146.4563939057
 10
159.6377439932
 20
146.5694933642
 10
159.7475520485
 20
146.6798115421
 10
159.8585083647
 20
146.7873546244
 10
159.9703658337
 20
146.8918831044
 10
160.0831264637
 20
146.9933902634
 10
160.1967882465
 20
147.0918828199
 10
160.3110980483
 20
147.1871414236
 10
160.4260573134
 20
147.2791588668
 10
160.5416645976
 20
147.3679423571
 10
160.6576624346
 20
147.4532941669
 10
160.7740516947
 20
147.5352066477
 10
160.8908315075
 20
147.6136874479
 10
161.0077417953
 20
147.6885617848
 10
161.124782849
 20
147.7598216203
 10
161.2419543777
 20
147.8274749925
 10
161.3589954314
 20
147.891371232
 10
161.4759057192
 20
147.9515019651
 10
161.592685532
 20
148.0078755655
 10
161.7090747921
 20
148.0603664848
 10
161.825072629
 20
148.1089660696
 10
161.9406799133
 20
148.1536829733
 10
162.0556391784
 20
148.194417608
 10
162.1699489802
 20
148.2311610981
 10
162.2836107629
 20
148.2639223192
 10
162.396371393
 20
148.2926283094
 10
162.5082288619
 20
148.3172700307
 10
162.6191851782
 20
148.3378565212
 10
162.7289932335
 20
148.3543419331
 10
162.8376504686
 20
148.3667171262
 10
162.9451594428
 20
148.3749912408
 10
163.0512807252
 20
148.3791458497
 10
163.156011223
 20
148.3791717716
 10
163.2593540291
 20
148.375078188
 10
163.3610789909
 20
148.3668742153
 10
163.4611825027
 20
148.3545506928
 10
163.5596681704
 20
148.3381167814
 10
163.6563166586
 20
148.3176090806
 10
163.7511238729
 20
148.2930185111
 10
163.8440939077
 20
148.2643541523
  0
LWPOLYLINE
  5
3B4
100
AcDbEntity
  8
CURVE
100
AcDbPolyline
 62
250
  6
CONTINUOUS
 90
17
 70
0
 10
147.9251164661
 20
93.1306889199
 10
147.7877720392
 20
93.0358384195
 10
147.6556590189
 20
92.9135016461
 10
147.533809549
 20
92.7683383693
 10
147.4251164661
 20
92.6028565789
 10
147.3375217128
 20
92.429147632
 10
147.2723082611
 20
92.2510610756
 10
147.2319600711
 20
92.0753801713
 10
147.2180096849
 20
91.9059440497
 10
147.2314764237
 20
91.7551330014
 10
147.2713636962
 20
91.6256173515
 10
147.3361522086
 20
91.5223303109
 10
147.4251164661
 20
91.4481932402
 10
147.531756064
 20
91.4086231572
 10
147.6533786375
 20
91.403546925
 10
147.7853516204
 20
91.4331578955
 10
147.9251165279
 20
91.497748402
  0
LINE
  5
3B5
100
AcDbEntity
  8
0
100
AcDbLine
 62
7
  6
CONTINUOUS
 10
143.3466000579
 20
94.7535015185
 11
144.0537068391
 21
95.1617761118
  0
LINE
  5
3B6
100
AcDbEntity
  8
0
100
AcDbLine
 62
7
  6
CONTINUOUS
 10
145.4502427319
 20
93.5388846033
 11
145.6270023439
 21
93.6409433879
  0
LINE
  5
3B7
100
AcDbEntity
  8
0
100
AcDbLine
 62
7
  6
CONTINUOUS
 10
145.7330751944
 20
93.5796982534
 11
145.6270194272
 21
93.5184629827
  0
LINE
  5
3B8
100
AcDbEntity
  8
0
100
AcDbLine
 62
7
  6
CONTINUOUS
 10
147.5715630755
 20
94.3961981214
 11
149.5161067238
 21
95.5189532531
  0
LINE
  5
3B9
100
AcDbEntity
  8
0
100
AcDbLine
 62
7
  6
CONTINUOUS
 10
147.8190504489
 20
94.4166157966
 11
149.4100407066
 21
95.3352336316
  0
LINE
  5
3BA
100
AcDbEntity
  8
0
100
AcDbLine
 62
7
  6
CONTINUOUS
 10
149.5161067238
 20
95.029071087
 11
149.4100407066
 21
94.967829898
  0
LINE
  5
3BB
100
AcDbEntity
  8
0
100
AcDbLine
 62
7
  6
CONTINUOUS
 10
147.7836916932
 20
94.0287963606
 11
147.5715630755
 21
93.9063159554
  0
LINE
  5
3BC
100
AcDbEntity
  8
0
100
AcDbLine
 62
7
  6
CONTINUOUS
 10
147.8190504489
 20
94.0083806582
 11
149.4100407066
 21
94.9269984932
  0
LINE
  5
3BD
100
AcDbEntity
  8
0
100
AcDbLine
 62
7
  6
CONTINUOUS
 10
144.0537068391
 20
90.8753071586
 11
143.3466000579
 21
90.4670325653
  0
LINE
  5
3BE
100
AcDbEntity
  8
0
100
AcDbLine
 62
7
  6
CONTINUOUS
 10
167.3557521089
 20
25.5398595219
 11
166.3056136413
 21
38.7931056805
  0
LWPOLYLINE
  5
3BF
100
AcDbEntity
  8
ASSI
100
AcDbPolyline
 62
7
  6
CONTINUOUS
 90
7
 70
0
 10
163.8608929607
 20
30.1048954299
 10
163.8590036622
 20
30.1343059794
 10
163.8558676517
 20
30.1627897194
 10
163.8514721958
 20
30.1904068847
 10
163.8458300279
 20
30.2170972405
 10
163.8389793476
 20
30.2426800826
 10
163.8374951758
 20
30.2471814668
  0
LWPOLYLINE
  5
3C0
100
AcDbEntity
  8
ASSI
100
AcDbPolyline
 62
7
  6
CONTINUOUS
 90
7
 70
0
 10
156.7898251488
 20
168.9044479353
 10
156.7879358504
 20
168.9338584849
 10
156.7847998398
 20
168.9623422249
 10
156.780404384
 20
168.9899593902
 10
156.774762216
 20
169.016649746
 10
156.7679115357
 20
169.0422325881
 10
156.766427364
 20
169.0467339723
  0
LWPOLYLINE
  5
3C1
100
AcDbEntity
  8
ASSI
100
AcDbPolyline
 62
7
  6
CONTINUOUS
 90
18
 70
0
 10
156.048005615
 20
168.0167339303
 10
156.0486482013
 20
167.9863965713
 10
156.0505374998
 20
167.9569860217
 10
156.0536735104
 20
167.9285022817
 10
156.0580689662
 20
167.9008851164
 10
156.0637111342
 20
167.8741947606
 10
156.0705618145
 20
167.8486119185
 10
156.0786292078
 20
167.8241441053
 10
156.0879051136
 20
167.8007838057
 10
156.0983267302
 20
167.7786891782
 10
156.1099018322
 20
167.7578688111
 10
156.1226226451
 20
167.7383141161
 10
156.1364030439
 20
167.7201574861
 10
156.1512502188
 20
167.7034084078
 10
156.1671569797
 20
167.6880573946
 10
156.1840156316
 20
167.6742083786
 10
156.2018326338
 20
167.6618715521
 10
156.2110870101
 20
167.6562727874
  0
LINE
  5
3C2
100
AcDbEntity
  8
ASSI
100
AcDbLine
 62
7
  6
CONTINUOUS
 10
156.7904677352
 20
168.8741105763
 11
156.7898251488
 21
168.9044479353
  0
LWPOLYLINE
  5
3C3
100
AcDbEntity
  8
ASSI
100
AcDbPolyline
 62
7
  6
CONTINUOUS
 90
8
 70
0
 10
156.8081454047
 20
168.8639037115
 10
156.8075028184
 20
168.8942410705
 10
156.8056135199
 20
168.92365162
 10
156.8024775094
 20
168.9521353601
 10
156.7980820535
 20
168.9797525253
 10
156.7924398856
 20
169.0064428811
 10
156.7855892052
 20
169.0320257232
 10
156.7798207201
 20
169.0495211162
  0
LWPOLYLINE
  5
3C4
100
AcDbEntity
  8
ASSI
100
AcDbPolyline
 62
7
  6
CONTINUOUS
 90
18
 70
0
 10
157.1616987953
 20
168.6597664148
 10
157.161056209
 20
168.6901037738
 10
157.1591669105
 20
168.7195143234
 10
157.1560309
 20
168.7479980634
 10
157.1516354441
 20
168.7756152287
 10
157.1459932762
 20
168.8023055845
 10
157.1391425958
 20
168.8278884266
 10
157.1310752025
 20
168.8523562398
 10
157.1217992967
 20
168.8757165394
 10
157.1113776801
 20
168.8978111669
 10
157.0998025781
 20
168.918631534
 10
157.0870817653
 20
168.938186229
 10
157.0733013664
 20
168.956342859
 10
157.0584541915
 20
168.9730919373
 10
157.0425474306
 20
168.9884429505
 10
157.0256887787
 20
169.0022919665
 10
157.0078717765
 20
169.014628793
 10
156.9986174002
 20
169.0202275577
  0
LWPOLYLINE
  5
3C5
100
AcDbEntity
  8
ASSI
100
AcDbPolyline
 62
7
  6
CONTINUOUS
 90
18
 70
0
 10
163.1190734268
 20
29.2171814248
 10
163.1197160132
 20
29.1868440658
 10
163.1216053117
 20
29.1574335163
 10
163.1247413222
 20
29.1289497762
 10
163.1291367781
 20
29.1013326109
 10
163.134778946
 20
29.0746422552
 10
163.1416296264
 20
29.049059413
 10
163.1496970197
 20
29.0245915998
 10
163.1589729255
 20
29.0012313003
 10
163.1693945421
 20
28.9791366727
 10
163.1809696441
 20
28.9583163057
 10
163.1936904569
 20
28.9387616107
 10
163.2074708558
 20
28.9206049806
 10
163.2223180307
 20
28.9038559024
 10
163.2382247916
 20
28.8885048891
 10
163.2550834435
 20
28.8746558732
 10
163.2729004457
 20
28.8623190467
 10
163.282154822
 20
28.8567202819
  0
LINE
  5
3C6
100
AcDbEntity
  8
ASSI
100
AcDbLine
 62
7
  6
CONTINUOUS
 10
163.8615355471
 20
30.0745580708
 11
163.8608929607
 21
30.1048954299
  0
LWPOLYLINE
  5
3C7
100
AcDbEntity
  8
ASSI
100
AcDbPolyline
 62
7
  6
CONTINUOUS
 90
8
 70
0
 10
163.8792132166
 20
30.064351206
 10
163.8785706302
 20
30.094688565
 10
163.8766813318
 20
30.1240991146
 10
163.8735453212
 20
30.1525828546
 10
163.8691498654
 20
30.1802000199
 10
163.8635076974
 20
30.2068903757
 10
163.8566570171
 20
30.2324732178
 10
163.8508885319
 20
30.2499686108
  0
LWPOLYLINE
  5
3C8
100
AcDbEntity
  8
ASSI
100
AcDbPolyline
 62
7
  6
CONTINUOUS
 90
18
 70
0
 10
164.2327666072
 20
29.8602139093
 10
164.2321240208
 20
29.8905512684
 10
164.2302347224
 20
29.9199618179
 10
164.2270987118
 20
29.9484455579
 10
164.222703256
 20
29.9760627232
 10
164.217061088
 20
30.002753079
 10
164.2102104077
 20
30.0283359211
 10
164.2021430143
 20
30.0528037343
 10
164.1928671086
 20
30.0761640339
 10
164.182445492
 20
30.0982586614
 10
164.17087039
 20
30.1190790285
 10
164.1581495771
 20
30.1386337235
 10
164.1443691783
 20
30.1567903536
 10
164.1295220034
 20
30.1735394318
 10
164.1136152424
 20
30.1888904451
 10
164.0967565905
 20
30.202739461
 10
164.0789395884
 20
30.2150762875
 10
164.069685212
 20
30.2206750523
  0
LWPOLYLINE
  5
3C9
100
AcDbEntity
  8
0
100
AcDbPolyline
 62
7
  6
CONTINUOUS
 90
18
 70
0
 10
158.3726191581
 20
186.5058777517
 10
158.3722084935
 20
186.5259768739
 10
158.3709586322
 20
186.5455116728
 10
158.3688695741
 20
186.5644821482
 10
158.3659312815
 20
186.5829515299
 10
158.3621537921
 20
186.6008565882
 10
158.3575672194
 20
186.6180076338
 10
158.3521574544
 20
186.6343860494
 10
158.3459386061
 20
186.6500104523
 10
158.3389831139
 20
186.6647470054
 10
158.3313108926
 20
186.6785546775
 10
158.3229020274
 20
186.6914744998
 10
158.3137692142
 20
186.7034957283
 10
158.3038948542
 20
186.7146457601
 10
158.2932965461
 20
186.7248971982
 10
158.2820397828
 20
186.7341571083
 10
158.2701033956
 20
186.742419335
 10
158.2638929025
 20
186.7461759569
  0
LINE
  5
3CA
100
AcDbEntity
  8
0
100
AcDbLine
 62
7
  6
CONTINUOUS
 10
157.135182291
 20
163.7660462137
 11
157.135182291
 21
162.1331056601
  0
LINE
  5
3CB
100
AcDbEntity
  8
0
100
AcDbLine
 62
7
  6
CONTINUOUS
 10
157.135182291
 20
32.2735081362
 11
157.135182291
 21
30.6405675826
  0
LINE
  5
3CC
100
AcDbEntity
  8
0
100
AcDbLine
 62
7
  6
CONTINUOUS
 10
157.3119589863
 20
166.3175256924
 11
157.3119589863
 21
165.5010948706
  0
LINE
  5
3CD
100
AcDbEntity
  8
0
100
AcDbLine
 62
7
  6
CONTINUOUS
 10
157.3119589863
 20
29.5179308158
 11
157.3119589863
 21
28.7014999939
  0
LINE
  5
3CE
100
AcDbEntity
  8
0
100
AcDbLine
 62
7
  6
CONTINUOUS
 10
157.3119589863
 20
31.1509108243
 11
157.3119589863
 21
32.3755767846
  0
LINE
  5
3CF
100
AcDbEntity
  8
0
100
AcDbLine
 62
7
  6
CONTINUOUS
 10
157.3119589863
 20
162.6434489018
 11
157.3119589863
 21
163.868114862
  0
LINE
  5
3D0
100
AcDbEntity
  8
0
100
AcDbLine
 62
7
  6
CONTINUOUS
 10
157.6655123769
 20
166.5216629891
 11
157.6655123769
 21
165.2969575739
  0
LINE
  5
3D1
100
AcDbEntity
  8
0
100
AcDbLine
 62
7
  6
CONTINUOUS
 10
157.6655123769
 20
29.7220681124
 11
157.6655123769
 21
28.4973626973
  0
LINE
  5
3D2
100
AcDbEntity
  8
0
100
AcDbLine
 62
7
  6
CONTINUOUS
 10
157.6655123769
 20
30.9467735276
 11
157.6655123769
 21
32.5797140812
  0
LINE
  5
3D3
100
AcDbEntity
  8
0
100
AcDbLine
 62
7
  6
CONTINUOUS
 10
157.6655123769
 20
162.4393116051
 11
157.6655123769
 21
164.0722521587
  0
LINE
  5
3D4
100
AcDbEntity
  8
0
100
AcDbLine
 62
7
  6
CONTINUOUS
 10
159.0266929307
 20
176.717452949
 11
159.0266929307
 21
176.3092178106
  0
LINE
  5
3D5
100
AcDbEntity
  8
ASSI
100
AcDbLine
 62
7
  6
CONTINUOUS
 10
159.5324926204
 20
184.0726458152
 11
159.5324926204
 21
183.8498572821
  0
LINE
  5
3D6
100
AcDbEntity
  8
ASSI
100
AcDbLine
 62
7
  6
CONTINUOUS
 10
160.8944075827
 20
181.6371617986
 11
160.8944075827
 21
181.2289266602
  0
LWPOLYLINE
  5
3D7
100
AcDbEntity
  8
ASSI
100
AcDbPolyline
 62
7
  6
CONTINUOUS
 90
86
 70
0
 10
161.1444068953
 20
181.6371617985
 10
161.1442434885
 20
181.6108557054
 10
161.1406381728
 20
181.5111878761
 10
161.1323199011
 20
181.4115396488
 10
161.1193072547
 20
181.3121336165
 10
161.1015897394
 20
181.2129703205
 10
161.0791778493
 20
181.1140492196
 10
161.0521216478
 20
181.0155912824
 10
161.0204107528
 20
180.9175975443
 10
160.9840555465
 20
180.8200669699
 10
160.9431372385
 20
180.7232174218
 10
160.8976456284
 20
180.6270504224
 10
160.8475909168
 20
180.5315644493
 10
160.7930849152
 20
180.4369727979
 10
160.7341176729
 20
180.3432774675
 10
160.6706991407
 20
180.2504764587
 10
160.6029709821
 20
180.1587770694
 10
160.5309235631
 20
180.0681817622
 10
160.4545665176
 20
179.9786880744
 10
160.3740704111
 20
179.8904959159
 10
160.289425991
 20
179.8036081963
 10
160.2006425098
 20
179.718022006
 10
160.107918291
 20
179.6339285265
 10
160.0112445254
 20
179.5513310945
 10
159.9106300222
 20
179.4702263733
 10
159.8062995329
 20
179.3907955335
 10
159.6982447505
 20
179.313042317
 10
159.586473982
 20
179.2369629819
 10
159.4712368996
 20
179.1627274734
 10
159.3525257543
 20
179.0903399132
 10
159.2303482952
 20
179.0197961795
 10
159.1049774405
 20
178.9512538521
 10
158.9764060517
 20
178.8847174049
 10
158.8446412674
 20
178.820182364
 10
158.7099774223
 20
178.7577928869
 10
158.5724080354
 20
178.69755377
 10
158.4319395877
 20
178.6394602168
 10
158.2888858557
 20
178.5836419961
 10
158.1432410602
 20
178.5301041943
 10
157.9950109805
 20
178.478841725
 10
157.8445267311
 20
178.4299690977
 10
157.6917832728
 20
178.3834916546
 10
157.5367856449
 20
178.3394040536
 10
157.379880079
 20
178.2978047768
 10
157.2210623101
 20
178.2586993868
 10
157.0603366033
 20
178.2220823211
 10
156.8980619856
 20
178.1880353745
 10
156.7342349946
 20
178.1565642923
 10
156.5688590928
 20
178.1276633291
 10
156.4023036948
 20
178.1013970436
 10
156.2345661639
 20
178.0777713254
 10
156.0656491368
 20
178.0567802849
 10
155.8959299383
 20
178.0384708116
 10
155.7254067752
 20
178.0228489
 10
155.5540814407
 20
178.0099085555
 10
155.3823366392
 20
177.9996786842
 10
155.210171433
 20
177.9921653452
 10
155.0375867598
 20
177.9873624794
 10
154.8649681372
 20
177.9852808153
 10
154.6923154891
 20
177.9859264361
 10
154.5196288916
 20
177.9892932586
 10
154.3472940898
 20
177.9953737621
 10
154.1753118701
 20
178.0041740129
 10
154.0036814461
 20
178.0156879447
 10
153.8327862038
 20
178.0298898378
 10
153.6626277866
 20
178.046785701
 10
153.493204551
 20
178.0663695254
 10
153.3248949525
 20
178.0885975651
 10
153.1577014807
 20
178.113475731
 10
152.9916216461
 20
178.1409981121
 10
152.8270264357
 20
178.1711032292
 10
152.6639191683
 20
178.203796856
 10
152.5022965252
 20
178.2390732188
 10
152.3425195371
 20
178.2768535177
 10
152.1845923297
 20
178.3171433502
 10
152.0285107772
 20
178.3599371188
 10
151.8746235327
 20
178.4051392314
 10
151.7229355014
 20
178.4527550717
 10
151.573441778
 20
178.5027792559
 10
151.4264762999
 20
178.5551000406
 10
151.2820447187
 20
178.6097225598
 10
151.1401413827
 20
178.6666416796
 10
151.0010832738
 20
178.7257302547
 10
150.8649760527
 20
178.7869459033
 10
150.7317140586
 20
178.8503310073
 10
150.6012972917
 20
178.9158855666
  0
LWPOLYLINE
  5
3D8
100
AcDbEntity
  8
ASSI
100
AcDbPolyline
 62
7
  6
CONTINUOUS
 90
5
 70
0
 10
160.894406721
 20
181.6371617985
 10
160.8941945544
 20
181.6077873122
 10
160.8905464795
 20
181.5122052808
 10
160.8823853807
 20
181.4166450721
 10
160.8697294334
 20
181.321319506
  0
LWPOLYLINE
  5
3D9
100
AcDbEntity
  8
ASSI
100
AcDbPolyline
 62
7
  6
CONTINUOUS
 90
13
 70
0
 10
160.894406721
 20
181.2289266601
 10
160.8941945544
 20
181.1995521738
 10
160.8905464795
 20
181.1039701424
 10
160.8823853807
 20
181.0084099337
 10
160.8697294334
 20
180.9130843676
 10
160.8525686199
 20
180.817993967
 10
160.8309129578
 20
180.723138209
 10
160.8048106761
 20
180.6287283448
 10
160.7742518644
 20
180.534765368
 10
160.7392464331
 20
180.441248285
 10
160.6998723419
 20
180.3483853654
 10
160.6561198544
 20
180.2561780673
 10
160.6097473411
 20
180.1679518054
  0
LINE
  5
3DA
100
AcDbEntity
  8
ASSI
100
AcDbLine
 62
7
  6
CONTINUOUS
 10
156.7898251488
 20
25.9607327359
 11
156.7904677352
 21
25.9918121375
  0
LINE
  5
3DB
100
AcDbEntity
  8
ASSI
100
AcDbLine
 62
7
  6
CONTINUOUS
 10
163.8608929607
 20
172.9257771079
 11
163.8615355471
 21
172.9568565096
  0
LWPOLYLINE
  5
3DC
100
AcDbEntity
  8
ASSI
100
AcDbPolyline
 62
7
  6
CONTINUOUS
 90
86
 70
0
 10
156.717770949
 20
54.8120622089
 10
156.7262110763
 20
54.9577773866
 10
156.7379524995
 20
55.1048720852
 10
156.7529952186
 20
55.2533463048
 10
156.7713553627
 20
55.4033127369
 10
156.7930168027
 20
55.5546586899
 10
156.8179311516
 20
55.7070460892
 10
156.8461056811
 20
55.8604772628
 10
156.8775331195
 20
56.0149498826
 10
156.9121432645
 20
56.1701188897
 10
156.9499432309
 20
56.3259858407
 10
156.990925904
 20
56.4825491788
 10
157.0349997371
 20
56.6394591749
 10
157.0821716405
 20
56.796716604
 10
157.1324347039
 20
56.9543206909
 10
157.1856766503
 20
57.1119193817
 10
157.241904139
 20
57.2695126644
 10
157.3011105107
 20
57.4271005509
 10
157.3631635109
 20
57.5843310235
 10
157.4280695033
 20
57.741203283
 10
157.4958221242
 20
57.8977181286
 10
157.5662700288
 20
58.0535259393
 10
157.6394192421
 20
58.2086251344
 10
157.7152637391
 20
58.3630172947
 10
157.7936340992
 20
58.5163575408
 10
157.8745359689
 20
58.6686435211
 10
157.9579637016
 20
58.8198775872
 10
158.0437309377
 20
58.9697219142
 10
158.1318429068
 20
59.1181733956
 10
158.2222943793
 20
59.265235138
 10
158.3148833056
 20
59.4105786366
 10
158.409614464
 20
59.5542000505
 10
158.5064830763
 20
59.6961032206
 10
158.6052727586
 20
59.8359711655
 10
158.7059878053
 20
59.9737993355
 10
158.8086239221
 20
60.1095922802
 10
158.9129518415
 20
60.243046667
 10
159.0189753455
 20
60.3741572683
 10
159.1266906523
 20
60.5029293116
 10
159.2358571486
 20
60.6290751477
 10
159.3464780785
 20
60.7525889058
 10
159.458550198
 20
60.8734764565
 10
159.5718231618
 20
60.9914677629
 10
159.6862996543
 20
61.1065563505
 10
159.801976991
 20
61.2187486937
 10
159.9185967733
 20
61.3277941787
 10
160.0361611081
 20
61.4336857707
 10
160.1546678886
 20
61.5364305045
 10
160.2738523957
 20
61.6357988701
 10
160.3937161445
 20
61.7317833198
 10
160.51425762
 20
61.8243914013
 10
160.635207558
 20
61.9134162479
 10
160.7565668718
 20
61.9988498493
 10
160.8783346482
 20
62.0807002158
 10
161.0002388838
 20
62.1587845109
 10
161.1222798837
 20
62.2330943159
 10
161.2444573429
 20
62.3036380496
 10
161.3664983429
 20
62.3702581323
 10
161.4884025785
 20
62.4329457928
 10
161.6101703549
 20
62.4917098023
 10
161.7315296687
 20
62.5464188944
 10
161.8524796067
 20
62.5970640046
 10
161.9730210822
 20
62.6436541975
 10
162.092884831
 20
62.6860854004
 10
162.2120693381
 20
62.7243483161
 10
162.3305761186
 20
62.758452242
 10
162.4481404534
 20
62.7883209969
 10
162.5647602357
 20
62.8139451134
 10
162.6804375724
 20
62.8353340591
 10
162.7949140649
 20
62.8524400556
 10
162.9081870287
 20
62.8652535284
 10
163.0202591482
 20
62.8737840521
 10
163.1308800781
 20
62.8780125711
 10
163.2400465744
 20
62.8779294686
 10
163.3477618812
 20
62.8735443615
 10
163.4537853852
 20
62.8648670452
 10
163.5581133046
 20
62.8518879246
 10
163.6607494213
 20
62.8346165948
 10
163.7614644681
 20
62.8130916363
 10
163.8602541504
 20
62.7873035403
 10
163.9571227627
 20
62.7572618155
 10
164.0518539211
 20
62.7230335688
 10
164.1444428474
 20
62.6846094415
 10
164.2348943198
 20
62.6419987923
 10
164.323006289
 20
62.5952968043
 10
164.3460210783
 20
62.5821995834
  0
LWPOLYLINE
  5
3DD
100
AcDbEntity
  8
ASSI
100
AcDbPolyline
 62
7
  6
CONTINUOUS
 90
81
 70
0
 10
156.8948301094
 20
54.914293949
 10
156.903188754
 20
55.0541696478
 10
156.9147077268
 20
55.195357935
 10
156.9293870279
 20
55.3378588109
 10
156.9472422582
 20
55.4817800911
 10
156.9682578166
 20
55.6270139598
 10
156.9923869
 20
55.77323697
 10
157.0196364475
 20
55.9204513263
 10
157.04999952
 20
56.0686548241
 10
157.0834084964
 20
56.2175174027
 10
157.1198701653
 20
56.3670405311
 10
157.1593777382
 20
56.5172227404
 10
157.2018432287
 20
56.6677295631
 10
157.2472732292
 20
56.8185617227
 10
157.2956611472
 20
56.9697184958
 10
157.3468992192
 20
57.1208632445
 10
157.4009937974
 20
57.271995942
 10
157.4579385294
 20
57.4231166151
 10
157.5176065951
 20
57.5738887064
 10
157.580004064
 20
57.724311439
 10
157.6451248665
 20
57.8743855898
 10
157.7128239736
 20
58.0237769319
 10
157.7831071315
 20
58.1724839438
 10
157.855968594
 20
58.320508147
 10
157.9312460928
 20
58.4675198803
 10
158.0089450129
 20
58.6135168872
 10
158.0890599693
 20
58.7585014241
 10
158.17141254
 20
58.9021505993
 10
158.2560077119
 20
59.0444614366
 10
158.342840498
 20
59.1854369123
 10
158.4317175151
 20
59.3247630629
 10
158.522643319
 20
59.4624362126
 10
158.6156133538
 20
59.5984600372
 10
158.7104205681
 20
59.7325316013
 10
158.8070690563
 20
59.8646465537
 10
158.9055547239
 20
59.9948092455
 10
159.0056582358
 20
60.1227297944
 10
159.1073831976
 20
60.2484032031
 10
159.2107260037
 20
60.3718344688
 10
159.3154565015
 20
60.4927487005
 10
159.4215777839
 20
60.6111402885
 10
159.529086758
 20
60.7270148425
 10
159.6377439932
 20
60.8401143009
 10
159.7475520485
 20
60.9504324788
 10
159.8585083647
 20
61.0579755612
 10
159.9703658337
 20
61.1625040412
 10
160.0831264637
 20
61.2640112001
 10
160.1967882465
 20
61.3625037567
 10
160.3110980483
 20
61.4577623604
 10
160.4260573134
 20
61.5497798036
 10
160.5416645976
 20
61.6385632939
 10
160.6576624346
 20
61.7239151036
 10
160.7740516947
 20
61.8058275844
 10
160.8908315075
 20
61.8843083847
 10
161.0077417953
 20
61.9591827215
 10
161.124782849
 20
62.0304425571
 10
161.2419543777
 20
62.0980959292
 10
161.3589954314
 20
62.1619921687
 10
161.4759057192
 20
62.2221229018
 10
161.592685532
 20
62.2784965022
 10
161.7090747921
 20
62.3309874216
 10
161.825072629
 20
62.3795870064
 10
161.9406799133
 20
62.4243039101
 10
162.0556391784
 20
62.4650385447
 10
162.1699489802
 20
62.5017820349
 10
162.2836107629
 20
62.5345432559
 10
162.396371393
 20
62.5632492461
 10
162.5082288619
 20
62.5878909675
 10
162.6191851782
 20
62.6084774579
 10
162.7289932335
 20
62.6249628698
 10
162.8376504686
 20
62.637338063
 10
162.9451594428
 20
62.6456121775
 10
163.0512807252
 20
62.6497667864
 10
163.156011223
 20
62.6497927084
 10
163.2593540291
 20
62.6456991247
 10
163.3610789909
 20
62.6374951521
 10
163.4611825027
 20
62.6251716296
 10
163.5596681704
 20
62.6087377181
 10
163.6563166586
 20
62.5882300174
 10
163.7511238729
 20
62.5636394479
 10
163.8440939077
 20
62.534975089
  0
LINE
  5
3DE
100
AcDbEntity
  8
0
100
AcDbLine
 62
7
  6
CONTINUOUS
 10
166.3056136413
 20
166.2032923741
 11
167.3557521089
 21
180.6692121125
  0
LINE
  5
3DF
100
AcDbEntity
  8
0
100
AcDbLine
 62
7
  6
CONTINUOUS
 10
144.2810635131
 20
19.9968058706
 11
144.2128058649
 21
19.5463348151
  0
LINE
  5
3E0
100
AcDbEntity
  8
0
100
AcDbLine
 62
7
  6
CONTINUOUS
 10
144.2128058649
 20
15.4639834311
 11
144.2241821396
 21
15.5390619404
  0
LWPOLYLINE
  5
3E1
100
AcDbEntity
  8
ASSI
100
AcDbPolyline
 62
7
  6
CONTINUOUS
 90
22
 70
0
 10
121.5340390208
 20
67.903089936
 10
121.4640934572
 20
67.8405060973
 10
121.3966973717
 20
67.7744489192
 10
121.3318507646
 20
67.704918402
 10
121.2695092973
 20
67.6318577922
 10
121.2097173083
 20
67.5553238431
 10
121.1526078127
 20
67.4754868146
 10
121.0981867825
 20
67.3923393531
 10
121.0464482457
 20
67.3058888122
 10
120.9975073015
 20
67.2163275124
 10
120.9513701781
 20
67.1236485284
 10
120.9080306473
 20
67.0278587856
 10
120.8675851236
 20
66.9291713809
 10
120.8300400498
 20
66.8275798631
 10
120.7953889832
 20
66.7230906835
 10
120.7637090094
 20
66.6159362919
 10
120.7350067431
 20
66.5061107547
 10
120.7092755697
 20
66.3936200055
 10
120.6865727317
 20
66.2787142948
 10
120.6669173097
 20
66.1614770394
 10
120.6502902231
 20
66.0418248224
 10
120.6366914718
 20
65.9197576439
  0
LWPOLYLINE
  5
3E2
100
AcDbEntity
  8
ASSI
100
AcDbPolyline
 62
7
  6
CONTINUOUS
 90
22
 70
0
 10
121.4711898167
 20
68.0119479508
 10
121.3990037484
 20
67.9478223178
 10
121.3294592358
 20
67.8800907945
 10
121.2625562789
 20
67.8087533807
 10
121.1982484353
 20
67.7337508745
 10
121.1365821473
 20
67.6551424778
 10
121.0776967425
 20
67.5731057968
 10
121.0215985087
 20
67.4876330799
 10
120.9682811581
 20
67.3987320787
 10
120.9178651547
 20
67.3066036541
 10
120.8703570588
 20
67.2112405088
 10
120.8257503101
 20
67.1126499401
 10
120.7841456921
 20
67.0110547015
 10
120.745549993
 20
66.9064479992
 10
120.7099564247
 20
66.798836627
 10
120.6774454065
 20
66.6884637197
 10
120.6480239082
 20
66.5753230331
 10
120.6216849601
 20
66.4594208115
 10
120.5984880718
 20
66.3410189217
 10
120.5784530797
 20
66.2202046528
 10
120.5615601474
 20
66.0968907157
 10
120.5478092748
 20
65.9710771104
  0
LWPOLYLINE
  5
3E3
100
AcDbEntity
  8
CURVE
100
AcDbPolyline
 62
250
  6
CONTINUOUS
 90
17
 70
0
 10
147.9251164661
 20
91.4977483663
 10
148.062460893
 20
91.5925988666
 10
148.1945739133
 20
91.71493564
 10
148.3164233832
 20
91.8600989168
 10
148.4251164661
 20
92.0255807072
 10
148.5127112194
 20
92.1992896542
 10
148.5779246711
 20
92.3773762106
 10
148.6182728611
 20
92.5530571148
 10
148.6322232473
 20
92.7224932364
 10
148.6187565085
 20
92.8733042847
 10
148.578869236
 20
93.0028199346
 10
148.5140807236
 20
93.1061069753
 10
148.4251164661
 20
93.180244046
 10
148.3184768682
 20
93.2198141289
 10
148.1968542947
 20
93.2248903612
 10
148.0648813118
 20
93.1952793906
 10
147.9251164043
 20
93.1306888842
  0
LINE
  5
3E4
100
AcDbEntity
  8
0
100
AcDbLine
 62
7
  6
CONTINUOUS
 10
145.4502427319
 20
90.2730034962
 11
145.6270194272
 21
90.3750721445
  0
LINE
  5
3E5
100
AcDbEntity
  8
0
100
AcDbLine
 62
250
  6
CONTINUOUS
 10
144.9375903156
 20
89.5484147303
 11
145.2911095394
 21
89.7525322995
  0
LINE
  5
3E6
100
AcDbEntity
  8
0
100
AcDbLine
 62
7
  6
CONTINUOUS
 10
147.5715630755
 20
90.3138467375
 11
149.5161067238
 21
91.4366018691
  0
LINE
  5
3E7
100
AcDbEntity
  8
0
100
AcDbLine
 62
7
  6
CONTINUOUS
 10
149.4100407066
 20
91.2528822476
 11
147.8190504489
 21
90.3342644126
  0
LINE
  5
3E8
100
AcDbEntity
  8
0
100
AcDbLine
 62
7
  6
CONTINUOUS
 10
149.5161067238
 20
90.946719703
 11
149.4100407066
 21
90.885478514
  0
LINE
  5
3E9
100
AcDbEntity
  8
0
100
AcDbLine
 62
7
  6
CONTINUOUS
 10
147.7836916932
 20
89.9464449766
 11
147.5715630755
 21
89.8239645714
  0
LINE
  5
3EA
100
AcDbEntity
  8
0
100
AcDbLine
 62
7
  6
CONTINUOUS
 10
149.4100407066
 20
90.8446471092
 11
147.8190504489
 21
89.9260292742
  0
LWPOLYLINE
  5
3EB
100
AcDbEntity
  8
ASSI
100
AcDbPolyline
 62
7
  6
CONTINUOUS
 90
12
 70
0
 10
159.2065579436
 20
137.2891069315
 10
159.1049968074
 20
137.2776183042
 10
158.9929246879
 20
137.2690877805
 10
158.882303758
 20
137.2648592615
 10
158.7731372617
 20
137.264942364
 10
158.6654219549
 20
137.2693274711
 10
158.5593984509
 20
137.2780047874
 10
158.4550705315
 20
137.290983908
 10
158.3524344148
 20
137.3082552378
 10
158.251719368
 20
137.3297801963
 10
158.1529296857
 20
137.3555682923
 10
158.0560610734
 20
137.3856100171
  0
LINE
  5
3EC
100
AcDbEntity
  8
ASSI
100
AcDbLine
 62
7
  6
CONTINUOUS
 10
120.5478092748
 20
146.5975169437
 11
120.6366914718
 21
146.5461974772
  0
LINE
  5
3ED
100
AcDbEntity
  8
ASSI
100
AcDbLine
 62
7
  6
CONTINUOUS
 10
128.8980472927
 20
141.7761941653
 11
128.9869294896
 21
141.7248746987
  0
LINE
  5
3EE
100
AcDbEntity
  8
ASSI
100
AcDbLine
 62
7
  6
CONTINUOUS
 10
128.9869294896
 20
142.7454625447
 11
128.8980472927
 21
142.7967820113
  0
LINE
  5
3EF
100
AcDbEntity
  8
ASSI
100
AcDbLine
 62
7
  6
CONTINUOUS
 10
120.6366914718
 20
147.5667853232
 11
120.5478092748
 21
147.6181047897
  0
LWPOLYLINE
  5
3F0
100
AcDbEntity
  8
0
100
AcDbPolyline
 62
7
  6
CONTINUOUS
 90
18
 70
0
 10
167.1760985839
 20
123.2493518432
 10
167.1933001827
 20
123.2389456305
 10
167.2095934895
 20
123.2280947708
 10
167.2249785043
 20
123.2167992641
 10
167.2395049691
 20
123.2050187988
 10
167.2531231418
 20
123.1927936865
 10
167.2656837968
 20
123.1802448625
 10
167.2771637567
 20
123.1673694165
 10
167.2875861989
 20
123.1541702589
 10
167.2968714294
 20
123.1407770552
 10
167.3049938695
 20
123.1272275711
 10
167.311979098
 20
123.113484041
 10
167.3178241575
 20
123.0995628332
 10
167.3225439765
 20
123.0854350054
 10
167.3261236265
 20
123.0711294998
 10
167.3285153646
 20
123.0567495121
 10
167.3297032764
 20
123.0422797859
 10
167.3298517654
 20
123.0350076817
  0
LWPOLYLINE
  5
3F1
100
AcDbEntity
  8
ASSI
100
AcDbPolyline
 62
7
  6
CONTINUOUS
 90
13
 70
0
 10
118.6241918974
 20
197.723347542
 10
118.5951645041
 20
197.7765589884
 10
118.5497057957
 20
197.8685646261
 10
118.5086341097
 20
197.9611820895
 10
118.4719592237
 20
198.0544127421
 10
118.4396713602
 20
198.1482552202
 10
118.4118424267
 20
198.2425005295
 10
118.3884823609
 20
198.3371495678
 10
118.3695812252
 20
198.4322014372
 10
118.3551811138
 20
198.5274444498
 10
118.3452920584
 20
198.6228790318
 10
118.3399040272
 20
198.718504757
 10
118.3388168533
 20
198.7847341733
  0
LWPOLYLINE
  5
3F2
100
AcDbEntity
  8
ASSI
100
AcDbPolyline
 62
7
  6
CONTINUOUS
 90
6
 70
0
 10
148.794073952
 20
181.1895771931
 10
148.7751728163
 20
181.2846290625
 10
148.7607727049
 20
181.3798720751
 10
148.7508836494
 20
181.4753066571
 10
148.7454956182
 20
181.5709323823
 10
148.7444084443
 20
181.6371617986
  0
LWPOLYLINE
  5
3F3
100
AcDbEntity
  8
ASSI
100
AcDbPolyline
 62
7
  6
CONTINUOUS
 90
7
 70
0
 10
163.8608929607
 20
172.9871938686
 10
163.8590036622
 20
173.0166044181
 10
163.8558676517
 20
173.0450881582
 10
163.8514721958
 20
173.0727053235
 10
163.8458300279
 20
173.0993956792
 10
163.8389793476
 20
173.1249785214
 10
163.8374951758
 20
173.1294799056
  0
LWPOLYLINE
  5
3F4
100
AcDbEntity
  8
ASSI
100
AcDbPolyline
 62
7
  6
CONTINUOUS
 90
18
 70
0
 10
163.1190734268
 20
172.0994798636
 10
163.1197160132
 20
172.0691425045
 10
163.1216053117
 20
172.039731955
 10
163.1247413222
 20
172.011248215
 10
163.1291367781
 20
171.9836310497
 10
163.134778946
 20
171.9569406939
 10
163.1416296264
 20
171.9313578518
 10
163.1496970197
 20
171.9068900386
 10
163.1589729255
 20
171.883529739
 10
163.1693945421
 20
171.8614351115
 10
163.1809696441
 20
171.8406147444
 10
163.1936904569
 20
171.8210600494
 10
163.2074708558
 20
171.8029034193
 10
163.2223180307
 20
171.7861543411
 10
163.2382247916
 20
171.7708033278
 10
163.2550834435
 20
171.7569543119
 10
163.2729004457
 20
171.7446174854
 10
163.282154822
 20
171.7390187207
  0
LINE
  5
3F5
100
AcDbEntity
  8
ASSI
100
AcDbLine
 62
7
  6
CONTINUOUS
 10
163.8615355471
 20
172.9568565096
 11
163.8608929607
 21
172.9871938686
  0
LWPOLYLINE
  5
3F6
100
AcDbEntity
  8
ASSI
100
AcDbPolyline
 62
7
  6
CONTINUOUS
 90
8
 70
0
 10
163.8792132166
 20
172.9466496447
 10
163.8785706302
 20
172.9769870038
 10
163.8766813318
 20
173.0063975533
 10
163.8735453212
 20
173.0348812934
 10
163.8691498654
 20
173.0624984586
 10
163.8635076974
 20
173.0891888144
 10
163.8566570171
 20
173.1147716565
 10
163.8508885319
 20
173.1322670495
  0
LWPOLYLINE
  5
3F7
100
AcDbEntity
  8
ASSI
100
AcDbPolyline
 62
7
  6
CONTINUOUS
 90
18
 70
0
 10
164.2327666072
 20
172.7425123481
 10
164.2321240208
 20
172.7728497071
 10
164.2302347224
 20
172.8022602566
 10
164.2270987118
 20
172.8307439967
 10
164.222703256
 20
172.858361162
 10
164.217061088
 20
172.8850515177
 10
164.2102104077
 20
172.9106343599
 10
164.2021430143
 20
172.9351021731
 10
164.1928671086
 20
172.9584624726
 10
164.182445492
 20
172.9805571002
 10
164.17087039
 20
173.0013774672
 10
164.1581495771
 20
173.0209321622
 10
164.1443691783
 20
173.0390887923
 10
164.1295220034
 20
173.0558378705
 10
164.1136152424
 20
173.0711888838
 10
164.0967565905
 20
173.0850378998
 10
164.0789395884
 20
173.0973747263
 10
164.069685212
 20
173.102973491
  0
LWPOLYLINE
  5
3F8
100
AcDbEntity
  8
0
100
AcDbPolyline
 62
7
  6
CONTINUOUS
 90
18
 70
0
 10
166.3629257855
 20
181.8923748471
 10
166.3625151209
 20
181.9124739693
 10
166.3612652596
 20
181.9320087682
 10
166.3591762015
 20
181.9509792436
 10
166.3562379089
 20
181.9694486253
 10
166.3524604195
 20
181.9873536836
 10
166.3478738468
 20
182.0045047292
 10
166.3424640818
 20
182.0208831448
 10
166.3362452335
 20
182.0365075477
 10
166.3292897413
 20
182.0512441008
 10
166.32161752
 20
182.0650517729
 10
166.3132086548
 20
182.0779715952
 10
166.3040758416
 20
182.0899928237
 10
166.2942014816
 20
182.1011428555
 10
166.2836031735
 20
182.1113942936
 10
166.2723464102
 20
182.1206542037
 10
166.260410023
 20
182.1289164304
 10
166.2541995299
 20
182.1326730523
  0
LINE
  5
3F9
100
AcDbEntity
  8
0
100
AcDbLine
 62
7
  6
CONTINUOUS
 10
165.3552986223
 20
180.3715105592
 11
165.3552986223
 21
179.9632754208
  0
LINE
  5
3FA
100
AcDbEntity
  8
0
100
AcDbLine
 62
7
  6
CONTINUOUS
 10
166.8048675238
 20
181.6371617986
 11
166.8048675238
 21
181.4534382316
  0
LINE
  5
3FB
100
AcDbEntity
  8
0
100
AcDbLine
 62
7
  6
CONTINUOUS
 10
167.0169995581
 20
181.3309558536
 11
167.0169995581
 21
180.9227207152
  0
LINE
  5
3FC
100
AcDbEntity
  8
0
100
AcDbLine
 62
7
  6
CONTINUOUS
 10
167.1760985839
 20
181.4228590647
 11
167.1760985839
 21
180.7729418063
  0
LINE
  5
3FD
100
AcDbEntity
  8
0
100
AcDbLine
 62
7
  6
CONTINUOUS
 10
167.1760985839
 20
27.807172323
 11
167.1760985839
 21
45.990810474
  0
LINE
  5
3FE
100
AcDbEntity
  8
0
100
AcDbLine
 62
250
  6
CONTINUOUS
 10
167.1760985839
 20
45.990810474
 11
167.1760985839
 21
46.7256337232
  0
LINE
  5
3FF
100
AcDbEntity
  8
0
100
AcDbLine
 62
7
  6
CONTINUOUS
 10
167.1760985839
 20
46.7256337232
 11
167.1760985839
 21
65.0145679233
  0
LINE
  5
400
100
AcDbEntity
  8
0
100
AcDbLine
 62
250
  6
CONTINUOUS
 10
167.1760985839
 20
65.0145679233
 11
167.1760985839
 21
65.7493911724
  0
LINE
  5
401
100
AcDbEntity
  8
0
100
AcDbLine
 62
7
  6
CONTINUOUS
 10
167.1760985839
 20
65.7493911724
 11
167.1760985839
 21
84.0383253726
  0
LINE
  5
402
100
AcDbEntity
  8
0
100
AcDbLine
 62
250
  6
CONTINUOUS
 10
167.1760985839
 20
84.0383253726
 11
167.1760985839
 21
84.7731486217
  0
LINE
  5
403
100
AcDbEntity
  8
0
100
AcDbLine
 62
7
  6
CONTINUOUS
 10
167.1760985839
 20
84.7731486217
 11
167.1760985839
 21
103.0620828219
  0
LINE
  5
404
100
AcDbEntity
  8
0
100
AcDbLine
 62
250
  6
CONTINUOUS
 10
167.1760985839
 20
103.0620828219
 11
167.1760985839
 21
103.796906071
  0
LINE
  5
405
100
AcDbEntity
  8
0
100
AcDbLine
 62
7
  6
CONTINUOUS
 10
167.1760985839
 20
103.796906071
 11
167.1760985839
 21
122.0858402711
  0
LINE
  5
406
100
AcDbEntity
  8
0
100
AcDbLine
 62
250
  6
CONTINUOUS
 10
167.1760985839
 20
122.0858402711
 11
167.1760985839
 21
122.8206635203
  0
LINE
  5
407
100
AcDbEntity
  8
0
100
AcDbLine
 62
7
  6
CONTINUOUS
 10
167.1760985839
 20
122.8206635203
 11
167.1760985839
 21
141.1095977204
  0
LINE
  5
408
100
AcDbEntity
  8
0
100
AcDbLine
 62
250
  6
CONTINUOUS
 10
167.1760985839
 20
141.1095977204
 11
167.1760985839
 21
141.8444209695
  0
LINE
  5
409
100
AcDbEntity
  8
0
100
AcDbLine
 62
7
  6
CONTINUOUS
 10
167.1760985839
 20
141.8444209695
 11
167.1760985839
 21
160.1333551697
  0
LINE
  5
40A
100
AcDbEntity
  8
0
100
AcDbLine
 62
250
  6
CONTINUOUS
 10
167.1760985839
 20
160.1333551697
 11
167.1760985839
 21
160.8681784188
  0
LINE
  5
40B
100
AcDbEntity
  8
0
100
AcDbLine
 62
7
  6
CONTINUOUS
 10
167.1760985839
 20
160.8681784188
 11
167.1760985839
 21
178.1944399238
  0
LINE
  5
40C
100
AcDbEntity
  8
0
100
AcDbLine
 62
7
  6
CONTINUOUS
 10
167.3298675238
 20
27.1813971863
 11
167.3298675238
 21
27.9162204354
  0
LINE
  5
40D
100
AcDbEntity
  8
0
100
AcDbLine
 62
7
  6
CONTINUOUS
 10
167.3298675238
 20
46.2051546355
 11
167.3298675238
 21
46.9399778847
  0
LINE
  5
40E
100
AcDbEntity
  8
0
100
AcDbLine
 62
7
  6
CONTINUOUS
 10
167.3298675238
 20
65.2289120848
 11
167.3298675238
 21
65.9637353339
  0
LINE
  5
40F
100
AcDbEntity
  8
0
100
AcDbLine
 62
7
  6
CONTINUOUS
 10
167.3298675238
 20
84.2526695341
 11
167.3298675238
 21
84.9874927832
  0
LINE
  5
410
100
AcDbEntity
  8
0
100
AcDbLine
 62
7
  6
CONTINUOUS
 10
167.3298675238
 20
103.2764269834
 11
167.3298675238
 21
104.0112502325
  0
LINE
  5
411
100
AcDbEntity
  8
0
100
AcDbLine
 62
7
  6
CONTINUOUS
 10
167.3298675238
 20
122.3001844326
 11
167.3298675238
 21
123.0350076817
  0
LINE
  5
412
100
AcDbEntity
  8
0
100
AcDbLine
 62
7
  6
CONTINUOUS
 10
167.3298675238
 20
141.3239418819
 11
167.3298675238
 21
142.058765131
  0
LINE
  5
413
100
AcDbEntity
  8
0
100
AcDbLine
 62
7
  6
CONTINUOUS
 10
167.3298675238
 20
160.3476993312
 11
167.3298675238
 21
161.0825225803
  0
LINE
  5
414
100
AcDbEntity
  8
0
100
AcDbLine
 62
7
  6
CONTINUOUS
 10
167.3298675238
 20
179.3714567805
 11
167.3298675238
 21
180.1062800296
  0
LWPOLYLINE
  5
415
100
AcDbEntity
  8
0
100
AcDbPolyline
 62
7
  6
CONTINUOUS
 90
8
 70
0
 10
167.3298517654
 20
180.1062800296
 10
167.3297032764
 20
180.0990079254
 10
167.3285153646
 20
180.0845381992
 10
167.3261236265
 20
180.0701582115
 10
167.3225439765
 20
180.055852706
 10
167.3178241575
 20
180.0417248781
 10
167.311979098
 20
180.0278036703
 10
167.3087249365
 20
180.0214010643
  0
LWPOLYLINE
  5
416
100
AcDbEntity
  8
0
100
AcDbPolyline
 62
7
  6
CONTINUOUS
 90
14
 70
0
 10
167.3298517654
 20
179.3714567805
 10
167.3297032764
 20
179.3641846763
 10
167.3285153646
 20
179.3497149501
 10
167.3261236265
 20
179.3353349624
 10
167.3225439765
 20
179.3210294568
 10
167.3178241575
 20
179.306901629
 10
167.311979098
 20
179.2929804212
 10
167.3049938695
 20
179.2792368911
 10
167.2968714294
 20
179.265687407
 10
167.2875861989
 20
179.2522942033
 10
167.2771637567
 20
179.2390950457
 10
167.2656837968
 20
179.2262195997
 10
167.2531231418
 20
179.2136707757
 10
167.2498770511
 20
179.2107567413
  0
LWPOLYLINE
  5
417
100
AcDbEntity
  8
0
100
AcDbPolyline
 62
7
  6
CONTINUOUS
 90
18
 70
0
 10
167.3298517654
 20
161.0825225803
 10
167.3297032764
 20
161.0752504761
 10
167.3285153646
 20
161.0607807499
 10
167.3261236265
 20
161.0464007622
 10
167.3225439765
 20
161.0320952567
 10
167.3178241575
 20
161.0179674288
 10
167.311979098
 20
161.0040462211
 10
167.3049938695
 20
160.9903026909
 10
167.2968714294
 20
160.9767532069
 10
167.2875861989
 20
160.9633600032
 10
167.2771637567
 20
160.9501608455
 10
167.2656837968
 20
160.9372853996
 10
167.2531231418
 20
160.9247365755
 10
167.2395049691
 20
160.9125114632
 10
167.2249785043
 20
160.9007309979
 10
167.2095934895
 20
160.8894354912
 10
167.1933001827
 20
160.8785846315
 10
167.1760985839
 20
160.8681784188
  0
LWPOLYLINE
  5
418
100
AcDbEntity
  8
0
100
AcDbPolyline
 62
7
  6
CONTINUOUS
 90
18
 70
0
 10
167.3298517654
 20
160.3476993312
 10
167.3297032764
 20
160.340427227
 10
167.3285153646
 20
160.3259575008
 10
167.3261236265
 20
160.3115775131
 10
167.3225439765
 20
160.2972720076
 10
167.3178241575
 20
160.2831441797
 10
167.311979098
 20
160.2692229719
 10
167.3049938695
 20
160.2554794418
 10
167.2968714294
 20
160.2419299578
 10
167.2875861989
 20
160.228536754
 10
167.2771637567
 20
160.2153375964
 10
167.2656837968
 20
160.2024621505
 10
167.2531231418
 20
160.1899133264
 10
167.2395049691
 20
160.1776882141
 10
167.2249785043
 20
160.1659077488
 10
167.2095934895
 20
160.1546122421
 10
167.1933001827
 20
160.1437613824
 10
167.1760985839
 20
160.1333551697
  0
LWPOLYLINE
  5
419
100
AcDbEntity
  8
0
100
AcDbPolyline
 62
7
  6
CONTINUOUS
 90
18
 70
0
 10
167.3298517654
 20
142.058765131
 10
167.3297032764
 20
142.0514930268
 10
167.3285153646
 20
142.0370233006
 10
167.3261236265
 20
142.0226433129
 10
167.3225439765
 20
142.0083378074
 10
167.3178241575
 20
141.9942099796
 10
167.311979098
 20
141.9802887718
 10
167.3049938695
 20
141.9665452417
 10
167.2968714294
 20
141.9529957576
 10
167.2875861989
 20
141.9396025539
 10
167.2771637567
 20
141.9264033962
 10
167.2656837968
 20
141.9135279503
 10
167.2531231418
 20
141.9009791263
 10
167.2395049691
 20
141.888754014
 10
167.2249785043
 20
141.8769735486
 10
167.2095934895
 20
141.865678042
 10
167.1933001827
 20
141.8548271823
 10
167.1760985839
 20
141.8444209695
  0
LWPOLYLINE
  5
41A
100
AcDbEntity
  8
0
100
AcDbPolyline
 62
7
  6
CONTINUOUS
 90
18
 70
0
 10
167.3298517654
 20
141.3239418819
 10
167.3297032764
 20
141.3166697777
 10
167.3285153646
 20
141.3022000515
 10
167.3261236265
 20
141.2878200638
 10
167.3225439765
 20
141.2735145583
 10
167.3178241575
 20
141.2593867305
 10
167.311979098
 20
141.2454655227
 10
167.3049938695
 20
141.2317219925
 10
167.2968714294
 20
141.2181725085
 10
167.2875861989
 20
141.2047793048
 10
167.2771637567
 20
141.1915801471
 10
167.2656837968
 20
141.1787047012
 10
167.2531231418
 20
141.1661558772
 10
167.2395049691
 20
141.1539307649
 10
167.2249785043
 20
141.1421502995
 10
167.2095934895
 20
141.1308547929
 10
167.1933001827
 20
141.1200039332
 10
167.1760985839
 20
141.1095977204
  0
LWPOLYLINE
  5
41B
100
AcDbEntity
  8
0
100
AcDbPolyline
 62
7
  6
CONTINUOUS
 90
18
 70
0
 10
167.3298517654
 20
123.0350076817
 10
167.3297032764
 20
123.0277355776
 10
167.3285153646
 20
123.0132658513
 10
167.3261236265
 20
122.9988858636
 10
167.3225439765
 20
122.9845803581
 10
167.3178241575
 20
122.9704525303
 10
167.311979098
 20
122.9565313225
 10
167.3049938695
 20
122.9427877924
 10
167.2968714294
 20
122.9292383083
 10
167.2875861989
 20
122.9158451046
 10
167.2771637567
 20
122.9026459469
 10
167.2656837968
 20
122.889770501
 10
167.2531231418
 20
122.877221677
 10
167.2395049691
 20
122.8649965647
 10
167.2249785043
 20
122.8532160994
 10
167.2095934895
 20
122.8419205927
 10
167.1933001827
 20
122.831069733
 10
167.1760985839
 20
122.8206635203
  0
LWPOLYLINE
  5
41C
100
AcDbEntity
  8
0
100
AcDbPolyline
 62
7
  6
CONTINUOUS
 90
18
 70
0
 10
167.3298517654
 20
122.3001844326
 10
167.3297032764
 20
122.2929123284
 10
167.3285153646
 20
122.2784426022
 10
167.3261236265
 20
122.2640626145
 10
167.3225439765
 20
122.249757109
 10
167.3178241575
 20
122.2356292812
 10
167.311979098
 20
122.2217080734
 10
167.3049938695
 20
122.2079645433
 10
167.2968714294
 20
122.1944150592
 10
167.2875861989
 20
122.1810218555
 10
167.2771637567
 20
122.1678226978
 10
167.2656837968
 20
122.1549472519
 10
167.2531231418
 20
122.1423984279
 10
167.2395049691
 20
122.1301733156
 10
167.2249785043
 20
122.1183928502
 10
167.2095934895
 20
122.1070973436
 10
167.1933001827
 20
122.0962464839
 10
167.1760985839
 20
122.0858402711
  0
LWPOLYLINE
  5
41D
100
AcDbEntity
  8
0
100
AcDbPolyline
 62
7
  6
CONTINUOUS
 90
18
 70
0
 10
167.3298517654
 20
104.0112502325
 10
167.3297032764
 20
104.0039781283
 10
167.3285153646
 20
103.9895084021
 10
167.3261236265
 20
103.9751284144
 10
167.3225439765
 20
103.9608229089
 10
167.3178241575
 20
103.946695081
 10
167.311979098
 20
103.9327738732
 10
167.3049938695
 20
103.9190303431
 10
167.2968714294
 20
103.9054808591
 10
167.2875861989
 20
103.8920876553
 10
167.2771637567
 20
103.8788884977
 10
167.2656837968
 20
103.8660130518
 10
167.2531231418
 20
103.8534642277
 10
167.2395049691
 20
103.8412391154
 10
167.2249785043
 20
103.8294586501
 10
167.2095934895
 20
103.8181631434
 10
167.1933001827
 20
103.8073122837
 10
167.1760985839
 20
103.796906071
  0
LWPOLYLINE
  5
41E
100
AcDbEntity
  8
0
100
AcDbPolyline
 62
7
  6
CONTINUOUS
 90
18
 70
0
 10
167.3298517654
 20
103.2764269834
 10
167.3297032764
 20
103.2691548792
 10
167.3285153646
 20
103.254685153
 10
167.3261236265
 20
103.2403051653
 10
167.3225439765
 20
103.2259996597
 10
167.3178241575
 20
103.2118718319
 10
167.311979098
 20
103.1979506241
 10
167.3049938695
 20
103.184207094
 10
167.2968714294
 20
103.17065761
 10
167.2875861989
 20
103.1572644062
 10
167.2771637567
 20
103.1440652486
 10
167.2656837968
 20
103.1311898026
 10
167.2531231418
 20
103.1186409786
 10
167.2395049691
 20
103.1064158663
 10
167.2249785043
 20
103.094635401
 10
167.2095934895
 20
103.0833398943
 10
167.1933001827
 20
103.0724890346
 10
167.1760985839
 20
103.0620828219
  0
LWPOLYLINE
  5
41F
100
AcDbEntity
  8
0
100
AcDbPolyline
 62
7
  6
CONTINUOUS
 90
18
 70
0
 10
167.3298517654
 20
84.9874927832
 10
167.3297032764
 20
84.980220679
 10
167.3285153646
 20
84.9657509528
 10
167.3261236265
 20
84.9513709651
 10
167.3225439765
 20
84.9370654596
 10
167.3178241575
 20
84.9229376318
 10
167.311979098
 20
84.909016424
 10
167.3049938695
 20
84.8952728938
 10
167.2968714294
 20
84.8817234098
 10
167.2875861989
 20
84.8683302061
 10
167.2771637567
 20
84.8551310484
 10
167.2656837968
 20
84.8422556025
 10
167.2531231418
 20
84.8297067784
 10
167.2395049691
 20
84.8174816662
 10
167.2249785043
 20
84.8057012008
 10
167.2095934895
 20
84.7944056942
 10
167.1933001827
 20
84.7835548345
 10
167.1760985839
 20
84.7731486217
  0
LWPOLYLINE
  5
420
100
AcDbEntity
  8
0
100
AcDbPolyline
 62
7
  6
CONTINUOUS
 90
18
 70
0
 10
167.3298517654
 20
84.2526695341
 10
167.3297032764
 20
84.2453974299
 10
167.3285153646
 20
84.2309277037
 10
167.3261236265
 20
84.216547716
 10
167.3225439765
 20
84.2022422105
 10
167.3178241575
 20
84.1881143826
 10
167.311979098
 20
84.1741931748
 10
167.3049938695
 20
84.1604496447
 10
167.2968714294
 20
84.1469001607
 10
167.2875861989
 20
84.1335069569
 10
167.2771637567
 20
84.1203077993
 10
167.2656837968
 20
84.1074323534
 10
167.2531231418
 20
84.0948835293
 10
167.2395049691
 20
84.082658417
 10
167.2249785043
 20
84.0708779517
 10
167.2095934895
 20
84.059582445
 10
167.1933001827
 20
84.0487315853
 10
167.1760985839
 20
84.0383253726
  0
LWPOLYLINE
  5
421
100
AcDbEntity
  8
0
100
AcDbPolyline
 62
7
  6
CONTINUOUS
 90
18
 70
0
 10
167.3298517654
 20
65.9637353339
 10
167.3297032764
 20
65.9564632297
 10
167.3285153646
 20
65.9419935035
 10
167.3261236265
 20
65.9276135158
 10
167.3225439765
 20
65.9133080103
 10
167.3178241575
 20
65.8991801825
 10
167.311979098
 20
65.8852589747
 10
167.3049938695
 20
65.8715154446
 10
167.2968714294
 20
65.8579659605
 10
167.2875861989
 20
65.8445727568
 10
167.2771637567
 20
65.8313735991
 10
167.2656837968
 20
65.8184981532
 10
167.2531231418
 20
65.8059493292
 10
167.2395049691
 20
65.7937242169
 10
167.2249785043
 20
65.7819437515
 10
167.2095934895
 20
65.7706482449
 10
167.1933001827
 20
65.7597973852
 10
167.1760985839
 20
65.7493911724
  0
LWPOLYLINE
  5
422
100
AcDbEntity
  8
0
100
AcDbPolyline
 62
7
  6
CONTINUOUS
 90
18
 70
0
 10
167.3298517654
 20
65.2289120848
 10
167.3297032764
 20
65.2216399806
 10
167.3285153646
 20
65.2071702544
 10
167.3261236265
 20
65.1927902667
 10
167.3225439765
 20
65.1784847612
 10
167.3178241575
 20
65.1643569334
 10
167.311979098
 20
65.1504357256
 10
167.3049938695
 20
65.1366921955
 10
167.2968714294
 20
65.1231427114
 10
167.2875861989
 20
65.1097495077
 10
167.2771637567
 20
65.09655035
 10
167.2656837968
 20
65.0836749041
 10
167.2531231418
 20
65.0711260801
 10
167.2395049691
 20
65.0589009678
 10
167.2249785043
 20
65.0471205024
 10
167.2095934895
 20
65.0358249958
 10
167.1933001827
 20
65.0249741361
 10
167.1760985839
 20
65.0145679233
  0
LWPOLYLINE
  5
423
100
AcDbEntity
  8
0
100
AcDbPolyline
 62
7
  6
CONTINUOUS
 90
18
 70
0
 10
167.3298517654
 20
46.9399778847
 10
167.3297032764
 20
46.9327057805
 10
167.3285153646
 20
46.9182360543
 10
167.3261236265
 20
46.9038560666
 10
167.3225439765
 20
46.889550561
 10
167.3178241575
 20
46.8754227332
 10
167.311979098
 20
46.8615015254
 10
167.3049938695
 20
46.8477579953
 10
167.2968714294
 20
46.8342085112
 10
167.2875861989
 20
46.8208153075
 10
167.2771637567
 20
46.8076161499
 10
167.2656837968
 20
46.7947407039
 10
167.2531231418
 20
46.7821918799
 10
167.2395049691
 20
46.7699667676
 10
167.2249785043
 20
46.7581863023
 10
167.2095934895
 20
46.7468907956
 10
167.1933001827
 20
46.7360399359
 10
167.1760985839
 20
46.7256337232
  0
LWPOLYLINE
  5
424
100
AcDbEntity
  8
0
100
AcDbPolyline
 62
7
  6
CONTINUOUS
 90
18
 70
0
 10
167.3298517654
 20
46.2051546355
 10
167.3297032764
 20
46.1978825313
 10
167.3285153646
 20
46.1834128051
 10
167.3261236265
 20
46.1690328174
 10
167.3225439765
 20
46.1547273119
 10
167.3178241575
 20
46.1405994841
 10
167.311979098
 20
46.1266782763
 10
167.3049938695
 20
46.1129347462
 10
167.2968714294
 20
46.0993852621
 10
167.2875861989
 20
46.0859920584
 10
167.2771637567
 20
46.0727929007
 10
167.2656837968
 20
46.0599174548
 10
167.2531231418
 20
46.0473686308
 10
167.2395049691
 20
46.0351435185
 10
167.2249785043
 20
46.0233630532
 10
167.2095934895
 20
46.0120675465
 10
167.1933001827
 20
46.0012166868
 10
167.1760985839
 20
45.990810474
  0
LWPOLYLINE
  5
425
100
AcDbEntity
  8
0
100
AcDbPolyline
 62
7
  6
CONTINUOUS
 90
18
 70
0
 10
167.3298517654
 20
27.9162204354
 10
167.3297032764
 20
27.9089483312
 10
167.3285153646
 20
27.894478605
 10
167.3261236265
 20
27.8800986173
 10
167.3225439765
 20
27.8657931118
 10
167.3178241575
 20
27.8516652839
 10
167.311979098
 20
27.8377440761
 10
167.3049938695
 20
27.824000546
 10
167.2968714294
 20
27.810451062
 10
167.2875861989
 20
27.7970578582
 10
167.2771637567
 20
27.7838587006
 10
167.2656837968
 20
27.7709832547
 10
167.2531231418
 20
27.7584344306
 10
167.2395049691
 20
27.7462093183
 10
167.2249785043
 20
27.734428853
 10
167.2095934895
 20
27.7231333463
 10
167.1933001827
 20
27.7122824866
 10
167.1840602185
 20
27.7066927136
  0
LWPOLYLINE
  5
426
100
AcDbEntity
  8
0
100
AcDbPolyline
 62
7
  6
CONTINUOUS
 90
15
 70
0
 10
167.3298517654
 20
27.1813971863
 10
167.3297032764
 20
27.1741250821
 10
167.3285153646
 20
27.1596553559
 10
167.3261236265
 20
27.1452753682
 10
167.3225439765
 20
27.1309698627
 10
167.3178241575
 20
27.1168420348
 10
167.311979098
 20
27.102920827
 10
167.3049938695
 20
27.0891772969
 10
167.2968714294
 20
27.0756278129
 10
167.2875861989
 20
27.0622346091
 10
167.2771637567
 20
27.0490354515
 10
167.2656837968
 20
27.0361600055
 10
167.2531231418
 20
27.0236111815
 10
167.2395049691
 20
27.0113860692
 10
167.2391749644
 20
27.0111184468
  0
LINE
  5
427
100
AcDbEntity
  8
ASSI
100
AcDbLine
 62
7
  6
CONTINUOUS
 10
163.8608929607
 20
30.0434786692
 11
163.8615355471
 21
30.0745580708
  0
LWPOLYLINE
  5
428
100
AcDbEntity
  8
ASSI
100
AcDbPolyline
 62
7
  6
CONTINUOUS
 90
86
 70
0
 10
165.6489662777
 20
145.126672327
 10
165.6405261504
 20
144.9809571494
 10
165.6287847272
 20
144.8338624507
 10
165.613742008
 20
144.6853882312
 10
165.595381864
 20
144.5354217991
 10
165.5737204239
 20
144.384075846
 10
165.548806075
 20
144.2316884467
 10
165.5206315456
 20
144.0782572731
 10
165.4892041072
 20
143.9237846533
 10
165.4545939622
 20
143.7686156463
 10
165.4167939958
 20
143.6127486953
 10
165.3758113227
 20
143.4561853571
 10
165.3317374895
 20
143.299275361
 10
165.2845655862
 20
143.142017932
 10
165.2343025228
 20
142.984413845
 10
165.1810605764
 20
142.8268151542
 10
165.1248330877
 20
142.6692218716
 10
165.065626716
 20
142.511633985
 10
165.0035737158
 20
142.3544035125
 10
164.9386677234
 20
142.1975312529
 10
164.8709151024
 20
142.0410164073
 10
164.8004671979
 20
141.8852085967
 10
164.7273179845
 20
141.7301094015
 10
164.6514734876
 20
141.5757172412
 10
164.5731031275
 20
141.4223769952
 10
164.4922012578
 20
141.2700910149
 10
164.4087735251
 20
141.1188569488
 10
164.323006289
 20
140.9690126217
 10
164.2348943198
 20
140.8205611403
 10
164.1444428474
 20
140.673499398
 10
164.0518539211
 20
140.5281558993
 10
163.9571227627
 20
140.3845344855
 10
163.8602541504
 20
140.2426313153
 10
163.7614644681
 20
140.1027633704
 10
163.6607494213
 20
139.9649352005
 10
163.5581133046
 20
139.8291422557
 10
163.4537853852
 20
139.6956878689
 10
163.3477618812
 20
139.5645772677
 10
163.2400465744
 20
139.4358052243
 10
163.1308800781
 20
139.3096593882
 10
163.0202591482
 20
139.1861456302
 10
162.9081870287
 20
139.0652580794
 10
162.7949140649
 20
138.947266773
 10
162.6804375724
 20
138.8321781854
 10
162.5647602357
 20
138.7199858422
 10
162.4481404534
 20
138.6109403573
 10
162.3305761186
 20
138.5050487652
 10
162.2120693381
 20
138.4023040315
 10
162.092884831
 20
138.3029356659
 10
161.9730210822
 20
138.2069512162
 10
161.8524796067
 20
138.1143431346
 10
161.7315296687
 20
138.0253182881
 10
161.6101703549
 20
137.9398846866
 10
161.4884025785
 20
137.8580343202
 10
161.3664983429
 20
137.779950025
 10
161.2444573429
 20
137.70564022
 10
161.1222798837
 20
137.6350964863
 10
161.0002388838
 20
137.5684764037
 10
160.8783346482
 20
137.5057887432
 10
160.7565668718
 20
137.4470247337
 10
160.635207558
 20
137.3923156416
 10
160.51425762
 20
137.3416705313
 10
160.3937161445
 20
137.2950803385
 10
160.2738523957
 20
137.2526491356
 10
160.1546678886
 20
137.2143862198
 10
160.0361611081
 20
137.180282294
 10
159.9185967733
 20
137.150413539
 10
159.801976991
 20
137.1247894225
 10
159.6862996543
 20
137.1034004768
 10
159.5718231618
 20
137.0862944804
 10
159.458550198
 20
137.0734810075
 10
159.3464780785
 20
137.0649504838
 10
159.2358571486
 20
137.0607219648
 10
159.1266906523
 20
137.0608050673
 10
159.0189753455
 20
137.0651901744
 10
158.9129518415
 20
137.0738674908
 10
158.8086239221
 20
137.0868466113
 10
158.7059878053
 20
137.1041179411
 10
158.6052727586
 20
137.1256428996
 10
158.5064830763
 20
137.1514309957
 10
158.409614464
 20
137.1814727204
 10
158.3148833056
 20
137.2157009671
 10
158.2222943793
 20
137.2541250944
 10
158.1318429068
 20
137.2967357437
 10
158.0437309377
 20
137.3434377316
 10
158.0207161483
 20
137.3565349525
  0
LWPOLYLINE
  5
429
100
AcDbEntity
  8
ASSI
100
AcDbPolyline
 62
7
  6
CONTINUOUS
 90
86
 70
0
 10
165.6489662777
 20
59.3972932638
 10
165.6405261504
 20
59.2515780861
 10
165.6287847272
 20
59.1044833875
 10
165.613742008
 20
58.9560091679
 10
165.595381864
 20
58.8060427358
 10
165.5737204239
 20
58.6546967828
 10
165.548806075
 20
58.5023093835
 10
165.5206315456
 20
58.3488782099
 10
165.4892041072
 20
58.19440559
 10
165.4545939622
 20
58.039236583
 10
165.4167939958
 20
57.883369632
 10
165.3758113227
 20
57.7268062939
 10
165.3317374895
 20
57.5698962977
 10
165.2845655862
 20
57.4126388687
 10
165.2343025228
 20
57.2550347818
 10
165.1810605764
 20
57.097436091
 10
165.1248330877
 20
56.9398428083
 10
165.065626716
 20
56.7822549218
 10
165.0035737158
 20
56.6250244492
 10
164.9386677234
 20
56.4681521897
 10
164.8709151024
 20
56.3116373441
 10
164.8004671979
 20
56.1558295334
 10
164.7273179845
 20
56.0007303382
 10
164.6514734876
 20
55.846338178
 10
164.5731031275
 20
55.6929979319
 10
164.4922012578
 20
55.5407119516
 10
164.4087735251
 20
55.3894778855
 10
164.323006289
 20
55.2396335585
 10
164.2348943198
 20
55.0911820771
 10
164.1444428474
 20
54.9441203347
 10
164.0518539211
 20
54.7987768361
 10
163.9571227627
 20
54.6551554222
 10
163.8602541504
 20
54.5132522521
 10
163.7614644681
 20
54.3733843072
 10
163.6607494213
 20
54.2355561372
 10
163.5581133046
 20
54.0997631925
 10
163.4537853852
 20
53.9663088057
 10
163.3477618812
 20
53.8351982044
 10
163.2400465744
 20
53.7064261611
 10
163.1308800781
 20
53.580280325
 10
163.0202591482
 20
53.4567665669
 10
162.9081870287
 20
53.3358790162
 10
162.7949140649
 20
53.2178877098
 10
162.6804375724
 20
53.1027991222
 10
162.5647602357
 20
52.990606779
 10
162.4481404534
 20
52.881561294
 10
162.3305761186
 20
52.775669702
 10
162.2120693381
 20
52.6729249682
 10
162.092884831
 20
52.5735566026
 10
161.9730210822
 20
52.4775721529
 10
161.8524796067
 20
52.3849640714
 10
161.7315296687
 20
52.2959392248
 10
161.6101703549
 20
52.2105056234
 10
161.4884025785
 20
52.1286552569
 10
161.3664983429
 20
52.0505709617
 10
161.2444573429
 20
51.9762611568
 10
161.1222798837
 20
51.9057174231
 10
161.0002388838
 20
51.8390973404
 10
160.8783346482
 20
51.7764096799
 10
160.7565668718
 20
51.7176456704
 10
160.635207558
 20
51.6629365783
 10
160.51425762
 20
51.6122914681
 10
160.3937161445
 20
51.5657012752
 10
160.2738523957
 20
51.5232700723
 10
160.1546678886
 20
51.4850071566
 10
160.0361611081
 20
51.4509032307
 10
159.9185967733
 20
51.4210344758
 10
159.801976991
 20
51.3954103593
 10
159.6862996543
 20
51.3740214136
 10
159.5718231618
 20
51.3569154171
 10
159.458550198
 20
51.3441019442
 10
159.3464780785
 20
51.3355714206
 10
159.2358571486
 20
51.3313429016
 10
159.1266906523
 20
51.3314260041
 10
159.0189753455
 20
51.3358111112
 10
158.9129518415
 20
51.3444884275
 10
158.8086239221
 20
51.3574675481
 10
158.7059878053
 20
51.3747388779
 10
158.6052727586
 20
51.3962638364
 10
158.5064830763
 20
51.4220519324
 10
158.409614464
 20
51.4520936572
 10
158.3148833056
 20
51.4863219039
 10
158.2222943793
 20
51.5247460312
 10
158.1318429068
 20
51.5673566804
 10
158.0437309377
 20
51.6140586684
 10
158.0207161483
 20
51.6271558893
  0
LWPOLYLINE
  5
42A
100
AcDbEntity
  8
ASSI
100
AcDbPolyline
 62
7
  6
CONTINUOUS
 90
86
 70
0
 10
165.4719071173
 20
145.0244405869
 10
165.4635484727
 20
144.8845648882
 10
165.4520294998
 20
144.7433766009
 10
165.4373501988
 20
144.600875725
 10
165.4194949685
 20
144.4569544449
 10
165.39847941
 20
144.3117205762
 10
165.3743503267
 20
144.1654975659
 10
165.3471007791
 20
144.0182832097
 10
165.3167377067
 20
143.8700797119
 10
165.2833287303
 20
143.7212171332
 10
165.2468670614
 20
143.5716940048
 10
165.2073594885
 20
143.4215117956
 10
165.164893998
 20
143.2710049728
 10
165.1194639975
 20
143.1201728132
 10
165.0710760795
 20
142.9690160401
 10
165.0198380075
 20
142.8178712914
 10
164.9657434293
 20
142.6667385939
 10
164.9087986972
 20
142.5156179208
 10
164.8491306315
 20
142.3648458295
 10
164.7867331627
 20
142.2144230969
 10
164.7216123602
 20
142.0643489462
 10
164.6539132531
 20
141.914957604
 10
164.5836300952
 20
141.7662505922
 10
164.5107686327
 20
141.6182263889
 10
164.4354911338
 20
141.4712146556
 10
164.3577922138
 20
141.3252176488
 10
164.2776772574
 20
141.1802331118
 10
164.1953246867
 20
141.0365839366
 10
164.1107295148
 20
140.8942730993
 10
164.0238967286
 20
140.7532976237
 10
163.9350197116
 20
140.6139714731
 10
163.8440939077
 20
140.4762983234
 10
163.7511238729
 20
140.3402744987
 10
163.6563166586
 20
140.2062029346
 10
163.5596681704
 20
140.0740879822
 10
163.4611825027
 20
139.9439252904
 10
163.3610789909
 20
139.8160047416
 10
163.2593540291
 20
139.6903313329
 10
163.156011223
 20
139.5669000672
 10
163.0512807252
 20
139.4459858354
 10
162.9451594428
 20
139.3275942475
 10
162.8376504686
 20
139.2117196934
 10
162.7289932335
 20
139.098620235
 10
162.6191851782
 20
138.9883020571
 10
162.5082288619
 20
138.8807589748
 10
162.396371393
 20
138.7762304947
 10
162.2836107629
 20
138.6747233358
 10
162.1699489802
 20
138.5762307792
 10
162.0556391784
 20
138.4809721755
 10
161.9406799133
 20
138.3889547323
 10
161.825072629
 20
138.300171242
 10
161.7090747921
 20
138.2148194323
 10
161.592685532
 20
138.1329069515
 10
161.4759057192
 20
138.0544261513
 10
161.3589954314
 20
137.9795518144
 10
161.2419543777
 20
137.9082919789
 10
161.124782849
 20
137.8406386067
 10
161.0077417953
 20
137.7767423672
 10
160.8908315075
 20
137.7166116341
 10
160.7740516947
 20
137.6602380337
 10
160.6576624346
 20
137.6077471144
 10
160.5416645976
 20
137.5591475296
 10
160.4260573134
 20
137.5144306259
 10
160.3110980483
 20
137.4736959912
 10
160.1967882465
 20
137.4369525011
 10
160.0831264637
 20
137.40419128
 10
159.9703658337
 20
137.3754852898
 10
159.8585083647
 20
137.3508435685
 10
159.7475520485
 20
137.330257078
 10
159.6377439932
 20
137.3137716661
 10
159.529086758
 20
137.301396473
 10
159.4215777839
 20
137.2931223584
 10
159.3154565015
 20
137.2889677495
 10
159.2107260037
 20
137.2889418275
 10
159.1073831976
 20
137.2930354112
 10
159.0056582358
 20
137.3012393839
 10
158.9055547239
 20
137.3135629064
 10
158.8070690563
 20
137.3299968178
 10
158.7104205681
 20
137.3505045186
 10
158.6156133538
 20
137.3750950881
 10
158.522643319
 20
137.4037594469
 10
158.4317175151
 20
137.4364337573
 10
158.342840498
 20
137.4731269565
 10
158.2560077119
 20
137.5138301072
 10
158.17141254
 20
137.5584525605
 10
158.1457222757
 20
137.5730379675
  0
LWPOLYLINE
  5
42B
100
AcDbEntity
  8
ASSI
100
AcDbPolyline
 62
7
  6
CONTINUOUS
 90
86
 70
0
 10
165.4719071173
 20
59.2950615236
 10
165.4635484727
 20
59.1551858249
 10
165.4520294998
 20
59.0139975376
 10
165.4373501988
 20
58.8714966618
 10
165.4194949685
 20
58.7275753816
 10
165.39847941
 20
58.5823415129
 10
165.3743503267
 20
58.4361185027
 10
165.3471007791
 20
58.2889041464
 10
165.3167377067
 20
58.1407006486
 10
165.2833287303
 20
57.99183807
 10
165.2468670614
 20
57.8423149416
 10
165.2073594885
 20
57.6921327323
 10
165.164893998
 20
57.5416259096
 10
165.1194639975
 20
57.39079375
 10
165.0710760795
 20
57.2396369769
 10
165.0198380075
 20
57.0884922282
 10
164.9657434293
 20
56.9373595307
 10
164.9087986972
 20
56.7862388576
 10
164.8491306315
 20
56.6354667663
 10
164.7867331627
 20
56.4850440337
 10
164.7216123602
 20
56.3349698829
 10
164.6539132531
 20
56.1855785407
 10
164.5836300952
 20
56.0368715289
 10
164.5107686327
 20
55.8888473257
 10
164.4354911338
 20
55.7418355924
 10
164.3577922138
 20
55.5958385855
 10
164.2776772574
 20
55.4508540486
 10
164.1953246867
 20
55.3072048734
 10
164.1107295148
 20
55.164894036
 10
164.0238967286
 20
55.0239185604
 10
163.9350197116
 20
54.8845924098
 10
163.8440939077
 20
54.7469192601
 10
163.7511238729
 20
54.6108954355
 10
163.6563166586
 20
54.4768238714
 10
163.5596681704
 20
54.344708919
 10
163.4611825027
 20
54.2145462272
 10
163.3610789909
 20
54.0866256783
 10
163.2593540291
 20
53.9609522696
 10
163.156011223
 20
53.8375210039
 10
163.0512807252
 20
53.7166067722
 10
162.9451594428
 20
53.5982151842
 10
162.8376504686
 20
53.4823406302
 10
162.7289932335
 20
53.3692411718
 10
162.6191851782
 20
53.2589229939
 10
162.5082288619
 20
53.1513799115
 10
162.396371393
 20
53.0468514315
 10
162.2836107629
 20
52.9453442726
 10
162.1699489802
 20
52.846851716
 10
162.0556391784
 20
52.7515931123
 10
161.9406799133
 20
52.6595756691
 10
161.825072629
 20
52.5707921788
 10
161.7090747921
 20
52.4854403691
 10
161.592685532
 20
52.4035278882
 10
161.4759057192
 20
52.325047088
 10
161.3589954314
 20
52.2501727512
 10
161.2419543777
 20
52.1789129156
 10
161.124782849
 20
52.1112595434
 10
161.0077417953
 20
52.047363304
 10
160.8908315075
 20
51.9872325709
 10
160.7740516947
 20
51.9308589705
 10
160.6576624346
 20
51.8783680511
 10
160.5416645976
 20
51.8297684663
 10
160.4260573134
 20
51.7850515626
 10
160.3110980483
 20
51.744316928
 10
160.1967882465
 20
51.7075734378
 10
160.0831264637
 20
51.6748122168
 10
159.9703658337
 20
51.6461062266
 10
159.8585083647
 20
51.6214645052
 10
159.7475520485
 20
51.6008780148
 10
159.6377439932
 20
51.5843926029
 10
159.529086758
 20
51.5720174097
 10
159.4215777839
 20
51.5637432952
 10
159.3154565015
 20
51.5595886863
 10
159.2107260037
 20
51.5595627643
 10
159.1073831976
 20
51.563656348
 10
159.0056582358
 20
51.5718603206
 10
158.9055547239
 20
51.5841838431
 10
158.8070690563
 20
51.6006177545
 10
158.7104205681
 20
51.6211254553
 10
158.6156133538
 20
51.6457160248
 10
158.522643319
 20
51.6743803837
 10
158.4317175151
 20
51.7070546941
 10
158.342840498
 20
51.7437478932
 10
158.2560077119
 20
51.784451044
 10
158.17141254
 20
51.8290734972
 10
158.1457222757
 20
51.8436589042
  0
LWPOLYLINE
  5
42C
100
AcDbEntity
  8
ASSI
100
AcDbPolyline
 62
7
  6
CONTINUOUS
 90
22
 70
0
 10
128.0006997436
 20
58.1458341939
 10
128.0706453073
 20
58.2084180326
 10
128.1380413927
 20
58.2744752106
 10
128.2028879999
 20
58.3440057279
 10
128.2652294672
 20
58.4170663377
 10
128.3250214562
 20
58.4936002868
 10
128.3821309518
 20
58.5734373153
 10
128.436551982
 20
58.6565847768
 10
128.4882905188
 20
58.7430353177
 10
128.537231463
 20
58.8325966175
 10
128.5833685864
 20
58.9252756015
 10
128.6267081172
 20
59.0210653443
 10
128.6671536409
 20
59.119752749
 10
128.7046987146
 20
59.2213442667
 10
128.7393497813
 20
59.3258334464
 10
128.7710297551
 20
59.432987838
 10
128.7997320214
 20
59.5428133752
 10
128.8254631947
 20
59.6553041244
 10
128.8481660328
 20
59.7702098351
 10
128.8678214547
 20
59.8874470905
 10
128.8844485414
 20
60.0070993075
 10
128.8980472927
 20
60.129166486
  0
LWPOLYLINE
  5
42D
100
AcDbEntity
  8
ASSI
100
AcDbPolyline
 62
7
  6
CONTINUOUS
 90
22
 70
0
 10
128.0635489478
 20
58.0369761791
 10
128.1357350161
 20
58.1011018121
 10
128.2052795287
 20
58.1688333354
 10
128.2721824855
 20
58.2401707492
 10
128.3364903292
 20
58.3151732554
 10
128.3981566172
 20
58.3937816521
 10
128.4570420219
 20
58.4758183331
 10
128.5131402557
 20
58.56129105
 10
128.5664576064
 20
58.6501920512
 10
128.6168736097
 20
58.7423204758
 10
128.6643817057
 20
58.8376836211
 10
128.7089884544
 20
58.9362741898
 10
128.7505930723
 20
59.0378694284
 10
128.7891887714
 20
59.1424761307
 10
128.8247823398
 20
59.2500875029
 10
128.857293358
 20
59.3604604102
 10
128.8867148562
 20
59.4736010967
 10
128.9130538043
 20
59.5895033184
 10
128.9362506927
 20
59.7079052082
 10
128.9562856848
 20
59.8287194771
 10
128.9731786171
 20
59.9520334142
 10
128.9869294896
 20
60.0778470194
  0
LINE
  5
42E
100
AcDbEntity
  8
ASSI
100
AcDbLine
 62
7
  6
CONTINUOUS
 10
120.6489118988
 20
66.0294524984
 11
120.5478092748
 21
65.9710771104
  0
LINE
  5
42F
100
AcDbEntity
  8
ASSI
100
AcDbLine
 62
7
  6
CONTINUOUS
 10
121.5340390208
 20
61.8796030489
 11
121.4711898167
 21
61.8433217198
  0
LWPOLYLINE
  5
430
100
AcDbEntity
  8
ASSI
100
AcDbPolyline
 62
7
  6
CONTINUOUS
 90
4
 70
0
 10
158.0560610734
 20
137.3856100171
 10
157.961329915
 20
137.4198382638
 10
157.8687409887
 20
137.4582623911
 10
157.8495899442
 20
137.4672842281
  0
LWPOLYLINE
  5
431
100
AcDbEntity
  8
ASSI
100
AcDbPolyline
 62
7
  6
CONTINUOUS
 90
22
 70
0
 10
124.325427644
 20
149.6962037123
 10
124.2129109279
 20
149.7454674744
 10
124.1009713832
 20
149.7909012772
 10
123.9896090099
 20
149.8325051207
 10
123.8787420233
 20
149.8703041945
 10
123.7684522082
 20
149.904273309
 10
123.6589849186
 20
149.9343368953
 10
123.5503419859
 20
149.9604862588
 10
123.4425215788
 20
149.9827300943
 10
123.335763558
 20
150.0010189173
 10
123.2300702887
 20
150.0153439229
 10
123.1254394056
 20
150.0257139161
 10
123.0221036741
 20
150.0321058275
 10
122.9200659774
 20
150.0345108007
 10
122.8193234321
 20
150.0329376921
 10
122.7201001534
 20
150.0273900012
 10
122.6223995235
 20
150.0178588796
 10
122.5262181601
 20
150.0043531757
 10
122.4317700314
 20
149.9869029348
 10
122.3391264599
 20
149.9655181719
 10
122.2482161231
 20
149.940188872
 10
122.1590390208
 20
149.9109150351
  0
LWPOLYLINE
  5
432
100
AcDbEntity
  8
ASSI
100
AcDbPolyline
 62
7
  6
CONTINUOUS
 90
22
 70
0
 10
124.325427644
 20
149.7988327266
 10
124.2095902547
 20
149.849838155
 10
124.0943465295
 20
149.8968727879
 10
123.9796964684
 20
149.9399366255
 10
123.8655545554
 20
149.9790561389
 10
123.7520063065
 20
150.014204857
 10
123.6393082702
 20
150.0453033653
 10
123.5274623689
 20
150.0723425061
 10
123.4164666802
 20
150.0953314372
 10
123.3065719854
 20
150.1142182179
 10
123.1977807738
 20
150.128993573
 10
123.0900905561
 20
150.1396667776
 10
122.9837446452
 20
150.146213717
 10
122.8787460807
 20
150.1486250614
 10
122.7750918231
 20
150.1469101407
 10
122.6730160663
 20
150.1410728293
 10
122.5725223797
 20
150.1311038064
 10
122.4736071941
 20
150.1170123929
 10
122.3764939963
 20
150.0988304268
 10
122.281257282
 20
150.0765685205
 10
122.1878225554
 20
150.0502160615
 10
122.0961898167
 20
150.0197730498
  0
LINE
  5
433
100
AcDbEntity
  8
ASSI
100
AcDbLine
 62
7
  6
CONTINUOUS
 10
128.9774972052
 20
61.1956277157
 11
128.8980472927
 21
61.149754332
  0
LINE
  5
434
100
AcDbEntity
  8
ASSI
100
AcDbLine
 62
7
  6
CONTINUOUS
 10
125.3104012879
 20
57.9554872783
 11
125.2093111205
 21
57.8971190826
  0
LINE
  5
435
100
AcDbEntity
  8
ASSI
100
AcDbLine
 62
7
  6
CONTINUOUS
 10
128.3716838113
 20
58.3600357451
 11
128.0006997436
 21
58.1458341939
  0
LINE
  5
436
100
AcDbEntity
  8
ASSI
100
AcDbLine
 62
7
  6
CONTINUOUS
 10
122.0961898167
 20
60.7607899662
 11
122.1590390208
 21
60.7970712953
  0
LINE
  5
437
100
AcDbEntity
  8
ASSI
100
AcDbLine
 62
7
  6
CONTINUOUS
 10
128.0006997436
 20
64.169321081
 11
128.0635489478
 21
64.2056024101
  0
LWPOLYLINE
  5
438
100
AcDbEntity
  8
ASSI
100
AcDbPolyline
 62
7
  6
CONTINUOUS
 90
13
 70
0
 10
162.8066258925
 20
148.5831439644
 10
162.9058006385
 20
148.5792154846
 10
163.0075256003
 20
148.571011512
 10
163.1076291121
 20
148.5586879895
 10
163.2061147798
 20
148.5422540781
 10
163.302763268
 20
148.5217463773
 10
163.3975704823
 20
148.4971558078
 10
163.4905405171
 20
148.4684914489
 10
163.581466321
 20
148.4358171385
 10
163.6703433381
 20
148.3991239394
 10
163.7571761242
 20
148.3584207886
 10
163.8417712961
 20
148.3137983354
 10
163.8674615603
 20
148.2992129284
  0
LINE
  5
439
100
AcDbEntity
  8
ASSI
100
AcDbLine
 62
7
  6
CONTINUOUS
 10
158.1457218405
 20
137.5730372137
 11
157.7921684499
 21
137.7771745103
  0
LINE
  5
43A
100
AcDbEntity
  8
ASSI
100
AcDbLine
 62
7
  6
CONTINUOUS
 10
156.8948301094
 20
140.6436730123
 11
156.7303220365
 21
140.7386579118
  0
LWPOLYLINE
  5
43B
100
AcDbEntity
  8
ASSI
100
AcDbPolyline
 62
7
  6
CONTINUOUS
 90
13
 70
0
 10
157.7921688852
 20
137.7771752641
 10
157.7355065787
 20
137.811140348
 10
157.6553916223
 20
137.8636101413
 10
157.5776927023
 20
137.919882383
 10
157.5024152034
 20
137.9799655474
 10
157.4295537409
 20
138.0438511602
 10
157.359270583
 20
138.1113969429
 10
157.2915714759
 20
138.1826110532
 10
157.2264506734
 20
138.2574853336
 10
157.1640532045
 20
138.3358530331
 10
157.1043851388
 20
138.4177219378
 10
157.0474404068
 20
138.5030842617
 10
157.0159046297
 20
138.5547740943
  0
LWPOLYLINE
  5
43C
100
AcDbEntity
  8
ASSI
100
AcDbPolyline
 62
7
  6
CONTINUOUS
 90
5
 70
0
 10
158.1457222757
 20
137.5730379675
 10
158.0890599693
 20
137.6070030513
 10
158.0089450129
 20
137.6594728447
 10
157.9312460928
 20
137.7157450863
 10
157.855968594
 20
137.7758282508
  0
LWPOLYLINE
  5
43D
100
AcDbEntity
  8
ASSI
100
AcDbPolyline
 62
7
  6
CONTINUOUS
 90
28
 70
0
 10
158.0207161483
 20
137.3565349525
 10
157.9579637016
 20
137.3942402044
 10
157.8745359689
 20
137.4491340158
 10
157.7936340992
 20
137.507996545
 10
157.7152637391
 20
137.5708366636
 10
157.6394192421
 20
137.6376454999
 10
157.5662700288
 20
137.708273817
 10
157.4958221242
 20
137.7827301533
 10
157.4280695033
 20
137.8610059705
 10
157.3631635109
 20
137.942926417
 10
157.3011105107
 20
138.0284996403
 10
157.241904139
 20
138.1177174928
 10
157.1856766503
 20
138.210380681
 10
157.1324347039
 20
138.3064969066
 10
157.0821716405
 20
138.4060584679
 10
157.0349997371
 20
138.5088429653
 10
156.990925904
 20
138.6148576037
 10
156.9499432309
 20
138.7240951782
 10
156.9121432645
 20
138.8363116754
 10
156.8775331195
 20
138.9515137546
 10
156.8461056811
 20
139.0696947564
 10
156.8179311516
 20
139.1905906895
 10
156.7930168027
 20
139.3142076232
 10
156.7713553627
 20
139.4405394883
 10
156.7529952186
 20
139.5693040862
 10
156.7379524995
 20
139.7004073508
 10
156.7262110763
 20
139.8339433482
 10
156.717770949
 20
139.9699120784
  0
LWPOLYLINE
  5
43E
100
AcDbEntity
  8
ASSI
100
AcDbPolyline
 62
7
  6
CONTINUOUS
 90
24
 70
0
 10
157.855968594
 20
137.7758282508
 10
157.7831071315
 20
137.8397138635
 10
157.7128239736
 20
137.9072596462
 10
157.6451248665
 20
137.9784737566
 10
157.580004064
 20
138.0533480369
 10
157.5176065951
 20
138.1317157365
 10
157.4579385294
 20
138.2135846411
 10
157.4009937974
 20
138.298946965
 10
157.3468992192
 20
138.3876125996
 10
157.2956611472
 20
138.4795889071
 10
157.2472732292
 20
138.5748685253
 10
157.2018432287
 20
138.6732392591
 10
157.1593777382
 20
138.7747079979
 10
157.1198701653
 20
138.8792678522
 10
157.0834084964
 20
138.9866859593
 10
157.04999952
 20
139.0969686894
 10
157.0196364475
 20
139.2101096722
 10
156.9923869
 20
139.3258569341
 10
156.9682578166
 20
139.4442162836
 10
156.9472422582
 20
139.5651819122
 10
156.9293870279
 20
139.6884844199
 10
156.9147077268
 20
139.8140340069
 10
156.903188754
 20
139.9419204731
 10
156.8948301094
 20
140.0721438185
  0
LINE
  5
43F
100
AcDbEntity
  8
ASSI
100
AcDbLine
 62
7
  6
CONTINUOUS
 10
161.0915801885
 20
181.6999167079
 11
161.1115216186
 21
181.6008194522
  0
LWPOLYLINE
  5
440
100
AcDbEntity
  8
ASSI
100
AcDbPolyline
 62
7
  6
CONTINUOUS
 90
3
 70
0
 10
161.1115216186
 20
181.6008194522
 10
161.1267631181
 20
181.501519074
 10
161.1340688011
 20
181.4324904883
  0
LINE
  5
441
100
AcDbEntity
  8
0
100
AcDbLine
 62
7
  6
CONTINUOUS
 10
104.2749659082
 20
43.4383047955
 11
103.5541659466
 21
43.0221239315
  0
LINE
  5
442
100
AcDbEntity
  8
0
100
AcDbLine
 62
7
  6
CONTINUOUS
 10
103.5541659466
 20
42.4914182515
 11
103.6602217138
 21
42.5526535223
  0
LINE
  5
443
100
AcDbEntity
  8
0
100
AcDbLine
 62
7
  6
CONTINUOUS
 10
103.9077193372
 20
42.2872809549
 11
104.0137751044
 21
42.3485162256
  0
LINE
  5
444
100
AcDbEntity
  8
0
100
AcDbLine
 62
7
  6
CONTINUOUS
 10
104.0844960325
 20
42.1852123065
 11
104.1905517997
 21
42.2464475773
  0
LINE
  5
445
100
AcDbEntity
  8
0
100
AcDbLine
 62
7
  6
CONTINUOUS
 10
103.5541659466
 20
38.9397725475
 11
103.6602217138
 21
39.0010078183
  0
LINE
  5
446
100
AcDbEntity
  8
0
100
AcDbLine
 62
7
  6
CONTINUOUS
 10
103.200612556
 20
38.7152629488
 11
103.2182885172
 21
38.7254688273
  0
LINE
  5
447
100
AcDbEntity
  8
0
100
AcDbLine
 62
7
  6
CONTINUOUS
 10
104.0844960325
 20
38.9601744407
 11
103.9077193372
 21
38.8581057923
  0
LWPOLYLINE
  5
448
100
AcDbEntity
  8
ASSI
100
AcDbPolyline
 62
7
  6
CONTINUOUS
 90
6
 70
0
 10
163.8440939077
 20
148.2643541523
 10
163.9350197116
 20
148.2316798418
 10
164.0238967286
 20
148.1949866427
 10
164.1107295148
 20
148.154283492
 10
164.1953246867
 20
148.1096610387
 10
164.2210149509
 20
148.0950756317
  0
LINE
  5
449
100
AcDbEntity
  8
ASSI
100
AcDbLine
 62
7
  6
CONTINUOUS
 10
165.6489662777
 20
145.6982015208
 11
165.4560361328
 21
145.8095969685
  0
LINE
  5
44A
100
AcDbEntity
  8
0
100
AcDbLine
 62
7
  6
CONTINUOUS
 10
148.4731242215
 20
155.9070364767
 11
148.1195708309
 21
156.1111737733
  0
LINE
  5
44B
100
AcDbEntity
  8
ASSI
100
AcDbLine
 62
7
  6
CONTINUOUS
 10
164.2210153862
 20
148.0950763855
 11
163.8674619956
 21
148.2992136822
  0
LWPOLYLINE
  5
44C
100
AcDbEntity
  8
ASSI
100
AcDbPolyline
 62
7
  6
CONTINUOUS
 90
28
 70
0
 10
164.2210149509
 20
148.0950756317
 10
164.2776772574
 20
148.0611105479
 10
164.3577922138
 20
148.0086407545
 10
164.4354911338
 20
147.9523685129
 10
164.5107686327
 20
147.8922853484
 10
164.5836300952
 20
147.8283997357
 10
164.6539132531
 20
147.7608539529
 10
164.7216123602
 20
147.6896398426
 10
164.7867331627
 20
147.6147655623
 10
164.8491306315
 20
147.5363978627
 10
164.9087986972
 20
147.454528958
 10
164.9657434293
 20
147.3691666342
 10
165.0198380075
 20
147.2805009996
 10
165.0710760795
 20
147.1885246921
 10
165.1194639975
 20
147.0932450739
 10
165.164893998
 20
146.99487434
 10
165.2073594885
 20
146.8934056013
 10
165.2468670614
 20
146.788845747
 10
165.2833287303
 20
146.6814276399
 10
165.3167377067
 20
146.5711449098
 10
165.3471007791
 20
146.458003927
 10
165.3743503267
 20
146.3422566651
 10
165.39847941
 20
146.2238973156
 10
165.4194949685
 20
146.102931687
 10
165.4373501988
 20
145.9796291792
 10
165.4520294998
 20
145.8540795922
 10
165.4635484727
 20
145.726193126
 10
165.4719071173
 20
145.5959697806
  0
LWPOLYLINE
  5
44D
100
AcDbEntity
  8
ASSI
100
AcDbPolyline
 62
7
  6
CONTINUOUS
 90
28
 70
0
 10
164.3460210783
 20
148.3115786466
 10
164.4087735251
 20
148.2738733948
 10
164.4922012578
 20
148.2189795833
 10
164.5731031275
 20
148.1601170542
 10
164.6514734876
 20
148.0972769356
 10
164.7273179845
 20
148.0304680993
 10
164.8004671979
 20
147.9598397822
 10
164.8709151024
 20
147.8853834459
 10
164.9386677234
 20
147.8071076287
 10
165.0035737158
 20
147.7251871821
 10
165.065626716
 20
147.6396139589
 10
165.1248330877
 20
147.5503961063
 10
165.1810605764
 20
147.4577329182
 10
165.2343025228
 20
147.3616166925
 10
165.2845655862
 20
147.2620551313
 10
165.3317374895
 20
147.1592706339
 10
165.3758113227
 20
147.0532559955
 10
165.4167939958
 20
146.944018421
 10
165.4545939622
 20
146.8318019237
 10
165.4892041072
 20
146.7165998446
 10
165.5206315456
 20
146.5984188428
 10
165.548806075
 20
146.4775229096
 10
165.5737204239
 20
146.353905976
 10
165.595381864
 20
146.2275741109
 10
165.613742008
 20
146.098809513
 10
165.6287847272
 20
145.9677062484
 10
165.6405261504
 20
145.834170251
 10
165.6489662777
 20
145.6982015208
  0
LWPOLYLINE
  5
44E
100
AcDbEntity
  8
0
100
AcDbPolyline
 62
7
  6
CONTINUOUS
 90
18
 70
0
 10
167.1760985839
 20
142.2731092925
 10
167.1933001827
 20
142.2627030798
 10
167.2095934895
 20
142.2518522201
 10
167.2249785043
 20
142.2405567134
 10
167.2395049691
 20
142.2287762481
 10
167.2531231418
 20
142.2165511358
 10
167.2656837968
 20
142.2040023117
 10
167.2771637567
 20
142.1911268658
 10
167.2875861989
 20
142.1779277082
 10
167.2968714294
 20
142.1645345044
 10
167.3049938695
 20
142.1509850204
 10
167.311979098
 20
142.1372414903
 10
167.3178241575
 20
142.1233202825
 10
167.3225439765
 20
142.1091924546
 10
167.3261236265
 20
142.0948869491
 10
167.3285153646
 20
142.0805069614
 10
167.3297032764
 20
142.0660372352
 10
167.3298517654
 20
142.058765131
  0
LWPOLYLINE
  5
44F
100
AcDbEntity
  8
ASSI
100
AcDbPolyline
 62
7
  6
CONTINUOUS
 90
3
 70
0
 10
164.1635938919
 20
148.4049666678
 10
164.2195497369
 20
148.3642543509
 10
164.297920097
 20
148.3014142322
  0
LWPOLYLINE
  5
450
100
AcDbEntity
  8
ASSI
100
AcDbPolyline
 62
7
  6
CONTINUOUS
 90
13
 70
0
 10
164.297920097
 20
148.3014142322
 10
164.3737645939
 20
148.234605396
 10
164.4469138073
 20
148.1639770788
 10
164.5173617119
 20
148.0895207425
 10
164.5851143328
 20
148.0112449253
 10
164.6500203252
 20
147.9293244788
 10
164.7120733254
 20
147.8437512556
 10
164.7712796971
 20
147.754533403
 10
164.8275071858
 20
147.6618702148
 10
164.8807491322
 20
147.5657539892
 10
164.9310121956
 20
147.466192428
 10
164.9781840989
 20
147.3634079305
 10
164.9972792064
 20
147.3174768015
  0
LWPOLYLINE
  5
451
100
AcDbEntity
  8
ASSI
100
AcDbPolyline
 62
7
  6
CONTINUOUS
 90
13
 70
0
 10
149.0297834884
 20
180.1675400289
 10
149.0007560951
 20
180.2207514753
 10
148.9552973867
 20
180.3127571131
 10
148.9142257008
 20
180.4053745764
 10
148.8775508148
 20
180.498605229
 10
148.8452629512
 20
180.5924477071
 10
148.8174340177
 20
180.6866930164
 10
148.794073952
 20
180.7813420547
 10
148.7751728163
 20
180.8763939241
 10
148.7607727049
 20
180.9716369367
 10
148.7508836494
 20
181.0670715187
 10
148.7454956182
 20
181.1626972439
 10
148.7444084443
 20
181.2289266602
  0
LWPOLYLINE
  5
452
100
AcDbEntity
  8
ASSI
100
AcDbPolyline
 62
7
  6
CONTINUOUS
 90
41
 70
0
 10
156.0763302996
 20
167.8311165255
 10
156.0944170009
 20
167.8348803499
 10
156.1199987771
 20
167.8417407174
 10
156.1459354046
 20
167.8502013966
 10
156.1720512821
 20
167.8602051052
 10
156.1983476262
 20
167.871762314
 10
156.2248232204
 20
167.8848625522
 10
156.2512988146
 20
167.8994171262
 10
156.2777744088
 20
167.9154359047
 10
156.3042500029
 20
167.932909019
 10
156.330546347
 20
167.9517181693
 10
156.3566622246
 20
167.9718724214
 10
156.382598852
 20
167.9933627095
 10
156.4081806282
 20
168.0160435359
 10
156.4334051452
 20
168.0399229792
 10
156.4582748109
 20
168.0649929608
 10
156.4826212481
 20
168.0910837471
 10
156.5064409061
 20
168.118202265
 10
156.5297373355
 20
168.1463415876
 10
156.5523528103
 20
168.1753112007
 10
156.5742827098
 20
168.2051167384
 10
156.5955316547
 20
168.2357525665
 10
156.6159557813
 20
168.2670112686
 10
156.6355494927
 20
168.2988970712
 10
156.6543183859
 20
168.3314057477
 10
156.6721353881
 20
168.3643172017
 10
156.68899404
 20
168.3976341663
 10
156.7049008009
 20
168.4313539084
 10
156.7197479758
 20
168.465248132
 10
156.7335283747
 20
168.4993180213
 10
156.7462491875
 20
168.5335623921
 10
156.7578242895
 20
168.5677493968
 10
156.7682459061
 20
168.601878646
 10
156.7775218119
 20
168.635950529
 10
156.7855892052
 20
168.6697343659
 10
156.7924398856
 20
168.7032282019
 10
156.7980820535
 20
168.7364339918
 10
156.8024775094
 20
168.7691269193
 10
156.8056135199
 20
168.8012320457
 10
156.8075028184
 20
168.8328243098
 10
156.8081454047
 20
168.8639037115
  0
LWPOLYLINE
  5
453
100
AcDbEntity
  8
ASSI
100
AcDbPolyline
 62
7
  6
CONTINUOUS
 90
40
 70
0
 10
156.0720459862
 20
167.8441105343
 10
156.0767393314
 20
167.8450872147
 10
156.1023211076
 20
167.8519475822
 10
156.128257735
 20
167.8604082614
 10
156.1543736126
 20
167.8704119701
 10
156.1806699567
 20
167.8819691788
 10
156.2071455508
 20
167.895069417
 10
156.233621145
 20
167.9096239911
 10
156.2600967392
 20
167.9256427696
 10
156.2865723334
 20
167.9431158839
 10
156.3128686775
 20
167.9619250341
 10
156.338984555
 20
167.9820792862
 10
156.3649211825
 20
168.0035695743
 10
156.3905029587
 20
168.0262504007
 10
156.4157274757
 20
168.050129844
 10
156.4405971414
 20
168.0751998256
 10
156.4649435785
 20
168.101290612
 10
156.4887632366
 20
168.1284091299
 10
156.5120596659
 20
168.1565484525
 10
156.5346751407
 20
168.1855180655
 10
156.5566050402
 20
168.2153236032
 10
156.5778539851
 20
168.2459594313
 10
156.5982781118
 20
168.2772181334
 10
156.6178718232
 20
168.309103936
 10
156.6366407164
 20
168.3416126126
 10
156.6544577185
 20
168.3745240666
 10
156.6713163705
 20
168.4078410312
 10
156.6872231314
 20
168.4415607732
 10
156.7020703063
 20
168.4754549969
 10
156.7158507051
 20
168.5095248861
 10
156.728571518
 20
168.543769257
 10
156.74014662
 20
168.5779562616
 10
156.7505682366
 20
168.6120855108
 10
156.7598441423
 20
168.6461573938
 10
156.7679115357
 20
168.6799412307
 10
156.774762216
 20
168.7134350668
 10
156.780404384
 20
168.7466408566
 10
156.7847998398
 20
168.7793337842
 10
156.7879358504
 20
168.8114389106
 10
156.7898251488
 20
168.8430311746
  0
LWPOLYLINE
  5
454
100
AcDbEntity
  8
0
100
AcDbPolyline
 62
7
  6
CONTINUOUS
 90
25
 70
0
 10
144.9375903156
 20
164.7861507368
 10
144.972377202
 20
164.7669336402
 10
145.0084371645
 20
164.74867449
 10
145.045770203
 20
164.7313732863
 10
145.0844521336
 20
164.7150007793
 10
145.1244071402
 20
164.6995862188
 10
145.1654077749
 20
164.6852173537
 10
145.2074600013
 20
164.6719001481
 10
145.2505578558
 20
164.6596286379
 10
145.2944559993
 20
164.64847268
 10
145.3391589963
 20
164.6384386368
 10
145.3846622823
 20
164.6295201459
 10
145.4307068253
 20
164.6217679766
 10
145.4772957122
 20
164.6151887811
 10
145.524425856
 20
164.6097759073
 10
145.5718289634
 20
164.6055601685
 10
145.6195065915
 20
164.6025483925
 10
145.6674571832
 20
164.6007337516
 10
145.7154077749
 20
164.6001265757
 10
145.7633583666
 20
164.6007337516
 10
145.8113089583
 20
164.6025483925
 10
145.8589865863
 20
164.6055601685
 10
145.9063896938
 20
164.6097759073
 10
145.9535198376
 20
164.6151887811
 10
145.9805728178
 20
164.6190091524
  0
LINE
  5
455
100
AcDbEntity
  8
0
100
AcDbLine
 62
7
  6
CONTINUOUS
 10
148.4731242215
 20
159.9893878606
 11
148.1195708309
 21
160.1935251573
  0
LINE
  5
456
100
AcDbEntity
  8
0
100
AcDbLine
 62
7
  6
CONTINUOUS
 10
144.9375903156
 20
164.7861507368
 11
143.3466000579
 21
165.7047685718
  0
LINE
  5
457
100
AcDbEntity
  8
0
100
AcDbLine
 62
7
  6
CONTINUOUS
 10
104.5971484489
 20
188.0782162861
 11
106.1881387066
 21
187.1595984511
  0
LINE
  5
458
100
AcDbEntity
  8
0
100
AcDbLine
 62
7
  6
CONTINUOUS
 10
145.9805728178
 20
164.6738278777
 11
144.2128058649
 21
165.694514361
  0
LINE
  5
459
100
AcDbEntity
  8
0
100
AcDbLine
 62
7
  6
CONTINUOUS
 10
105.3219328996
 20
188.1496169941
 11
103.5541659466
 21
189.1703034774
  0
LINE
  5
45A
100
AcDbEntity
  8
0
100
AcDbLine
 62
7
  6
CONTINUOUS
 10
144.2128058649
 20
166.0211813816
 11
144.0537068391
 21
166.1130431651
  0
LINE
  5
45B
100
AcDbEntity
  8
0
100
AcDbLine
 62
7
  6
CONTINUOUS
 10
105.8421842311
 20
188.1758974161
 11
106.1881387066
 21
187.9761476378
  0
LINE
  5
45C
100
AcDbEntity
  8
0
100
AcDbLine
 62
7
  6
CONTINUOUS
 10
145.9805728178
 20
165.0820630161
 11
144.2128058649
 21
166.1027494994
  0
LINE
  5
45D
100
AcDbEntity
  8
0
100
AcDbLine
 62
7
  6
CONTINUOUS
 10
105.3219328996
 20
188.5578521324
 11
103.5541659466
 21
189.5785386158
  0
LINE
  5
45E
100
AcDbEntity
  8
0
100
AcDbLine
 62
7
  6
CONTINUOUS
 10
145.9805728178
 20
165.2045335576
 11
145.6270194272
 21
165.4086708543
  0
LINE
  5
45F
100
AcDbEntity
  8
0
100
AcDbLine
 62
7
  6
CONTINUOUS
 10
145.4502427319
 20
165.5107395026
 11
143.3466000579
 21
166.7253564178
  0
LINE
  5
460
100
AcDbEntity
  8
0
100
AcDbLine
 62
7
  6
CONTINUOUS
 10
103.5541659466
 20
189.7010091573
 11
103.9077193372
 21
189.4968718606
  0
LINE
  5
461
100
AcDbEntity
  8
0
100
AcDbLine
 62
7
  6
CONTINUOUS
 10
104.0844960325
 20
189.3948032123
 11
106.1881387066
 21
188.1801862971
  0
LINE
  5
462
100
AcDbEntity
  8
0
100
AcDbLine
 62
250
  6
CONTINUOUS
 10
152.0086581274
 20
162.0307608273
 11
151.6551047369
 21
162.2348981239
  0
LINE
  5
463
100
AcDbEntity
  8
0
100
AcDbLine
 62
7
  6
CONTINUOUS
 10
147.8190504489
 20
165.2454123084
 11
147.5715630755
 21
165.388308416
  0
LINE
  5
464
100
AcDbEntity
  8
0
100
AcDbLine
 62
7
  6
CONTINUOUS
 10
147.8190504489
 20
165.6536474468
 11
147.7129878484
 21
165.714886663
  0
LINE
  5
465
100
AcDbEntity
  8
0
100
AcDbLine
 62
7
  6
CONTINUOUS
 10
152.0086581274
 20
163.2554662425
 11
151.6551047369
 21
163.4596035391
  0
LWPOLYLINE
  5
466
100
AcDbEntity
  8
0
100
AcDbPolyline
 62
7
  6
CONTINUOUS
 90
19
 70
0
 10
104.5971484489
 20
188.0782162861
 10
104.5638656055
 20
188.0983017984
 10
104.5322418672
 20
188.1191223688
 10
104.5022772339
 20
188.1406779973
 10
104.4739210469
 20
188.1630124592
 10
104.447223965
 20
188.1860819793
 10
104.422337964
 20
188.2097552319
 10
104.3992733733
 20
188.2340356604
 10
104.3780198635
 20
188.2589198214
 10
104.3586984224
 20
188.2842660593
 10
104.3413200695
 20
188.3100770095
 10
104.3258737852
 20
188.3363500366
 10
104.3124474993
 20
188.3629355786
 10
104.3010527325
 20
188.389835418
 10
104.291677964
 20
188.4170477724
 10
104.2843765607
 20
188.4444177325
 10
104.2791603477
 20
188.4719461974
 10
104.2760174999
 20
188.4996322681
 10
104.2749659082
 20
188.5273183388
  0
LWPOLYLINE
  5
467
100
AcDbEntity
  8
ASSI
100
AcDbPolyline
 62
7
  6
CONTINUOUS
 90
12
 70
0
 10
130.2034400859
 20
200.2543559429
 10
130.2336656984
 20
200.2148582881
 10
130.2990988799
 20
200.1226050576
 10
130.3601953962
 20
200.0292861691
 10
130.4168187707
 20
199.9351100771
 10
130.4689590038
 20
199.8400748655
 10
130.516626095
 20
199.7441824505
 10
130.5597135663
 20
199.6476470353
 10
130.59821118
 20
199.5504671825
 10
130.6321291738
 20
199.4526443297
 10
130.6613917819
 20
199.3543969921
 10
130.6859885975
 20
199.255724221
  0
LWPOLYLINE
  5
468
100
AcDbEntity
  8
0
100
AcDbPolyline
 62
7
  6
CONTINUOUS
 90
6
 70
0
 10
167.31926078
 20
180.1665349407
 10
167.3225439765
 20
180.1567073532
 10
167.3261236265
 20
180.1424018477
 10
167.3285153646
 20
180.12802186
 10
167.3297032764
 20
180.1135521338
 10
167.3298517654
 20
180.1062800296
  0
LINE
  5
469
100
AcDbEntity
  8
ASSI
100
AcDbLine
 62
7
  6
CONTINUOUS
 10
156.717770949
 20
54.8120622089
 11
156.8948301094
 21
54.914293949
  0
LINE
  5
46A
100
AcDbEntity
  8
ASSI
100
AcDbLine
 62
7
  6
CONTINUOUS
 10
165.4719071173
 20
59.8665907174
 11
165.6489662777
 21
59.9688224575
  0
LINE
  5
46B
100
AcDbEntity
  8
ASSI
100
AcDbLine
 62
7
  6
CONTINUOUS
 10
165.6489662777
 20
59.3972932638
 11
165.4719071173
 21
59.2950615236
  0
LINE
  5
46C
100
AcDbEntity
  8
ASSI
100
AcDbLine
 62
7
  6
CONTINUOUS
 10
156.8948301094
 20
54.3427647553
 11
156.717770949
 21
54.2405330151
  0
LWPOLYLINE
  5
46D
100
AcDbEntity
  8
ASSI
100
AcDbPolyline
 62
7
  6
CONTINUOUS
 90
41
 70
0
 10
163.1473981115
 20
171.9138624588
 10
163.1654848128
 20
171.9176262832
 10
163.191066589
 20
171.9244866507
 10
163.2170032164
 20
171.9329473298
 10
163.243119094
 20
171.9429510385
 10
163.2694154381
 20
171.9545082472
 10
163.2958910322
 20
171.9676084855
 10
163.3223666264
 20
171.9821630595
 10
163.3488422206
 20
171.998181838
 10
163.3753178148
 20
172.0156549523
 10
163.4016141589
 20
172.0344641025
 10
163.4277300364
 20
172.0546183547
 10
163.4536666639
 20
172.0761086428
 10
163.4792484401
 20
172.0987894692
 10
163.5044729571
 20
172.1226689125
 10
163.5293426228
 20
172.1477388941
 10
163.5536890599
 20
172.1738296804
 10
163.5775087179
 20
172.2009481983
 10
163.6008051473
 20
172.2290875209
 10
163.6234206221
 20
172.258057134
 10
163.6453505216
 20
172.2878626716
 10
163.6665994665
 20
172.3184984998
 10
163.6870235932
 20
172.3497572018
 10
163.7066173046
 20
172.3816430045
 10
163.7253861978
 20
172.414151681
 10
163.7432031999
 20
172.447063135
 10
163.7600618519
 20
172.4803800996
 10
163.7759686128
 20
172.5140998417
 10
163.7908157877
 20
172.5479940653
 10
163.8045961865
 20
172.5820639546
 10
163.8173169994
 20
172.6163083254
 10
163.8288921014
 20
172.6504953301
 10
163.839313718
 20
172.6846245793
 10
163.8485896237
 20
172.7186964623
 10
163.8566570171
 20
172.7524802991
 10
163.8635076974
 20
172.7859741352
 10
163.8691498654
 20
172.8191799251
 10
163.8735453212
 20
172.8518728526
 10
163.8766813318
 20
172.883977979
 10
163.8785706302
 20
172.9155702431
 10
163.8792132166
 20
172.9466496447
  0
LWPOLYLINE
  5
46E
100
AcDbEntity
  8
ASSI
100
AcDbPolyline
 62
7
  6
CONTINUOUS
 90
40
 70
0
 10
163.1431137981
 20
171.9268564676
 10
163.1478071433
 20
171.927833148
 10
163.1733889195
 20
171.9346935155
 10
163.1993255469
 20
171.9431541947
 10
163.2254414245
 20
171.9531579033
 10
163.2517377685
 20
171.9647151121
 10
163.2782133627
 20
171.9778153503
 10
163.3046889569
 20
171.9923699243
 10
163.3311645511
 20
172.0083887029
 10
163.3576401453
 20
172.0258618171
 10
163.3839364893
 20
172.0446709674
 10
163.4100523669
 20
172.0648252195
 10
163.4359889943
 20
172.0863155076
 10
163.4615707705
 20
172.108996334
 10
163.4867952875
 20
172.1328757773
 10
163.5116649533
 20
172.1579457589
 10
163.5360113904
 20
172.1840365452
 10
163.5598310484
 20
172.2111550631
 10
163.5831274778
 20
172.2392943857
 10
163.6057429526
 20
172.2682639988
 10
163.6276728521
 20
172.2980695365
 10
163.648921797
 20
172.3287053646
 10
163.6693459236
 20
172.3599640667
 10
163.6889396351
 20
172.3918498693
 10
163.7077085282
 20
172.4243585458
 10
163.7255255304
 20
172.4572699998
 10
163.7423841823
 20
172.4905869644
 10
163.7582909432
 20
172.5243067065
 10
163.7731381181
 20
172.5582009301
 10
163.786918517
 20
172.5922708194
 10
163.7996393299
 20
172.6265151902
 10
163.8112144318
 20
172.6607021949
 10
163.8216360485
 20
172.6948314441
 10
163.8309119542
 20
172.7289033271
 10
163.8389793476
 20
172.762687164
 10
163.8458300279
 20
172.796181
 10
163.8514721958
 20
172.8293867899
 10
163.8558676517
 20
172.8620797174
 10
163.8590036622
 20
172.8941848439
 10
163.8608929607
 20
172.9257771079
  0
LWPOLYLINE
  5
46F
100
AcDbEntity
  8
ASSI
100
AcDbPolyline
 62
7
  6
CONTINUOUS
 90
51
 70
0
 10
156.2110870101
 20
167.6562727874
 10
156.220601527
 20
167.651036723
 10
156.2401952384
 20
167.6417772472
 10
156.2606193651
 20
167.6341038146
 10
156.28186831
 20
167.6280057354
 10
156.3037982094
 20
167.623524296
 10
156.3264136843
 20
167.6206704663
 10
156.3497101136
 20
167.6194332764
 10
156.3735297717
 20
167.6198211026
 10
156.3978762088
 20
167.6218449716
 10
156.4227458745
 20
167.6254938566
 10
156.4479703915
 20
167.6307430532
 10
156.4735521677
 20
167.6376034207
 10
156.4994887952
 20
167.6460640999
 10
156.5256046727
 20
167.6560678086
 10
156.5519010168
 20
167.6676250173
 10
156.578376611
 20
167.6807252555
 10
156.6048522052
 20
167.6952798296
 10
156.6313277993
 20
167.7112986081
 10
156.6578033935
 20
167.7287717224
 10
156.6840997376
 20
167.7475808726
 10
156.7102156152
 20
167.7677351247
 10
156.7361522426
 20
167.7892254128
 10
156.7617340188
 20
167.8119062392
 10
156.7869585358
 20
167.8357856825
 10
156.8118282015
 20
167.8608556642
 10
156.8361746387
 20
167.8869464505
 10
156.8599942967
 20
167.9140649684
 10
156.8832907261
 20
167.942204291
 10
156.9059062009
 20
167.971173904
 10
156.9278361003
 20
168.0009794417
 10
156.9490850453
 20
168.0316152698
 10
156.9695091719
 20
168.0628739719
 10
156.9891028833
 20
168.0947597745
 10
157.0078717765
 20
168.1272684511
 10
157.0256887787
 20
168.1601799051
 10
157.0425474306
 20
168.1934968697
 10
157.0584541915
 20
168.2272166117
 10
157.0733013664
 20
168.2611108354
 10
157.0870817653
 20
168.2951807246
 10
157.0998025781
 20
168.3294250955
 10
157.1113776801
 20
168.3636121001
 10
157.1217992967
 20
168.3977413493
 10
157.1310752025
 20
168.4318132323
 10
157.1391425958
 20
168.4655970692
 10
157.1459932762
 20
168.4990909053
 10
157.1516354441
 20
168.5322966951
 10
157.1560309
 20
168.5649896227
 10
157.1591669105
 20
168.5970947491
 10
157.161056209
 20
168.6286870131
 10
157.1616987953
 20
168.6597664148
  0
LINE
  5
470
100
AcDbEntity
  8
0
100
AcDbLine
 62
7
  6
CONTINUOUS
 10
149.5161067238
 20
166.2661027372
 11
149.4100407066
 21
166.3273439262
  0
LINE
  5
471
100
AcDbEntity
  8
0
100
AcDbLine
 62
7
  6
CONTINUOUS
 10
149.3039781061
 20
166.633504498
 11
149.4100407066
 21
166.5722652818
  0
LINE
  5
472
100
AcDbEntity
  8
0
100
AcDbLine
 62
7
  6
CONTINUOUS
 10
145.9805728178
 20
168.6337087202
 11
145.6270194272
 21
168.8378460168
  0
LINE
  5
473
100
AcDbEntity
  8
0
100
AcDbLine
 62
7
  6
CONTINUOUS
 10
103.5541659466
 20
193.1301843198
 11
103.9077193372
 21
192.9260470232
  0
LINE
  5
474
100
AcDbEntity
  8
0
100
AcDbLine
 62
7
  6
CONTINUOUS
 10
145.4502427319
 20
168.980738179
 11
143.3466000579
 21
170.1953550941
  0
LINE
  5
475
100
AcDbEntity
  8
0
100
AcDbLine
 62
7
  6
CONTINUOUS
 10
104.0844960325
 20
192.8648018887
 11
106.1881387066
 21
191.6501849735
  0
LINE
  5
476
100
AcDbEntity
  8
0
100
AcDbLine
 62
7
  6
CONTINUOUS
 10
103.5541659466
 20
193.2526548613
 11
105.3219328996
 21
192.231968378
  0
LINE
  5
477
100
AcDbEntity
  8
0
100
AcDbLine
 62
7
  6
CONTINUOUS
 10
144.2128058649
 20
169.776865745
 11
145.9805728178
 21
168.7561792617
  0
LINE
  5
478
100
AcDbEntity
  8
0
100
AcDbLine
 62
7
  6
CONTINUOUS
 10
143.3466000579
 20
170.6035902325
 11
106.1881387066
 21
192.0584201119
  0
LINE
  5
479
100
AcDbEntity
  8
0
100
AcDbLine
 62
7
  6
CONTINUOUS
 10
146.3341262084
 20
168.9602771034
 11
145.9805728178
 21
169.1644144001
  0
LINE
  5
47A
100
AcDbEntity
  8
0
100
AcDbLine
 62
7
  6
CONTINUOUS
 10
103.200612556
 20
193.8650272964
 11
103.5541659466
 21
193.6608899997
  0
LINE
  5
47B
100
AcDbEntity
  8
0
100
AcDbLine
 62
7
  6
CONTINUOUS
 10
103.5541659466
 20
193.6608899997
 11
105.3219328996
 21
192.6402035164
  0
LINE
  5
47C
100
AcDbEntity
  8
0
100
AcDbLine
 62
7
  6
CONTINUOUS
 10
144.2128058649
 20
170.1851008834
 11
145.9805728178
 21
169.1644144001
  0
LINE
  5
47D
100
AcDbEntity
  8
0
100
AcDbLine
 62
7
  6
CONTINUOUS
 10
103.200612556
 20
193.8854390533
 11
146.3341262084
 21
168.9806888603
  0
LINE
  5
47E
100
AcDbEntity
  8
0
100
AcDbLine
 62
7
  6
CONTINUOUS
 10
157.6655123769
 20
162.4393116051
 11
157.3119589863
 21
162.6434489018
  0
LINE
  5
47F
100
AcDbEntity
  8
0
100
AcDbLine
 62
7
  6
CONTINUOUS
 10
103.200612556
 20
194.2936741917
 11
146.3341262084
 21
169.3889239987
  0
LINE
  5
480
100
AcDbEntity
  8
0
100
AcDbLine
 62
7
  6
CONTINUOUS
 10
147.5715630755
 20
169.4706598
 11
147.8190504489
 21
169.3277636923
  0
LINE
  5
481
100
AcDbEntity
  8
0
100
AcDbLine
 62
7
  6
CONTINUOUS
 10
147.5715630755
 20
169.6747576417
 11
147.5538871143
 21
169.6849635202
  0
LINE
  5
482
100
AcDbEntity
  8
0
100
AcDbLine
 62
7
  6
CONTINUOUS
 10
147.7306638096
 20
169.7870321685
 11
147.8190504489
 21
169.7359988307
  0
LINE
  5
483
100
AcDbEntity
  8
0
100
AcDbLine
 62
7
  6
CONTINUOUS
 10
157.6655123769
 20
165.2969575739
 11
157.3119589863
 21
165.5010948706
  0
LINE
  5
484
100
AcDbEntity
  8
0
100
AcDbLine
 62
7
  6
CONTINUOUS
 10
149.5161067238
 20
170.3484541211
 11
149.4100407066
 21
170.4096953101
  0
LINE
  5
485
100
AcDbEntity
  8
0
100
AcDbLine
 62
7
  6
CONTINUOUS
 10
149.4100407066
 20
170.6546166657
 11
149.3216540673
 21
170.7056500035
  0
LINE
  5
486
100
AcDbEntity
  8
0
100
AcDbLine
 62
7
  6
CONTINUOUS
 10
149.5161067238
 20
170.7975127734
 11
149.4984307626
 21
170.8077186518
  0
LWPOLYLINE
  5
487
100
AcDbEntity
  8
0
100
AcDbPolyline
 62
7
  6
CONTINUOUS
 90
18
 70
0
 10
167.1760985839
 20
161.2968667418
 10
167.1933001827
 20
161.286460529
 10
167.2095934895
 20
161.2756096693
 10
167.2249785043
 20
161.2643141627
 10
167.2395049691
 20
161.2525336973
 10
167.2531231418
 20
161.240308585
 10
167.2656837968
 20
161.227759761
 10
167.2771637567
 20
161.2148843151
 10
167.2875861989
 20
161.2016851574
 10
167.2968714294
 20
161.1882919537
 10
167.3049938695
 20
161.1747424697
 10
167.311979098
 20
161.1609989395
 10
167.3178241575
 20
161.1470777317
 10
167.3225439765
 20
161.1329499039
 10
167.3261236265
 20
161.1186443984
 10
167.3285153646
 20
161.1042644107
 10
167.3297032764
 20
161.0897946845
 10
167.3298517654
 20
161.0825225803
  0
LWPOLYLINE
  5
488
100
AcDbEntity
  8
ASSI
100
AcDbPolyline
 62
7
  6
CONTINUOUS
 90
51
 70
0
 10
156.9986174002
 20
169.0202275577
 10
156.9891028833
 20
169.0254636221
 10
156.9695091719
 20
169.0347230979
 10
156.9490850453
 20
169.0423965305
 10
156.9278361003
 20
169.0484946097
 10
156.9059062009
 20
169.0529760491
 10
156.8832907261
 20
169.0558298788
 10
156.8599942967
 20
169.0570670687
 10
156.8361746387
 20
169.0566792425
 10
156.8118282015
 20
169.0546553735
 10
156.7869585358
 20
169.0510064885
 10
156.7617340188
 20
169.0457572919
 10
156.7361522426
 20
169.0388969244
 10
156.7102156152
 20
169.0304362452
 10
156.6840997376
 20
169.0204325365
 10
156.6578033935
 20
169.0088753278
 10
156.6313277993
 20
168.9957750896
 10
156.6048522052
 20
168.9812205155
 10
156.578376611
 20
168.965201737
 10
156.5519010168
 20
168.9477286227
 10
156.5256046727
 20
168.9289194725
 10
156.4994887952
 20
168.9087652204
 10
156.4735521677
 20
168.8872749323
 10
156.4479703915
 20
168.8645941059
 10
156.4227458745
 20
168.8407146626
 10
156.3978762088
 20
168.8156446809
 10
156.3735297717
 20
168.7895538946
 10
156.3497101136
 20
168.7624353767
 10
156.3264136843
 20
168.7342960541
 10
156.3037982094
 20
168.705326441
 10
156.28186831
 20
168.6755209034
 10
156.2606193651
 20
168.6448850753
 10
156.2401952384
 20
168.6136263732
 10
156.220601527
 20
168.5817405706
 10
156.2018326338
 20
168.549231894
 10
156.1840156316
 20
168.51632044
 10
156.1671569797
 20
168.4830034754
 10
156.1512502188
 20
168.4492837334
 10
156.1364030439
 20
168.4153895097
 10
156.1226226451
 20
168.3813196205
 10
156.1099018322
 20
168.3470752496
 10
156.0983267302
 20
168.312888245
 10
156.0879051136
 20
168.2787589958
 10
156.0786292078
 20
168.2446871127
 10
156.0705618145
 20
168.2109032759
 10
156.0637111342
 20
168.1774094398
 10
156.0580689662
 20
168.14420365
 10
156.0536735104
 20
168.1115107224
 10
156.0505374998
 20
168.079405596
 10
156.0486482013
 20
168.047813332
 10
156.048005615
 20
168.0167339303
  0
LWPOLYLINE
  5
489
100
AcDbEntity
  8
0
100
AcDbPolyline
 62
7
  6
CONTINUOUS
 90
18
 70
0
 10
109.5645735867
 20
197.9681455317
 10
109.5469613233
 20
197.9778404525
 10
109.5294181552
 20
197.9865264888
 10
109.5119440823
 20
197.9942036407
 10
109.4944793249
 20
198.000894834
 10
109.4770836628
 20
198.0065771428
 10
109.459936435
 20
198.0111817898
 10
109.4430467102
 20
198.014687248
 10
109.4264054197
 20
198.0171150443
 10
109.410164697
 20
198.0184609823
 10
109.3943700355
 20
198.0187217891
 10
109.3789759419
 20
198.0179007375
 10
109.3639980692
 20
198.016003449
 10
109.3494038902
 20
198.0130283835
 10
109.3352259321
 20
198.008977081
 10
109.3215774307
 20
198.0038597827
 10
109.3084531316
 20
197.9976550798
 10
109.3020687822
 20
197.994141003
  0
LWPOLYLINE
  5
48A
100
AcDbEntity
  8
0
100
AcDbPolyline
 62
7
  6
CONTINUOUS
 90
18
 70
0
 10
110.2009696898
 20
198.3355926657
 10
110.1833574264
 20
198.3452875864
 10
110.1658142582
 20
198.3539736228
 10
110.1483401853
 20
198.3616507747
 10
110.130875428
 20
198.368341968
 10
110.1134797659
 20
198.3740242768
 10
110.0963325381
 20
198.3786289238
 10
110.0794428133
 20
198.382134382
 10
110.0628015228
 20
198.3845621783
 10
110.0465608001
 20
198.3859081163
 10
110.0307661386
 20
198.3861689231
 10
110.0153720449
 20
198.3853478715
 10
110.0003941723
 20
198.383450583
 10
109.9857999932
 20
198.3804755175
 10
109.9716220352
 20
198.376424215
 10
109.9579735338
 20
198.3713069167
 10
109.9448492347
 20
198.3651022138
 10
109.9384648853
 20
198.361588137
  0
LWPOLYLINE
  5
48B
100
AcDbEntity
  8
ASSI
100
AcDbPolyline
 62
7
  6
CONTINUOUS
 90
51
 70
0
 10
163.282154822
 20
171.7390187207
 10
163.2916693389
 20
171.7337826562
 10
163.3112630503
 20
171.7245231804
 10
163.3316871769
 20
171.7168497479
 10
163.3529361218
 20
171.7107516687
 10
163.3748660213
 20
171.7062702293
 10
163.3974814961
 20
171.7034163996
 10
163.4207779255
 20
171.7021792097
 10
163.4445975835
 20
171.7025670358
 10
163.4689440206
 20
171.7045909048
 10
163.4938136864
 20
171.7082397899
 10
163.5190382034
 20
171.7134889865
 10
163.5446199796
 20
171.720349354
 10
163.570556607
 20
171.7288100332
 10
163.5966724846
 20
171.7388137418
 10
163.6229688286
 20
171.7503709506
 10
163.6494444228
 20
171.7634711888
 10
163.675920017
 20
171.7780257629
 10
163.7023956112
 20
171.7940445414
 10
163.7288712054
 20
171.8115176556
 10
163.7551675494
 20
171.8303268059
 10
163.781283427
 20
171.850481058
 10
163.8072200545
 20
171.8719713461
 10
163.8328018306
 20
171.8946521725
 10
163.8580263477
 20
171.9185316158
 10
163.8828960134
 20
171.9436015974
 10
163.9072424505
 20
171.9696923837
 10
163.9310621085
 20
171.9968109016
 10
163.9543585379
 20
172.0249502242
 10
163.9769740127
 20
172.0539198373
 10
163.9989039122
 20
172.083725375
 10
164.0201528571
 20
172.1143612031
 10
164.0405769838
 20
172.1456199052
 10
164.0601706952
 20
172.1775057078
 10
164.0789395884
 20
172.2100143843
 10
164.0967565905
 20
172.2429258383
 10
164.1136152424
 20
172.2762428029
 10
164.1295220034
 20
172.309962545
 10
164.1443691783
 20
172.3438567687
 10
164.1581495771
 20
172.3779266579
 10
164.17087039
 20
172.4121710288
 10
164.182445492
 20
172.4463580334
 10
164.1928671086
 20
172.4804872826
 10
164.2021430143
 20
172.5145591656
 10
164.2102104077
 20
172.5483430025
 10
164.217061088
 20
172.5818368385
 10
164.222703256
 20
172.6150426284
 10
164.2270987118
 20
172.6477355559
 10
164.2302347224
 20
172.6798406824
 10
164.2321240208
 20
172.7114329464
 10
164.2327666072
 20
172.7425123481
  0
LINE
  5
48C
100
AcDbEntity
  8
ASSI
100
AcDbLine
 62
250
  6
CONTINUOUS
 10
157.1616987953
 20
168.6597664148
 11
156.8081454047
 21
168.8639037115
  0
LINE
  5
48D
100
AcDbEntity
  8
ASSI
100
AcDbLine
 62
250
  6
CONTINUOUS
 10
156.7904677352
 20
168.8741105763
 11
156.604907338
 21
168.981250824
  0
LINE
  5
48E
100
AcDbEntity
  8
0
100
AcDbLine
 62
7
  6
CONTINUOUS
 10
152.0086581274
 20
171.8079923919
 11
151.6551047369
 21
172.0121296885
  0
LINE
  5
48F
100
AcDbEntity
  8
0
100
AcDbLine
 62
7
  6
CONTINUOUS
 10
153.0693182992
 20
172.4204042819
 11
152.7157649086
 21
172.6245415785
  0
LWPOLYLINE
  5
490
100
AcDbEntity
  8
0
100
AcDbPolyline
 62
7
  6
CONTINUOUS
 90
34
 70
0
 10
152.6980872391
 20
173.0633953387
 10
152.7156995025
 20
173.0527520592
 10
152.7332426707
 20
173.0411796847
 10
152.7507167436
 20
173.0286782152
 10
152.7681815009
 20
173.0152015444
 10
152.785577163
 20
173.0007957786
 10
152.8027243908
 20
172.9855992368
 10
152.8196141156
 20
172.9696008641
 10
152.8362554061
 20
172.9528117154
 10
152.8524961288
 20
172.9354032738
 10
152.8682907903
 20
172.9174248015
 10
152.883684884
 20
172.8988270364
 10
152.8986627566
 20
172.879633676
 10
152.9132569357
 20
172.8598056183
 10
152.9274348937
 20
172.8393819653
 10
152.9410833951
 20
172.8185037197
 10
152.9542076942
 20
172.7971434052
 10
152.9668025367
 20
172.7753284981
 10
152.9787389239
 20
172.7532824307
 10
152.9899956872
 20
172.7310234925
 10
153.0005939953
 20
172.7085333939
 10
153.0104683553
 20
172.6859806986
 10
153.0196011685
 20
172.6634131263
 10
153.0280100337
 20
172.6407829574
 10
153.035682255
 20
172.6181155964
 10
153.0426377472
 20
172.5953470153
 10
153.0488565955
 20
172.5725412421
 10
153.0542663605
 20
172.5499157656
 10
153.0588529332
 20
172.5274682607
 10
153.0626304226
 20
172.5052010524
 10
153.0655687152
 20
172.483338604
 10
153.0676577733
 20
172.4619557367
 10
153.0689076346
 20
172.4409776293
 10
153.0693182992
 20
172.4204042819
  0
LWPOLYLINE
  5
491
100
AcDbEntity
  8
0
100
AcDbPolyline
 62
7
  6
CONTINUOUS
 90
34
 70
0
 10
153.3344833422
 20
173.4308424727
 10
153.3520956056
 20
173.4201991931
 10
153.3696387737
 20
173.4086268186
 10
153.3871128466
 20
173.3961253492
 10
153.404577604
 20
173.3826486784
 10
153.4219732661
 20
173.3682429126
 10
153.4391204939
 20
173.3530463708
 10
153.4560102187
 20
173.3370479981
 10
153.4726515092
 20
173.3202588494
 10
153.4888922319
 20
173.3028504078
 10
153.5046868934
 20
173.2848719355
 10
153.520080987
 20
173.2662741704
 10
153.5350588597
 20
173.24708081
 10
153.5496530387
 20
173.2272527523
 10
153.5638309968
 20
173.2068290993
 10
153.5774794982
 20
173.1859508537
 10
153.5906037973
 20
173.1645905392
 10
153.6031986397
 20
173.1427756321
 10
153.615135027
 20
173.1207295647
 10
153.6263917903
 20
173.0984706265
 10
153.6369900983
 20
173.0759805279
 10
153.6468644584
 20
173.0534278326
 10
153.6559972715
 20
173.0308602603
 10
153.6644061367
 20
173.0082300914
 10
153.6720783581
 20
172.9855627303
 10
153.6790338502
 20
172.9627941493
 10
153.6852526986
 20
172.9399883761
 10
153.6906624635
 20
172.9173628996
 10
153.6952490363
 20
172.8949153947
 10
153.6990265256
 20
172.8726481864
 10
153.7019648182
 20
172.850785738
 10
153.7040538763
 20
172.8294028707
 10
153.7053037377
 20
172.8084247633
 10
153.7057144023
 20
172.7878514159
  0
LWPOLYLINE
  5
492
100
AcDbEntity
  8
0
100
AcDbPolyline
 62
7
  6
CONTINUOUS
 90
16
 70
0
 10
152.6980872391
 20
172.6551602003
 10
152.6999712295
 20
172.6539487305
 10
152.7017937791
 20
172.6525627866
 10
152.7035548879
 20
172.6510023685
 10
152.7052707207
 20
172.649248972
 10
152.7069251128
 20
172.6473211013
 10
152.7084695695
 20
172.645274269
 10
152.7099039473
 20
172.643099229
 10
152.7112283898
 20
172.6408052274
 10
152.7123948321
 20
172.6384755147
 10
152.713395195
 20
172.6361145902
 10
152.7142375578
 20
172.6337179546
 10
152.7148980932
 20
172.6313553604
 10
152.715368859
 20
172.6290500584
 10
152.7156577975
 20
172.6267787978
 10
152.7157649086
 20
172.6245415785
  0
LWPOLYLINE
  5
493
100
AcDbEntity
  8
ASSI
100
AcDbPolyline
 62
7
  6
CONTINUOUS
 90
28
 70
0
 10
119.7007309539
 20
196.757485295
 10
119.5871944415
 20
196.8327863017
 10
119.4774152939
 20
196.9097301069
 10
119.3713935111
 20
196.9883167105
 10
119.2690556904
 20
197.0686071198
 10
119.1704752344
 20
197.1505403276
 10
119.075872351
 20
197.2339333124
 10
118.9852559319
 20
197.3187893375
 10
118.8986170852
 20
197.4051051398
 10
118.8161493439
 20
197.492687908
 10
118.7378620323
 20
197.5815404743
 10
118.663745826
 20
197.6716600066
 10
118.5939662849
 20
197.7628451968
 10
118.5285331034
 20
197.8550984273
 10
118.4674365871
 20
197.9484173158
 10
118.4108132126
 20
198.0425934078
 10
118.3586729795
 20
198.1376286194
 10
118.3110058882
 20
198.2335210344
 10
118.267918417
 20
198.3300564496
 10
118.2294208032
 20
198.4272363024
 10
118.1955028095
 20
198.5250591552
 10
118.1662402014
 20
198.6233064928
 10
118.1416433858
 20
198.7219792639
 10
118.1217019557
 20
198.8210765196
 10
118.1064604562
 20
198.9203768978
 10
118.0959293937
 20
199.0198808525
 10
118.0900982617
 20
199.1195879297
 10
118.088816679
 20
199.1929693117
  0
LWPOLYLINE
  5
494
100
AcDbEntity
  8
ASSI
100
AcDbPolyline
 62
7
  6
CONTINUOUS
 90
28
 70
0
 10
150.1063225449
 20
179.2016777819
 10
149.9927860325
 20
179.2769787886
 10
149.883006885
 20
179.3539225938
 10
149.7769851021
 20
179.4325091975
 10
149.6746472814
 20
179.5127996067
 10
149.5760668255
 20
179.5947328145
 10
149.4814639421
 20
179.6781257993
 10
149.3908475229
 20
179.7629818245
 10
149.3042086762
 20
179.8492976267
 10
149.221740935
 20
179.9368803949
 10
149.1434536233
 20
180.0257329612
 10
149.069337417
 20
180.1158524935
 10
148.9995578759
 20
180.2070376837
 10
148.9341246944
 20
180.2992909142
 10
148.8730281781
 20
180.3926098027
 10
148.8164048036
 20
180.4867858947
 10
148.7642645705
 20
180.5818211063
 10
148.7165974793
 20
180.6777135213
 10
148.673510008
 20
180.7742489365
 10
148.6350123943
 20
180.8714287893
 10
148.6010944005
 20
180.9692516421
 10
148.5718317924
 20
181.0674989797
 10
148.5472349768
 20
181.1661717508
 10
148.5272935468
 20
181.2652690065
 10
148.5120520473
 20
181.3645693847
 10
148.5015209848
 20
181.4640733394
 10
148.4956898528
 20
181.5637804166
 10
148.49440827
 20
181.6371617986
  0
LWPOLYLINE
  5
495
100
AcDbEntity
  8
ASSI
100
AcDbPolyline
 62
7
  6
CONTINUOUS
 90
23
 70
0
 10
119.8777901143
 20
196.8597170351
 10
119.7691886741
 20
196.9320744989
 10
119.6641911072
 20
197.0060005992
 10
119.5627974136
 20
197.0814953359
 10
119.4649376217
 20
197.1586171257
 10
119.370681703
 20
197.237307552
 10
119.2802395729
 20
197.3173913651
 10
119.1936197313
 20
197.3988716705
 10
119.1108136782
 20
197.4817453627
 10
119.0320058291
 20
197.5658278756
 10
118.957205095
 20
197.6511219034
 10
118.886402565
 20
197.7376247518
 10
118.8197559216
 20
197.8251437723
 10
118.7572744274
 20
197.9136812298
 10
118.69894882
 20
198.0032348594
 10
118.6449089949
 20
198.0936052183
 10
118.5951645041
 20
198.1847941268
 10
118.5497057957
 20
198.2767997645
 10
118.5086341097
 20
198.3694172279
 10
118.4719592237
 20
198.4626478805
 10
118.4396713602
 20
198.5564903586
 10
118.4118424267
 20
198.6507356679
 10
118.3884823609
 20
198.7453847062
  0
LWPOLYLINE
  5
496
100
AcDbEntity
  8
ASSI
100
AcDbPolyline
 62
7
  6
CONTINUOUS
 90
23
 70
0
 10
150.2833817053
 20
179.303909522
 10
150.1747802651
 20
179.3762669858
 10
150.0697826982
 20
179.4501930861
 10
149.9683890047
 20
179.5256878229
 10
149.8705292127
 20
179.6028096127
 10
149.776273294
 20
179.6815000389
 10
149.6858311639
 20
179.761583852
 10
149.5992113223
 20
179.8430641574
 10
149.5164052692
 20
179.9259378496
 10
149.4375974201
 20
180.0100203625
 10
149.362796686
 20
180.0953143903
 10
149.291994156
 20
180.1818172387
 10
149.2253475127
 20
180.2693362592
 10
149.1628660185
 20
180.3578737167
 10
149.104540411
 20
180.4474273463
 10
149.0505005859
 20
180.5377977052
 10
149.0007560951
 20
180.6289866137
 10
148.9552973867
 20
180.7209922514
 10
148.9142257008
 20
180.8136097148
 10
148.8775508148
 20
180.9068403674
 10
148.8452629512
 20
181.0006828455
 10
148.8174340177
 20
181.0949281548
 10
148.794073952
 20
181.1895771931
  0
LWPOLYLINE
  5
497
100
AcDbEntity
  8
ASSI
100
AcDbPolyline
 62
7
  6
CONTINUOUS
 90
12
 70
0
 10
160.6090316769
 20
182.6985484298
 10
160.6392572894
 20
182.659050775
 10
160.7046904709
 20
182.5667975445
 10
160.7657869872
 20
182.473478656
 10
160.8224103617
 20
182.379302564
 10
160.8745505948
 20
182.2842673524
 10
160.9222176861
 20
182.1883749374
 10
160.9653051573
 20
182.0918395222
 10
161.0038027711
 20
181.9946596694
 10
161.0377207648
 20
181.8968368166
 10
161.0669833729
 20
181.798589479
 10
161.0915801885
 20
181.6999167079
  0
LWPOLYLINE
  5
498
100
AcDbEntity
  8
ASSI
100
AcDbPolyline
 62
7
  6
CONTINUOUS
 90
18
 70
0
 10
156.0885864862
 20
25.3986919513
 10
156.1113901879
 20
25.4231294699
 10
156.135209846
 20
25.4502479878
 10
156.1585062753
 20
25.4783873104
 10
156.1811217502
 20
25.5073569235
 10
156.2030516496
 20
25.5371624611
 10
156.2243005945
 20
25.5677982893
 10
156.2447247212
 20
25.5990569913
 10
156.2643184326
 20
25.6309427939
 10
156.2830873258
 20
25.6634514705
 10
156.300904328
 20
25.6963629245
 10
156.3177629799
 20
25.7296798891
 10
156.3336697408
 20
25.7633996311
 10
156.3485169157
 20
25.7972938548
 10
156.3622973145
 20
25.831363744
 10
156.3750181274
 20
25.8656081149
 10
156.3865932294
 20
25.8997951196
 10
156.3963334734
 20
25.9316929745
  0
LWPOLYLINE
  5
499
100
AcDbEntity
  8
ASSI
100
AcDbPolyline
 62
7
  6
CONTINUOUS
 90
18
 70
0
 10
163.1596542981
 20
29.4814378846
 10
163.1824579998
 20
29.5058754032
 10
163.2062776578
 20
29.5329939211
 10
163.2295740872
 20
29.5611332437
 10
163.252189562
 20
29.5901028567
 10
163.2741194615
 20
29.6199083944
 10
163.2953684064
 20
29.6505442225
 10
163.315792533
 20
29.6818029246
 10
163.3353862445
 20
29.7136887272
 10
163.3541551376
 20
29.7461974038
 10
163.3719721398
 20
29.7791088578
 10
163.3888307917
 20
29.8124258224
 10
163.4047375526
 20
29.8461455644
 10
163.4195847275
 20
29.8800397881
 10
163.4333651264
 20
29.9141096773
 10
163.4460859393
 20
29.9483540482
 10
163.4576610412
 20
29.9825410528
 10
163.4674012853
 20
30.0144389077
  0
LWPOLYLINE
  5
49A
100
AcDbEntity
  8
ASSI
100
AcDbPolyline
 62
7
  6
CONTINUOUS
 90
51
 70
0
 10
164.069685212
 20
173.102973491
 10
164.0601706952
 20
173.1082095554
 10
164.0405769838
 20
173.1174690312
 10
164.0201528571
 20
173.1251424638
 10
163.9989039122
 20
173.131240543
 10
163.9769740127
 20
173.1357219824
 10
163.9543585379
 20
173.138575812
 10
163.9310621085
 20
173.1398130019
 10
163.9072424505
 20
173.1394251758
 10
163.8828960134
 20
173.1374013068
 10
163.8580263477
 20
173.1337524218
 10
163.8328018306
 20
173.1285032251
 10
163.8072200545
 20
173.1216428576
 10
163.781283427
 20
173.1131821785
 10
163.7551675494
 20
173.1031784698
 10
163.7288712054
 20
173.0916212611
 10
163.7023956112
 20
173.0785210228
 10
163.675920017
 20
173.0639664488
 10
163.6494444228
 20
173.0479476703
 10
163.6229688286
 20
173.030474556
 10
163.5966724846
 20
173.0116654058
 10
163.570556607
 20
172.9915111536
 10
163.5446199796
 20
172.9700208655
 10
163.5190382034
 20
172.9473400392
 10
163.4938136864
 20
172.9234605958
 10
163.4689440206
 20
172.8983906142
 10
163.4445975835
 20
172.8722998279
 10
163.4207779255
 20
172.84518131
 10
163.3974814961
 20
172.8170419874
 10
163.3748660213
 20
172.7880723743
 10
163.3529361218
 20
172.7582668367
 10
163.3316871769
 20
172.7276310085
 10
163.3112630503
 20
172.6963723065
 10
163.2916693389
 20
172.6644865039
 10
163.2729004457
 20
172.6319778273
 10
163.2550834435
 20
172.5990663733
 10
163.2382247916
 20
172.5657494087
 10
163.2223180307
 20
172.5320296667
 10
163.2074708558
 20
172.498135443
 10
163.1936904569
 20
172.4640655538
 10
163.1809696441
 20
172.4298211829
 10
163.1693945421
 20
172.3956341782
 10
163.1589729255
 20
172.361504929
 10
163.1496970197
 20
172.327433046
 10
163.1416296264
 20
172.2936492092
 10
163.134778946
 20
172.2601553731
 10
163.1291367781
 20
172.2269495832
 10
163.1247413222
 20
172.1942566557
 10
163.1216053117
 20
172.1621515293
 10
163.1197160132
 20
172.1305592653
 10
163.1190734268
 20
172.0994798636
  0
LWPOLYLINE
  5
49B
100
AcDbEntity
  8
0
100
AcDbPolyline
 62
7
  6
CONTINUOUS
 90
18
 70
0
 10
115.8931792783
 20
201.6222031419
 10
115.8755670149
 20
201.6318980627
 10
115.8580238468
 20
201.6405840991
 10
115.8405497739
 20
201.648261251
 10
115.8230850165
 20
201.6549524442
 10
115.8056893544
 20
201.6606347531
 10
115.7885421267
 20
201.6652394
 10
115.7716524018
 20
201.6687448583
 10
115.7550111113
 20
201.6711726546
 10
115.7387703886
 20
201.6725185926
 10
115.7229757271
 20
201.6727793994
 10
115.7075816335
 20
201.6719583478
 10
115.6926037608
 20
201.6700610593
 10
115.6780095818
 20
201.6670859938
 10
115.6638316237
 20
201.6630346913
 10
115.6501831224
 20
201.657917393
 10
115.6370588232
 20
201.6517126901
 10
115.6306744738
 20
201.6481986133
  0
LWPOLYLINE
  5
49C
100
AcDbEntity
  8
0
100
AcDbPolyline
 62
7
  6
CONTINUOUS
 90
18
 70
0
 10
116.5295753814
 20
201.9896502759
 10
116.511963118
 20
201.9993451967
 10
116.4944199499
 20
202.0080312331
 10
116.476945877
 20
202.015708385
 10
116.4594811196
 20
202.0223995782
 10
116.4420854575
 20
202.0280818871
 10
116.4249382297
 20
202.032686534
 10
116.4080485049
 20
202.0361919922
 10
116.3914072144
 20
202.0386197886
 10
116.3751664917
 20
202.0399657266
 10
116.3593718302
 20
202.0402265334
 10
116.3439777365
 20
202.0394054818
 10
116.3289998639
 20
202.0375081932
 10
116.3144056848
 20
202.0345331278
 10
116.3002277268
 20
202.0304818253
 10
116.2865792254
 20
202.025364527
 10
116.2734549263
 20
202.0191598241
 10
116.2670705769
 20
202.0156457473
  0
LINE
  5
49D
100
AcDbEntity
  8
ASSI
100
AcDbLine
 62
250
  6
CONTINUOUS
 10
164.2327666072
 20
172.7425123481
 11
163.8792132166
 21
172.9466496447
  0
LINE
  5
49E
100
AcDbEntity
  8
ASSI
100
AcDbLine
 62
250
  6
CONTINUOUS
 10
163.8615355471
 20
172.9568565096
 11
163.6759751499
 21
173.0639967573
  0
LINE
  5
49F
100
AcDbEntity
  8
0
100
AcDbLine
 62
7
  6
CONTINUOUS
 10
159.3979239908
 20
176.0744618921
 11
159.0443706003
 21
176.2785991888
  0
LWPOLYLINE
  5
4A0
100
AcDbEntity
  8
0
100
AcDbPolyline
 62
7
  6
CONTINUOUS
 90
34
 70
0
 10
159.0266929307
 20
176.717452949
 10
159.0443051941
 20
176.7068096694
 10
159.0618483623
 20
176.6952372949
 10
159.0793224352
 20
176.6827358254
 10
159.0967871925
 20
176.6692591547
 10
159.1141828547
 20
176.6548533889
 10
159.1313300824
 20
176.6396568471
 10
159.1482198073
 20
176.6236584744
 10
159.1648610978
 20
176.6068693257
 10
159.1811018204
 20
176.5894608841
 10
159.1968964819
 20
176.5714824118
 10
159.2122905756
 20
176.5528846467
 10
159.2272684482
 20
176.5336912862
 10
159.2418626273
 20
176.5138632286
 10
159.2560405853
 20
176.4934395756
 10
159.2696890867
 20
176.47256133
 10
159.2828133858
 20
176.4512010155
 10
159.2954082283
 20
176.4293861084
 10
159.3073446155
 20
176.407340041
 10
159.3186013788
 20
176.3850811028
 10
159.3291996869
 20
176.3625910042
 10
159.3390740469
 20
176.3400383089
 10
159.3482068601
 20
176.3174707366
 10
159.3566157253
 20
176.2948405677
 10
159.3642879466
 20
176.2721732066
 10
159.3712434388
 20
176.2494046256
 10
159.3774622871
 20
176.2265988524
 10
159.3828720521
 20
176.2039733759
 10
159.3874586248
 20
176.181525871
 10
159.3912361142
 20
176.1592586627
 10
159.3941744068
 20
176.1373962143
 10
159.3962634649
 20
176.116013347
 10
159.3975133262
 20
176.0950352396
 10
159.3979239908
 20
176.0744618921
  0
LWPOLYLINE
  5
4A1
100
AcDbEntity
  8
0
100
AcDbPolyline
 62
7
  6
CONTINUOUS
 90
34
 70
0
 10
159.6630890338
 20
177.0849000829
 10
159.6807012972
 20
177.0742568034
 10
159.6982444653
 20
177.0626844289
 10
159.7157185382
 20
177.0501829594
 10
159.7331832956
 20
177.0367062887
 10
159.7505789577
 20
177.0223005229
 10
159.7677261855
 20
177.0071039811
 10
159.7846159103
 20
176.9911056084
 10
159.8012572008
 20
176.9743164596
 10
159.8174979235
 20
176.9569080181
 10
159.833292585
 20
176.9389295458
 10
159.8486866787
 20
176.9203317807
 10
159.8636645513
 20
176.9011384202
 10
159.8782587304
 20
176.8813103626
 10
159.8924366884
 20
176.8608867096
 10
159.9060851898
 20
176.840008464
 10
159.9192094889
 20
176.8186481495
 10
159.9318043314
 20
176.7968332424
 10
159.9437407186
 20
176.774787175
 10
159.9549974819
 20
176.7525282367
 10
159.9655957899
 20
176.7300381382
 10
159.97547015
 20
176.7074854429
 10
159.9846029632
 20
176.6849178706
 10
159.9930118283
 20
176.6622877016
 10
160.0006840497
 20
176.6396203406
 10
160.0076395419
 20
176.6168517596
 10
160.0138583902
 20
176.5940459864
 10
160.0192681551
 20
176.5714205099
 10
160.0238547279
 20
176.548973005
 10
160.0276322173
 20
176.5267057967
 10
160.0305705099
 20
176.5048433483
 10
160.032659568
 20
176.483460481
 10
160.0339094293
 20
176.4624823736
 10
160.0343200939
 20
176.4419090261
  0
LWPOLYLINE
  5
4A2
100
AcDbEntity
  8
0
100
AcDbPolyline
 62
7
  6
CONTINUOUS
 90
16
 70
0
 10
159.0266929307
 20
176.3092178106
 10
159.0285769211
 20
176.3080063408
 10
159.0303994707
 20
176.3066203969
 10
159.0321605795
 20
176.3050599787
 10
159.0338764124
 20
176.3033065823
 10
159.0355308044
 20
176.3013787116
 10
159.0370752611
 20
176.2993318793
 10
159.038509639
 20
176.2971568393
 10
159.0398340814
 20
176.2948628377
 10
159.0410005237
 20
176.292533125
 10
159.0420008866
 20
176.2901722005
 10
159.0428432494
 20
176.2877755649
 10
159.0435037849
 20
176.2854129707
 10
159.0439745506
 20
176.2831076687
 10
159.0442634891
 20
176.2808364081
 10
159.0443706003
 20
176.2785991888
  0
LWPOLYLINE
  5
4A3
100
AcDbEntity
  8
0
100
AcDbPolyline
 62
7
  6
CONTINUOUS
 90
16
 70
0
 10
165.3552986223
 20
179.9632754208
 10
165.3571826127
 20
179.9620639511
 10
165.3590051623
 20
179.9606780071
 10
165.3607662711
 20
179.959117589
 10
165.362482104
 20
179.9573641925
 10
165.3641364961
 20
179.9554363219
 10
165.3656809527
 20
179.9533894896
 10
165.3671153306
 20
179.9512144496
 10
165.368439773
 20
179.948920448
 10
165.3696062153
 20
179.9465907353
 10
165.3706065782
 20
179.9442298108
 10
165.371448941
 20
179.9418331752
 10
165.3721094765
 20
179.939470581
 10
165.3725802423
 20
179.937165279
 10
165.3728691807
 20
179.9348940184
 10
165.3729762919
 20
179.9326567991
  0
LWPOLYLINE
  5
4A4
100
AcDbEntity
  8
ASSI
100
AcDbPolyline
 62
7
  6
CONTINUOUS
 90
28
 70
0
 10
129.1269010294
 20
201.6284533283
 10
129.2404375418
 20
201.5531523216
 10
129.3502166893
 20
201.4762085164
 10
129.4562384722
 20
201.3976219127
 10
129.5585762929
 20
201.3173315035
 10
129.6571567488
 20
201.2353982957
 10
129.7517596322
 20
201.1520053109
 10
129.8423760514
 20
201.0671492857
 10
129.9290148981
 20
200.9808334835
 10
130.0114826393
 20
200.8932507153
 10
130.089769951
 20
200.804398149
 10
130.1638861573
 20
200.7142786167
 10
130.2336656984
 20
200.6230934265
 10
130.2990988799
 20
200.530840196
 10
130.3601953962
 20
200.4375213075
 10
130.4168187707
 20
200.3433452155
 10
130.4689590038
 20
200.2483100039
 10
130.516626095
 20
200.1524175888
 10
130.5597135663
 20
200.0558821737
 10
130.59821118
 20
199.9587023209
 10
130.6321291738
 20
199.8608794681
 10
130.6613917819
 20
199.7626321305
 10
130.6859885975
 20
199.6639593594
 10
130.7059300275
 20
199.5648621037
 10
130.721171527
 20
199.4655617255
 10
130.7317025895
 20
199.3660577708
 10
130.7375337215
 20
199.2663506936
 10
130.7388153043
 20
199.1929693116
  0
LWPOLYLINE
  5
4A5
100
AcDbEntity
  8
ASSI
100
AcDbPolyline
 62
7
  6
CONTINUOUS
 90
28
 70
0
 10
159.5324926204
 20
184.0726458152
 10
159.6460291328
 20
183.9973448085
 10
159.7558082804
 20
183.9204010033
 10
159.8618300632
 20
183.8418143997
 10
159.9641678839
 20
183.7615239904
 10
160.0627483399
 20
183.6795907826
 10
160.1573512233
 20
183.5961977978
 10
160.2479676424
 20
183.5113417726
 10
160.3346064891
 20
183.4250259704
 10
160.4170742304
 20
183.3374432022
 10
160.495361542
 20
183.2485906359
 10
160.5694777483
 20
183.1584711036
 10
160.6392572894
 20
183.0672859134
 10
160.7046904709
 20
182.9750326829
 10
160.7657869872
 20
182.8817137944
 10
160.8224103617
 20
182.7875377024
 10
160.8745505948
 20
182.6925024908
 10
160.9222176861
 20
182.5966100758
 10
160.9653051573
 20
182.5000746606
 10
161.0038027711
 20
182.4028948078
 10
161.0377207648
 20
182.305071955
 10
161.0669833729
 20
182.2068246174
 10
161.0915801885
 20
182.1081518463
 10
161.1115216186
 20
182.0090545906
 10
161.1267631181
 20
181.9097542124
 10
161.1372941806
 20
181.8102502577
 10
161.1431253126
 20
181.7105431805
 10
161.1444068953
 20
181.6371617985
  0
LWPOLYLINE
  5
4A6
100
AcDbEntity
  8
ASSI
100
AcDbPolyline
 62
7
  6
CONTINUOUS
 90
28
 70
0
 10
128.949841869
 20
201.5262215882
 10
129.0584433092
 20
201.4538641244
 10
129.1634408761
 20
201.3799380241
 10
129.2648345696
 20
201.3044432873
 10
129.3626943616
 20
201.2273214975
 10
129.4569502803
 20
201.1486310713
 10
129.5473924104
 20
201.0685472582
 10
129.634012252
 20
200.9870669528
 10
129.7168183051
 20
200.9041932606
 10
129.7956261542
 20
200.8201107477
 10
129.8704268883
 20
200.7348167199
 10
129.9412294183
 20
200.6483138715
 10
130.0078760616
 20
200.560794851
 10
130.0703575558
 20
200.4722573935
 10
130.1286831633
 20
200.3827037639
 10
130.1827229884
 20
200.292333405
 10
130.2324674792
 20
200.2011444965
 10
130.2779261876
 20
200.1091388587
 10
130.3189978735
 20
200.0165213954
 10
130.3556727595
 20
199.9232907428
 10
130.3879606231
 20
199.8294482647
 10
130.4157895566
 20
199.7352029554
 10
130.4391496223
 20
199.6405539171
 10
130.458050758
 20
199.5455020477
 10
130.4724508694
 20
199.4502590351
 10
130.4823399249
 20
199.3548244531
 10
130.4877279561
 20
199.2591987279
 10
130.48881513
 20
199.1929693116
  0
LWPOLYLINE
  5
4A7
100
AcDbEntity
  8
ASSI
100
AcDbPolyline
 62
7
  6
CONTINUOUS
 90
28
 70
0
 10
159.35543346
 20
183.9704140751
 10
159.4640349002
 20
183.8980566113
 10
159.5690324671
 20
183.824130511
 10
159.6704261607
 20
183.7486357742
 10
159.7682859526
 20
183.6715139845
 10
159.8625418713
 20
183.5928235582
 10
159.9529840014
 20
183.5127397451
 10
160.039603843
 20
183.4312594397
 10
160.1224098961
 20
183.3483857475
 10
160.2012177452
 20
183.2643032346
 10
160.2760184793
 20
183.1790092068
 10
160.3468210093
 20
183.0925063584
 10
160.4134676527
 20
183.0049873379
 10
160.4759491469
 20
182.9164498804
 10
160.5342747543
 20
182.8268962508
 10
160.5883145794
 20
182.7365258919
 10
160.6380590702
 20
182.6453369834
 10
160.6835177786
 20
182.5533313457
 10
160.7245894646
 20
182.4607138823
 10
160.7612643506
 20
182.3674832297
 10
160.7935522141
 20
182.2736407516
 10
160.8213811476
 20
182.1793954423
 10
160.8447412134
 20
182.084746404
 10
160.8636423491
 20
181.9896945346
 10
160.8780424605
 20
181.894451522
 10
160.887931516
 20
181.79901694
 10
160.8933195471
 20
181.7033912148
 10
160.894406721
 20
181.6371617985
  0
LWPOLYLINE
  5
4A8
100
AcDbEntity
  8
0
100
AcDbPolyline
 62
250
  6
CONTINUOUS
 90
17
 70
0
 10
165.0097256673
 20
37.2284059289
 10
164.8723812405
 20
37.1335554286
 10
164.7402682201
 20
37.0112186551
 10
164.6184187502
 20
36.8660553783
 10
164.5097256673
 20
36.7005735879
 10
164.4221309141
 20
36.526864641
 10
164.3569174624
 20
36.3487780846
 10
164.3165692724
 20
36.1730971803
 10
164.3026188862
 20
36.0036610588
 10
164.316085625
 20
35.8528500105
 10
164.3559728975
 20
35.7233343606
 10
164.4207614098
 20
35.6200473199
 10
164.5097256673
 20
35.5459102492
 10
164.6163652653
 20
35.5063401663
 10
164.7379878387
 20
35.501263934
 10
164.8699608216
 20
35.5308749046
 10
165.0097257292
 20
35.595465411
  0
LWPOLYLINE
  5
4A9
100
AcDbEntity
  8
0
100
AcDbPolyline
 62
250
  6
CONTINUOUS
 90
17
 70
0
 10
165.0097256673
 20
35.5954653753
 10
165.1470700942
 20
35.6903158756
 10
165.2791831146
 20
35.8126526491
 10
165.4010325845
 20
35.9578159259
 10
165.5097256673
 20
36.1232977163
 10
165.5973204206
 20
36.2970066632
 10
165.6625338723
 20
36.4750932196
 10
165.7028820623
 20
36.6507741239
 10
165.7168324485
 20
36.8202102454
 10
165.7033657097
 20
36.9710212937
 10
165.6634784372
 20
37.1005369436
 10
165.5986899248
 20
37.2038239843
 10
165.5097256673
 20
37.277961055
 10
165.4030860694
 20
37.3175311379
 10
165.281463496
 20
37.3226073702
 10
165.1494905131
 20
37.2929963996
 10
165.0097256055
 20
37.2284058932
  0
LWPOLYLINE
  5
4AA
100
AcDbEntity
  8
0
100
AcDbPolyline
 62
250
  6
CONTINUOUS
 90
17
 70
0
 10
153.4228716898
 20
25.2312448605
 10
153.2855272629
 20
25.1363943602
 10
153.1534142426
 20
25.0140575867
 10
153.0315647727
 20
24.8688943099
 10
152.9228716898
 20
24.7034125195
 10
152.8352769365
 20
24.5297035726
 10
152.7700634848
 20
24.3516170162
 10
152.7297152948
 20
24.1759361119
 10
152.7157649086
 20
24.0064999904
 10
152.7292316474
 20
23.8556889421
 10
152.7691189199
 20
23.7261732922
 10
152.8339074323
 20
23.6228862515
 10
152.9228716898
 20
23.5487491808
 10
153.0295112878
 20
23.5091790979
 10
153.1511338612
 20
23.5041028656
 10
153.2831068441
 20
23.5337138362
 10
153.4228717516
 20
23.5983043426
  0
LWPOLYLINE
  5
4AB
100
AcDbEntity
  8
0
100
AcDbPolyline
 62
250
  6
CONTINUOUS
 90
17
 70
0
 10
153.4228716898
 20
23.5983043069
 10
153.5602161167
 20
23.6931548072
 10
153.692329137
 20
23.8154915807
 10
153.8141786069
 20
23.9606548575
 10
153.9228716898
 20
24.1261366479
 10
154.0104664431
 20
24.2998455948
 10
154.0756798948
 20
24.4779321512
 10
154.1160280848
 20
24.6536130555
 10
154.129978471
 20
24.823049177
 10
154.1165117322
 20
24.9738602253
 10
154.0766244597
 20
25.1033758752
 10
154.0118359473
 20
25.2066629159
 10
153.9228716898
 20
25.2807999866
 10
153.8162320919
 20
25.3203700695
 10
153.6946095184
 20
25.3254463018
 10
153.5626365356
 20
25.2958353312
 10
153.422871628
 20
25.2312448248
  0
LINE
  5
4AC
100
AcDbEntity
  8
0
100
AcDbLine
 62
7
  6
CONTINUOUS
 10
165.9520602507
 20
38.9972429772
 11
148.1195708309
 21
28.7009870798
  0
LINE
  5
4AD
100
AcDbEntity
  8
0
100
AcDbLine
 62
7
  6
CONTINUOUS
 10
147.6776290927
 20
28.0784058072
 11
148.1195708309
 21
28.333577428
  0
LINE
  5
4AE
100
AcDbEntity
  8
0
100
AcDbLine
 62
7
  6
CONTINUOUS
 10
166.3056136413
 20
38.7931056805
 11
148.4731242215
 21
28.4968497831
  0
LINE
  5
4AF
100
AcDbEntity
  8
0
100
AcDbLine
 62
7
  6
CONTINUOUS
 10
157.6655123769
 20
32.5797140812
 11
157.135182291
 21
32.2735081362
  0
LINE
  5
4B0
100
AcDbEntity
  8
0
100
AcDbLine
 62
7
  6
CONTINUOUS
 10
157.135182291
 20
31.048842176
 11
157.3119589863
 21
31.1509108243
  0
LINE
  5
4B1
100
AcDbEntity
  8
0
100
AcDbLine
 62
7
  6
CONTINUOUS
 10
148.1195708309
 20
25.4759709142
 11
147.6776290927
 21
25.2207992933
  0
LINE
  5
4B2
100
AcDbEntity
  8
0
100
AcDbLine
 62
7
  6
CONTINUOUS
 10
157.135182291
 20
30.6405675826
 11
157.6655123769
 21
30.9467735276
  0
LINE
  5
4B3
100
AcDbEntity
  8
0
100
AcDbLine
 62
7
  6
CONTINUOUS
 10
148.1195708309
 20
25.0676963208
 11
147.6776290927
 21
24.8125247
  0
LINE
  5
4B4
100
AcDbEntity
  8
0
100
AcDbLine
 62
7
  6
CONTINUOUS
 10
148.4731242215
 20
24.4144983992
 11
157.6655123769
 21
29.7220681124
  0
LINE
  5
4B5
100
AcDbEntity
  8
0
100
AcDbLine
 62
7
  6
CONTINUOUS
 10
157.3119589863
 20
28.7014999939
 11
151.6551047369
 21
25.4353032473
  0
LINE
  5
4B6
100
AcDbEntity
  8
0
100
AcDbLine
 62
7
  6
CONTINUOUS
 10
157.6655123769
 20
28.4973626973
 11
152.0086581274
 21
25.2311659506
  0
LINE
  5
4B7
100
AcDbEntity
  8
0
100
AcDbLine
 62
7
  6
CONTINUOUS
 10
106.167137096
 20
188.1923123639
 11
105.3219328996
 21
188.1496169941
  0
LINE
  5
4B8
100
AcDbEntity
  8
0
100
AcDbLine
 62
7
  6
CONTINUOUS
 10
105.5169800218
 20
188.5677049101
 11
105.3219328996
 21
188.5578521324
  0
LWPOLYLINE
  5
4B9
100
AcDbEntity
  8
0
100
AcDbPolyline
 62
7
  6
CONTINUOUS
 90
18
 70
0
 10
122.22178497
 20
205.2762607522
 10
122.2041727066
 20
205.285955673
 10
122.1866295384
 20
205.2946417094
 10
122.1691554655
 20
205.3023188613
 10
122.1516907081
 20
205.3090100545
 10
122.134295046
 20
205.3146923633
 10
122.1171478183
 20
205.3192970103
 10
122.1002580934
 20
205.3228024685
 10
122.0836168029
 20
205.3252302649
 10
122.0673760802
 20
205.3265762029
 10
122.0515814188
 20
205.3268370097
 10
122.0361873251
 20
205.3260159581
 10
122.0212094525
 20
205.3241186695
 10
122.0066152734
 20
205.321143604
 10
121.9924373154
 20
205.3170923016
 10
121.978788814
 20
205.3119750033
 10
121.9656645149
 20
205.3057703004
 10
121.9592801654
 20
205.3022562236
  0
LWPOLYLINE
  5
4BA
100
AcDbEntity
  8
0
100
AcDbPolyline
 62
7
  6
CONTINUOUS
 90
18
 70
0
 10
122.858181073
 20
205.6437078862
 10
122.8405688096
 20
205.653402807
 10
122.8230256415
 20
205.6620888434
 10
122.8055515686
 20
205.6697659953
 10
122.7880868112
 20
205.6764571885
 10
122.7706911491
 20
205.6821394973
 10
122.7535439213
 20
205.6867441443
 10
122.7366541965
 20
205.6902496025
 10
122.720012906
 20
205.6926773989
 10
122.7037721833
 20
205.6940233369
 10
122.6879775218
 20
205.6942841437
 10
122.6725834282
 20
205.6934630921
 10
122.6576055555
 20
205.6915658035
 10
122.6430113765
 20
205.688590738
 10
122.6288334184
 20
205.6845394356
 10
122.615184917
 20
205.6794221373
 10
122.6020606179
 20
205.6732174344
 10
122.5956762685
 20
205.6697033576
  0
LWPOLYLINE
  5
4BB
100
AcDbEntity
  8
0
100
AcDbPolyline
 62
7
  6
CONTINUOUS
 90
18
 70
0
 10
166.2541995299
 20
182.1326730523
 10
166.2478151805
 20
182.1361871291
 10
166.2346908814
 20
182.1423918319
 10
166.22104238
 20
182.1475091302
 10
166.206864422
 20
182.1515604327
 10
166.1922702429
 20
182.1545354982
 10
166.1772923703
 20
182.1564327868
 10
166.1618982766
 20
182.1572538383
 10
166.1461036151
 20
182.1569930315
 10
166.1298628924
 20
182.1556470936
 10
166.1132216019
 20
182.1532192972
 10
166.0963318771
 20
182.149713839
 10
166.0791846493
 20
182.145109192
 10
166.0617889872
 20
182.1394268832
 10
166.0443242299
 20
182.1327356899
 10
166.026850157
 20
182.125058538
 10
166.0093069888
 20
182.1163725017
 10
165.9916947254
 20
182.1066775809
  0
LWPOLYLINE
  5
4BC
100
AcDbEntity
  8
0
100
AcDbPolyline
 62
7
  6
CONTINUOUS
 90
18
 70
0
 10
165.6178034269
 20
182.5001201863
 10
165.6114190774
 20
182.503634263
 10
165.5982947783
 20
182.5098389659
 10
165.5846462769
 20
182.5149562642
 10
165.5704683189
 20
182.5190075667
 10
165.5558741399
 20
182.5219826322
 10
165.5408962672
 20
182.5238799208
 10
165.5255021735
 20
182.5247009723
 10
165.5097075121
 20
182.5244401655
 10
165.4934667894
 20
182.5230942276
 10
165.4768254989
 20
182.5206664312
 10
165.459935774
 20
182.517160973
 10
165.4427885463
 20
182.512556326
 10
165.4253928842
 20
182.5068740172
 10
165.4079281268
 20
182.5001828239
 10
165.3904540539
 20
182.492505672
 10
165.3729108857
 20
182.4838196357
 10
165.3552986223
 20
182.4741247149
  0
LWPOLYLINE
  5
4BD
100
AcDbEntity
  8
0
100
AcDbPolyline
 62
7
  6
CONTINUOUS
 90
18
 70
0
 10
158.2638929025
 20
186.7461759569
 10
158.2575085531
 20
186.7496900337
 10
158.244384254
 20
186.7558947366
 10
158.2307357526
 20
186.7610120348
 10
158.2165577946
 20
186.7650633373
 10
158.2019636155
 20
186.7680384028
 10
158.1869857429
 20
186.7699356914
 10
158.1715916492
 20
186.770756743
 10
158.1557969877
 20
186.7704959361
 10
158.139556265
 20
186.7691499982
 10
158.1229149745
 20
186.7667222018
 10
158.1060252497
 20
186.7632167436
 10
158.0888780219
 20
186.7586120966
 10
158.0714823598
 20
186.7529297878
 10
158.0540176025
 20
186.7462385945
 10
158.0365435296
 20
186.7385614426
 10
158.0190003614
 20
186.7298754063
 10
158.001388098
 20
186.7201804855
  0
LWPOLYLINE
  5
4BE
100
AcDbEntity
  8
0
100
AcDbPolyline
 62
7
  6
CONTINUOUS
 90
18
 70
0
 10
157.6274967995
 20
187.1136230909
 10
157.62111245
 20
187.1171371677
 10
157.6079881509
 20
187.1233418705
 10
157.5943396495
 20
187.1284591688
 10
157.5801616915
 20
187.1325104713
 10
157.5655675124
 20
187.1354855368
 10
157.5505896398
 20
187.1373828254
 10
157.5351955461
 20
187.1382038769
 10
157.5194008847
 20
187.1379430701
 10
157.503160162
 20
187.1365971322
 10
157.4865188715
 20
187.1341693358
 10
157.4696291466
 20
187.1306638776
 10
157.4524819189
 20
187.1260592306
 10
157.4350862568
 20
187.1203769218
 10
157.4176214994
 20
187.1136857285
 10
157.4001474265
 20
187.1060085766
 10
157.3826042583
 20
187.0973225403
 10
157.3649919949
 20
187.0876276195
  0
LWPOLYLINE
  5
4BF
100
AcDbEntity
  8
0
100
AcDbPolyline
 62
7
  6
CONTINUOUS
 90
18
 70
0
 10
150.2735862751
 20
191.3596788615
 10
150.2672019257
 20
191.3631929383
 10
150.2540776266
 20
191.3693976412
 10
150.2404291252
 20
191.3745149394
 10
150.2262511672
 20
191.3785662419
 10
150.2116569881
 20
191.3815413074
 10
150.1966791155
 20
191.383438596
 10
150.1812850218
 20
191.3842596476
 10
150.1654903603
 20
191.3839988407
 10
150.1492496376
 20
191.3826529028
 10
150.1326083471
 20
191.3802251064
 10
150.1157186223
 20
191.3767196482
 10
150.0985713945
 20
191.3721150012
 10
150.0811757324
 20
191.3664326924
 10
150.0637109751
 20
191.3597414991
 10
150.0462369021
 20
191.3520643472
 10
150.028693734
 20
191.3433783109
 10
150.0110814706
 20
191.3336833901
  0
LWPOLYLINE
  5
4C0
100
AcDbEntity
  8
0
100
AcDbPolyline
 62
7
  6
CONTINUOUS
 90
18
 70
0
 10
149.6371901721
 20
191.7271259955
 10
149.6308058226
 20
191.7306400723
 10
149.6176815235
 20
191.7368447752
 10
149.6040330221
 20
191.7419620734
 10
149.5898550641
 20
191.7460133759
 10
149.575260885
 20
191.7489884414
 10
149.5602830124
 20
191.75088573
 10
149.5448889187
 20
191.7517067816
 10
149.5290942572
 20
191.7514459747
 10
149.5128535346
 20
191.7501000368
 10
149.4962122441
 20
191.7476722404
 10
149.4793225192
 20
191.7441667822
 10
149.4621752915
 20
191.7395621352
 10
149.4447796293
 20
191.7338798264
 10
149.427314872
 20
191.7271886331
 10
149.4098407991
 20
191.7195114812
 10
149.3922976309
 20
191.7108254449
 10
149.3746853675
 20
191.7011305241
  0
LWPOLYLINE
  5
4C1
100
AcDbEntity
  8
0
100
AcDbPolyline
 62
7
  6
CONTINUOUS
 90
18
 70
0
 10
142.2832796477
 20
195.9731817661
 10
142.2768952983
 20
195.9766958429
 10
142.2637709992
 20
195.9829005458
 10
142.2501224978
 20
195.988017844
 10
142.2359445398
 20
195.9920691465
 10
142.2213503607
 20
195.995044212
 10
142.2063724881
 20
195.9969415006
 10
142.1909783944
 20
195.9977625522
 10
142.1751837329
 20
195.9975017453
 10
142.1589430102
 20
195.9961558074
 10
142.1423017197
 20
195.993728011
 10
142.1254119949
 20
195.9902225528
 10
142.1082647671
 20
195.9856179058
 10
142.090869105
 20
195.979935597
 10
142.0734043476
 20
195.9732444037
 10
142.0559302747
 20
195.9655672518
 10
142.0383871066
 20
195.9568812155
 10
142.0207748432
 20
195.9471862947
  0
LWPOLYLINE
  5
4C2
100
AcDbEntity
  8
0
100
AcDbPolyline
 62
7
  6
CONTINUOUS
 90
18
 70
0
 10
141.6468835447
 20
196.3406289001
 10
141.6404991952
 20
196.3441429769
 10
141.6273748961
 20
196.3503476798
 10
141.6137263947
 20
196.355464978
 10
141.5995484367
 20
196.3595162805
 10
141.5849542576
 20
196.362491346
 10
141.569976385
 20
196.3643886346
 10
141.5545822913
 20
196.3652096862
 10
141.5387876298
 20
196.3649488793
 10
141.5225469071
 20
196.3636029414
 10
141.5059056167
 20
196.361175145
 10
141.4890158918
 20
196.3576696868
 10
141.471868664
 20
196.3530650398
 10
141.4544730019
 20
196.347382731
 10
141.4370082446
 20
196.3406915377
 10
141.4195341717
 20
196.3330143858
 10
141.4019910035
 20
196.3243283495
 10
141.3843787401
 20
196.3146334287
  0
LWPOLYLINE
  5
4C3
100
AcDbEntity
  8
0
100
AcDbPolyline
 62
7
  6
CONTINUOUS
 90
18
 70
0
 10
134.2929730203
 20
200.5866846707
 10
134.2865886709
 20
200.5901987475
 10
134.2734643718
 20
200.5964034504
 10
134.2598158704
 20
200.6015207486
 10
134.2456379123
 20
200.6055720511
 10
134.2310437333
 20
200.6085471166
 10
134.2160658606
 20
200.6104444052
 10
134.200671767
 20
200.6112654568
 10
134.1848771055
 20
200.6110046499
 10
134.1686363828
 20
200.609658712
 10
134.1519950923
 20
200.6072309156
 10
134.1351053675
 20
200.6037254574
 10
134.1179581397
 20
200.5991208104
 10
134.1005624776
 20
200.5934385016
 10
134.0830977202
 20
200.5867473083
 10
134.0656236473
 20
200.5790701564
 10
134.0480804792
 20
200.5703841201
 10
134.0304682158
 20
200.5606891993
  0
LWPOLYLINE
  5
4C4
100
AcDbEntity
  8
0
100
AcDbPolyline
 62
7
  6
CONTINUOUS
 90
18
 70
0
 10
133.6565769172
 20
200.9541318047
 10
133.6501925678
 20
200.9576458815
 10
133.6370682687
 20
200.9638505844
 10
133.6234197673
 20
200.9689678826
 10
133.6092418093
 20
200.9730191851
 10
133.5946476302
 20
200.9759942506
 10
133.5796697576
 20
200.9778915392
 10
133.5642756639
 20
200.9787125908
 10
133.5484810024
 20
200.9784517839
 10
133.5322402797
 20
200.977105846
 10
133.5155989892
 20
200.9746780496
 10
133.4987092644
 20
200.9711725914
 10
133.4815620366
 20
200.9665679444
 10
133.4641663745
 20
200.9608856356
 10
133.4467016172
 20
200.9541944423
 10
133.4292275443
 20
200.9465172904
 10
133.4116843761
 20
200.9378312541
 10
133.3940721127
 20
200.9281363333
  0
LWPOLYLINE
  5
4C5
100
AcDbEntity
  8
0
100
AcDbPolyline
 62
7
  6
CONTINUOUS
 90
18
 70
0
 10
126.3026663929
 20
205.2001875753
 10
126.2962820435
 20
205.2037016521
 10
126.2831577444
 20
205.209906355
 10
126.269509243
 20
205.2150236532
 10
126.2553312849
 20
205.2190749557
 10
126.2407371059
 20
205.2220500212
 10
126.2257592332
 20
205.2239473098
 10
126.2103651396
 20
205.2247683614
 10
126.1945704781
 20
205.2245075545
 10
126.1783297554
 20
205.2231616166
 10
126.1616884649
 20
205.2207338202
 10
126.1447987401
 20
205.217228362
 10
126.1276515123
 20
205.212623715
 10
126.1102558502
 20
205.2069414062
 10
126.0927910928
 20
205.2002502129
 10
126.0753170199
 20
205.192573061
 10
126.0577738518
 20
205.1838870247
 10
126.0401615884
 20
205.1741921039
  0
LWPOLYLINE
  5
4C6
100
AcDbEntity
  8
0
100
AcDbPolyline
 62
7
  6
CONTINUOUS
 90
18
 70
0
 10
125.6662702898
 20
205.5676347093
 10
125.6598859404
 20
205.5711487861
 10
125.6467616413
 20
205.577353489
 10
125.6331131399
 20
205.5824707872
 10
125.6189351819
 20
205.5865220897
 10
125.6043410028
 20
205.5894971552
 10
125.5893631302
 20
205.5913944438
 10
125.5739690365
 20
205.5922154954
 10
125.558174375
 20
205.5919546885
 10
125.5419336523
 20
205.5906087506
 10
125.5252923618
 20
205.5881809542
 10
125.508402637
 20
205.584675496
 10
125.4912554092
 20
205.580070849
 10
125.4738597471
 20
205.5743885402
 10
125.4563949898
 20
205.5676973469
 10
125.4389209169
 20
205.560020195
 10
125.4213777487
 20
205.5513341587
 10
125.4037654853
 20
205.5416392379
  0
LINE
  5
4C7
100
AcDbEntity
  8
0
100
AcDbLine
 62
7
  6
CONTINUOUS
 10
165.7265296825
 20
179.7285195024
 11
165.3729762919
 21
179.9326567991
  0
LINE
  5
4C8
100
AcDbEntity
  8
0
100
AcDbLine
 62
7
  6
CONTINUOUS
 10
167.3557521089
 20
180.6692121125
 11
167.0021987183
 21
180.8733494092
  0
LINE
  5
4C9
100
AcDbEntity
  8
0
100
AcDbLine
 62
7
  6
CONTINUOUS
 10
167.1760985839
 20
180.9941707417
 11
167.0169995581
 21
181.0860325252
  0
LINE
  5
4CA
100
AcDbEntity
  8
0
100
AcDbLine
 62
7
  6
CONTINUOUS
 10
167.0169995581
 20
181.3309558536
 11
166.645768498
 21
181.5453000151
  0
LINE
  5
4CB
100
AcDbEntity
  8
0
100
AcDbLine
 62
7
  6
CONTINUOUS
 10
124.2547169659
 20
206.0213618851
 11
123.8834859057
 21
206.2357060465
  0
LINE
  5
4CC
100
AcDbEntity
  8
0
100
AcDbLine
 62
250
  6
CONTINUOUS
 10
165.9916947254
 20
182.1066775809
 11
165.3552986223
 21
182.4741247149
  0
LINE
  5
4CD
100
AcDbEntity
  8
0
100
AcDbLine
 62
7
  6
CONTINUOUS
 10
165.3552986223
 20
182.4741247149
 11
158.001388098
 21
186.7201804855
  0
LINE
  5
4CE
100
AcDbEntity
  8
0
100
AcDbLine
 62
250
  6
CONTINUOUS
 10
158.001388098
 20
186.7201804855
 11
157.3649919949
 21
187.0876276195
  0
LINE
  5
4CF
100
AcDbEntity
  8
0
100
AcDbLine
 62
7
  6
CONTINUOUS
 10
157.3649919949
 20
187.0876276195
 11
150.0110814706
 21
191.3336833901
  0
LINE
  5
4D0
100
AcDbEntity
  8
0
100
AcDbLine
 62
250
  6
CONTINUOUS
 10
150.0110814706
 20
191.3336833901
 11
149.3746853675
 21
191.7011305241
  0
LINE
  5
4D1
100
AcDbEntity
  8
0
100
AcDbLine
 62
7
  6
CONTINUOUS
 10
149.3746853675
 20
191.7011305241
 11
142.0207748432
 21
195.9471862947
  0
LINE
  5
4D2
100
AcDbEntity
  8
0
100
AcDbLine
 62
250
  6
CONTINUOUS
 10
142.0207748432
 20
195.9471862947
 11
141.3843787401
 21
196.3146334287
  0
LINE
  5
4D3
100
AcDbEntity
  8
0
100
AcDbLine
 62
7
  6
CONTINUOUS
 10
141.3843787401
 20
196.3146334287
 11
134.0304682158
 21
200.5606891993
  0
LINE
  5
4D4
100
AcDbEntity
  8
0
100
AcDbLine
 62
250
  6
CONTINUOUS
 10
134.0304682158
 20
200.5606891993
 11
133.3940721127
 21
200.9281363333
  0
LINE
  5
4D5
100
AcDbEntity
  8
0
100
AcDbLine
 62
7
  6
CONTINUOUS
 10
133.3940721127
 20
200.9281363333
 11
126.0401615884
 21
205.1741921039
  0
LINE
  5
4D6
100
AcDbEntity
  8
0
100
AcDbLine
 62
250
  6
CONTINUOUS
 10
126.0401615884
 20
205.1741921039
 11
125.4037654853
 21
205.5416392379
  0
LINE
  5
4D7
100
AcDbEntity
  8
0
100
AcDbLine
 62
7
  6
CONTINUOUS
 10
125.4037654853
 20
205.5416392379
 11
124.4138159916
 21
206.1132236685
  0
LINE
  5
4D8
100
AcDbEntity
  8
0
100
AcDbLine
 62
7
  6
CONTINUOUS
 10
167.1760985839
 20
181.4228590647
 11
165.9916947254
 21
182.1066775809
  0
LINE
  5
4D9
100
AcDbEntity
  8
0
100
AcDbLine
 62
7
  6
CONTINUOUS
 10
166.2542074095
 20
182.1326866992
 11
165.6178113064
 21
182.5001338332
  0
LINE
  5
4DA
100
AcDbEntity
  8
0
100
AcDbLine
 62
7
  6
CONTINUOUS
 10
158.2639007821
 20
186.7461896038
 11
157.627504679
 21
187.1136367378
  0
LINE
  5
4DB
100
AcDbEntity
  8
0
100
AcDbLine
 62
7
  6
CONTINUOUS
 10
150.2735941547
 20
191.3596925084
 11
149.6371980516
 21
191.7271396424
  0
LINE
  5
4DC
100
AcDbEntity
  8
0
100
AcDbLine
 62
7
  6
CONTINUOUS
 10
142.2832875273
 20
195.973195413
 11
141.6468914242
 21
196.340642547
  0
LINE
  5
4DD
100
AcDbEntity
  8
0
100
AcDbLine
 62
7
  6
CONTINUOUS
 10
134.2929808999
 20
200.5866983176
 11
133.6565847968
 21
200.9541454516
  0
LINE
  5
4DE
100
AcDbEntity
  8
0
100
AcDbLine
 62
7
  6
CONTINUOUS
 10
126.3026742724
 20
205.2002012222
 11
125.6662781694
 21
205.5676483562
  0
LWPOLYLINE
  5
4DF
100
AcDbEntity
  8
0
100
AcDbPolyline
 62
7
  6
CONTINUOUS
 90
34
 70
0
 10
165.3552986223
 20
180.3715105592
 10
165.3729108857
 20
180.3608672797
 10
165.3904540539
 20
180.3492949052
 10
165.4079281268
 20
180.3367934357
 10
165.4253928842
 20
180.323316765
 10
165.4427885463
 20
180.3089109992
 10
165.459935774
 20
180.2937144574
 10
165.4768254989
 20
180.2777160847
 10
165.4934667894
 20
180.2609269359
 10
165.5097075121
 20
180.2435184944
 10
165.5255021735
 20
180.2255400221
 10
165.5408962672
 20
180.206942257
 10
165.5558741399
 20
180.1877488965
 10
165.5704683189
 20
180.1679208389
 10
165.5846462769
 20
180.1474971858
 10
165.5982947783
 20
180.1266189403
 10
165.6114190774
 20
180.1052586258
 10
165.6240139199
 20
180.0834437187
 10
165.6359503071
 20
180.0613976513
 10
165.6472070704
 20
180.039138713
 10
165.6578053785
 20
180.0166486144
 10
165.6676797386
 20
179.9940959192
 10
165.6768125517
 20
179.9715283469
 10
165.6852214169
 20
179.9488981779
 10
165.6928936383
 20
179.9262308169
 10
165.6998491304
 20
179.9034622358
 10
165.7060679788
 20
179.8806564627
 10
165.7114777437
 20
179.8580309861
 10
165.7160643165
 20
179.8355834813
 10
165.7198418058
 20
179.813316273
 10
165.7227800984
 20
179.7914538246
 10
165.7248691565
 20
179.7700709573
 10
165.7261190179
 20
179.7490928499
 10
165.7265296825
 20
179.7285195024
  0
LWPOLYLINE
  5
4E0
100
AcDbEntity
  8
0
100
AcDbPolyline
 62
7
  6
CONTINUOUS
 90
34
 70
0
 10
165.9916947254
 20
180.7389576932
 10
166.0093069888
 20
180.7283144137
 10
166.026850157
 20
180.7167420392
 10
166.0443242299
 20
180.7042405697
 10
166.0617889872
 20
180.690763899
 10
166.0791846493
 20
180.6763581332
 10
166.0963318771
 20
180.6611615914
 10
166.1132216019
 20
180.6451632187
 10
166.1298628924
 20
180.6283740699
 10
166.1461036151
 20
180.6109656284
 10
166.1618982766
 20
180.5929871561
 10
166.1772923703
 20
180.574389391
 10
166.1922702429
 20
180.5551960305
 10
166.206864422
 20
180.5353679729
 10
166.22104238
 20
180.5149443198
 10
166.2346908814
 20
180.4940660743
 10
166.2478151805
 20
180.4727057597
 10
166.260410023
 20
180.4508908527
 10
166.2723464102
 20
180.4288447853
 10
166.2836031735
 20
180.406585847
 10
166.2942014816
 20
180.3840957484
 10
166.3040758416
 20
180.3615430532
 10
166.3132086548
 20
180.3389754809
 10
166.32161752
 20
180.3163453119
 10
166.3292897413
 20
180.2936779509
 10
166.3362452335
 20
180.2709093698
 10
166.3424640818
 20
180.2481035967
 10
166.3478738468
 20
180.2254781201
 10
166.3524604195
 20
180.2030306153
 10
166.3562379089
 20
180.180763407
 10
166.3591762015
 20
180.1589009586
 10
166.3612652596
 20
180.1375180913
 10
166.3625151209
 20
180.1165399839
 10
166.3629257855
 20
180.0959666364
  0
LWPOLYLINE
  5
4E1
100
AcDbEntity
  8
CURVE
100
AcDbPolyline
 62
250
  6
CONTINUOUS
 90
17
 70
0
 10
147.9251164661
 20
17.8113058857
 10
147.7877720392
 20
17.7164553854
 10
147.6556590189
 20
17.594118612
 10
147.533809549
 20
17.4489553352
 10
147.4251164661
 20
17.2834735448
 10
147.3375217128
 20
17.1097645978
 10
147.2723082611
 20
16.9316780415
 10
147.2319600711
 20
16.7559971372
 10
147.2180096849
 20
16.5865610156
 10
147.2314764237
 20
16.4357499673
 10
147.2713636962
 20
16.3062343174
 10
147.3361522086
 20
16.2029472767
 10
147.4251164661
 20
16.128810206
 10
147.531756064
 20
16.0892401231
 10
147.6533786375
 20
16.0841638909
 10
147.7853516204
 20
16.1137748614
 10
147.9251165279
 20
16.1783653678
  0
LWPOLYLINE
  5
4E2
100
AcDbEntity
  8
CURVE
100
AcDbPolyline
 62
250
  6
CONTINUOUS
 90
17
 70
0
 10
147.9251164661
 20
16.1783653321
 10
148.062460893
 20
16.2732158325
 10
148.1945739133
 20
16.3955526059
 10
148.3164233832
 20
16.5407158827
 10
148.4251164661
 20
16.7061976731
 10
148.5127112194
 20
16.87990662
 10
148.5779246711
 20
17.0579931764
 10
148.6182728611
 20
17.2336740807
 10
148.6322232473
 20
17.4031102023
 10
148.6187565085
 20
17.5539212506
 10
148.578869236
 20
17.6834369005
 10
148.5140807236
 20
17.7867239411
 10
148.4251164661
 20
17.8608610118
 10
148.3184768682
 20
17.9004310948
 10
148.1968542947
 20
17.905507327
 10
148.0648813118
 20
17.8758963565
 10
147.9251164043
 20
17.81130585
  0
LWPOLYLINE
  5
4E3
100
AcDbEntity
  8
0
100
AcDbPolyline
 62
7
  6
CONTINUOUS
 90
18
 70
0
 10
152.9605920436
 20
17.050753486
 10
152.9668025367
 20
17.0545101079
 10
152.9787389239
 20
17.0627723345
 10
152.9899956872
 20
17.0720322447
 10
153.0005939953
 20
17.0822836828
 10
153.0104683553
 20
17.0934337145
 10
153.0196011685
 20
17.1054549431
 10
153.0280100337
 20
17.1183747654
 10
153.035682255
 20
17.1321824375
 10
153.0426377472
 20
17.1469189905
 10
153.0488565955
 20
17.1625433935
 10
153.0542663605
 20
17.1789218091
 10
153.0588529332
 20
17.1960728547
 10
153.0626304226
 20
17.213977913
 10
153.0655687152
 20
17.2324472947
 10
153.0676577733
 20
17.2514177701
 10
153.0689076346
 20
17.270952569
 10
153.0693182992
 20
17.2910516912
  0
LWPOLYLINE
  5
4E4
100
AcDbEntity
  8
0
100
AcDbPolyline
 62
7
  6
CONTINUOUS
 90
18
 70
0
 10
153.5969881467
 20
17.41820062
 10
153.6031986397
 20
17.4219572419
 10
153.615135027
 20
17.4302194685
 10
153.6263917903
 20
17.4394793787
 10
153.6369900983
 20
17.4497308168
 10
153.6468644584
 20
17.4608808485
 10
153.6559972715
 20
17.4729020771
 10
153.6644061367
 20
17.4858218994
 10
153.6720783581
 20
17.4996295714
 10
153.6790338502
 20
17.5143661245
 10
153.6852526986
 20
17.5299905275
 10
153.6906624635
 20
17.5463689431
 10
153.6952490363
 20
17.5635199887
 10
153.6990265256
 20
17.581425047
 10
153.7019648182
 20
17.5998944287
 10
153.7040538763
 20
17.6188649041
 10
153.7053037377
 20
17.638399703
 10
153.7057144023
 20
17.6584988252
  0
LWPOLYLINE
  5
4E5
100
AcDbEntity
  8
0
100
AcDbPolyline
 62
7
  6
CONTINUOUS
 90
18
 70
0
 10
159.2891977353
 20
20.7048110963
 10
159.2954082283
 20
20.7085677182
 10
159.3073446155
 20
20.7168299448
 10
159.3186013788
 20
20.726089855
 10
159.3291996869
 20
20.7363412931
 10
159.3390740469
 20
20.7474913248
 10
159.3482068601
 20
20.7595125534
 10
159.3566157253
 20
20.7724323756
 10
159.3642879466
 20
20.7862400477
 10
159.3712434388
 20
20.8009766008
 10
159.3774622871
 20
20.8166010038
 10
159.3828720521
 20
20.8329794194
 10
159.3874586248
 20
20.850130465
 10
159.3912361142
 20
20.8680355233
 10
159.3941744068
 20
20.886504905
 10
159.3962634649
 20
20.9054753804
 10
159.3975133262
 20
20.9250101792
 10
159.3979239908
 20
20.9451093015
  0
LWPOLYLINE
  5
4E6
100
AcDbEntity
  8
0
100
AcDbPolyline
 62
7
  6
CONTINUOUS
 90
18
 70
0
 10
159.9255938383
 20
21.0722582303
 10
159.9318043314
 20
21.0760148522
 10
159.9437407186
 20
21.0842770788
 10
159.9549974819
 20
21.093536989
 10
159.9655957899
 20
21.1037884271
 10
159.97547015
 20
21.1149384588
 10
159.9846029632
 20
21.1269596874
 10
159.9930118283
 20
21.1398795096
 10
160.0006840497
 20
21.1536871817
 10
160.0076395419
 20
21.1684237348
 10
160.0138583902
 20
21.1840481378
 10
160.0192681551
 20
21.2004265534
 10
160.0238547279
 20
21.217577599
 10
160.0276322173
 20
21.2354826573
 10
160.0305705099
 20
21.253952039
 10
160.032659568
 20
21.2729225144
 10
160.0339094293
 20
21.2924573132
 10
160.0343200939
 20
21.3125564355
  0
LWPOLYLINE
  5
4E7
100
AcDbEntity
  8
0
100
AcDbPolyline
 62
7
  6
CONTINUOUS
 90
18
 70
0
 10
165.6178034269
 20
24.3588687066
 10
165.6240139199
 20
24.3626253285
 10
165.6359503071
 20
24.3708875551
 10
165.6472070704
 20
24.3801474652
 10
165.6578053785
 20
24.3903989034
 10
165.6676797386
 20
24.4015489351
 10
165.6768125517
 20
24.4135701637
 10
165.6852214169
 20
24.4264899859
 10
165.6928936383
 20
24.440297658
 10
165.6998491304
 20
24.4550342111
 10
165.7060679788
 20
24.4706586141
 10
165.7114777437
 20
24.4870370297
 10
165.7160643165
 20
24.5041880753
 10
165.7198418058
 20
24.5220931336
 10
165.7227800984
 20
24.5405625153
 10
165.7248691565
 20
24.5595329907
 10
165.7261190179
 20
24.5790677895
 10
165.7265296825
 20
24.5991669118
  0
LWPOLYLINE
  5
4E8
100
AcDbEntity
  8
0
100
AcDbPolyline
 62
7
  6
CONTINUOUS
 90
18
 70
0
 10
166.2541995299
 20
24.7263158406
 10
166.260410023
 20
24.7300724625
 10
166.2723464102
 20
24.7383346891
 10
166.2836031735
 20
24.7475945992
 10
166.2942014816
 20
24.7578460373
 10
166.3040758416
 20
24.7689960691
 10
166.3132086548
 20
24.7810172977
 10
166.32161752
 20
24.7939371199
 10
166.3292897413
 20
24.807744792
 10
166.3362452335
 20
24.8224813451
 10
166.3424640818
 20
24.838105748
 10
166.3478738468
 20
24.8544841637
 10
166.3524604195
 20
24.8716352093
 10
166.3562379089
 20
24.8895402676
 10
166.3591762015
 20
24.9080096493
 10
166.3612652596
 20
24.9269801247
 10
166.3625151209
 20
24.9465149235
 10
166.3629257855
 20
24.9666140458
  0
LINE
  5
4E9
100
AcDbEntity
  8
0
100
AcDbLine
 62
7
  6
CONTINUOUS
 10
143.3466000579
 20
19.515765512
 11
144.0537068391
 21
19.9240401054
  0
LINE
  5
4EA
100
AcDbEntity
  8
0
100
AcDbLine
 62
7
  6
CONTINUOUS
 10
145.4502427319
 20
18.3011485969
 11
145.5562984991
 21
18.3623838676
  0
LINE
  5
4EB
100
AcDbEntity
  8
0
100
AcDbLine
 62
7
  6
CONTINUOUS
 10
145.7330751944
 20
18.2603152193
 11
145.6270194272
 21
18.1990799485
  0
LINE
  5
4EC
100
AcDbEntity
  8
0
100
AcDbLine
 62
7
  6
CONTINUOUS
 10
147.5715630755
 20
19.0768150873
 11
149.5161067238
 21
20.1995702189
  0
LINE
  5
4ED
100
AcDbEntity
  8
0
100
AcDbLine
 62
7
  6
CONTINUOUS
 10
147.8190504489
 20
19.0972327625
 11
149.4100407066
 21
20.0158505974
  0
LINE
  5
4EE
100
AcDbEntity
  8
0
100
AcDbLine
 62
7
  6
CONTINUOUS
 10
149.5161067238
 20
19.7096880529
 11
149.4100407066
 21
19.6484468639
  0
LINE
  5
4EF
100
AcDbEntity
  8
0
100
AcDbLine
 62
7
  6
CONTINUOUS
 10
147.7836916932
 20
18.7094133265
 11
147.5715630755
 21
18.5869329212
  0
LINE
  5
4F0
100
AcDbEntity
  8
0
100
AcDbLine
 62
7
  6
CONTINUOUS
 10
147.8190504489
 20
18.6889976241
 11
149.4100407066
 21
19.607615459
  0
LINE
  5
4F1
100
AcDbEntity
  8
0
100
AcDbLine
 62
7
  6
CONTINUOUS
 10
143.7001192817
 20
15.8416492665
 11
143.3466000579
 21
15.6375316973
  0
LINE
  5
4F2
100
AcDbEntity
  8
0
100
AcDbLine
 62
7
  6
CONTINUOUS
 10
145.6270194272
 20
14.9332185688
 11
145.4502427319
 21
14.8311499205
  0
LINE
  5
4F3
100
AcDbEntity
  8
0
100
AcDbLine
 62
7
  6
CONTINUOUS
 10
147.5715630755
 20
14.9944637033
 11
149.5161067238
 21
16.117218835
  0
LINE
  5
4F4
100
AcDbEntity
  8
0
100
AcDbLine
 62
7
  6
CONTINUOUS
 10
149.4100407066
 20
15.9334992135
 11
147.8190504489
 21
15.0148813785
  0
LINE
  5
4F5
100
AcDbEntity
  8
0
100
AcDbLine
 62
7
  6
CONTINUOUS
 10
151.6551047369
 20
16.9031908276
 11
149.5161067238
 21
15.6681601827
  0
LINE
  5
4F6
100
AcDbEntity
  8
0
100
AcDbLine
 62
7
  6
CONTINUOUS
 10
147.5715630755
 20
14.5454050511
 11
146.3341262084
 21
13.8309245128
  0
LINE
  5
4F7
100
AcDbEntity
  8
0
100
AcDbLine
 62
7
  6
CONTINUOUS
 10
147.766015732
 20
14.637267821
 11
146.3341262084
 21
13.8105127558
  0
LINE
  5
4F8
100
AcDbEntity
  8
0
100
AcDbLine
 62
7
  6
CONTINUOUS
 10
149.4100407066
 20
15.5865072368
 11
151.6551038826
 21
16.8827785774
  0
LINE
  5
4F9
100
AcDbEntity
  8
0
100
AcDbLine
 62
7
  6
CONTINUOUS
 10
149.4100407066
 20
15.5252640751
 11
147.8190504489
 21
14.6066462401
  0
LINE
  5
4FA
100
AcDbEntity
  8
0
100
AcDbLine
 62
7
  6
CONTINUOUS
 10
105.3219328996
 20
192.231968378
 11
106.0045978275
 21
192.2664530998
  0
LINE
  5
4FB
100
AcDbEntity
  8
0
100
AcDbLine
 62
7
  6
CONTINUOUS
 10
105.3219328996
 20
192.6402035164
 11
105.3544407533
 21
192.641845646
  0
LINE
  5
4FC
100
AcDbEntity
  8
0
100
AcDbLine
 62
7
  6
CONTINUOUS
 10
167.3557521089
 20
25.5398595219
 11
166.3629257855
 21
24.9666140458
  0
LINE
  5
4FD
100
AcDbEntity
  8
0
100
AcDbLine
 62
7
  6
CONTINUOUS
 10
165.7265296825
 20
24.5991669118
 11
160.0343200939
 21
21.3125564355
  0
LINE
  5
4FE
100
AcDbEntity
  8
0
100
AcDbLine
 62
7
  6
CONTINUOUS
 10
159.3979239908
 20
20.9451093015
 11
153.7057144023
 21
17.6584988252
  0
LINE
  5
4FF
100
AcDbEntity
  8
0
100
AcDbLine
 62
7
  6
CONTINUOUS
 10
153.0693182992
 20
17.2910516912
 11
146.3341262084
 21
13.4022776175
  0
LINE
  5
500
100
AcDbEntity
  8
0
100
AcDbLine
 62
250
  6
CONTINUOUS
 10
153.0693182992
 20
17.2910516912
 11
153.7057144023
 21
17.6584988252
  0
LINE
  5
501
100
AcDbEntity
  8
0
100
AcDbLine
 62
250
  6
CONTINUOUS
 10
159.3979239908
 20
20.9451093015
 11
160.0343200939
 21
21.3125564355
  0
LINE
  5
502
100
AcDbEntity
  8
0
100
AcDbLine
 62
250
  6
CONTINUOUS
 10
165.7265296825
 20
24.5991669118
 11
166.3629257855
 21
24.9666140458
  0
LINE
  5
503
100
AcDbEntity
  8
0
100
AcDbLine
 62
7
  6
CONTINUOUS
 10
152.9605999232
 20
17.0507398391
 11
153.5969960262
 21
17.4181869731
  0
LINE
  5
504
100
AcDbEntity
  8
0
100
AcDbLine
 62
7
  6
CONTINUOUS
 10
159.2892056148
 20
20.7047974494
 11
159.9256017179
 21
21.0722445834
  0
LINE
  5
505
100
AcDbEntity
  8
0
100
AcDbLine
 62
7
  6
CONTINUOUS
 10
165.6178113064
 20
24.3588550597
 11
166.2542074095
 21
24.7263021937
  0
ENDSEC
  0
SECTION
  2
OBJECTS
  0
DICTIONARY
  5
C
100
AcDbDictionary
280
0
281
1
  3
ACAD_GROUP
350
D
  3
ACAD_MLINESTYLE
350
17
  3
ACAD_LAYOUT
350
1A
  3
ACAD_PLOTSETTINGS
350
19
  3
ACAD_PLOTSTYLENAME
350
E
  0
DICTIONARY
  5
D
102
{ACAD_REACTORS
330
C
102
}
100
AcDbDictionary
280
0
281
1
  0
ACDBDICTIONARYWDFLT
  5
E
102
{ACAD_REACTORS
330
C
102
}
100
AcDbDictionary
281
1
  3
Normal
350
F
100
AcDbDictionaryWithDefault
340
F
  0
DICTIONARY
  5
17
102
{ACAD_REACTORS
330
C
102
}
100
AcDbDictionary
280
0
281
1
  3
Standard
350
18
  0
DICTIONARY
  5
19
102
{ACAD_REACTORS
330
C
102
}
100
AcDbDictionary
281
1
  0
DICTIONARY
  5
1A
102
{ACAD_REACTORS
330
C
102
}
100
AcDbDictionary
281
1
  3
Model
350
506
  3
Layout1
350
507
  0
ACDBPLACEHOLDER
  5
F
102
{ACAD_REACTORS
330
E
102
}
  0
MLINESTYLE
  5
18
102
{ACAD_REACTORS
330
17
102
}
100
AcDbMlineStyle
  2
STANDARD
 70
0
  3

 62
256
 51
90.0
 52
90.0
 71
2
 49
0.5
 62
256
  6
BYLAYER
 49
-0.5
 62
256
  6
BYLAYER
  0
LAYOUT
  5
506
102
{ACAD_REACTORS
330
1A
102
}
100
AcDbPlotSettings
  1

  2
none_device
  4
ISO_A4_(297.00_x_210.00_MM)
  6

 40
0.0
 41
0.0
 42
0.0
 43
0.0
 44
297.0
 45
210.0
 46
0.0
 47
0.0
 48
0.0
 49
0.0
140
0.0
141
0.0
142
1.0
143
1.0
 70
1024
 72
1
 73
0
 74
0
  7

 75
0
147
1.0
148
0.0
149
0.0
100
AcDbLayout
  1
Model
 70
0
 71
0
 10
0.0
 20
0.0
 11
297.0
 21
210.0
 12
0.0
 22
0.0
 32
0.0
 14
0.0
 24
0.0
 34
0.0
 15
0.0
 25
0.0
 35
0.0
146
0.0
 13
0.0
 23
0.0
 33
0.0
 16
1.0
 26
0.0
 36
0.0
 17
0.0
 27
1.0
 37
0.0
 76
0
330
20F
345
0
346
0
  0
LAYOUT
  5
507
102
{ACAD_REACTORS
330
1A
102
}
100
AcDbPlotSettings
  1

  2
none_device
  4
ISO_A4_(297.00_x_210.00_MM)
  6

 40
0.0
 41
0.0
 42
0.0
 43
0.0
 44
297.0
 45
210.0
 46
0.0
 47
0.0
 48
0.0
 49
0.0
140
0.0
141
0.0
142
1.0
143
1.0
 70
0
 72
1
 73
0
 74
0
  7

 75
0
147
1.0
148
0.0
149
0.0
100
AcDbLayout
  1
Layout1
 70
0
 71
1
 10
0.0
 20
0.0
 11
297.0
 21
210.0
 12
0.0
 22
0.0
 32
0.0
 14
0.0
 24
0.0
 34
0.0
 15
0.0
 25
0.0
 35
0.0
146
0.0
 13
0.0
 23
0.0
 33
0.0
 16
1.0
 26
0.0
 36
0.0
 17
0.0
 27
1.0
 37
0.0
 76
0
330
210
345
0
346
0
  0
ENDSEC
  0
EOF
