  0
SECTION
  2
HEADER
  9
$ACADVER
  1
AC1021
  9
$DWGCODEPAGE
  3
ANSI_1252
  9
$EXTMAX
 10
297.0
 20
210.0
 30
0.0
  9
$EXTMIN
 10
0.0
 20
0.0
 30
0.0
  9
$LIMMIN
 10
0.0
 20
0.0
  9
$LIMMAX
 10
297.0
 20
210.0
  9
$VIEWCTR
 10
148.5
 20
105.0
  9
$VIEWSIZE
 40
210.0
  9
$CLAYER
  8
0
  9
$LTSCALE
 40
16.335
  9
$CELTYPE
  6
BYLAYER
  9
$DIMSCALE
 40
1.0
  9
$DIMASZ
 40
3.0
  9
$DIMEXO
 40
0.5
  9
$DIMDLI
 40
11.286
  9
$DIMEXE
 40
1.5
  9
$DIMCEN
 40
2.673
  9
$DIMLFAC
 40
1.0
  9
$DIMBLK
  1
_FILLED
  9
$DIMALT
 70
0
  9
$DIMALTF
 40
0.0393700787
  9
$DIMTXT
 40
3.0
  9
$DIMTOL
 70
1
  9
$DIMLIM
 70
0
  9
$DIMTFAC
 40
1.0
  9
$DIMTP
 40
0.01
  9
$DIMTM
 40
0.01
  9
$DIMGAP
 40
0.625
  9
$DIMDSEP
 70
44
  9
$AUNITS
 70
0
  9
$PDMODE
 70
3
  9
$PDSIZE
 40
3.0
  9
$HANDSEED
  5
50B
  9
$TILEMODE
 70
1
  9
$MEASUREMENT
 70
1
  9
$INSUNITS
 70
4
  0
ENDSEC
  0
SECTION
  2
CLASSES
  0
CLASS
  1
ACDBDICTIONARYWDFLT
  2
AcDbDictionaryWithDefault
  3
AutoCAD 2000
 90
0
 91
1
280
0
281
0
  0
CLASS
  1
ACDBPLACEHOLDER
  2
AcDbPlaceHolder
  3
AutoCAD 2000
 90
0
 91
1
280
0
281
0
  0
CLASS
  1
LAYOUT
  2
AcDbLayout
  3
AutoCAD 2000
 90
0
 91
0
280
0
281
0
  0
ENDSEC
  0
SECTION
  2
TABLES
  0
TABLE
  2
VPORT
  5
8
100
AcDbSymbolTable
 70
2
  0
VPORT
  5
1F4
100
AcDbSymbolTableRecord
100
AcDbViewportTableRecord
  2
*ACTIVE
 70
0
 10
0.0
 20
0.0
 11
1.0
 21
1.0
 12
148.5
 22
105.0
 13
0.0
 23
0.0
 14
1.0
 24
1.0
 15
0.0
 25
0.0
 16
0.0
 26
0.0
 36
1.0
 17
0.0
 27
0.0
 37
0.0
 40
210.0
 41
1.4142857143
 42
50.0
 43
0.0
 44
0.0
 50
0.0
 51
0.0
 71
0
 72
100
 73
1
 74
1
 75
0
 76
0
 77
0
 78
0
  0
ENDTAB
  0
TABLE
  2
LTYPE
  5
5
100
AcDbSymbolTable
 70
6
  0
LTYPE
  5
14
100
AcDbSymbolTableRecord
100
AcDbLinetypeTableRecord
  2
BYBLOCK
 70
0
  3

 72
65
 73
0
 40
0.0
  0
LTYPE
  5
15
100
AcDbSymbolTableRecord
100
AcDbLinetypeTableRecord
  2
BYLAYER
 70
0
  3

 72
65
 73
0
 40
0.0
  0
LTYPE
  5
16
100
AcDbSymbolTableRecord
100
AcDbLinetypeTableRecord
  2
CONTINUOUS
 70
64
  3
Solid line
 72
65
 73
0
 40
0.0
  0
LTYPE
  5
1F5
100
AcDbSymbolTableRecord
100
AcDbLinetypeTableRecord
  2
CENTER
 70
64
  3
____ _ ____ _ ____ _ ____ _ ____ _ ____ _ ____
 72
65
 73
4
 40
0.6
 49
0.375
 74
0
 49
-0.075
 74
0
 49
0.075
 74
0
 49
-0.075
 74
0
  0
LTYPE
  5
1F6
100
AcDbSymbolTableRecord
100
AcDbLinetypeTableRecord
  2
HIDDEN
 70
64
  3
- - - - - - - - - - - - - - - - - - - -
 72
65
 73
2
 40
0.2
 49
0.1
 74
0
 49
-0.1
 74
0
  0
LTYPE
  5
1F7
100
AcDbSymbolTableRecord
100
AcDbLinetypeTableRecord
  2
PHANTOM
 70
64
  3
_____ _ _ _____ _ _ _____ _ _ _____
 72
65
 73
6
 40
0.8
 49
0.45
 74
0
 49
-0.05
 74
0
 49
0.1
 74
0
 49
-0.05
 74
0
 49
0.1
 74
0
 49
-0.05
 74
0
  0
LTYPE
  5
1F8
100
AcDbSymbolTableRecord
100
AcDbLinetypeTableRecord
  2
DOT
 70
64
  3
. . . . . . . . . . . . . . . . . . . .
 72
65
 73
2
 40
0.2
 49
0.1
 74
0
 49
-0.1
 74
0
  0
LTYPE
  5
1F9
100
AcDbSymbolTableRecord
100
AcDbLinetypeTableRecord
  2
DASHED
 70
64
  3
- - - - - - - - - - - - - - - - - - - -
 72
65
 73
2
 40
0.2
 49
0.1
 74
0
 49
-0.1
 74
0
  0
ENDTAB
  0
TABLE
  2
LAYER
  5
2
100
AcDbSymbolTable
 70
36
  0
LAYER
  5
10
100
AcDbSymbolTableRecord
100
AcDbLayerTableRecord
  2
0
 70
0
 62
7
  6
CONTINUOUS
370
-3
390
F
  0
LAYER
  5
1FA
100
AcDbSymbolTableRecord
100
AcDbLayerTableRecord
  2
DEFAULT_1
 70
0
 62
7
  6
CENTER
370
-3
390
F
  0
LAYER
  5
1FB
100
AcDbSymbolTableRecord
100
AcDbLayerTableRecord
  2
DEFAULT_2
 70
0
 62
7
  6
HIDDEN
370
-3
390
F
  0
LAYER
  5
1FC
100
AcDbSymbolTableRecord
100
AcDbLayerTableRecord
  2
DEFAULT_3
 70
0
 62
7
  6
PHANTOM
370
-3
390
F
  0
LAYER
  5
1FD
100
AcDbSymbolTableRecord
100
AcDbLayerTableRecord
  2
ASSI
 70
0
 62
7
  6
CONTINUOUS
370
-3
390
F
  0
LAYER
  5
1FE
100
AcDbSymbolTableRecord
100
AcDbLayerTableRecord
  2
COORDINATE
 70
0
 62
7
  6
CONTINUOUS
370
-3
390
F
  0
LAYER
  5
1FF
100
AcDbSymbolTableRecord
100
AcDbLayerTableRecord
  2
COPY_PUBLISH
 70
0
 62
7
  6
CONTINUOUS
370
-3
390
F
  0
LAYER
  5
200
100
AcDbSymbolTableRecord
100
AcDbLayerTableRecord
  2
COSMETICI
 70
0
 62
7
  6
CONTINUOUS
370
-3
390
F
  0
LAYER
  5
201
100
AcDbSymbolTableRecord
100
AcDbLayerTableRecord
  2
CURVE
 70
0
 62
7
  6
CONTINUOUS
370
-3
390
F
  0
LAYER
  5
202
100
AcDbSymbolTableRecord
100
AcDbLayerTableRecord
  2
DRAFT
 70
0
 62
7
  6
CONTINUOUS
370
-3
390
F
  0
LAYER
  5
203
100
AcDbSymbolTableRecord
100
AcDbLayerTableRecord
  2
IMPORT_IGES
 70
0
 62
7
  6
CONTINUOUS
370
-3
390
F
  0
LAYER
  5
204
100
AcDbSymbolTableRecord
100
AcDbLayerTableRecord
  2
NOTE
 70
0
 62
7
  6
CONTINUOUS
370
-3
390
F
  0
LAYER
  5
205
100
AcDbSymbolTableRecord
100
AcDbLayerTableRecord
  2
PIANI
 70
0
 62
7
  6
CONTINUOUS
370
-3
390
F
  0
LAYER
  5
206
100
AcDbSymbolTableRecord
100
AcDbLayerTableRecord
  2
PUNTI
 70
0
 62
7
  6
CONTINUOUS
370
-3
390
F
  0
LAYER
  5
207
100
AcDbSymbolTableRecord
100
AcDbLayerTableRecord
  2
RACCORDO
 70
0
 62
7
  6
CONTINUOUS
370
-3
390
F
  0
LAYER
  5
208
100
AcDbSymbolTableRecord
100
AcDbLayerTableRecord
  2
SIMBOLI
 70
0
 62
7
  6
CONTINUOUS
370
-3
390
F
  0
LAYER
  5
209
100
AcDbSymbolTableRecord
100
AcDbLayerTableRecord
  2
SMUSSO
 70
0
 62
7
  6
CONTINUOUS
370
-3
390
F
  0
LAYER
  5
20A
100
AcDbSymbolTableRecord
100
AcDbLayerTableRecord
  2
SNAPLINE
 70
0
 62
7
  6
CONTINUOUS
370
-3
390
F
  0
LAYER
  5
20B
100
AcDbSymbolTableRecord
100
AcDbLayerTableRecord
  2
SUPERFICI
 70
0
 62
7
  6
CONTINUOUS
370
-3
390
F
  0
LAYER
  5
20C
100
AcDbSymbolTableRecord
100
AcDbLayerTableRecord
  2
TRASH
 70
0
 62
7
  6
CONTINUOUS
370
-3
390
F
  0
ENDTAB
  0
TABLE
  2
STYLE
  5
3
100
AcDbSymbolTable
 70
1
  0
STYLE
  5
11
100
AcDbSymbolTableRecord
100
AcDbTextStyleTableRecord
  2
STANDARD
 70
0
 40
0.0
 41
0.8
 50
0.0
 71
0
 42
0.2
  3
txt
  4

  0
STYLE
  5
20D
100
AcDbSymbolTableRecord
100
AcDbTextStyleTableRecord
  2
TEXTSTYLE_1
 70
0
 40
0.0
 41
0.8
 50
0.0
 71
0
 42
0.2
  3
gdt
  4

  0
ENDTAB
  0
TABLE
  2
VIEW
  5
6
100
AcDbSymbolTable
 70
0
  0
ENDTAB
  0
TABLE
  2
UCS
  5
7
100
AcDbSymbolTable
 70
0
  0
ENDTAB
  0
TABLE
  2
APPID
  5
9
100
AcDbSymbolTable
 70
1
  0
APPID
  5
20E
100
AcDbSymbolTableRecord
100
AcDbRegAppTableRecord
  2
ACAD
 70
0
  0
ENDTAB
  0
TABLE
  2
BLOCK_RECORD
  5
1
100
AcDbSymbolTable
 70
0
  0
BLOCK_RECORD
  5
20F
100
AcDbSymbolTableRecord
100
AcDbBlockTableRecord
  2
*Model_Space
  0
BLOCK_RECORD
  5
210
100
AcDbSymbolTableRecord
100
AcDbBlockTableRecord
  2
*Paper_Space
  0
BLOCK_RECORD
  5
211
100
AcDbSymbolTableRecord
100
AcDbBlockTableRecord
  2
_FILLED
  0
ENDTAB
  0
TABLE
  2
DIMSTYLE
  5
A
100
AcDbSymbolTable
 70
1
100
AcDbDimStyleTable
 71
0
  0
DIMSTYLE
105
212
100
AcDbSymbolTableRecord
100
AcDbDimStyleTableRecord
  2
STANDARD
 70
0
  3

  4

 40
1.0
 41
3.0
 42
0.5
 43
0.38
 44
1.5
 45
0.0
 46
0.0
 47
0.01
 48
0.01
140
3.0
141
0.09
142
0.0
143
25.4
144
1.0
145
0.0
146
1.0
147
0.625
 71
1.0
 72
0.0
 73
0
 74
0
 75
0
 76
0
 77
1
 78
8
 79
2
170
0
171
1
172
0
173
0
174
0
175
0
176
0
177
0
178
0
270
2
179
2
271
2
272
2
273
2
274
2
275
0
280
0
281
0
282
0
283
1
284
8
285
0
286
0
287
3
288
0
340
11
278
44
341
211
342
211
343
211
344
211
  0
ENDTAB
  0
ENDSEC
  0
SECTION
  2
BLOCKS
  0
BLOCK
  5
20
100
AcDbEntity
  8
0
100
AcDbBlockBegin
  2
*Model_Space
 70
0
 10
0.0
 20
0.0
 30
0.0
  3
*Model_Space
  1

  0
ENDBLK
  5
21
100
AcDbEntity
  8
0
100
AcDbBlockEnd
  0
BLOCK
  5
1C
100
AcDbEntity
  8
0
100
AcDbBlockBegin
  2
*Paper_Space
 70
0
 10
0.0
 20
0.0
 30
0.0
  3
*Paper_Space
  1

  0
ENDBLK
  5
1D
100
AcDbEntity
  8
0
100
AcDbBlockEnd
  0
BLOCK
  5
213
100
AcDbEntity
  8
0
100
AcDbBlockBegin
  2
_FILLED
 70
64
 10
0.0
 20
0.0
  3
_FILLED
  1

  0
SOLID
  5
214
100
AcDbEntity
  8
0
  6
BYBLOCK
 62
0
100
AcDbTrace
 10
0.0
 20
0.0
 11
-1.0
 21
0.3166666667
 12
-1.0
 22
-0.3166666667
 13
-1.0
 23
-0.3166666667
  0
ENDBLK
  5
215
100
AcDbEntity
  8
0
  6
BYBLOCK
 62
0
100
AcDbBlockEnd
  0
ENDSEC
  0
SECTION
  2
ENTITIES
  0
LWPOLYLINE
  5
216
100
AcDbEntity
  8
0
100
AcDbPolyline
 62
7
  6
CONTINUOUS
 90
18
 70
0
 10
102.5914863912
 20
202.7474965123
 10
102.5852758981
 20
202.7437398904
 10
102.5733395109
 20
202.7354776638
 10
102.5620827476
 20
202.7262177537
 10
102.5514844396
 20
202.7159663155
 10
102.5416100795
 20
202.7048162838
 10
102.5324772663
 20
202.6927950552
 10
102.5240684012
 20
202.679875233
 10
102.5163961798
 20
202.6660675609
 10
102.5094406876
 20
202.6513310078
 10
102.5032218393
 20
202.6357066048
 10
102.4978120744
 20
202.6193281892
 10
102.4932255016
 20
202.6021771436
 10
102.4894480122
 20
202.5842720853
 10
102.4865097196
 20
202.5658027036
 10
102.4844206615
 20
202.5468322282
 10
102.4831708002
 20
202.5272974294
 10
102.4827601356
 20
202.5071983071
  0
LWPOLYLINE
  5
217
100
AcDbEntity
  8
0
100
AcDbPolyline
 62
7
  6
CONTINUOUS
 90
18
 70
0
 10
108.9200920828
 20
206.4015541226
 10
108.9138815898
 20
206.3977975007
 10
108.9019452025
 20
206.3895352741
 10
108.8906884392
 20
206.3802753639
 10
108.8800901312
 20
206.3700239258
 10
108.8702157711
 20
206.3588738941
 10
108.861082958
 20
206.3468526655
 10
108.8526740928
 20
206.3339328433
 10
108.8450018714
 20
206.3201251712
 10
108.8380463793
 20
206.3053886181
 10
108.8318275309
 20
206.2897642151
 10
108.826417766
 20
206.2733857995
 10
108.8218311932
 20
206.2562347539
 10
108.8180537039
 20
206.2383296956
 10
108.8151154113
 20
206.2198603139
 10
108.8130263532
 20
206.2008898385
 10
108.8117764918
 20
206.1813550397
 10
108.8113658272
 20
206.1612559174
  0
LWPOLYLINE
  5
218
100
AcDbEntity
  8
0
100
AcDbPolyline
 62
7
  6
CONTINUOUS
 90
18
 70
0
 10
115.2486977744
 20
210.0556117329
 10
115.2424872814
 20
210.051855111
 10
115.2305508942
 20
210.0435928844
 10
115.2192941309
 20
210.0343329742
 10
115.2086958228
 20
210.0240815361
 10
115.1988214627
 20
210.0129315043
 10
115.1896886496
 20
210.0009102758
 10
115.1812797844
 20
209.9879904535
 10
115.173607563
 20
209.9741827814
 10
115.1666520709
 20
209.9594462284
 10
115.1604332225
 20
209.9438218254
 10
115.1550234576
 20
209.9274434098
 10
115.1504368848
 20
209.9102923642
 10
115.1466593955
 20
209.8923873059
 10
115.1437211029
 20
209.8739179242
 10
115.1416320448
 20
209.8549474488
 10
115.1403821834
 20
209.8354126499
 10
115.1399715188
 20
209.8153135277
  0
LINE
  5
219
100
AcDbEntity
  8
0
100
AcDbLine
 62
7
  6
CONTINUOUS
 10
102.5914785116
 20
202.7475101592
 11
103.2278746147
 21
203.1149572932
  0
LINE
  5
21A
100
AcDbEntity
  8
0
100
AcDbLine
 62
7
  6
CONTINUOUS
 10
108.9200842033
 20
206.4015677695
 11
109.5564803063
 21
206.7690149035
  0
LINE
  5
21B
100
AcDbEntity
  8
0
100
AcDbLine
 62
7
  6
CONTINUOUS
 10
115.2486898949
 20
210.0556253798
 11
115.8850859979
 21
210.4230725138
  0
LINE
  5
21C
100
AcDbEntity
  8
0
100
AcDbLine
 62
7
  6
CONTINUOUS
 10
96.490030165
 20
199.047029701
 11
102.8539911957
 21
202.7215010409
  0
LINE
  5
21D
100
AcDbEntity
  8
0
100
AcDbLine
 62
250
  6
CONTINUOUS
 10
102.8539911957
 20
202.7215010409
 11
103.4903872988
 21
203.0889481749
  0
LINE
  5
21E
100
AcDbEntity
  8
0
100
AcDbLine
 62
7
  6
CONTINUOUS
 10
103.4903872988
 20
203.0889481749
 11
109.1825968873
 21
206.3755586512
  0
LINE
  5
21F
100
AcDbEntity
  8
0
100
AcDbLine
 62
250
  6
CONTINUOUS
 10
109.1825968873
 20
206.3755586512
 11
109.8189929904
 21
206.7430057852
  0
LINE
  5
220
100
AcDbEntity
  8
0
100
AcDbLine
 62
7
  6
CONTINUOUS
 10
109.8189929904
 20
206.7430057852
 11
115.511202579
 21
210.0296162615
  0
LINE
  5
221
100
AcDbEntity
  8
0
100
AcDbLine
 62
250
  6
CONTINUOUS
 10
115.511202579
 20
210.0296162615
 11
116.147598682
 21
210.3970633955
  0
LINE
  5
222
100
AcDbEntity
  8
0
100
AcDbLine
 62
7
  6
CONTINUOUS
 10
116.147598682
 20
210.3970633955
 11
117.1729035147
 21
210.9890615558
  0
LINE
  5
223
100
AcDbEntity
  8
0
100
AcDbLine
 62
7
  6
CONTINUOUS
 10
96.490030165
 20
198.6183828057
 11
96.5077061262
 21
198.6285886841
  0
LINE
  5
224
100
AcDbEntity
  8
0
100
AcDbLine
 62
7
  6
CONTINUOUS
 10
117.7032336006
 20
210.8665791778
 11
117.5441345749
 21
210.7747173943
  0
LINE
  5
225
100
AcDbEntity
  8
0
100
AcDbLine
 62
7
  6
CONTINUOUS
 10
96.8612595168
 20
198.4244513875
 11
96.8435835556
 21
198.414245509
  0
LINE
  5
226
100
AcDbEntity
  8
0
100
AcDbLine
 62
7
  6
CONTINUOUS
 10
96.8435835556
 20
197.8835398291
 11
96.9496393228
 21
197.9447750998
  0
LINE
  5
227
100
AcDbEntity
  8
0
100
AcDbLine
 62
7
  6
CONTINUOUS
 10
97.1971369462
 20
197.6794025324
 11
97.3031927134
 21
197.7406378032
  0
LINE
  5
228
100
AcDbEntity
  8
0
100
AcDbLine
 62
7
  6
CONTINUOUS
 10
97.4446174863
 20
197.6589809118
 11
97.3739136415
 21
197.6181573979
  0
LWPOLYLINE
  5
229
100
AcDbEntity
  8
ASSI
100
AcDbPolyline
 62
7
  6
CONTINUOUS
 90
41
 70
0
 10
149.3657479086
 20
6.2286531383
 10
149.3838346099
 20
6.2324169626
 10
149.4094163861
 20
6.2392773301
 10
149.4353530136
 20
6.2477380093
 10
149.4614688911
 20
6.257741718
 10
149.4877652352
 20
6.2692989267
 10
149.5142408294
 20
6.2823991649
 10
149.5407164236
 20
6.296953739
 10
149.5671920177
 20
6.3129725175
 10
149.5936676119
 20
6.3304456318
 10
149.619963956
 20
6.349254782
 10
149.6460798336
 20
6.3694090341
 10
149.672016461
 20
6.3908993222
 10
149.6975982372
 20
6.4135801486
 10
149.7228227542
 20
6.4374595919
 10
149.7476924199
 20
6.4625295735
 10
149.7720388571
 20
6.4886203599
 10
149.7958585151
 20
6.5157388778
 10
149.8191549445
 20
6.5438782004
 10
149.8417704193
 20
6.5728478134
 10
149.8637003187
 20
6.6026533511
 10
149.8849492636
 20
6.6332891792
 10
149.9053733903
 20
6.6645478813
 10
149.9249671017
 20
6.6964336839
 10
149.9437359949
 20
6.7289423605
 10
149.9615529971
 20
6.7618538145
 10
149.978411649
 20
6.7951707791
 10
149.9943184099
 20
6.8288905211
 10
150.0091655848
 20
6.8627847448
 10
150.0229459837
 20
6.896854634
 10
150.0356667965
 20
6.9310990049
 10
150.0472418985
 20
6.9652860095
 10
150.0576635151
 20
6.9994152587
 10
150.0669394209
 20
7.0334871417
 10
150.0750068142
 20
7.0672709786
 10
150.0818574946
 20
7.1007648146
 10
150.0874996625
 20
7.1339706045
 10
150.0918951184
 20
7.1666635321
 10
150.0950311289
 20
7.1987686585
 10
150.0969204274
 20
7.2303609225
 10
150.0975630137
 20
7.2614403242
  0
LWPOLYLINE
  5
22A
100
AcDbEntity
  8
ASSI
100
AcDbPolyline
 62
7
  6
CONTINUOUS
 90
40
 70
0
 10
149.3614635952
 20
6.241647147
 10
149.3661569404
 20
6.2426238275
 10
149.3917387166
 20
6.249484195
 10
149.417675344
 20
6.2579448741
 10
149.4437912216
 20
6.2679485828
 10
149.4700875657
 20
6.2795057915
 10
149.4965631598
 20
6.2926060298
 10
149.523038754
 20
6.3071606038
 10
149.5495143482
 20
6.3231793823
 10
149.5759899424
 20
6.3406524966
 10
149.6022862865
 20
6.3594616468
 10
149.628402164
 20
6.379615899
 10
149.6543387915
 20
6.4011061871
 10
149.6799205676
 20
6.4237870134
 10
149.7051450847
 20
6.4476664568
 10
149.7300147504
 20
6.4727364384
 10
149.7543611875
 20
6.4988272247
 10
149.7781808455
 20
6.5259457426
 10
149.8014772749
 20
6.5540850652
 10
149.8240927497
 20
6.5830546783
 10
149.8460226492
 20
6.6128602159
 10
149.8672715941
 20
6.6434960441
 10
149.8876957208
 20
6.6747547461
 10
149.9072894322
 20
6.7066405487
 10
149.9260583254
 20
6.7391492253
 10
149.9438753275
 20
6.7720606793
 10
149.9607339795
 20
6.8053776439
 10
149.9766407404
 20
6.8390973859
 10
149.9914879153
 20
6.8729916096
 10
150.0052683141
 20
6.9070614988
 10
150.017989127
 20
6.9413058697
 10
150.029564229
 20
6.9754928744
 10
150.0399858456
 20
7.0096221236
 10
150.0492617513
 20
7.0436940066
 10
150.0573291447
 20
7.0774778434
 10
150.064179825
 20
7.1109716795
 10
150.069821993
 20
7.1441774694
 10
150.0742174488
 20
7.1768703969
 10
150.0773534594
 20
7.2089755233
 10
150.0792427578
 20
7.2405677873
  0
LWPOLYLINE
  5
22B
100
AcDbEntity
  8
ASSI
100
AcDbPolyline
 62
7
  6
CONTINUOUS
 90
41
 70
0
 10
156.4368157205
 20
10.3113990715
 10
156.4549024218
 20
10.3151628959
 10
156.480484198
 20
10.3220232634
 10
156.5064208254
 20
10.3304839426
 10
156.532536703
 20
10.3404876512
 10
156.558833047
 20
10.35204486
 10
156.5853086412
 20
10.3651450982
 10
156.6117842354
 20
10.3796996722
 10
156.6382598296
 20
10.3957184507
 10
156.6647354238
 20
10.413191565
 10
156.6910317678
 20
10.4320007153
 10
156.7171476454
 20
10.4521549674
 10
156.7430842729
 20
10.4736452555
 10
156.768666049
 20
10.4963260819
 10
156.7938905661
 20
10.5202055252
 10
156.8187602318
 20
10.5452755068
 10
156.8431066689
 20
10.5713662931
 10
156.8669263269
 20
10.598484811
 10
156.8902227563
 20
10.6266241336
 10
156.9128382311
 20
10.6555937467
 10
156.9347681306
 20
10.6853992844
 10
156.9560170755
 20
10.7160351125
 10
156.9764412022
 20
10.7472938146
 10
156.9960349136
 20
10.7791796172
 10
157.0148038068
 20
10.8116882937
 10
157.0326208089
 20
10.8445997477
 10
157.0494794608
 20
10.8779167123
 10
157.0653862218
 20
10.9116364544
 10
157.0802333967
 20
10.945530678
 10
157.0940137955
 20
10.9796005673
 10
157.1067346084
 20
11.0138449381
 10
157.1183097104
 20
11.0480319428
 10
157.128731327
 20
11.082161192
 10
157.1380072327
 20
11.116233075
 10
157.1460746261
 20
11.1500169119
 10
157.1529253064
 20
11.1835107479
 10
157.1585674744
 20
11.2167165378
 10
157.1629629302
 20
11.2494094653
 10
157.1660989408
 20
11.2815145917
 10
157.1679882392
 20
11.3131068558
 10
157.1686308256
 20
11.3441862575
  0
LWPOLYLINE
  5
22C
100
AcDbEntity
  8
ASSI
100
AcDbPolyline
 62
7
  6
CONTINUOUS
 90
40
 70
0
 10
156.4325314071
 20
10.3243930803
 10
156.4372247523
 20
10.3253697607
 10
156.4628065285
 20
10.3322301283
 10
156.4887431559
 20
10.3406908074
 10
156.5148590335
 20
10.3506945161
 10
156.5411553775
 20
10.3622517248
 10
156.5676309717
 20
10.375351963
 10
156.5941065659
 20
10.3899065371
 10
156.6205821601
 20
10.4059253156
 10
156.6470577543
 20
10.4233984299
 10
156.6733540983
 20
10.4422075801
 10
156.6994699759
 20
10.4623618322
 10
156.7254066033
 20
10.4838521203
 10
156.7509883795
 20
10.5065329467
 10
156.7762128965
 20
10.53041239
 10
156.8010825623
 20
10.5554823717
 10
156.8254289994
 20
10.581573158
 10
156.8492486574
 20
10.6086916759
 10
156.8725450868
 20
10.6368309985
 10
156.8951605616
 20
10.6658006116
 10
156.9170904611
 20
10.6956061492
 10
156.938339406
 20
10.7262419773
 10
156.9587635326
 20
10.7575006794
 10
156.9783572441
 20
10.789386482
 10
156.9971261372
 20
10.8218951586
 10
157.0149431394
 20
10.8548066126
 10
157.0318017913
 20
10.8881235772
 10
157.0477085522
 20
10.9218433192
 10
157.0625557271
 20
10.9557375429
 10
157.076336126
 20
10.9898074321
 10
157.0890569389
 20
11.024051803
 10
157.1006320408
 20
11.0582388076
 10
157.1110536575
 20
11.0923680568
 10
157.1203295632
 20
11.1264399399
 10
157.1283969566
 20
11.1602237767
 10
157.1352476369
 20
11.1937176128
 10
157.1408898048
 20
11.2269234026
 10
157.1452852607
 20
11.2596163302
 10
157.1484212712
 20
11.2917214566
 10
157.1503105697
 20
11.3233137206
  0
LWPOLYLINE
  5
22D
100
AcDbEntity
  8
0
100
AcDbPolyline
 62
7
  6
CONTINUOUS
 90
25
 70
0
 10
139.2699904268
 20
1.7510168361
 10
139.2429374466
 20
1.7471964648
 10
139.1958073028
 20
1.741783591
 10
139.1484041953
 20
1.7375678522
 10
139.1007265673
 20
1.7345560762
 10
139.0527759756
 20
1.7327414353
 10
139.0048253839
 20
1.7321342594
 10
138.9568747922
 20
1.7327414353
 10
138.9089242005
 20
1.7345560762
 10
138.8612465724
 20
1.7375678522
 10
138.8138434649
 20
1.741783591
 10
138.7667133211
 20
1.7471964648
 10
138.7201244343
 20
1.7537756603
 10
138.6740798913
 20
1.7615278296
 10
138.6285766053
 20
1.7704463205
 10
138.5838736083
 20
1.7804803637
 10
138.5399754647
 20
1.7916363216
 10
138.4968776103
 20
1.8039078318
 10
138.4548253839
 20
1.8172250374
 10
138.4138247492
 20
1.8315939025
 10
138.3738697425
 20
1.847008463
 10
138.335187812
 20
1.86338097
 10
138.2978547734
 20
1.8806821737
 10
138.261794811
 20
1.8989413239
 10
138.2270079246
 20
1.9181584205
  0
LINE
  5
22E
100
AcDbEntity
  8
0
100
AcDbLine
 62
7
  6
CONTINUOUS
 10
99.5659361215
 20
196.8628050135
 11
99.4775563155
 21
196.8117756212
  0
LINE
  5
22F
100
AcDbEntity
  8
0
100
AcDbLine
 62
7
  6
CONTINUOUS
 10
96.8435835556
 20
194.331894125
 11
96.9496393228
 21
194.3931293958
  0
LINE
  5
230
100
AcDbEntity
  8
0
100
AcDbLine
 62
7
  6
CONTINUOUS
 10
97.3739136415
 20
194.3522960182
 11
97.1971369462
 21
194.2502273699
  0
LINE
  5
231
100
AcDbEntity
  8
0
100
AcDbLine
 62
250
  6
CONTINUOUS
 10
97.8865660579
 20
192.8315717954
 11
98.3107891265
 21
193.0765128784
  0
LINE
  5
232
100
AcDbEntity
  8
ASSI
100
AcDbLine
 62
7
  6
CONTINUOUS
 10
112.9901485628
 20
201.5108408043
 11
113.1672077232
 21
201.6130725444
  0
LINE
  5
233
100
AcDbEntity
  8
ASSI
100
AcDbLine
 62
7
  6
CONTINUOUS
 10
121.7442847312
 20
206.5653693128
 11
121.9213438916
 21
206.6676010529
  0
LINE
  5
234
100
AcDbEntity
  8
ASSI
100
AcDbLine
 62
7
  6
CONTINUOUS
 10
122.4163186384
 20
206.3818088376
 11
122.239259478
 21
206.2795770974
  0
LINE
  5
235
100
AcDbEntity
  8
ASSI
100
AcDbLine
 62
7
  6
CONTINUOUS
 10
113.6621824701
 20
201.3272803291
 11
113.4851233097
 21
201.2250485889
  0
LINE
  5
236
100
AcDbEntity
  8
0
100
AcDbLine
 62
7
  6
CONTINUOUS
 10
99.3915389976
 20
19.8506849338
 11
98.6113505086
 21
19.8112738232
  0
LINE
  5
237
100
AcDbEntity
  8
0
100
AcDbLine
 62
7
  6
CONTINUOUS
 10
98.7413819234
 20
20.2260774801
 11
98.6113505086
 21
20.2195089616
  0
LWPOLYLINE
  5
238
100
AcDbEntity
  8
0
100
AcDbPolyline
 62
7
  6
CONTINUOUS
 90
18
 70
0
 10
145.9875048481
 20
-0.6228281451
 10
146.0051171115
 20
-0.6325230659
 10
146.0226602796
 20
-0.6412091023
 10
146.0401343526
 20
-0.6488862542
 10
146.0575991099
 20
-0.6555774474
 10
146.074994772
 20
-0.6612597563
 10
146.0921419998
 20
-0.6658644032
 10
146.1090317246
 20
-0.6693698614
 10
146.1256730151
 20
-0.6717976578
 10
146.1419137378
 20
-0.6731435958
 10
146.1577083993
 20
-0.6734044026
 10
146.173102493
 20
-0.672583351
 10
146.1880803656
 20
-0.6706860624
 10
146.2026745447
 20
-0.6677109969
 10
146.2168525027
 20
-0.6636596945
 10
146.2305010041
 20
-0.6585423962
 10
146.2436253032
 20
-0.6523376933
 10
146.2500096526
 20
-0.6488236165
  0
LINE
  5
239
100
AcDbEntity
  8
0
100
AcDbLine
 62
7
  6
CONTINUOUS
 10
139.6235438174
 20
-4.2972994851
 11
96.490030165
 21
20.6074507079
  0
LINE
  5
23A
100
AcDbEntity
  8
0
100
AcDbLine
 62
7
  6
CONTINUOUS
 10
139.6235438174
 20
-3.8890643467
 11
96.490030165
 21
21.0156858463
  0
LINE
  5
23B
100
AcDbEntity
  8
0
100
AcDbLine
 62
7
  6
CONTINUOUS
 10
139.6235438174
 20
-3.8686525898
 11
139.2699904268
 21
-3.6645152931
  0
LINE
  5
23C
100
AcDbEntity
  8
0
100
AcDbLine
 62
7
  6
CONTINUOUS
 10
139.2699904268
 20
-3.6645152931
 11
137.5022234739
 21
-2.6438288098
  0
LINE
  5
23D
100
AcDbEntity
  8
0
100
AcDbLine
 62
7
  6
CONTINUOUS
 10
98.6113505086
 20
19.8112738232
 11
96.8435835556
 21
20.8319603066
  0
LINE
  5
23E
100
AcDbEntity
  8
0
100
AcDbLine
 62
7
  6
CONTINUOUS
 10
96.490030165
 20
21.0360976032
 11
96.8435835556
 21
20.8319603066
  0
LINE
  5
23F
100
AcDbEntity
  8
0
100
AcDbLine
 62
7
  6
CONTINUOUS
 10
99.4775563155
 20
19.3927844741
 11
136.6360176669
 21
-2.0620454053
  0
LINE
  5
240
100
AcDbEntity
  8
0
100
AcDbLine
 62
7
  6
CONTINUOUS
 10
139.2699904268
 20
-3.2562801547
 11
137.5022234739
 21
-2.2355936714
  0
LINE
  5
241
100
AcDbEntity
  8
0
100
AcDbLine
 62
7
  6
CONTINUOUS
 10
98.6113505086
 20
20.2195089616
 11
96.8435835556
 21
21.240195445
  0
LINE
  5
242
100
AcDbEntity
  8
0
100
AcDbLine
 62
7
  6
CONTINUOUS
 10
138.7396603409
 20
-2.868427182
 11
136.6360176669
 21
-1.6538102669
  0
LINE
  5
243
100
AcDbEntity
  8
0
100
AcDbLine
 62
7
  6
CONTINUOUS
 10
97.3739136415
 20
21.0156365276
 11
99.4775563155
 21
19.8010196125
  0
LINE
  5
244
100
AcDbEntity
  8
0
100
AcDbLine
 62
7
  6
CONTINUOUS
 10
139.2699904268
 20
-3.1338096132
 11
138.9164370362
 21
-2.9296723165
  0
LINE
  5
245
100
AcDbEntity
  8
0
100
AcDbLine
 62
7
  6
CONTINUOUS
 10
96.8435835556
 20
21.3626659865
 11
97.1971369462
 21
21.1585286898
  0
LINE
  5
246
100
AcDbEntity
  8
0
100
AcDbLine
 62
7
  6
CONTINUOUS
 10
141.1084680579
 20
-3.0929308624
 11
140.8609806845
 21
-2.9500347548
  0
LINE
  5
247
100
AcDbEntity
  8
0
100
AcDbLine
 62
7
  6
CONTINUOUS
 10
141.1084680579
 20
-2.684695724
 11
141.0024054574
 21
-2.6234565078
  0
LINE
  5
248
100
AcDbEntity
  8
0
100
AcDbLine
 62
7
  6
CONTINUOUS
 10
142.8055243328
 20
-2.0314169198
 11
142.6994583156
 21
-1.9701757308
  0
LINE
  5
249
100
AcDbEntity
  8
0
100
AcDbLine
 62
7
  6
CONTINUOUS
 10
142.5933957151
 20
-1.7048386728
 11
142.6994583156
 21
-1.7660778891
  0
LINE
  5
24A
100
AcDbEntity
  8
0
100
AcDbLine
 62
7
  6
CONTINUOUS
 10
139.2699904268
 20
0.2953655493
 11
138.9164370362
 21
0.499502846
  0
LINE
  5
24B
100
AcDbEntity
  8
0
100
AcDbLine
 62
7
  6
CONTINUOUS
 10
138.7396603409
 20
0.6015714943
 11
136.6360176669
 21
1.8161884095
  0
LINE
  5
24C
100
AcDbEntity
  8
0
100
AcDbLine
 62
7
  6
CONTINUOUS
 10
96.8435835556
 20
24.791841149
 11
97.1971369462
 21
24.5877038523
  0
LINE
  5
24D
100
AcDbEntity
  8
0
100
AcDbLine
 62
7
  6
CONTINUOUS
 10
97.3739136415
 20
24.485635204
 11
99.4775563155
 21
23.2710182889
  0
LINE
  5
24E
100
AcDbEntity
  8
0
100
AcDbLine
 62
7
  6
CONTINUOUS
 10
96.8435835556
 20
24.9143116905
 11
98.6113505086
 21
23.8936252072
  0
LINE
  5
24F
100
AcDbEntity
  8
0
100
AcDbLine
 62
7
  6
CONTINUOUS
 10
137.5022234739
 20
1.4385225742
 11
139.2699904268
 21
0.4178360909
  0
LINE
  5
250
100
AcDbEntity
  8
0
100
AcDbLine
 62
7
  6
CONTINUOUS
 10
96.8435835556
 20
25.3225468289
 11
98.6113505086
 21
24.3018603456
  0
LINE
  5
251
100
AcDbEntity
  8
0
100
AcDbLine
 62
7
  6
CONTINUOUS
 10
137.5022234739
 20
1.8467577126
 11
139.2699904268
 21
0.8260712293
  0
LINE
  5
252
100
AcDbEntity
  8
0
100
AcDbLine
 62
7
  6
CONTINUOUS
 10
137.5420514302
 20
2.1096050565
 11
137.3431244481
 21
2.2244630028
  0
LINE
  5
253
100
AcDbEntity
  8
0
100
AcDbLine
 62
7
  6
CONTINUOUS
 10
138.2270079246
 20
1.9181584205
 11
136.6360176669
 21
2.8367762555
  0
LINE
  5
254
100
AcDbEntity
  8
0
100
AcDbLine
 62
7
  6
CONTINUOUS
 10
97.8865660579
 20
25.2102239698
 11
99.4775563155
 21
24.2916061349
  0
LINE
  5
255
100
AcDbEntity
  8
0
100
AcDbLine
 62
7
  6
CONTINUOUS
 10
140.8609806845
 20
1.1323166292
 11
141.1084680579
 21
0.9894205215
  0
LINE
  5
256
100
AcDbEntity
  8
0
100
AcDbLine
 62
7
  6
CONTINUOUS
 10
141.0024054574
 20
1.4588948762
 11
141.1084680579
 21
1.3976556599
  0
LINE
  5
257
100
AcDbEntity
  8
0
100
AcDbLine
 62
7
  6
CONTINUOUS
 10
145.2980757364
 20
-1.0209373013
 11
144.9445223458
 21
-0.8168000046
  0
LWPOLYLINE
  5
258
100
AcDbEntity
  8
0
100
AcDbPolyline
 62
7
  6
CONTINUOUS
 90
19
 70
0
 10
97.8865660579
 20
25.2102239698
 10
97.8532832145
 20
25.2303094821
 10
97.8216594762
 20
25.2511300525
 10
97.7916948429
 20
25.272685681
 10
97.7633386559
 20
25.2950201429
 10
97.736641574
 20
25.318089663
 10
97.711755573
 20
25.3417629156
 10
97.6886909823
 20
25.3660433441
 10
97.6674374725
 20
25.3909275051
 10
97.6481160314
 20
25.416273743
 10
97.6307376785
 20
25.4420846932
 10
97.6152913942
 20
25.4683577203
 10
97.6018651083
 20
25.4949432623
 10
97.5904703415
 20
25.5218431017
 10
97.581095573
 20
25.5490554561
 10
97.5737941697
 20
25.5764254162
 10
97.5685779567
 20
25.6039538811
 10
97.5654351089
 20
25.6316399518
 10
97.5643835172
 20
25.6593260225
  0
LINE
  5
259
100
AcDbEntity
  8
0
100
AcDbLine
 62
7
  6
CONTINUOUS
 10
98.6113505086
 20
23.8936252072
 11
99.4775563155
 21
23.9373814704
  0
LINE
  5
25A
100
AcDbEntity
  8
0
100
AcDbLine
 62
7
  6
CONTINUOUS
 10
98.6113505086
 20
24.3018603456
 11
99.3915389976
 21
24.3412714562
  0
LWPOLYLINE
  5
25B
100
AcDbEntity
  8
0
100
AcDbPolyline
 62
7
  6
CONTINUOUS
 90
18
 70
0
 10
152.3161105397
 20
3.0312294651
 10
152.3337228031
 20
3.0215345444
 10
152.3512659713
 20
3.012848508
 10
152.3687400442
 20
3.0051713561
 10
152.3862048015
 20
2.9984801629
 10
152.4036004636
 20
2.992797854
 10
152.4207476914
 20
2.9881932071
 10
152.4376374163
 20
2.9846877488
 10
152.4542787067
 20
2.9822599525
 10
152.4705194294
 20
2.9809140145
 10
152.4863140909
 20
2.9806532077
 10
152.5017081846
 20
2.9814742593
 10
152.5166860572
 20
2.9833715478
 10
152.5312802363
 20
2.9863466133
 10
152.5454581943
 20
2.9903979158
 10
152.5591066957
 20
2.9955152141
 10
152.5722309948
 20
3.001719917
 10
152.5786153442
 20
3.0052339938
  0
LWPOLYLINE
  5
25C
100
AcDbEntity
  8
ASSI
100
AcDbPolyline
 62
7
  6
CONTINUOUS
 90
51
 70
0
 10
149.5005046191
 20
6.0538094001
 10
149.510019136
 20
6.0485733357
 10
149.5296128474
 20
6.0393138599
 10
149.5500369741
 20
6.0316404273
 10
149.571285919
 20
6.0255423481
 10
149.5932158184
 20
6.0210609087
 10
149.6158312932
 20
6.0182070791
 10
149.6391277226
 20
6.0169698892
 10
149.6629473806
 20
6.0173577153
 10
149.6872938178
 20
6.0193815843
 10
149.7121634835
 20
6.0230304693
 10
149.7373880005
 20
6.028279666
 10
149.7629697767
 20
6.0351400335
 10
149.7889064041
 20
6.0436007126
 10
149.8150222817
 20
6.0536044213
 10
149.8413186258
 20
6.06516163
 10
149.86779422
 20
6.0782618683
 10
149.8942698141
 20
6.0928164423
 10
149.9207454083
 20
6.1088352208
 10
149.9472210025
 20
6.1263083351
 10
149.9735173466
 20
6.1451174853
 10
149.9996332241
 20
6.1652717375
 10
150.0255698516
 20
6.1867620256
 10
150.0511516278
 20
6.2094428519
 10
150.0763761448
 20
6.2333222953
 10
150.1012458105
 20
6.2583922769
 10
150.1255922477
 20
6.2844830632
 10
150.1494119057
 20
6.3116015811
 10
150.1727083351
 20
6.3397409037
 10
150.1953238099
 20
6.3687105168
 10
150.2172537093
 20
6.3985160544
 10
150.2385026542
 20
6.4291518826
 10
150.2589267809
 20
6.4604105846
 10
150.2785204923
 20
6.4922963872
 10
150.2972893855
 20
6.5248050638
 10
150.3151063877
 20
6.5577165178
 10
150.3319650396
 20
6.5910334824
 10
150.3478718005
 20
6.6247532244
 10
150.3627189754
 20
6.6586474481
 10
150.3764993742
 20
6.6927173374
 10
150.3892201871
 20
6.7269617082
 10
150.4007952891
 20
6.7611487129
 10
150.4112169057
 20
6.7952779621
 10
150.4204928115
 20
6.8293498451
 10
150.4285602048
 20
6.8631336819
 10
150.4354108852
 20
6.896627518
 10
150.4410530531
 20
6.9298333079
 10
150.445448509
 20
6.9625262354
 10
150.4485845195
 20
6.9946313618
 10
150.450473818
 20
7.0262236259
 10
150.4511164043
 20
7.0573030275
  0
LINE
  5
25D
100
AcDbEntity
  8
0
100
AcDbLine
 62
7
  6
CONTINUOUS
 10
142.8055243328
 20
2.0101109503
 11
142.6994583156
 21
2.0713521393
  0
LINE
  5
25E
100
AcDbEntity
  8
0
100
AcDbLine
 62
7
  6
CONTINUOUS
 10
142.6994583156
 20
2.3162734949
 11
142.5933957151
 21
2.3775127112
  0
LINE
  5
25F
100
AcDbEntity
  8
0
100
AcDbLine
 62
7
  6
CONTINUOUS
 10
141.7625418305
 20
6.7149212966
 11
141.4089884399
 21
6.9190585933
  0
LINE
  5
260
100
AcDbEntity
  8
0
100
AcDbLine
 62
7
  6
CONTINUOUS
 10
145.2980757364
 20
7.5315888481
 11
144.9445223458
 21
7.7357261448
  0
LWPOLYLINE
  5
261
100
AcDbEntity
  8
ASSI
100
AcDbPolyline
 62
7
  6
CONTINUOUS
 90
51
 70
0
 10
150.2880350092
 20
7.4177641704
 10
150.2785204923
 20
7.4230002349
 10
150.2589267809
 20
7.4322597107
 10
150.2385026542
 20
7.4399331432
 10
150.2172537093
 20
7.4460312224
 10
150.1953238099
 20
7.4505126618
 10
150.1727083351
 20
7.4533664915
 10
150.1494119057
 20
7.4546036814
 10
150.1255922477
 20
7.4542158553
 10
150.1012458105
 20
7.4521919863
 10
150.0763761448
 20
7.4485431012
 10
150.0511516278
 20
7.4432939046
 10
150.0255698516
 20
7.4364335371
 10
149.9996332241
 20
7.4279728579
 10
149.9735173466
 20
7.4179691493
 10
149.9472210025
 20
7.4064119405
 10
149.9207454083
 20
7.3933117023
 10
149.8942698141
 20
7.3787571283
 10
149.86779422
 20
7.3627383497
 10
149.8413186258
 20
7.3452652355
 10
149.8150222817
 20
7.3264560852
 10
149.7889064041
 20
7.3063018331
 10
149.7629697767
 20
7.284811545
 10
149.7373880005
 20
7.2621307186
 10
149.7121634835
 20
7.2382512753
 10
149.6872938178
 20
7.2131812937
 10
149.6629473806
 20
7.1870905074
 10
149.6391277226
 20
7.1599719895
 10
149.6158312932
 20
7.1318326669
 10
149.5932158184
 20
7.1028630538
 10
149.571285919
 20
7.0730575161
 10
149.5500369741
 20
7.042421688
 10
149.5296128474
 20
7.0111629859
 10
149.510019136
 20
6.9792771833
 10
149.4912502428
 20
6.9467685068
 10
149.4734332406
 20
6.9138570528
 10
149.4565745887
 20
6.8805400882
 10
149.4406678278
 20
6.8468203461
 10
149.4258206529
 20
6.8129261225
 10
149.412040254
 20
6.7788562332
 10
149.3993194412
 20
6.7446118624
 10
149.3877443392
 20
6.7104248577
 10
149.3773227226
 20
6.6762956085
 10
149.3680468168
 20
6.6422237255
 10
149.3599794235
 20
6.6084398886
 10
149.3531287431
 20
6.5749460526
 10
149.3474865752
 20
6.5417402627
 10
149.3430911193
 20
6.5090473352
 10
149.3399551088
 20
6.4769422088
 10
149.3380658103
 20
6.4453499447
 10
149.337423224
 20
6.414270543
  0
LWPOLYLINE
  5
262
100
AcDbEntity
  8
0
100
AcDbPolyline
 62
7
  6
CONTINUOUS
 90
18
 70
0
 10
158.6447162313
 20
6.6852870754
 10
158.6623284947
 20
6.6755921546
 10
158.6798716629
 20
6.6669061183
 10
158.6973457358
 20
6.6592289664
 10
158.7148104932
 20
6.6525377731
 10
158.7322061553
 20
6.6468554643
 10
158.749353383
 20
6.6422508173
 10
158.7662431079
 20
6.6387453591
 10
158.7828843984
 20
6.6363175628
 10
158.7991251211
 20
6.6349716248
 10
158.8149197825
 20
6.634710818
 10
158.8303138762
 20
6.6355318695
 10
158.8452917488
 20
6.6374291581
 10
158.8598859279
 20
6.6404042236
 10
158.8740638859
 20
6.6444555261
 10
158.8877123873
 20
6.6495728244
 10
158.9008366864
 20
6.6557775273
 10
158.9072210359
 20
6.6592916041
  0
LWPOLYLINE
  5
263
100
AcDbEntity
  8
ASSI
100
AcDbPolyline
 62
7
  6
CONTINUOUS
 90
51
 70
0
 10
156.571572431
 20
10.1365553334
 10
156.5810869478
 20
10.131319269
 10
156.6006806593
 20
10.1220597932
 10
156.6211047859
 20
10.1143863606
 10
156.6423537308
 20
10.1082882814
 10
156.6642836303
 20
10.103806842
 10
156.6868991051
 20
10.1009530123
 10
156.7101955345
 20
10.0997158225
 10
156.7340151925
 20
10.1001036486
 10
156.7583616296
 20
10.1021275176
 10
156.7832312954
 20
10.1057764026
 10
156.8084558124
 20
10.1110255992
 10
156.8340375886
 20
10.1178859668
 10
156.859974216
 20
10.1263466459
 10
156.8860900936
 20
10.1363503546
 10
156.9123864376
 20
10.1479075633
 10
156.9388620318
 20
10.1610078016
 10
156.965337626
 20
10.1755623756
 10
156.9918132202
 20
10.1915811541
 10
157.0182888144
 20
10.2090542684
 10
157.0445851584
 20
10.2278634186
 10
157.070701036
 20
10.2480176707
 10
157.0966376635
 20
10.2695079588
 10
157.1222194396
 20
10.2921887852
 10
157.1474439566
 20
10.3160682285
 10
157.1723136224
 20
10.3411382102
 10
157.1966600595
 20
10.3672289965
 10
157.2204797175
 20
10.3943475144
 10
157.2437761469
 20
10.422486837
 10
157.2663916217
 20
10.4514564501
 10
157.2883215212
 20
10.4812619877
 10
157.3095704661
 20
10.5118978158
 10
157.3299945928
 20
10.5431565179
 10
157.3495883042
 20
10.5750423205
 10
157.3683571974
 20
10.6075509971
 10
157.3861741995
 20
10.6404624511
 10
157.4030328514
 20
10.6737794157
 10
157.4189396123
 20
10.7074991577
 10
157.4337867873
 20
10.7413933814
 10
157.4475671861
 20
10.7754632706
 10
157.460287999
 20
10.8097076415
 10
157.471863101
 20
10.8438946461
 10
157.4822847176
 20
10.8780238953
 10
157.4915606233
 20
10.9120957784
 10
157.4996280167
 20
10.9458796152
 10
157.506478697
 20
10.9793734513
 10
157.512120865
 20
11.0125792412
 10
157.5165163208
 20
11.0452721687
 10
157.5196523314
 20
11.0773772951
 10
157.5215416298
 20
11.1089695591
 10
157.5221842162
 20
11.1400489608
  0
LWPOLYLINE
  5
264
100
AcDbEntity
  8
ASSI
100
AcDbPolyline
 62
7
  6
CONTINUOUS
 90
51
 70
0
 10
157.359102821
 20
11.5005101037
 10
157.3495883042
 20
11.5057461682
 10
157.3299945928
 20
11.515005644
 10
157.3095704661
 20
11.5226790765
 10
157.2883215212
 20
11.5287771557
 10
157.2663916217
 20
11.5332585951
 10
157.2437761469
 20
11.5361124248
 10
157.2204797175
 20
11.5373496147
 10
157.1966600595
 20
11.5369617885
 10
157.1723136224
 20
11.5349379195
 10
157.1474439566
 20
11.5312890345
 10
157.1222194396
 20
11.5260398379
 10
157.0966376635
 20
11.5191794704
 10
157.070701036
 20
11.5107187912
 10
157.0445851584
 20
11.5007150825
 10
157.0182888144
 20
11.4891578738
 10
156.9918132202
 20
11.4760576356
 10
156.965337626
 20
11.4615030615
 10
156.9388620318
 20
11.445484283
 10
156.9123864376
 20
11.4280111687
 10
156.8860900936
 20
11.4092020185
 10
156.859974216
 20
11.3890477664
 10
156.8340375886
 20
11.3675574783
 10
156.8084558124
 20
11.3448766519
 10
156.7832312954
 20
11.3209972086
 10
156.7583616296
 20
11.295927227
 10
156.7340151925
 20
11.2698364406
 10
156.7101955345
 20
11.2427179227
 10
156.6868991051
 20
11.2145786001
 10
156.6642836303
 20
11.1856089871
 10
156.6423537308
 20
11.1558034494
 10
156.6211047859
 20
11.1251676213
 10
156.6006806593
 20
11.0939089192
 10
156.5810869478
 20
11.0620231166
 10
156.5623180547
 20
11.02951444
 10
156.5445010525
 20
10.996602986
 10
156.5276424006
 20
10.9632860214
 10
156.5117356397
 20
10.9295662794
 10
156.4968884648
 20
10.8956720557
 10
156.4831080659
 20
10.8616021665
 10
156.4703872531
 20
10.8273577956
 10
156.4588121511
 20
10.793170791
 10
156.4483905344
 20
10.7590415418
 10
156.4391146287
 20
10.7249696588
 10
156.4310472354
 20
10.6911858219
 10
156.424196555
 20
10.6576919859
 10
156.4185543871
 20
10.624486196
 10
156.4141589312
 20
10.5917932684
 10
156.4110229207
 20
10.559688142
 10
156.4091336222
 20
10.528095878
 10
156.4084910358
 20
10.4970164763
  0
LINE
  5
265
100
AcDbEntity
  8
0
100
AcDbLine
 62
7
  6
CONTINUOUS
 10
141.7625418305
 20
10.7972726806
 11
141.4089884399
 21
11.0014099773
  0
LINE
  5
266
100
AcDbEntity
  8
ASSI
100
AcDbLine
 62
250
  6
CONTINUOUS
 10
150.4511164043
 20
7.0573030275
 11
150.0975630137
 21
7.2614403242
  0
LINE
  5
267
100
AcDbEntity
  8
ASSI
100
AcDbLine
 62
250
  6
CONTINUOUS
 10
150.0798853442
 20
7.271647189
 11
149.894324947
 21
7.3787874367
  0
LINE
  5
268
100
AcDbEntity
  8
0
100
AcDbLine
 62
7
  6
CONTINUOUS
 10
150.9549299859
 20
10.7977855947
 11
150.6013765953
 21
11.0019228914
  0
LINE
  5
269
100
AcDbEntity
  8
0
100
AcDbLine
 62
7
  6
CONTINUOUS
 10
150.9549299859
 20
13.2471964251
 11
150.6013765953
 21
13.4513337218
  0
LINE
  5
26A
100
AcDbEntity
  8
ASSI
100
AcDbLine
 62
7
  6
CONTINUOUS
 10
143.3957401539
 20
183.9550332912
 11
143.5727993143
 21
184.0572650313
  0
LINE
  5
26B
100
AcDbEntity
  8
ASSI
100
AcDbLine
 62
7
  6
CONTINUOUS
 10
152.1498763222
 20
189.0095617997
 11
152.3269354826
 21
189.1117935398
  0
LINE
  5
26C
100
AcDbEntity
  8
ASSI
100
AcDbLine
 62
7
  6
CONTINUOUS
 10
152.8219102294
 20
188.8260013245
 11
152.644851069
 21
188.7237695843
  0
LINE
  5
26D
100
AcDbEntity
  8
ASSI
100
AcDbLine
 62
7
  6
CONTINUOUS
 10
144.0677740611
 20
183.771472816
 11
143.8907149007
 21
183.6692410758
  0
LWPOLYLINE
  5
26E
100
AcDbEntity
  8
ASSI
100
AcDbPolyline
 62
7
  6
CONTINUOUS
 90
13
 70
0
 10
152.4963746898
 20
45.0865431023
 10
152.4926838024
 20
45.0860108966
 10
152.3825317379
 20
45.0740211081
 10
152.2736091989
 20
45.0661103959
 10
152.1659135851
 20
45.0622701332
 10
152.059672986
 20
45.0625084533
 10
151.9548904856
 20
45.0668340003
 10
151.8515629999
 20
45.0752381302
 10
151.7499093674
 20
45.0877030436
 10
151.6499331356
 20
45.104237347
 10
151.551630757
 20
45.124832434
 10
151.455210427
 20
45.1494446861
 10
151.3606761347
 20
45.1780826172
  0
LINE
  5
26F
100
AcDbEntity
  8
ASSI
100
AcDbLine
 62
250
  6
CONTINUOUS
 10
157.5221842162
 20
11.1400489608
 11
157.1686308256
 21
11.3441862575
  0
LINE
  5
270
100
AcDbEntity
  8
ASSI
100
AcDbLine
 62
250
  6
CONTINUOUS
 10
157.1509531561
 20
11.3543931223
 11
156.9653927589
 21
11.46153337
  0
LWPOLYLINE
  5
271
100
AcDbEntity
  8
0
100
AcDbPolyline
 62
7
  6
CONTINUOUS
 90
18
 70
0
 10
160.4655161929
 20
10.3901639805
 10
160.4827177917
 20
10.3797577678
 10
160.4990110985
 20
10.3689069081
 10
160.5143961133
 20
10.3576114014
 10
160.5289225781
 20
10.3458309361
 10
160.5425407508
 20
10.3336058238
 10
160.5551014058
 20
10.3210569997
 10
160.5665813657
 20
10.3081815538
 10
160.5770038079
 20
10.2949823961
 10
160.5862890384
 20
10.2815891924
 10
160.5944114785
 20
10.2680397084
 10
160.601396707
 20
10.2542961783
 10
160.6072417665
 20
10.2403749705
 10
160.6119615855
 20
10.2262471426
 10
160.6155412355
 20
10.2119416371
 10
160.6179329735
 20
10.1975616494
 10
160.6191208854
 20
10.1830919232
 10
160.6192693744
 20
10.175819819
  0
LINE
  5
272
100
AcDbEntity
  8
0
100
AcDbLine
 62
7
  6
CONTINUOUS
 10
136.7243974729
 20
175.4079751341
 11
136.6360176669
 21
175.3569457418
  0
LINE
  5
273
100
AcDbEntity
  8
0
100
AcDbLine
 62
7
  6
CONTINUOUS
 10
137.0779166967
 20
175.2038575649
 11
136.6360176669
 21
174.9487106034
  0
LINE
  5
274
100
AcDbEntity
  8
0
100
AcDbLine
 62
7
  6
CONTINUOUS
 10
159.935186107
 20
186.2986555243
 11
160.0942851328
 21
186.3905173078
  0
LINE
  5
275
100
AcDbEntity
  8
0
100
AcDbLine
 62
7
  6
CONTINUOUS
 10
138.8103641857
 20
173.7749172021
 11
138.7396603409
 21
173.7340936883
  0
LINE
  5
276
100
AcDbEntity
  8
0
100
AcDbLine
 62
7
  6
CONTINUOUS
 10
160.4655161929
 20
186.176214574
 11
160.3063992278
 21
186.0843424326
  0
LINE
  5
277
100
AcDbEntity
  8
0
100
AcDbLine
 62
7
  6
CONTINUOUS
 10
160.3064171671
 20
186.0843113628
 11
159.2811123344
 21
185.4923132025
  0
LINE
  5
278
100
AcDbEntity
  8
0
100
AcDbLine
 62
250
  6
CONTINUOUS
 10
159.2811123344
 20
185.4923132025
 11
158.6447162313
 21
185.1248660685
  0
LINE
  5
279
100
AcDbEntity
  8
0
100
AcDbLine
 62
7
  6
CONTINUOUS
 10
158.6447162313
 20
185.1248660685
 11
152.9525066428
 21
181.8382555922
  0
LINE
  5
27A
100
AcDbEntity
  8
0
100
AcDbLine
 62
250
  6
CONTINUOUS
 10
152.9525066428
 20
181.8382555922
 11
152.3161105397
 21
181.4708084582
  0
LINE
  5
27B
100
AcDbEntity
  8
0
100
AcDbLine
 62
7
  6
CONTINUOUS
 10
152.3161105397
 20
181.4708084582
 11
146.6239009512
 21
178.1841979819
  0
LINE
  5
27C
100
AcDbEntity
  8
0
100
AcDbLine
 62
250
  6
CONTINUOUS
 10
146.6239009512
 20
178.1841979819
 11
145.9875048481
 21
177.8167508479
  0
LINE
  5
27D
100
AcDbEntity
  8
0
100
AcDbLine
 62
7
  6
CONTINUOUS
 10
139.6235438174
 20
174.142279508
 11
145.9875048481
 21
177.8167508479
  0
LINE
  5
27E
100
AcDbEntity
  8
0
100
AcDbLine
 62
7
  6
CONTINUOUS
 10
139.2699904268
 20
173.9177699093
 11
139.287666388
 21
173.9279757878
  0
LINE
  5
27F
100
AcDbEntity
  8
0
100
AcDbLine
 62
7
  6
CONTINUOUS
 10
139.0224928034
 20
173.6524367968
 11
138.9164370362
 21
173.5912015261
  0
LINE
  5
280
100
AcDbEntity
  8
0
100
AcDbLine
 62
7
  6
CONTINUOUS
 10
160.3064171671
 20
185.6760762244
 11
159.5345580814
 21
185.230414462
  0
LINE
  5
281
100
AcDbEntity
  8
0
100
AcDbLine
 62
7
  6
CONTINUOUS
 10
158.6447162313
 20
184.7166309301
 11
153.2059523898
 21
181.5763568517
  0
LINE
  5
282
100
AcDbEntity
  8
0
100
AcDbLine
 62
7
  6
CONTINUOUS
 10
152.3161105397
 20
181.0625733198
 11
146.8773466981
 21
177.9222992414
  0
LINE
  5
283
100
AcDbEntity
  8
0
100
AcDbLine
 62
7
  6
CONTINUOUS
 10
139.6235438174
 20
173.7340443696
 11
145.9875048481
 21
177.4085157095
  0
LINE
  5
284
100
AcDbEntity
  8
0
100
AcDbLine
 62
7
  6
CONTINUOUS
 10
139.6235438174
 20
173.7136326127
 11
140.8609806845
 21
174.428113151
  0
LINE
  5
285
100
AcDbEntity
  8
0
100
AcDbLine
 62
7
  6
CONTINUOUS
 10
142.8055243328
 20
175.5508682826
 11
145.9999831746
 21
177.3953087819
  0
LINE
  5
286
100
AcDbEntity
  8
0
100
AcDbLine
 62
7
  6
CONTINUOUS
 10
146.8863061471
 20
177.907060558
 11
152.3285888662
 21
181.0493663922
  0
LINE
  5
287
100
AcDbEntity
  8
0
100
AcDbLine
 62
7
  6
CONTINUOUS
 10
153.2149118387
 20
181.5611181683
 11
158.6571945578
 21
184.7034240025
  0
LINE
  5
288
100
AcDbEntity
  8
0
100
AcDbLine
 62
7
  6
CONTINUOUS
 10
159.5435175303
 20
185.2151757786
 11
160.4655161929
 21
185.747526251
  0
LINE
  5
289
100
AcDbEntity
  8
0
100
AcDbLine
 62
7
  6
CONTINUOUS
 10
160.2916163273
 20
185.6267049185
 11
159.5522369119
 21
185.1997965106
  0
LINE
  5
28A
100
AcDbEntity
  8
0
100
AcDbLine
 62
7
  6
CONTINUOUS
 10
144.9445223458
 20
176.7654851978
 11
146.0051825176
 21
177.3778970878
  0
LINE
  5
28B
100
AcDbEntity
  8
0
100
AcDbLine
 62
7
  6
CONTINUOUS
 10
146.8950255287
 20
177.89168129
 11
152.3337882092
 21
181.0319546981
  0
LINE
  5
28C
100
AcDbEntity
  8
0
100
AcDbLine
 62
7
  6
CONTINUOUS
 10
153.2236312203
 20
181.5457389003
 11
158.6623939009
 21
184.6860123084
  0
LINE
  5
28D
100
AcDbEntity
  8
0
100
AcDbLine
 62
7
  6
CONTINUOUS
 10
141.1084680579
 20
174.48935434
 11
142.6994583156
 21
175.407972175
  0
LINE
  5
28E
100
AcDbEntity
  8
0
100
AcDbLine
 62
7
  6
CONTINUOUS
 10
160.6451697179
 20
185.4225676218
 11
159.6523433945
 21
184.8493221457
  0
LINE
  5
28F
100
AcDbEntity
  8
0
100
AcDbLine
 62
250
  6
CONTINUOUS
 10
159.6523433945
 20
184.8493221457
 11
159.0159472915
 21
184.4818750117
  0
LINE
  5
290
100
AcDbEntity
  8
0
100
AcDbLine
 62
250
  6
CONTINUOUS
 10
153.3237377029
 20
181.1952645354
 11
152.6873415998
 21
180.8278174014
  0
LINE
  5
291
100
AcDbEntity
  8
0
100
AcDbLine
 62
250
  6
CONTINUOUS
 10
146.9951320113
 20
177.5412069251
 11
146.3587359082
 21
177.1737597911
  0
LINE
  5
292
100
AcDbEntity
  8
0
100
AcDbLine
 62
7
  6
CONTINUOUS
 10
145.2980757364
 20
176.5613479011
 11
146.3587359082
 21
177.1737597911
  0
LINE
  5
293
100
AcDbEntity
  8
0
100
AcDbLine
 62
7
  6
CONTINUOUS
 10
146.9951320113
 20
177.5412069251
 11
152.6873415998
 21
180.8278174014
  0
LINE
  5
294
100
AcDbEntity
  8
0
100
AcDbLine
 62
7
  6
CONTINUOUS
 10
153.3237377029
 20
181.1952645354
 11
159.0159472915
 21
184.4818750117
  0
LINE
  5
295
100
AcDbEntity
  8
0
100
AcDbLine
 62
7
  6
CONTINUOUS
 10
142.8055243328
 20
175.1018096304
 11
142.6994583156
 21
175.0405684414
  0
LINE
  5
296
100
AcDbEntity
  8
0
100
AcDbLine
 62
7
  6
CONTINUOUS
 10
141.0731093022
 20
174.101534904
 11
140.8609806845
 21
173.9790544988
  0
LINE
  5
297
100
AcDbEntity
  8
0
100
AcDbLine
 62
7
  6
CONTINUOUS
 10
141.1084680579
 20
174.0811192016
 11
142.6994583156
 21
174.9997370366
  0
LINE
  5
298
100
AcDbEntity
  8
0
100
AcDbLine
 62
7
  6
CONTINUOUS
 10
137.3431244481
 20
170.8663986744
 11
136.6360176669
 21
170.458124081
  0
LINE
  5
299
100
AcDbEntity
  8
0
100
AcDbLine
 62
7
  6
CONTINUOUS
 10
138.7396603409
 20
170.2640950119
 11
138.9164370362
 21
170.3661636602
  0
LINE
  5
29A
100
AcDbEntity
  8
0
100
AcDbLine
 62
250
  6
CONTINUOUS
 10
138.2270079246
 20
169.5395062461
 11
138.6512309932
 21
169.7844473291
  0
LINE
  5
29B
100
AcDbEntity
  8
0
100
AcDbLine
 62
7
  6
CONTINUOUS
 10
140.8609806845
 20
170.3865852809
 11
142.8055243328
 21
171.5093404125
  0
LINE
  5
29C
100
AcDbEntity
  8
0
100
AcDbLine
 62
7
  6
CONTINUOUS
 10
142.6994583156
 20
171.325620791
 11
141.1084680579
 21
170.407002956
  0
LINE
  5
29D
100
AcDbEntity
  8
0
100
AcDbLine
 62
7
  6
CONTINUOUS
 10
142.8055243328
 20
171.0194582464
 11
142.6994583156
 21
170.9582170574
  0
LINE
  5
29E
100
AcDbEntity
  8
0
100
AcDbLine
 62
7
  6
CONTINUOUS
 10
141.0731093022
 20
170.01918352
 11
140.8609806845
 21
169.8967031148
  0
LINE
  5
29F
100
AcDbEntity
  8
0
100
AcDbLine
 62
7
  6
CONTINUOUS
 10
142.6994583156
 20
170.9173856526
 11
141.1084680579
 21
169.9987678176
  0
LWPOLYLINE
  5
2A0
100
AcDbEntity
  8
ASSI
100
AcDbPolyline
 62
7
  6
CONTINUOUS
 90
22
 70
0
 10
118.4987287295
 20
51.5266373002
 10
118.6112454456
 20
51.4773735381
 10
118.7231849903
 20
51.4319397353
 10
118.8345473635
 20
51.3903358918
 10
118.9454143501
 20
51.352536818
 10
119.0557041653
 20
51.3185677036
 10
119.1651714548
 20
51.2885041172
 10
119.2738143875
 20
51.2623547537
 10
119.3816347947
 20
51.2401109183
 10
119.4883928155
 20
51.2218220953
 10
119.5940860848
 20
51.2074970896
 10
119.6987169678
 20
51.1971270964
 10
119.8020526994
 20
51.1907351851
 10
119.9040903961
 20
51.1883302119
 10
120.0048329413
 20
51.1899033205
 10
120.10405622
 20
51.1954510113
 10
120.2017568499
 20
51.204982133
 10
120.2979382133
 20
51.2184878369
 10
120.3923863421
 20
51.2359380778
 10
120.4850299135
 20
51.2573228406
 10
120.5759402504
 20
51.2826521405
 10
120.6651173526
 20
51.3119259775
  0
LWPOLYLINE
  5
2A1
100
AcDbEntity
  8
ASSI
100
AcDbPolyline
 62
7
  6
CONTINUOUS
 90
22
 70
0
 10
118.4987287295
 20
51.424008286
 10
118.6145661188
 20
51.3730028576
 10
118.729809844
 20
51.3259682246
 10
118.844459905
 20
51.2829043871
 10
118.9586018181
 20
51.2437848736
 10
119.072150067
 20
51.2086361555
 10
119.1848481033
 20
51.1775376472
 10
119.2966940046
 20
51.1504985064
 10
119.4076896932
 20
51.1275095753
 10
119.5175843881
 20
51.1086227946
 10
119.6263755996
 20
51.0938474396
 10
119.7340658173
 20
51.0831742349
 10
119.8404117282
 20
51.0766272955
 10
119.9454102927
 20
51.0742159511
 10
120.0490645504
 20
51.0759308719
 10
120.1511403071
 20
51.0817681832
 10
120.2516339937
 20
51.0917372061
 10
120.3505491793
 20
51.1058286196
 10
120.4476623771
 20
51.1240105858
 10
120.5428990915
 20
51.146272492
 10
120.6363338181
 20
51.172624951
 10
120.7279665568
 20
51.2030679627
  0
LINE
  5
2A2
100
AcDbEntity
  8
0
100
AcDbLine
 62
7
  6
CONTINUOUS
 10
159.5950312503
 20
21.093528578
 11
159.2414778597
 21
21.2976658747
  0
LWPOLYLINE
  5
2A3
100
AcDbEntity
  8
0
100
AcDbPolyline
 62
250
  6
CONTINUOUS
 90
17
 70
0
 10
146.7122892988
 20
171.2747817688
 10
146.5749448719
 20
171.1799312684
 10
146.4428318516
 20
171.057594495
 10
146.3209823817
 20
170.9124312182
 10
146.2122892988
 20
170.7469494278
 10
146.1246945455
 20
170.5732404809
 10
146.0594810938
 20
170.3951539245
 10
146.0191329038
 20
170.2194730202
 10
146.0051825176
 20
170.0500368986
 10
146.0186492564
 20
169.8992258503
 10
146.0585365289
 20
169.7697102004
 10
146.1233250413
 20
169.6664231598
 10
146.2122892988
 20
169.5922860891
 10
146.3189288967
 20
169.5527160061
 10
146.4405514702
 20
169.5476397739
 10
146.5725244531
 20
169.5772507444
 10
146.7122893606
 20
169.6418412509
  0
LWPOLYLINE
  5
2A4
100
AcDbEntity
  8
0
100
AcDbPolyline
 62
250
  6
CONTINUOUS
 90
17
 70
0
 10
146.7122892988
 20
169.6418412152
 10
146.8496337257
 20
169.7366917155
 10
146.981746746
 20
169.8590284889
 10
147.1035962159
 20
170.0041917657
 10
147.2122892988
 20
170.1696735561
 10
147.2998840521
 20
170.3433825031
 10
147.3650975038
 20
170.5214690595
 10
147.4054456938
 20
170.6971499637
 10
147.41939608
 20
170.8665860853
 10
147.4059293412
 20
171.0173971336
 10
147.3660420687
 20
171.1469127835
 10
147.3012535563
 20
171.2501998242
 10
147.2122892988
 20
171.3243368949
 10
147.1056497009
 20
171.3639069778
 10
146.9840271274
 20
171.3689832101
 10
146.8520541445
 20
171.3393722395
 10
146.712289237
 20
171.2747817331
  0
LINE
  5
2A5
100
AcDbEntity
  8
0
100
AcDbLine
 62
7
  6
CONTINUOUS
 10
145.2980757364
 20
168.0088217517
 11
150.9549299859
 21
171.2750184984
  0
LINE
  5
2A6
100
AcDbEntity
  8
0
100
AcDbLine
 62
7
  6
CONTINUOUS
 10
150.6013765953
 20
170.2544503798
 11
141.4089884399
 21
164.9468806666
  0
LINE
  5
2A7
100
AcDbEntity
  8
0
100
AcDbLine
 62
7
  6
CONTINUOUS
 10
140.9670467017
 20
164.2834758801
 11
141.4089884399
 21
164.5386475009
  0
LINE
  5
2A8
100
AcDbEntity
  8
0
100
AcDbLine
 62
7
  6
CONTINUOUS
 10
150.9549299859
 20
170.0503130832
 11
141.7625418305
 21
164.7427433699
  0
LINE
  5
2A9
100
AcDbEntity
  8
0
100
AcDbLine
 62
7
  6
CONTINUOUS
 10
150.9549299859
 20
168.825607668
 11
150.4245999
 21
168.519401723
  0
LINE
  5
2AA
100
AcDbEntity
  8
0
100
AcDbLine
 62
7
  6
CONTINUOUS
 10
150.4245999
 20
167.2947357627
 11
150.6013765953
 21
167.396804411
  0
LINE
  5
2AB
100
AcDbEntity
  8
0
100
AcDbLine
 62
7
  6
CONTINUOUS
 10
141.4089884399
 20
161.6810409871
 11
140.9670467017
 21
161.4258693662
  0
LINE
  5
2AC
100
AcDbEntity
  8
0
100
AcDbLine
 62
7
  6
CONTINUOUS
 10
150.4245999
 20
166.8864611694
 11
150.9549299859
 21
167.1926671144
  0
LWPOLYLINE
  5
2AD
100
AcDbEntity
  8
ASSI
100
AcDbPolyline
 62
7
  6
CONTINUOUS
 90
13
 70
0
 10
156.0956443642
 20
56.3807280738
 10
156.195169538
 20
56.3767290218
 10
156.2943075142
 20
56.3687839829
 10
156.3918447875
 20
56.3569500823
 10
156.4877779758
 20
56.3412191027
 10
156.5821104613
 20
56.3215992615
 10
156.6746430564
 20
56.2981319868
 10
156.7653719581
 20
56.2708091489
 10
156.8543009694
 20
56.2396388776
 10
156.9412423125
 20
56.2046869903
 10
157.0261917875
 20
56.1659454964
 10
157.1091535944
 20
56.1234223865
 10
157.1568789601
 20
56.096722706
  0
LWPOLYLINE
  5
2AE
100
AcDbEntity
  8
ASSI
100
AcDbPolyline
 62
7
  6
CONTINUOUS
 90
4
 70
0
 10
151.3606761347
 20
45.1780826172
 10
151.2680238911
 20
45.2107377133
 10
151.1774499254
 20
45.2473408139
 10
151.1383974109
 20
45.2652403102
  0
LINE
  5
2AF
100
AcDbEntity
  8
ASSI
100
AcDbLine
 62
7
  6
CONTINUOUS
 10
113.8372268838
 20
58.4773784678
 11
113.9261090808
 21
58.4260590013
  0
LINE
  5
2B0
100
AcDbEntity
  8
ASSI
100
AcDbLine
 62
7
  6
CONTINUOUS
 10
122.1874649017
 20
53.6560556894
 11
122.2763470986
 21
53.6047362228
  0
LINE
  5
2B1
100
AcDbEntity
  8
ASSI
100
AcDbLine
 62
7
  6
CONTINUOUS
 10
122.2763470986
 20
54.6253240688
 11
122.1874649017
 21
54.6766435354
  0
LINE
  5
2B2
100
AcDbEntity
  8
ASSI
100
AcDbLine
 62
7
  6
CONTINUOUS
 10
113.9261090808
 20
59.4466468473
 11
113.8372268838
 21
59.4979663138
  0
LWPOLYLINE
  5
2B3
100
AcDbEntity
  8
0
100
AcDbPolyline
 62
7
  6
CONTINUOUS
 90
18
 70
0
 10
160.4655161929
 20
27.8626279039
 10
160.4827177917
 20
27.8522216911
 10
160.4990110985
 20
27.8413708314
 10
160.5143961133
 20
27.8300753248
 10
160.5289225781
 20
27.8182948594
 10
160.5425407508
 20
27.8060697471
 10
160.5551014058
 20
27.7935209231
 10
160.5665813657
 20
27.7806454772
 10
160.5770038079
 20
27.7674463195
 10
160.5862890384
 20
27.7540531158
 10
160.5944114785
 20
27.7405036317
 10
160.601396707
 20
27.7267601016
 10
160.6072417665
 20
27.7128388938
 10
160.6119615855
 20
27.698711066
 10
160.6155412355
 20
27.6844055605
 10
160.6179329735
 20
27.6700255728
 10
160.6191208854
 20
27.6555558466
 10
160.6192693744
 20
27.6482837424
  0
LWPOLYLINE
  5
2B4
100
AcDbEntity
  8
ASSI
100
AcDbPolyline
 62
7
  6
CONTINUOUS
 90
22
 70
0
 10
114.8234566298
 20
143.0770068187
 10
114.7535110662
 20
143.0144229799
 10
114.6861149807
 20
142.9483658019
 10
114.6212683736
 20
142.8788352846
 10
114.5589269063
 20
142.8057746748
 10
114.4991349173
 20
142.7292407257
 10
114.4420254217
 20
142.6494036972
 10
114.3876043915
 20
142.5662562357
 10
114.3358658547
 20
142.4798056948
 10
114.2869249105
 20
142.3902443951
 10
114.2407877871
 20
142.2975654111
 10
114.1974482563
 20
142.2017756683
 10
114.1570027326
 20
142.1030882635
 10
114.1194576588
 20
142.0014967458
 10
114.0848065921
 20
141.8970075662
 10
114.0531266184
 20
141.7898531745
 10
114.0244243521
 20
141.6800276373
 10
113.9986931787
 20
141.5675368882
 10
113.9759903407
 20
141.4526311774
 10
113.9563349187
 20
141.335393922
 10
113.9397078321
 20
141.215741705
 10
113.9261090808
 20
141.0936745265
  0
LWPOLYLINE
  5
2B5
100
AcDbEntity
  8
ASSI
100
AcDbPolyline
 62
7
  6
CONTINUOUS
 90
22
 70
0
 10
114.7606074257
 20
143.1858648334
 10
114.6884213574
 20
143.1217392005
 10
114.6188768448
 20
143.0540076771
 10
114.5519738879
 20
142.9826702634
 10
114.4876660443
 20
142.9076677571
 10
114.4259997563
 20
142.8290593605
 10
114.3671143515
 20
142.7470226795
 10
114.3110161177
 20
142.6615499626
 10
114.2576987671
 20
142.5726489613
 10
114.2072827637
 20
142.4805205368
 10
114.1597746678
 20
142.3851573914
 10
114.1151679191
 20
142.2865668228
 10
114.0735633011
 20
142.1849715842
 10
114.034967602
 20
142.0803648819
 10
113.9993740337
 20
141.9727535096
 10
113.9668630155
 20
141.8623806023
 10
113.9374415172
 20
141.7492399158
 10
113.9111025691
 20
141.6333376941
 10
113.8879056807
 20
141.5149358044
 10
113.8678706887
 20
141.3941215354
 10
113.8509777564
 20
141.2708075983
 10
113.8372268838
 20
141.1449939931
  0
LWPOLYLINE
  5
2B6
100
AcDbEntity
  8
0
100
AcDbPolyline
 62
250
  6
CONTINUOUS
 90
17
 70
0
 10
158.2991432763
 20
172.6578292388
 10
158.1617988495
 20
172.5629787385
 10
158.0296858291
 20
172.4406419651
 10
157.9078363592
 20
172.2954786883
 10
157.7991432763
 20
172.1299968979
 10
157.7115485231
 20
171.956287951
 10
157.6463350714
 20
171.7782013946
 10
157.6059868814
 20
171.6025204903
 10
157.5920364952
 20
171.4330843687
 10
157.605503234
 20
171.2822733204
 10
157.6453905065
 20
171.1527576705
 10
157.7101790188
 20
171.0494706298
 10
157.7991432763
 20
170.9753335592
 10
157.9057828743
 20
170.9357634762
 10
158.0274054477
 20
170.930687244
 10
158.1593784306
 20
170.9602982145
 10
158.2991433382
 20
171.024888721
  0
LWPOLYLINE
  5
2B7
100
AcDbEntity
  8
0
100
AcDbPolyline
 62
250
  6
CONTINUOUS
 90
17
 70
0
 10
158.2991432763
 20
171.0248886853
 10
158.4364877032
 20
171.1197391856
 10
158.5686007236
 20
171.242075959
 10
158.6904501935
 20
171.3872392358
 10
158.7991432763
 20
171.5527210262
 10
158.8867380296
 20
171.7264299731
 10
158.9519514813
 20
171.9045165295
 10
158.9922996713
 20
172.0801974338
 10
159.0062500575
 20
172.2496335554
 10
158.9927833187
 20
172.4004446037
 10
158.9528960462
 20
172.5299602536
 10
158.8881075338
 20
172.6332472943
 10
158.7991432763
 20
172.7073843649
 10
158.6925036784
 20
172.7469544479
 10
158.570881105
 20
172.7520306801
 10
158.4389081221
 20
172.7224197096
 10
158.2991432145
 20
172.6578292032
  0
LINE
  5
2B8
100
AcDbEntity
  8
0
100
AcDbLine
 62
7
  6
CONTINUOUS
 10
141.4089884399
 20
161.2727663937
 11
140.9670467017
 21
161.0175947729
  0
LINE
  5
2B9
100
AcDbEntity
  8
0
100
AcDbLine
 62
7
  6
CONTINUOUS
 10
141.7625418305
 20
160.6603919859
 11
159.5950312503
 21
170.9566478833
  0
LINE
  5
2BA
100
AcDbEntity
  8
ASSI
100
AcDbLine
 62
7
  6
CONTINUOUS
 10
115.8192861662
 20
143.6519165651
 11
115.4484566298
 21
143.4378042384
  0
LINE
  5
2BB
100
AcDbEntity
  8
ASSI
100
AcDbLine
 62
7
  6
CONTINUOUS
 10
113.9383295078
 20
141.2033693811
 11
113.8372268838
 21
141.1449939931
  0
LINE
  5
2BC
100
AcDbEntity
  8
ASSI
100
AcDbLine
 62
7
  6
CONTINUOUS
 10
118.5781725934
 20
142.7586195654
 11
118.4987287295
 21
142.712749674
  0
LINE
  5
2BD
100
AcDbEntity
  8
ASSI
100
AcDbLine
 62
7
  6
CONTINUOUS
 10
151.4351394495
 20
45.3705473538
 11
151.0815860589
 21
45.5746846505
  0
LINE
  5
2BE
100
AcDbEntity
  8
ASSI
100
AcDbLine
 62
7
  6
CONTINUOUS
 10
150.1842477184
 20
48.4411831524
 11
150.0197349783
 21
48.5361707467
  0
LWPOLYLINE
  5
2BF
100
AcDbEntity
  8
ASSI
100
AcDbPolyline
 62
7
  6
CONTINUOUS
 90
14
 70
0
 10
151.0815867034
 20
45.5746857667
 10
151.0485131082
 20
45.5942010224
 10
150.9698815634
 20
45.6441155859
 10
150.8934128646
 20
45.6977219758
 10
150.819268479
 20
45.7549069996
 10
150.7474533181
 20
45.8156782191
 10
150.6779624704
 20
45.8800280726
 10
150.6109426692
 20
45.9478206821
 10
150.5463991359
 20
46.0190633225
 10
150.4843266491
 20
46.093748719
 10
150.4248562777
 20
46.1717191699
 10
150.3679935203
 20
46.2529816166
 10
150.3137328783
 20
46.3375291176
 10
150.304884163
 20
46.3525769654
  0
LWPOLYLINE
  5
2C0
100
AcDbEntity
  8
ASSI
100
AcDbPolyline
 62
7
  6
CONTINUOUS
 90
5
 70
0
 10
151.435140094
 20
45.3705484701
 10
151.4020664988
 20
45.3900637258
 10
151.323434954
 20
45.4399782893
 10
151.2469662552
 20
45.4935846792
 10
151.1728218696
 20
45.550769703
  0
LWPOLYLINE
  5
2C1
100
AcDbEntity
  8
ASSI
100
AcDbPolyline
 62
7
  6
CONTINUOUS
 90
29
 70
0
 10
151.3101342098
 20
45.1540458765
 10
151.2719473153
 20
45.1766316855
 10
151.1900616884
 20
45.2288548134
 10
151.1104373543
 20
45.284931683
 10
151.0332429503
 20
45.3447435284
 10
150.9584836264
 20
45.4082982656
 10
150.8861542326
 20
45.4755879787
 10
150.8164079559
 20
45.5464701541
 10
150.7492502712
 20
45.6209524057
 10
150.6846757036
 20
45.6990271196
 10
150.6228210165
 20
45.7805289405
 10
150.5636919742
 20
45.8654651319
 10
150.5072828122
 20
45.9538284304
 10
150.4537130002
 20
46.0454316904
 10
150.4029885558
 20
46.1402817788
 10
150.3551034612
 20
46.2383718287
 10
150.3101591329
 20
46.3394940941
 10
150.2681618035
 20
46.4436550017
 10
150.2291052403
 20
46.5508481249
 10
150.1930721617
 20
46.6608464384
 10
150.1600689755
 20
46.7736558873
 10
150.1300892739
 20
46.8892705265
 10
150.1031965511
 20
47.0074454944
 10
150.0793973496
 20
47.1281862175
 10
150.0586851271
 20
47.2514872694
 10
150.0411037499
 20
47.3770875095
 10
150.0266678405
 20
47.5048998909
 10
150.0153627765
 20
47.6350114606
 10
150.007188558
 20
47.7674222185
  0
LWPOLYLINE
  5
2C2
100
AcDbEntity
  8
ASSI
100
AcDbPolyline
 62
7
  6
CONTINUOUS
 90
22
 70
0
 10
115.4484566298
 20
54.3239604987
 10
115.5376337321
 20
54.1917071794
 10
115.6285440689
 20
54.0613969013
 10
115.7211876404
 20
53.9330296643
 10
115.8156357691
 20
53.8065130917
 10
115.9118171325
 20
53.6819395603
 10
116.0095177624
 20
53.5595862002
 10
116.1087410411
 20
53.4394579542
 10
116.2094835864
 20
53.3215498795
 10
116.3115212831
 20
53.2061242782
 10
116.4148570146
 20
53.093186677
 10
116.5194878977
 20
52.9827315491
 10
116.625181167
 20
52.8750046166
 10
116.7319391878
 20
52.7700119532
 10
116.8397595949
 20
52.6677474851
 10
116.9484025276
 20
52.5684387131
 10
117.0578698172
 20
52.4720922174
 10
117.1681596323
 20
52.3787014178
 10
117.2790266189
 20
52.2884740745
 10
117.3903889922
 20
52.2014794407
 10
117.5023285369
 20
52.1176482632
 10
117.614845253
 20
52.0369805419
  0
LWPOLYLINE
  5
2C3
100
AcDbEntity
  8
ASSI
100
AcDbPolyline
 62
7
  6
CONTINUOUS
 90
22
 70
0
 10
115.3856074257
 20
54.2876791695
 10
115.4772401644
 20
54.151420968
 10
115.5706748909
 20
54.0171724288
 10
115.6659116053
 20
53.884933552
 10
115.7630248031
 20
53.7546076992
 10
115.8619399887
 20
53.6262915088
 10
115.9624336753
 20
53.5002748956
 10
116.064509432
 20
53.376563059
 10
116.1681636897
 20
53.2551507996
 10
116.2731622542
 20
53.1363124336
 10
116.3795081651
 20
53.0200537808
 10
116.4871983828
 20
52.9063690214
 10
116.5959895944
 20
52.7955150123
 10
116.7058842892
 20
52.687498154
 10
116.8168799779
 20
52.582312046
 10
116.9287258792
 20
52.4801943435
 10
117.0414239155
 20
52.3811519844
 10
117.1549721644
 20
52.2851780308
 10
117.2691140774
 20
52.1924893242
 10
117.3837641385
 20
52.103158145
 10
117.4990078637
 20
52.0171122128
 10
117.614845253
 20
51.9343515276
  0
LINE
  5
2C4
100
AcDbEntity
  8
0
100
AcDbLine
 62
7
  6
CONTINUOUS
 10
96.490030165
 20
199.047029701
 11
96.490030165
 21
198.6387945626
  0
LINE
  5
2C5
100
AcDbEntity
  8
0
100
AcDbLine
 62
7
  6
CONTINUOUS
 10
96.490030165
 20
20.6074507079
 11
96.490030165
 21
21.0156858463
  0
LINE
  5
2C6
100
AcDbEntity
  8
0
100
AcDbLine
 62
7
  6
CONTINUOUS
 10
96.490030165
 20
21.0360976032
 11
96.490030165
 21
198.6183828057
  0
LINE
  5
2C7
100
AcDbEntity
  8
0
100
AcDbLine
 62
7
  6
CONTINUOUS
 10
96.8435835556
 20
20.8319603066
 11
96.8435835556
 21
21.3626659865
  0
LINE
  5
2C8
100
AcDbEntity
  8
0
100
AcDbLine
 62
7
  6
CONTINUOUS
 10
96.8435835556
 20
21.3626659865
 11
96.8435835556
 21
24.791841149
  0
LINE
  5
2C9
100
AcDbEntity
  8
0
100
AcDbLine
 62
7
  6
CONTINUOUS
 10
96.8435835556
 20
24.791841149
 11
96.8435835556
 21
107.9085153265
  0
LINE
  5
2CA
100
AcDbEntity
  8
0
100
AcDbLine
 62
7
  6
CONTINUOUS
 10
96.8435835556
 20
107.9085153265
 11
96.8435835556
 21
111.337690489
  0
LINE
  5
2CB
100
AcDbEntity
  8
0
100
AcDbLine
 62
7
  6
CONTINUOUS
 10
96.8435835556
 20
111.337690489
 11
96.8435835556
 21
194.4543646666
  0
LINE
  5
2CC
100
AcDbEntity
  8
0
100
AcDbLine
 62
7
  6
CONTINUOUS
 10
96.8435835556
 20
194.4543646666
 11
96.8435835556
 21
197.8835398291
  0
LINE
  5
2CD
100
AcDbEntity
  8
0
100
AcDbLine
 62
7
  6
CONTINUOUS
 10
96.8435835556
 20
197.8835398291
 11
96.8435835556
 21
198.414245509
  0
LINE
  5
2CE
100
AcDbEntity
  8
0
100
AcDbLine
 62
7
  6
CONTINUOUS
 10
97.1971369462
 20
21.1585286898
 11
97.1971369462
 21
24.5877038523
  0
LINE
  5
2CF
100
AcDbEntity
  8
0
100
AcDbLine
 62
7
  6
CONTINUOUS
 10
97.1971369462
 20
107.7043780299
 11
97.1971369462
 21
111.1335531924
  0
LINE
  5
2D0
100
AcDbEntity
  8
0
100
AcDbLine
 62
7
  6
CONTINUOUS
 10
97.1971369462
 20
194.2502273699
 11
97.1971369462
 21
197.6794025324
  0
LINE
  5
2D1
100
AcDbEntity
  8
0
100
AcDbLine
 62
7
  6
CONTINUOUS
 10
97.3739136415
 20
197.6181573979
 11
97.3739136415
 21
194.1481587216
  0
LINE
  5
2D2
100
AcDbEntity
  8
0
100
AcDbLine
 62
7
  6
CONTINUOUS
 10
97.3739136415
 20
110.9498375164
 11
97.3739136415
 21
107.6839564092
  0
LINE
  5
2D3
100
AcDbEntity
  8
0
100
AcDbLine
 62
7
  6
CONTINUOUS
 10
97.3739136415
 20
21.0156365276
 11
97.3739136415
 21
24.485635204
  0
LINE
  5
2D4
100
AcDbEntity
  8
0
100
AcDbLine
 62
7
  6
CONTINUOUS
 10
97.5643835172
 20
25.6593260225
 11
97.5643835172
 21
106.8164715357
  0
LINE
  5
2D5
100
AcDbEntity
  8
0
100
AcDbLine
 62
7
  6
CONTINUOUS
 10
97.5643835172
 20
112.1235283349
 11
97.5643835172
 21
193.2806738481
  0
LINE
  5
2D6
100
AcDbEntity
  8
0
100
AcDbLine
 62
250
  6
CONTINUOUS
 10
97.8865660579
 20
25.2102239698
 11
97.8865660579
 21
106.367369483
  0
LINE
  5
2D7
100
AcDbEntity
  8
0
100
AcDbLine
 62
250
  6
CONTINUOUS
 10
97.8865660579
 20
111.6744262822
 11
97.8865660579
 21
192.8315717954
  0
LINE
  5
2D8
100
AcDbEntity
  8
0
100
AcDbLine
 62
7
  6
CONTINUOUS
 10
98.6113505086
 20
197.3935590257
 11
98.6113505086
 21
196.9853238873
  0
LINE
  5
2D9
100
AcDbEntity
  8
0
100
AcDbLine
 62
7
  6
CONTINUOUS
 10
98.6113505086
 20
110.8477096856
 11
98.6113505086
 21
110.4394745472
  0
LINE
  5
2DA
100
AcDbEntity
  8
0
100
AcDbLine
 62
7
  6
CONTINUOUS
 10
98.6113505086
 20
24.3018603456
 11
98.6113505086
 21
23.8936252072
  0
LINE
  5
2DB
100
AcDbEntity
  8
0
100
AcDbLine
 62
7
  6
CONTINUOUS
 10
98.6113505086
 20
19.8112738232
 11
98.6113505086
 21
20.2195089616
  0
LINE
  5
2DC
100
AcDbEntity
  8
0
100
AcDbLine
 62
7
  6
CONTINUOUS
 10
98.6113505086
 20
106.3571231633
 11
98.6113505086
 21
106.7653583017
  0
LINE
  5
2DD
100
AcDbEntity
  8
0
100
AcDbLine
 62
7
  6
CONTINUOUS
 10
98.6113505086
 20
192.9029725033
 11
98.6113505086
 21
193.3112076417
  0
LINE
  5
2DE
100
AcDbEntity
  8
0
100
AcDbLine
 62
7
  6
CONTINUOUS
 10
99.4775563155
 20
196.8117756212
 11
99.4775563155
 21
196.4035404828
  0
LINE
  5
2DF
100
AcDbEntity
  8
0
100
AcDbLine
 62
7
  6
CONTINUOUS
 10
99.4775563155
 20
110.7558084472
 11
99.4775563155
 21
109.7352206012
  0
LINE
  5
2E0
100
AcDbEntity
  8
0
100
AcDbLine
 62
7
  6
CONTINUOUS
 10
99.4775563155
 20
24.2916061349
 11
99.4775563155
 21
23.2710182889
  0
LINE
  5
2E1
100
AcDbEntity
  8
0
100
AcDbLine
 62
7
  6
CONTINUOUS
 10
99.4775563155
 20
19.3927844741
 11
99.4775563155
 21
19.8010196125
  0
LINE
  5
2E2
100
AcDbEntity
  8
0
100
AcDbLine
 62
7
  6
CONTINUOUS
 10
99.4775563155
 20
105.4487516481
 11
99.4775563155
 21
106.469339494
  0
LINE
  5
2E3
100
AcDbEntity
  8
0
100
AcDbLine
 62
7
  6
CONTINUOUS
 10
99.4775563155
 20
191.9129539604
 11
99.4775563155
 21
192.9335418064
  0
LWPOLYLINE
  5
2E4
100
AcDbEntity
  8
0
100
AcDbPolyline
 62
7
  6
CONTINUOUS
 90
9
 70
0
 10
97.5643835172
 20
193.2806738481
 10
97.5654351089
 20
193.3083599188
 10
97.5685779567
 20
193.3360459895
 10
97.5737941697
 20
193.3635744543
 10
97.581095573
 20
193.3909444145
 10
97.5904703415
 20
193.4181567688
 10
97.6018651083
 20
193.4450566082
 10
97.6152913942
 20
193.4716421503
 10
97.6181190976
 20
193.4764518719
  0
LWPOLYLINE
  5
2E5
100
AcDbEntity
  8
0
100
AcDbPolyline
 62
7
  6
CONTINUOUS
 90
6
 70
0
 10
97.5643835172
 20
106.8164715357
 10
97.5654351089
 20
106.8441576064
 10
97.5685779567
 20
106.8718436771
 10
97.5737941697
 20
106.899372142
 10
97.581095573
 20
106.9267421021
 10
97.5883474549
 20
106.9477923052
  0
LWPOLYLINE
  5
2E6
100
AcDbEntity
  8
ASSI
100
AcDbPolyline
 62
7
  6
CONTINUOUS
 90
14
 70
0
 10
111.4062460669
 20
203.8813867481
 10
111.4242866575
 20
203.9779628257
 10
111.4467472605
 20
204.0741601863
 10
111.4736372439
 20
204.169978027
 10
111.5049472397
 20
204.2654171507
 10
111.5406109362
 20
204.3602754257
 10
111.5806375608
 20
204.4545516212
 10
111.625017886
 20
204.548246968
 10
111.6736579184
 20
204.641163028
 10
111.7265666861
 20
204.7332981494
 10
111.783735161
 20
204.8246539838
 10
111.8450422653
 20
204.9150370479
 10
111.9104967706
 20
205.00444528
 10
111.9129988524
 20
205.0076247999
  0
LWPOLYLINE
  5
2E7
100
AcDbEntity
  8
ASSI
100
AcDbPolyline
 62
7
  6
CONTINUOUS
 90
18
 70
0
 10
149.3780040952
 20
174.0549337453
 10
149.4008077969
 20
174.0793712639
 10
149.424627455
 20
174.1064897818
 10
149.4479238843
 20
174.1346291044
 10
149.4705393591
 20
174.1635987175
 10
149.4924692586
 20
174.1934042551
 10
149.5137182035
 20
174.2240400833
 10
149.5341423302
 20
174.2552987853
 10
149.5537360416
 20
174.2871845879
 10
149.5725049348
 20
174.3196932645
 10
149.5903219369
 20
174.3526047185
 10
149.6071805889
 20
174.3859216831
 10
149.6230873498
 20
174.4196414251
 10
149.6379345247
 20
174.4535356488
 10
149.6517149235
 20
174.487605538
 10
149.6644357364
 20
174.5218499089
 10
149.6760108384
 20
174.5560369136
 10
149.6857510824
 20
174.5879347685
  0
LWPOLYLINE
  5
2E8
100
AcDbEntity
  8
ASSI
100
AcDbPolyline
 62
7
  6
CONTINUOUS
 90
18
 70
0
 10
156.4490719071
 20
178.1376796786
 10
156.4718756088
 20
178.1621171972
 10
156.4956952668
 20
178.1892357151
 10
156.5189916962
 20
178.2173750377
 10
156.541607171
 20
178.2463446507
 10
156.5635370705
 20
178.2761501884
 10
156.5847860154
 20
178.3067860165
 10
156.605210142
 20
178.3380447186
 10
156.6248038535
 20
178.3699305212
 10
156.6435727466
 20
178.4024391978
 10
156.6613897488
 20
178.4353506518
 10
156.6782484007
 20
178.4686676164
 10
156.6941551616
 20
178.5023873584
 10
156.7090023365
 20
178.5362815821
 10
156.7227827354
 20
178.5703514713
 10
156.7355035483
 20
178.6045958422
 10
156.7470786502
 20
178.6387828468
 10
156.7568188942
 20
178.6706807017
  0
LINE
  5
2E9
100
AcDbEntity
  8
ASSI
100
AcDbLine
 62
7
  6
CONTINUOUS
 10
122.2669148142
 20
136.3695445984
 11
122.1874649017
 21
136.3236712146
  0
LINE
  5
2EA
100
AcDbEntity
  8
ASSI
100
AcDbLine
 62
7
  6
CONTINUOUS
 10
121.6611014203
 20
133.5339526277
 11
121.2901173526
 21
133.3197510765
  0
LINE
  5
2EB
100
AcDbEntity
  8
ASSI
100
AcDbLine
 62
7
  6
CONTINUOUS
 10
120.7279665568
 20
140.4620510464
 11
120.6651173526
 21
140.4257697172
  0
LINE
  5
2EC
100
AcDbEntity
  8
ASSI
100
AcDbLine
 62
7
  6
CONTINUOUS
 10
114.8234566298
 20
137.0535199316
 11
114.7606074257
 21
137.0172386024
  0
LINE
  5
2ED
100
AcDbEntity
  8
ASSI
100
AcDbLine
 62
7
  6
CONTINUOUS
 10
121.2901173526
 20
139.3432379636
 11
121.3529665568
 21
139.3795192928
  0
LWPOLYLINE
  5
2EE
100
AcDbEntity
  8
ASSI
100
AcDbPolyline
 62
7
  6
CONTINUOUS
 90
6
 70
0
 10
157.1189253486
 20
56.0666718522
 10
157.20785436
 20
56.0355015809
 10
157.2947957031
 20
56.0005496936
 10
157.3797451781
 20
55.9618081997
 10
157.462706985
 20
55.9192850899
 10
157.5104323507
 20
55.8925854093
  0
LWPOLYLINE
  5
2EF
100
AcDbEntity
  8
0
100
AcDbPolyline
 62
7
  6
CONTINUOUS
 90
18
 70
0
 10
160.4655161929
 20
45.3350918272
 10
160.4827177917
 20
45.3246856145
 10
160.4990110985
 20
45.3138347548
 10
160.5143961133
 20
45.3025392481
 10
160.5289225781
 20
45.2907587828
 10
160.5425407508
 20
45.2785336705
 10
160.5551014058
 20
45.2659848465
 10
160.5665813657
 20
45.2531094005
 10
160.5770038079
 20
45.2399102429
 10
160.5862890384
 20
45.2265170391
 10
160.5944114785
 20
45.2129675551
 10
160.601396707
 20
45.199224025
 10
160.6072417665
 20
45.1853028172
 10
160.6119615855
 20
45.1711749894
 10
160.6155412355
 20
45.1568694838
 10
160.6179329735
 20
45.1424894961
 10
160.6191208854
 20
45.1280197699
 10
160.6192693744
 20
45.1207476657
  0
LINE
  5
2F0
100
AcDbEntity
  8
ASSI
100
AcDbLine
 62
7
  6
CONTINUOUS
 10
151.1728218696
 20
45.550769703
 11
151.1010067087
 21
45.6115409225
  0
LINE
  5
2F1
100
AcDbEntity
  8
ASSI
100
AcDbLine
 62
7
  6
CONTINUOUS
 10
114.7606074257
 20
61.5388371541
 11
114.8234566298
 21
61.4299791394
  0
LINE
  5
2F2
100
AcDbEntity
  8
ASSI
100
AcDbLine
 62
7
  6
CONTINUOUS
 10
120.6651173526
 20
51.3119259775
 11
120.7279665568
 21
51.2030679627
  0
LINE
  5
2F3
100
AcDbEntity
  8
ASSI
100
AcDbLine
 62
7
  6
CONTINUOUS
 10
121.3529665568
 20
51.5638653825
 11
121.2901173526
 21
51.6727233972
  0
LWPOLYLINE
  5
2F4
100
AcDbEntity
  8
ASSI
100
AcDbPolyline
 62
7
  6
CONTINUOUS
 90
3
 70
0
 10
111.3886559527
 20
203.7420185424
 10
111.3926636972
 20
203.7846364929
 10
111.4062460669
 20
203.8813867481
  0
LINE
  5
2F5
100
AcDbEntity
  8
ASSI
100
AcDbLine
 62
7
  6
CONTINUOUS
 10
123.7507309535
 20
203.6129637707
 11
123.7332658618
 21
203.5203549026
  0
LWPOLYLINE
  5
2F6
100
AcDbEntity
  8
ASSI
100
AcDbPolyline
 62
7
  6
CONTINUOUS
 90
83
 70
0
 10
123.7332658618
 20
203.5203549026
 10
123.7115688294
 20
203.4281110358
 10
123.6856309141
 20
203.3362329415
 10
123.6554610582
 20
203.2447198485
 10
123.6211229668
 20
203.153764991
 10
123.5826078322
 20
203.0633695486
 10
123.539924462
 20
202.9735323417
 10
123.4931629843
 20
202.8844430659
 10
123.4423147819
 20
202.7961033015
 10
123.3873884718
 20
202.7085114682
 10
123.3285000337
 20
202.6218525203
 10
123.2656410955
 20
202.536128429
 10
123.1988200292
 20
202.4513372231
 10
123.1281779307
 20
202.3676579432
 10
123.053706726
 20
202.2850929389
 10
122.9754144891
 20
202.2036398607
 10
122.8934665379
 20
202.1234707006
 10
122.8078551476
 20
202.0445881716
 10
122.7185880429
 20
201.9669895607
 10
122.6258537155
 20
201.890838721
 10
122.5296448391
 20
201.8161387118
 10
122.42996874
 20
201.7428864739
 10
122.3270358892
 20
201.6712366829
 10
122.2208394048
 20
201.6011927247
 10
122.1113861686
 20
201.5327512134
 10
121.9989072963
 20
201.4660566664
 10
121.8833963947
 20
201.4011127753
 10
121.7648598569
 20
201.3379158485
 10
121.6435479785
 20
201.2765993294
 10
121.5194548952
 20
201.2171671913
 10
121.3925864713
 20
201.159615461
 10
121.2632105956
 20
201.1040656615
 10
121.1313219697
 20
201.0505220231
 10
120.9969258919
 20
200.9989803156
 10
120.860306146
 20
200.9495493718
 10
120.7214580333
 20
200.9022336518
 10
120.5803862525
 20
200.8570286955
 10
120.4373886833
 20
200.8140299553
 10
120.2924612565
 20
200.773242093
 10
120.1456080414
 20
200.7346604467
 10
119.9971391254
 20
200.6983664836
 10
119.8470510947
 20
200.6643650375
 10
119.6953473631
 20
200.6326512745
 10
119.5423482604
 20
200.6032921596
 10
119.3880510494
 20
200.5762926685
 10
119.2324584673
 20
200.5516478255
 10
119.0758990552
 20
200.5294096695
 10
118.9183707701
 20
200.5095832858
 10
118.759875655
 20
200.4921635892
 10
118.60074838
 20
200.477187362
 10
118.4409876091
 20
200.4646597674
 10
118.2805946783
 20
200.4545756423
 10
118.1199082647
 20
200.4469562798
 10
117.9589277483
 20
200.441806888
 10
117.7976537492
 20
200.4391222588
 10
117.6364268051
 20
200.4389080609
 10
117.4752470155
 20
200.4411695144
 10
117.314114281
 20
200.4459013993
 10
117.1533688408
 20
200.4530937238
 10
116.9930115136
 20
200.4627516871
 10
116.8330414808
 20
200.4748700901
 10
116.6737965268
 20
200.4894233442
 10
116.5152781837
 20
200.5064165943
 10
116.3574849195
 20
200.5258446956
 10
116.200749922
 20
200.5476666247
 10
116.0450754276
 20
200.5718874397
 10
115.8904591999
 20
200.5985020825
 10
115.7372277185
 20
200.627454355
 10
115.5853839096
 20
200.6587491967
 10
115.4349248469
 20
200.6923816681
 10
115.286168232
 20
200.7282807525
 10
115.1391176623
 20
200.7664512396
 10
114.9937695404
 20
200.8068883397
 10
114.8504307758
 20
200.8495066681
 10
114.7091056143
 20
200.8943108337
 10
114.5697898101
 20
200.9412962277
 10
114.4327775351
 20
200.9903636379
 10
114.2980736568
 20
201.0415174639
 10
114.1656733078
 20
201.0947533063
 10
114.0358560576
 20
201.149958755
 10
113.9087150962
 20
201.20709634
 10
113.7841572337
 20
201.2662035314
 10
113.6621824701
 20
201.3272803291
  0
LWPOLYLINE
  5
2F7
100
AcDbEntity
  8
ASSI
100
AcDbPolyline
 62
7
  6
CONTINUOUS
 90
22
 70
0
 10
121.2901173526
 20
133.3197510765
 10
121.3600629163
 20
133.3823349153
 10
121.4274590017
 20
133.4483920933
 10
121.4923056089
 20
133.5179226106
 10
121.5546470762
 20
133.5909832204
 10
121.6144390652
 20
133.6675171694
 10
121.6715485608
 20
133.7473541979
 10
121.725969591
 20
133.8305016594
 10
121.7777081278
 20
133.9169522004
 10
121.826649072
 20
134.0065135001
 10
121.8727861954
 20
134.0991924841
 10
121.9161257262
 20
134.1949822269
 10
121.9565712499
 20
134.2936696317
 10
121.9941163236
 20
134.3952611494
 10
122.0287673903
 20
134.499750329
 10
122.060447364
 20
134.6069047207
 10
122.0891496304
 20
134.7167302578
 10
122.1148808037
 20
134.829221007
 10
122.1375836418
 20
134.9441267177
 10
122.1572390637
 20
135.0613639732
 10
122.1738661504
 20
135.1810161901
 10
122.1874649017
 20
135.3030833686
  0
LWPOLYLINE
  5
2F8
100
AcDbEntity
  8
ASSI
100
AcDbPolyline
 62
7
  6
CONTINUOUS
 90
22
 70
0
 10
121.3529665568
 20
133.2108930618
 10
121.4251526251
 20
133.2750186947
 10
121.4946971377
 20
133.3427502181
 10
121.5616000945
 20
133.4140876318
 10
121.6259079382
 20
133.4890901381
 10
121.6875742262
 20
133.5676985347
 10
121.7464596309
 20
133.6497352157
 10
121.8025578647
 20
133.7352079326
 10
121.8558752154
 20
133.8241089339
 10
121.9062912187
 20
133.9162373584
 10
121.9537993147
 20
134.0116005038
 10
121.9984060634
 20
134.1101910724
 10
122.0400106813
 20
134.211786311
 10
122.0786063804
 20
134.3163930133
 10
122.1141999488
 20
134.4240043855
 10
122.146710967
 20
134.5343772929
 10
122.1761324652
 20
134.6475179794
 10
122.2024714133
 20
134.763420201
 10
122.2256683017
 20
134.8818220908
 10
122.2457032938
 20
135.0026363598
 10
122.2625962261
 20
135.1259502968
 10
122.2763470986
 20
135.2517639021
  0
LINE
  5
2F9
100
AcDbEntity
  8
0
100
AcDbLine
 62
7
  6
CONTINUOUS
 10
97.5643835172
 20
112.284577033
 11
96.8435835556
 21
111.868396169
  0
LINE
  5
2FA
100
AcDbEntity
  8
0
100
AcDbLine
 62
7
  6
CONTINUOUS
 10
96.8435835556
 20
111.337690489
 11
96.9496393228
 21
111.3989257598
  0
LINE
  5
2FB
100
AcDbEntity
  8
0
100
AcDbLine
 62
7
  6
CONTINUOUS
 10
97.1971369462
 20
111.1335531924
 11
97.3031927134
 21
111.1947884631
  0
LINE
  5
2FC
100
AcDbEntity
  8
0
100
AcDbLine
 62
7
  6
CONTINUOUS
 10
97.3739136415
 20
110.9498375164
 11
97.5506732534
 21
111.051896301
  0
LWPOLYLINE
  5
2FD
100
AcDbEntity
  8
0
100
AcDbPolyline
 62
7
  6
CONTINUOUS
 90
24
 70
0
 10
139.2322649752
 20
82.9031162499
 10
139.1958073028
 20
82.8989291042
 10
139.1484041953
 20
82.8947133654
 10
139.1007265673
 20
82.8917015894
 10
139.0527759756
 20
82.8898869485
 10
139.0048253839
 20
82.8892797726
 10
138.9568747922
 20
82.8898869485
 10
138.9089242005
 20
82.8917015894
 10
138.8612465724
 20
82.8947133654
 10
138.8138434649
 20
82.8989291042
 10
138.7667133211
 20
82.904341978
 10
138.7201244343
 20
82.9109211735
 10
138.6740798913
 20
82.9186733428
 10
138.6285766053
 20
82.9275918337
 10
138.5838736083
 20
82.9376258769
 10
138.5399754647
 20
82.9487818348
 10
138.4968776103
 20
82.961053345
 10
138.4548253839
 20
82.9743705506
 10
138.4138247492
 20
82.9887394157
 10
138.3738697425
 20
83.0041539762
 10
138.335187812
 20
83.0205264832
 10
138.2978547734
 20
83.0378276869
 10
138.261794811
 20
83.0560868371
 10
138.2270079246
 20
83.0753039337
  0
LINE
  5
2FE
100
AcDbEntity
  8
ASSI
100
AcDbLine
 62
7
  6
CONTINUOUS
 10
158.9383838867
 20
53.4957116609
 11
158.7455015544
 21
53.6070795022
  0
LINE
  5
2FF
100
AcDbEntity
  8
ASSI
100
AcDbLine
 62
7
  6
CONTINUOUS
 10
157.5104329952
 20
55.8925865256
 11
157.1568796046
 21
56.0967238223
  0
LWPOLYLINE
  5
300
100
AcDbEntity
  8
ASSI
100
AcDbPolyline
 62
7
  6
CONTINUOUS
 90
29
 70
0
 10
157.5104323507
 20
55.8925854093
 10
157.5435059459
 20
55.8730701537
 10
157.6221374907
 20
55.8231555901
 10
157.6986061895
 20
55.7695492003
 10
157.772750575
 20
55.7123641764
 10
157.844565736
 20
55.6515929569
 10
157.9140565837
 20
55.5872431035
 10
157.9810763849
 20
55.519450494
 10
158.0456199182
 20
55.4482078536
 10
158.107692405
 20
55.3735224571
 10
158.1671627763
 20
55.2955520062
 10
158.2240255338
 20
55.2142895595
 10
158.2782861757
 20
55.1297420585
 10
158.3298301283
 20
55.0420880292
 10
158.3786516509
 20
54.9513209073
 10
158.4247564841
 20
54.8574472572
 10
158.4680472753
 20
54.7606652975
 10
158.5085180784
 20
54.6609688827
 10
158.5461748395
 20
54.5583641584
 10
158.5809380446
 20
54.4530677792
 10
158.6128015795
 20
54.3450740577
 10
158.6417715583
 20
54.2343886812
 10
158.6677868096
 20
54.1212453674
 10
158.69084109
 20
54.0056389224
 10
158.7109406428
 20
53.8875745401
 10
158.728043027
 20
53.7673015189
 10
158.7421340954
 20
53.6449029583
 10
158.7532279952
 20
53.520295759
 10
158.7613247263
 20
53.3934799208
  0
LWPOLYLINE
  5
301
100
AcDbEntity
  8
ASSI
100
AcDbPolyline
 62
7
  6
CONTINUOUS
 90
29
 70
0
 10
157.6354382348
 20
56.109088003
 10
157.6736251294
 20
56.086502194
 10
157.7555107563
 20
56.034279066
 10
157.8351350903
 20
55.9782021965
 10
157.9123294943
 20
55.918390351
 10
157.9870888182
 20
55.8548356138
 10
158.0594182121
 20
55.7875459007
 10
158.1291644887
 20
55.7166637253
 10
158.1963221735
 20
55.6421814737
 10
158.260896741
 20
55.5641067599
 10
158.3227514282
 20
55.4826049389
 10
158.3818804705
 20
55.3976687475
 10
158.4382896324
 20
55.309305449
 10
158.4918594445
 20
55.217702189
 10
158.5425838889
 20
55.1228521006
 10
158.5904689834
 20
55.0247620508
 10
158.6354133117
 20
54.9236397853
 10
158.6774106412
 20
54.8194788777
 10
158.7164672043
 20
54.7122857545
 10
158.752500283
 20
54.6022874411
 10
158.7855034692
 20
54.4894779921
 10
158.8154831708
 20
54.373863353
 10
158.8423758936
 20
54.255688385
 10
158.866175095
 20
54.1349476619
 10
158.8868873176
 20
54.0116466101
 10
158.9044686947
 20
53.88604637
 10
158.9189046042
 20
53.7582339885
 10
158.9302096682
 20
53.6281224188
 10
158.9383838867
 20
53.4957116609
  0
LWPOLYLINE
  5
302
100
AcDbEntity
  8
ASSI
100
AcDbPolyline
 62
7
  6
CONTINUOUS
 90
3
 70
0
 10
157.4536216432
 20
56.2020308659
 10
157.4815816997
 20
56.1823394931
 10
157.5587761037
 20
56.1225276477
  0
LWPOLYLINE
  5
303
100
AcDbEntity
  8
ASSI
100
AcDbPolyline
 62
7
  6
CONTINUOUS
 90
24
 70
0
 10
151.1010067087
 20
45.6115409225
 10
151.031515861
 20
45.6758907759
 10
150.9644960598
 20
45.7436833855
 10
150.8999525265
 20
45.8149260258
 10
150.8378800397
 20
45.8896114223
 10
150.7784096683
 20
45.9675818732
 10
150.7215469109
 20
46.0488443199
 10
150.6672862689
 20
46.1333918209
 10
150.6157423164
 20
46.2210458503
 10
150.5669207938
 20
46.3118129721
 10
150.5208159606
 20
46.4056866222
 10
150.4775251693
 20
46.502468582
 10
150.4370543662
 20
46.6021649967
 10
150.3993976051
 20
46.704769721
 10
150.3646344001
 20
46.8100661002
 10
150.3327708652
 20
46.9180598218
 10
150.3038008864
 20
47.0287451982
 10
150.2777856351
 20
47.141888512
 10
150.2547313547
 20
47.257494957
 10
150.2346318018
 20
47.3755593393
 10
150.2175294177
 20
47.4958323606
 10
150.2034383492
 20
47.6182309211
 10
150.1923444495
 20
47.7428381204
 10
150.1842477184
 20
47.8696539587
  0
LWPOLYLINE
  5
304
100
AcDbEntity
  8
ASSI
100
AcDbPolyline
 62
7
  6
CONTINUOUS
 90
22
 70
0
 10
113.9261090808
 20
58.4260590013
 10
113.9397078321
 20
58.2882883256
 10
113.9563349187
 20
58.1494355658
 10
113.9759903407
 20
58.0095007217
 10
113.9986931787
 20
57.8683783427
 10
114.0244243521
 20
57.7261738795
 10
114.0531266184
 20
57.5832036846
 10
114.0848065921
 20
57.4394660534
 10
114.1194576588
 20
57.2949626905
 10
114.1570027326
 20
57.1500150627
 10
114.1974482563
 20
57.004622181
 10
114.2407877871
 20
56.8587850344
 10
114.2869249105
 20
56.7128280568
 10
114.3358658547
 20
56.5667509814
 10
114.3876043915
 20
56.420554075
 10
114.4420254217
 20
56.274562572
 10
114.4991349173
 20
56.1287769294
 10
114.5589269063
 20
55.9831966902
 10
114.6212683736
 20
55.8381457166
 10
114.6861149807
 20
55.6937319628
 10
114.7535110662
 20
55.5498474747
 10
114.8234566298
 20
55.4064922523
  0
LWPOLYLINE
  5
305
100
AcDbEntity
  8
ASSI
100
AcDbPolyline
 62
7
  6
CONTINUOUS
 90
22
 70
0
 10
113.8372268838
 20
58.4773784678
 10
113.8509777564
 20
58.3356856996
 10
113.8678706887
 20
58.1928642278
 10
113.8879056807
 20
58.0489140522
 10
113.9111025691
 20
57.9037249771
 10
113.9374415172
 20
57.7574071984
 10
113.9668630155
 20
57.6102913032
 10
113.9993740337
 20
57.462375487
 10
114.034967602
 20
57.3136615542
 10
114.0735633011
 20
57.164485506
 10
114.1151679191
 20
57.0148462975
 10
114.1597746678
 20
56.8647449735
 10
114.2072827637
 20
56.7145206698
 10
114.2576987671
 20
56.5641731083
 10
114.3110161177
 20
56.413702567
 10
114.3671143515
 20
56.2634490158
 10
114.4259997563
 20
56.1134129454
 10
114.4876660443
 20
55.9635938652
 10
114.5519738879
 20
55.814330273
 10
114.6188768448
 20
55.6657350016
 10
114.6884213574
 20
55.5176952183
 10
114.7606074257
 20
55.3702109231
  0
LINE
  5
306
100
AcDbEntity
  8
ASSI
100
AcDbLine
 62
7
  6
CONTINUOUS
 10
111.6282336006
 20
203.9463248209
 11
111.6282336006
 21
203.5380896825
  0
LINE
  5
307
100
AcDbEntity
  8
ASSI
100
AcDbLine
 62
7
  6
CONTINUOUS
 10
113.6621824701
 20
201.3272803291
 11
113.6621824701
 21
201.1373035394
  0
LWPOLYLINE
  5
308
100
AcDbEntity
  8
ASSI
100
AcDbPolyline
 62
7
  6
CONTINUOUS
 90
88
 70
0
 10
111.3782352118
 20
203.9463248209
 10
111.3788925178
 20
203.9988478496
 10
111.3835489971
 20
204.0959468293
 10
111.3926636972
 20
204.1928716313
 10
111.4062460669
 20
204.2896218865
 10
111.4242866575
 20
204.3861979641
 10
111.4467472605
 20
204.4823953246
 10
111.4736372439
 20
204.5782131654
 10
111.5049472397
 20
204.6736522891
 10
111.5406109362
 20
204.7685105641
 10
111.5806375608
 20
204.8627867596
 10
111.625017886
 20
204.9564821064
 10
111.6736579184
 20
205.0493981664
 10
111.7265666861
 20
205.1415332878
 10
111.783735161
 20
205.2328891222
 10
111.8450422653
 20
205.3232721863
 10
111.9104967706
 20
205.4126804183
 10
111.9800899053
 20
205.50111588
 10
112.0536742775
 20
205.5883912729
 10
112.1312583462
 20
205.6745041384
 10
112.2128336525
 20
205.7594569352
 10
112.298227427
 20
205.8430697409
 10
112.3874477627
 20
205.9253397154
 10
112.4804865667
 20
206.0062696988
 10
112.5771467912
 20
206.0856882886
 10
112.6774361114
 20
206.1635922816
 10
112.781346852
 20
206.2399848811
 10
112.8886589396
 20
206.3147042942
 10
112.9993795828
 20
206.387746975
 10
113.1135015728
 20
206.4591164696
 10
113.2307832096
 20
206.5286616237
 10
113.3512311897
 20
206.5963785709
 10
113.4748388165
 20
206.6622711777
 10
113.6013443002
 20
206.7261998894
 10
113.7307537825
 20
206.7881605438
 10
113.8630611216
 20
206.8481573032
 10
113.9979861026
 20
206.9060630997
 10
114.1355342732
 20
206.9618735019
 10
114.2757000856
 20
207.0155929413
 10
114.4181866812
 20
207.0671076449
 10
114.5629989787
 20
207.1164129401
 10
114.7101320594
 20
207.1635134995
 10
114.8592743086
 20
207.2083095685
 10
115.0104299847
 20
207.2507962628
 10
115.1635948293
 20
207.2909784666
 10
115.318444453
 20
207.3287710776
 10
115.4749824267
 20
207.3641690312
 10
115.6332051795
 20
207.3971773921
 10
115.7927776098
 20
207.4277262515
 10
115.9537025783
 20
207.4558103966
 10
116.1159772244
 20
207.4814350402
 10
116.2792578648
 20
207.5045459115
 10
116.4435466319
 20
207.525137683
 10
116.6088413934
 20
207.5432156821
 10
116.7747920699
 20
207.5587416215
 10
116.9414000515
 20
207.5717100922
 10
117.1086639482
 20
207.5821265031
 10
117.2762295099
 20
207.5899687932
 10
117.444097376
 20
207.5952315068
 10
117.6122669072
 20
207.5979200995
 10
117.7803819355
 20
207.5980288773
 10
117.9484423453
 20
207.5955523723
 10
118.1164482523
 20
207.5904960523
 10
118.284043835
 20
207.5828706261
 10
118.4512282237
 20
207.5726706487
 10
118.6180022881
 20
207.5599015651
 10
118.7840128157
 20
207.5445904191
 10
118.9492581883
 20
207.526731823
 10
119.113740024
 20
207.5063311645
 10
119.2771099652
 20
207.4834316503
 10
119.4393656552
 20
207.4580279843
 10
119.6005094507
 20
207.4301254627
 10
119.7602000635
 20
207.3997831804
 10
119.9184344137
 20
207.3669959667
 10
120.0752155813
 20
207.3317689923
 10
120.2302115179
 20
207.2941768649
 10
120.3834184397
 20
207.2542145717
 10
120.5348401304
 20
207.2118871254
 10
120.6841558924
 20
207.1672841718
 10
120.8313612625
 20
207.1204008881
 10
120.976460704
 20
207.0712420971
 10
121.1191469093
 20
207.0199119127
 10
121.2594147637
 20
206.9664057328
 10
121.3972693818
 20
206.9107281594
 10
121.5324188001
 20
206.8529971128
 10
121.6647656972
 20
206.7932518995
 10
121.7944073943
 20
206.7314532129
 10
121.9213438916
 20
206.6676010529
  0
LWPOLYLINE
  5
309
100
AcDbEntity
  8
ASSI
100
AcDbPolyline
 62
7
  6
CONTINUOUS
 90
88
 70
0
 10
111.6282348992
 20
203.9463248209
 10
111.6289719267
 20
204.0008418313
 10
111.6336215413
 20
204.0939594172
 10
111.642539975
 20
204.1869075498
 10
111.6557362477
 20
204.2796858711
 10
111.6732013395
 20
204.3722947392
 10
111.6948983719
 20
204.464538606
 10
111.7208362872
 20
204.5564167003
 10
111.7510061431
 20
204.6479297933
 10
111.7853442345
 20
204.7388846508
 10
111.8238593691
 20
204.8292800932
 10
111.8665427392
 20
204.9191173001
 10
111.9133042169
 20
205.008206576
 10
111.9641524194
 20
205.0965463403
 10
112.0190787294
 20
205.1841381736
 10
112.0779671675
 20
205.2707971215
 10
112.1408261058
 20
205.3565212128
 10
112.2076471721
 20
205.4413124188
 10
112.2782892706
 20
205.5249916986
 10
112.3527604753
 20
205.6075567029
 10
112.4310527121
 20
205.6890097811
 10
112.5130006634
 20
205.7691789412
 10
112.5986120537
 20
205.8480614702
 10
112.6878791584
 20
205.9256600812
 10
112.7806134858
 20
206.0018109208
 10
112.8768223622
 20
206.07651093
 10
112.9764984612
 20
206.1497631679
 10
113.0794313121
 20
206.221412959
 10
113.1856277965
 20
206.2914569171
 10
113.2950810326
 20
206.3598984284
 10
113.4075599049
 20
206.4265929754
 10
113.5230708066
 20
206.4915368665
 10
113.6416073444
 20
206.5547337933
 10
113.7629192227
 20
206.6160503125
 10
113.8870123061
 20
206.6754824505
 10
114.0138807299
 20
206.7330341809
 10
114.1432566057
 20
206.7885839803
 10
114.2751452316
 20
206.8421276187
 10
114.4095413093
 20
206.8936693262
 10
114.5461610552
 20
206.94310027
 10
114.6850091679
 20
206.99041599
 10
114.8260809488
 20
207.0356209463
 10
114.969078518
 20
207.0786196866
 10
115.1140059448
 20
207.1194075489
 10
115.2608591599
 20
207.1579891951
 10
115.4093280758
 20
207.1942831582
 10
115.5594161066
 20
207.2282846043
 10
115.7111198381
 20
207.2599983674
 10
115.8641189408
 20
207.2893574822
 10
116.0184161518
 20
207.3163569734
 10
116.174008734
 20
207.3410018163
 10
116.3305681461
 20
207.3632399724
 10
116.4880964312
 20
207.383066356
 10
116.6465915462
 20
207.4004860527
 10
116.8057188213
 20
207.4154622799
 10
116.9654795921
 20
207.4279898744
 10
117.125872523
 20
207.4380739995
 10
117.2865589365
 20
207.445693362
 10
117.4475394529
 20
207.4508427538
 10
117.608813452
 20
207.453527383
 10
117.7700403961
 20
207.4537415809
 10
117.9312201857
 20
207.4514801274
 10
118.0923529203
 20
207.4467482426
 10
118.2530983604
 20
207.439555918
 10
118.4134556877
 20
207.4298979547
 10
118.5734257205
 20
207.4177795518
 10
118.7326706745
 20
207.4032262977
 10
118.8911890175
 20
207.3862330475
 10
119.0489822818
 20
207.3668049462
 10
119.2057172792
 20
207.3449830172
 10
119.3613917737
 20
207.3207622021
 10
119.5160080014
 20
207.2941475593
 10
119.6692394827
 20
207.2651952868
 10
119.8210832917
 20
207.2339004451
 10
119.9715423544
 20
207.2002679738
 10
120.1202989692
 20
207.1643688893
 10
120.2673495389
 20
207.1261984023
 10
120.4126976608
 20
207.0857613021
 10
120.5560364255
 20
207.0431429737
 10
120.697361587
 20
206.9983388081
 10
120.8366773912
 20
206.9513534142
 10
120.9736896661
 20
206.9022860039
 10
121.1083935444
 20
206.8511321779
 10
121.2407938935
 20
206.7978963356
 10
121.3706111436
 20
206.7426908869
 10
121.497752105
 20
206.6855533018
 10
121.6223099675
 20
206.6264461105
 10
121.7442847312
 20
206.5653693128
  0
LINE
  5
30A
100
AcDbEntity
  8
0
100
AcDbLine
 62
7
  6
CONTINUOUS
 10
96.8435835556
 20
107.786044785
 11
96.9496393228
 21
107.8472800558
  0
LINE
  5
30B
100
AcDbEntity
  8
0
100
AcDbLine
 62
7
  6
CONTINUOUS
 10
97.3739136415
 20
107.8064466782
 11
97.1971369462
 21
107.7043780299
  0
LINE
  5
30C
100
AcDbEntity
  8
0
100
AcDbLine
 62
250
  6
CONTINUOUS
 10
97.8865660579
 20
106.367369483
 11
98.2400852817
 21
106.5714870522
  0
LINE
  5
30D
100
AcDbEntity
  8
ASSI
100
AcDbLine
 62
7
  6
CONTINUOUS
 10
150.007188558
 20
134.0683304755
 11
150.1842477184
 21
134.1705622157
  0
LINE
  5
30E
100
AcDbEntity
  8
ASSI
100
AcDbLine
 62
7
  6
CONTINUOUS
 10
158.7613247263
 20
139.122858984
 11
158.9383838867
 21
139.2250907242
  0
LINE
  5
30F
100
AcDbEntity
  8
ASSI
100
AcDbLine
 62
7
  6
CONTINUOUS
 10
158.9383838867
 20
138.6535615304
 11
158.7613247263
 21
138.5513297903
  0
LINE
  5
310
100
AcDbEntity
  8
ASSI
100
AcDbLine
 62
7
  6
CONTINUOUS
 10
150.1842477184
 20
133.5990330219
 11
150.007188558
 21
133.4968012818
  0
LWPOLYLINE
  5
311
100
AcDbEntity
  8
0
100
AcDbPolyline
 62
7
  6
CONTINUOUS
 90
18
 70
0
 10
160.4655161929
 20
62.8075557506
 10
160.4827177917
 20
62.7971495379
 10
160.4990110985
 20
62.7862986782
 10
160.5143961133
 20
62.7750031715
 10
160.5289225781
 20
62.7632227062
 10
160.5425407508
 20
62.7509975939
 10
160.5551014058
 20
62.7384487698
 10
160.5665813657
 20
62.7255733239
 10
160.5770038079
 20
62.7123741662
 10
160.5862890384
 20
62.6989809625
 10
160.5944114785
 20
62.6854314785
 10
160.601396707
 20
62.6716879483
 10
160.6072417665
 20
62.6577667406
 10
160.6119615855
 20
62.6436389127
 10
160.6155412355
 20
62.6293334072
 10
160.6179329735
 20
62.6149534195
 10
160.6191208854
 20
62.6004836933
 10
160.6192693744
 20
62.5932115891
  0
LWPOLYLINE
  5
312
100
AcDbEntity
  8
ASSI
100
AcDbPolyline
 62
7
  6
CONTINUOUS
 90
14
 70
0
 10
157.5587761037
 20
56.1225276477
 10
157.6335354276
 20
56.0589729105
 10
157.7058648215
 20
55.9916831974
 10
157.7756110981
 20
55.920801022
 10
157.8427687829
 20
55.8463187704
 10
157.9073433504
 20
55.7682440565
 10
157.9691980376
 20
55.6867422356
 10
158.0283270799
 20
55.6018060442
 10
158.0847362418
 20
55.5134427457
 10
158.1383060539
 20
55.4218394857
 10
158.1890304983
 20
55.3269893973
 10
158.2369155928
 20
55.2288993474
 10
158.2818599212
 20
55.127777082
 10
158.2871348911
 20
55.1146942107
  0
LWPOLYLINE
  5
313
100
AcDbEntity
  8
ASSI
100
AcDbPolyline
 62
7
  6
CONTINUOUS
 90
22
 70
0
 10
122.1874649017
 20
54.6766435354
 10
122.1738661504
 20
54.814414211
 10
122.1572390637
 20
54.9532669709
 10
122.1375836418
 20
55.0932018149
 10
122.1148808037
 20
55.2343241939
 10
122.0891496304
 20
55.3765286571
 10
122.060447364
 20
55.519498852
 10
122.0287673903
 20
55.6632364832
 10
121.9941163236
 20
55.8077398461
 10
121.9565712499
 20
55.9526874739
 10
121.9161257262
 20
56.0980803556
 10
121.8727861954
 20
56.2439175022
 10
121.826649072
 20
56.3898744799
 10
121.7777081278
 20
56.5359515552
 10
121.725969591
 20
56.6821484616
 10
121.6715485608
 20
56.8281399647
 10
121.6144390652
 20
56.9739256072
 10
121.5546470762
 20
57.1195058464
 10
121.4923056089
 20
57.26455682
 10
121.4274590017
 20
57.4089705738
 10
121.3600629163
 20
57.5528550619
 10
121.2901173526
 20
57.6962102843
  0
LWPOLYLINE
  5
314
100
AcDbEntity
  8
ASSI
100
AcDbPolyline
 62
7
  6
CONTINUOUS
 90
22
 70
0
 10
113.9261090808
 20
140.0730866805
 10
113.9397078321
 20
139.9353160049
 10
113.9563349187
 20
139.796463245
 10
113.9759903407
 20
139.656528401
 10
113.9986931787
 20
139.515406022
 10
114.0244243521
 20
139.3732015588
 10
114.0531266184
 20
139.2302313639
 10
114.0848065921
 20
139.0864937327
 10
114.1194576588
 20
138.9419903698
 10
114.1570027326
 20
138.797042742
 10
114.1974482563
 20
138.6516498603
 10
114.2407877871
 20
138.5058127137
 10
114.2869249105
 20
138.359855736
 10
114.3358658547
 20
138.2137786607
 10
114.3876043915
 20
138.0675817543
 10
114.4420254217
 20
137.9215902512
 10
114.4991349173
 20
137.7758046087
 10
114.5589269063
 20
137.6302243695
 10
114.6212683736
 20
137.4851733959
 10
114.6861149807
 20
137.3407596421
 10
114.7535110662
 20
137.196875154
 10
114.8234566298
 20
137.0535199316
  0
LWPOLYLINE
  5
315
100
AcDbEntity
  8
ASSI
100
AcDbPolyline
 62
7
  6
CONTINUOUS
 90
22
 70
0
 10
113.8372268838
 20
140.1244061471
 10
113.8509777564
 20
139.9827133789
 10
113.8678706887
 20
139.839891907
 10
113.8879056807
 20
139.6959417315
 10
113.9111025691
 20
139.5507526564
 10
113.9374415172
 20
139.4044348777
 10
113.9668630155
 20
139.2573189825
 10
113.9993740337
 20
139.1094031662
 10
114.034967602
 20
138.9606892335
 10
114.0735633011
 20
138.8115131853
 10
114.1151679191
 20
138.6618739768
 10
114.1597746678
 20
138.5117726528
 10
114.2072827637
 20
138.3615483491
 10
114.2576987671
 20
138.2112007876
 10
114.3110161177
 20
138.0607302463
 10
114.3671143515
 20
137.9104766951
 10
114.4259997563
 20
137.7604406247
 10
114.4876660443
 20
137.6106215444
 10
114.5519738879
 20
137.4613579523
 10
114.6188768448
 20
137.3127626809
 10
114.6884213574
 20
137.1647228976
 10
114.7606074257
 20
137.0172386024
  0
LWPOLYLINE
  5
316
100
AcDbEntity
  8
ASSI
100
AcDbPolyline
 62
7
  6
CONTINUOUS
 90
22
 70
0
 10
122.2763470986
 20
54.6253240688
 10
122.2625962261
 20
54.767016837
 10
122.2457032938
 20
54.9098383089
 10
122.2256683017
 20
55.0537884844
 10
122.2024714133
 20
55.1989775595
 10
122.1761324652
 20
55.3452953382
 10
122.146710967
 20
55.4924112334
 10
122.1141999488
 20
55.6403270497
 10
122.0786063804
 20
55.7890409824
 10
122.0400106813
 20
55.9382170306
 10
121.9984060634
 20
56.0878562391
 10
121.9537993147
 20
56.2379575631
 10
121.9062912187
 20
56.3881818668
 10
121.8558752154
 20
56.5385294283
 10
121.8025578647
 20
56.6889999696
 10
121.7464596309
 20
56.8392535208
 10
121.6875742262
 20
56.9892895912
 10
121.6259079382
 20
57.1391086715
 10
121.5616000945
 20
57.2883722636
 10
121.4946971377
 20
57.436967535
 10
121.4251526251
 20
57.5850073183
 10
121.3529665568
 20
57.7324916135
  0
LWPOLYLINE
  5
317
100
AcDbEntity
  8
0
100
AcDbPolyline
 62
7
  6
CONTINUOUS
 90
18
 70
0
 10
119.7008102575
 20
209.7132448793
 10
119.7003995929
 20
209.7333440016
 10
119.6991497315
 20
209.7528788004
 10
119.6970606734
 20
209.7718492758
 10
119.6941223808
 20
209.7903186576
 10
119.6903448915
 20
209.8082237158
 10
119.6857583187
 20
209.8253747615
 10
119.6803485538
 20
209.8417531771
 10
119.6741297054
 20
209.85737758
 10
119.6671742133
 20
209.8721141331
 10
119.6595019919
 20
209.8859218052
 10
119.6510931267
 20
209.8988416274
 10
119.6419603136
 20
209.910862856
 10
119.6320859535
 20
209.9220128878
 10
119.6214876455
 20
209.9322643259
 10
119.6102308822
 20
209.941524236
 10
119.5982944949
 20
209.9497864627
 10
119.5920840019
 20
209.9535430845
  0
LINE
  5
318
100
AcDbEntity
  8
ASSI
100
AcDbLine
 62
7
  6
CONTINUOUS
 10
117.614845253
 20
143.3257219299
 11
117.614845253
 21
143.2230929157
  0
LINE
  5
319
100
AcDbEntity
  8
ASSI
100
AcDbLine
 62
7
  6
CONTINUOUS
 10
117.614845253
 20
52.0369805419
 11
117.614845253
 21
51.9343515276
  0
LINE
  5
31A
100
AcDbEntity
  8
ASSI
100
AcDbLine
 62
7
  6
CONTINUOUS
 10
118.4987287295
 20
51.424008286
 11
118.4987287295
 21
51.5266373002
  0
LINE
  5
31B
100
AcDbEntity
  8
ASSI
100
AcDbLine
 62
7
  6
CONTINUOUS
 10
118.4987287295
 20
142.712749674
 11
118.4987287295
 21
142.8153786883
  0
LWPOLYLINE
  5
31C
100
AcDbEntity
  8
0
100
AcDbPolyline
 62
7
  6
CONTINUOUS
 90
25
 70
0
 10
138.2270079246
 20
88.3823607329
 10
138.261794811
 20
88.3631436362
 10
138.2978547734
 20
88.3448844861
 10
138.335187812
 20
88.3275832823
 10
138.3738697425
 20
88.3112107754
 10
138.4138247492
 20
88.2957962149
 10
138.4548253839
 20
88.2814273498
 10
138.4968776103
 20
88.2681101442
 10
138.5399754647
 20
88.255838634
 10
138.5838736083
 20
88.2446826761
 10
138.6285766053
 20
88.2346486329
 10
138.6740798913
 20
88.2257301419
 10
138.7201244343
 20
88.2179779727
 10
138.7667133211
 20
88.2113987772
 10
138.8138434649
 20
88.2059859033
 10
138.8612465724
 20
88.2017701646
 10
138.9089242005
 20
88.1987583886
 10
138.9568747922
 20
88.1969437476
 10
139.0048253839
 20
88.1963365718
 10
139.0527759756
 20
88.1969437476
 10
139.1007265673
 20
88.1987583886
 10
139.1484041953
 20
88.2017701646
 10
139.1958073028
 20
88.2059859033
 10
139.2429374466
 20
88.2113987772
 10
139.2699904268
 20
88.2152191485
  0
LINE
  5
31D
100
AcDbEntity
  8
0
100
AcDbLine
 62
7
  6
CONTINUOUS
 10
138.2270079246
 20
83.0753039337
 11
136.6360176669
 21
83.9939217687
  0
LINE
  5
31E
100
AcDbEntity
  8
0
100
AcDbLine
 62
7
  6
CONTINUOUS
 10
97.8865660579
 20
106.367369483
 11
99.4775563155
 21
105.4487516481
  0
LINE
  5
31F
100
AcDbEntity
  8
0
100
AcDbLine
 62
7
  6
CONTINUOUS
 10
139.2699904268
 20
82.8813340469
 11
137.5022234739
 21
83.9020205303
  0
LINE
  5
320
100
AcDbEntity
  8
0
100
AcDbLine
 62
7
  6
CONTINUOUS
 10
98.6113505086
 20
106.3571231633
 11
96.8435835556
 21
107.3778096466
  0
LINE
  5
321
100
AcDbEntity
  8
0
100
AcDbLine
 62
7
  6
CONTINUOUS
 10
139.2699904268
 20
83.2895691853
 11
137.5022234739
 21
84.3102556687
  0
LINE
  5
322
100
AcDbEntity
  8
0
100
AcDbLine
 62
7
  6
CONTINUOUS
 10
98.6113505086
 20
106.7653583017
 11
96.8435835556
 21
107.786044785
  0
LINE
  5
323
100
AcDbEntity
  8
0
100
AcDbLine
 62
7
  6
CONTINUOUS
 10
137.5022576439
 20
84.3103148491
 11
137.3431244481
 21
84.402196362
  0
LINE
  5
324
100
AcDbEntity
  8
0
100
AcDbLine
 62
7
  6
CONTINUOUS
 10
99.2616332549
 20
106.3899721038
 11
99.4775563155
 21
106.2653008347
  0
LINE
  5
325
100
AcDbEntity
  8
0
100
AcDbLine
 62
7
  6
CONTINUOUS
 10
139.2699904268
 20
83.4120397269
 11
138.9164370362
 21
83.6161770235
  0
LINE
  5
326
100
AcDbEntity
  8
0
100
AcDbLine
 62
7
  6
CONTINUOUS
 10
96.8435835556
 20
107.9085153265
 11
97.1971369462
 21
107.7043780299
  0
LINE
  5
327
100
AcDbEntity
  8
0
100
AcDbLine
 62
7
  6
CONTINUOUS
 10
138.7396603409
 20
83.7998926995
 11
136.6360176669
 21
85.0145096147
  0
LINE
  5
328
100
AcDbEntity
  8
0
100
AcDbLine
 62
7
  6
CONTINUOUS
 10
97.3739136415
 20
107.6839564092
 11
99.4775563155
 21
106.469339494
  0
LINE
  5
329
100
AcDbEntity
  8
0
100
AcDbLine
 62
7
  6
CONTINUOUS
 10
141.1084680579
 20
83.4529184776
 11
140.8609806845
 21
83.5958145853
  0
LINE
  5
32A
100
AcDbEntity
  8
0
100
AcDbLine
 62
7
  6
CONTINUOUS
 10
141.1084680579
 20
83.861153616
 11
141.0024054574
 21
83.9223928322
  0
LINE
  5
32B
100
AcDbEntity
  8
0
100
AcDbLine
 62
7
  6
CONTINUOUS
 10
142.8055243328
 20
84.4736089064
 11
142.6994583156
 21
84.5348500954
  0
LINE
  5
32C
100
AcDbEntity
  8
0
100
AcDbLine
 62
7
  6
CONTINUOUS
 10
138.7396603409
 20
87.0657738067
 11
136.6360176669
 21
88.2803907218
  0
LINE
  5
32D
100
AcDbEntity
  8
0
100
AcDbLine
 62
7
  6
CONTINUOUS
 10
97.3739136415
 20
110.9498375164
 11
99.4775563155
 21
109.7352206012
  0
LINE
  5
32E
100
AcDbEntity
  8
0
100
AcDbLine
 62
7
  6
CONTINUOUS
 10
142.5933957151
 20
84.8410106672
 11
142.6994583156
 21
84.779771451
  0
LINE
  5
32F
100
AcDbEntity
  8
0
100
AcDbLine
 62
7
  6
CONTINUOUS
 10
139.2699904268
 20
86.8412148894
 11
138.9164370362
 21
87.045352186
  0
LINE
  5
330
100
AcDbEntity
  8
0
100
AcDbLine
 62
7
  6
CONTINUOUS
 10
96.8435835556
 20
111.337690489
 11
97.1971369462
 21
111.1335531924
  0
LINE
  5
331
100
AcDbEntity
  8
0
100
AcDbLine
 62
7
  6
CONTINUOUS
 10
96.8435835556
 20
111.4601610306
 11
98.6113505086
 21
110.4394745472
  0
LINE
  5
332
100
AcDbEntity
  8
0
100
AcDbLine
 62
7
  6
CONTINUOUS
 10
137.5022234739
 20
87.9843719142
 11
139.2699904268
 21
86.9636854309
  0
LINE
  5
333
100
AcDbEntity
  8
0
100
AcDbLine
 62
7
  6
CONTINUOUS
 10
96.8435835556
 20
111.868396169
 11
98.6113505086
 21
110.8477096856
  0
LINE
  5
334
100
AcDbEntity
  8
0
100
AcDbLine
 62
7
  6
CONTINUOUS
 10
137.5022234739
 20
88.3926070526
 11
139.2699904268
 21
87.3719205693
  0
LINE
  5
335
100
AcDbEntity
  8
0
100
AcDbLine
 62
7
  6
CONTINUOUS
 10
137.5306751555
 20
88.5803758873
 11
137.3431244481
 21
88.6886653152
  0
LINE
  5
336
100
AcDbEntity
  8
0
100
AcDbLine
 62
7
  6
CONTINUOUS
 10
138.2270079246
 20
88.3823607329
 11
136.6360176669
 21
89.3009785678
  0
LINE
  5
337
100
AcDbEntity
  8
0
100
AcDbLine
 62
7
  6
CONTINUOUS
 10
97.8865660579
 20
111.6744262822
 11
99.4775563155
 21
110.7558084472
  0
LINE
  5
338
100
AcDbEntity
  8
0
100
AcDbLine
 62
7
  6
CONTINUOUS
 10
140.8609806845
 20
87.6781659692
 11
141.1084680579
 21
87.5352698616
  0
LINE
  5
339
100
AcDbEntity
  8
0
100
AcDbLine
 62
7
  6
CONTINUOUS
 10
141.0024054574
 20
88.0047442162
 11
141.1084680579
 21
87.943505
  0
LWPOLYLINE
  5
33A
100
AcDbEntity
  8
0
100
AcDbPolyline
 62
7
  6
CONTINUOUS
 90
19
 70
0
 10
97.8865660579
 20
106.367369483
 10
97.8532832145
 20
106.3874549953
 10
97.8216594762
 20
106.4082755657
 10
97.7916948429
 20
106.4298311942
 10
97.7633386559
 20
106.4521656561
 10
97.736641574
 20
106.4752351762
 10
97.711755573
 20
106.4989084288
 10
97.6886909823
 20
106.5231888573
 10
97.6674374725
 20
106.5480730183
 10
97.6481160314
 20
106.5734192562
 10
97.6307376785
 20
106.5992302064
 10
97.6152913942
 20
106.6255032335
 10
97.6018651083
 20
106.6520887755
 10
97.5904703415
 20
106.6789886149
 10
97.581095573
 20
106.7062009693
 10
97.5737941697
 20
106.7335709294
 10
97.5685779567
 20
106.7610993943
 10
97.5654351089
 20
106.788785465
 10
97.5643835172
 20
106.8164715357
  0
LWPOLYLINE
  5
33B
100
AcDbEntity
  8
0
100
AcDbPolyline
 62
7
  6
CONTINUOUS
 90
19
 70
0
 10
97.8865660579
 20
111.6744262822
 10
97.8532832145
 20
111.6945117944
 10
97.8216594762
 20
111.7153323648
 10
97.7916948429
 20
111.7368879934
 10
97.7633386559
 20
111.7592224553
 10
97.736641574
 20
111.7822919754
 10
97.711755573
 20
111.805965228
 10
97.6886909823
 20
111.8302456565
 10
97.6674374725
 20
111.8551298175
 10
97.6481160314
 20
111.8804760554
 10
97.6307376785
 20
111.9062870056
 10
97.6152913942
 20
111.9325600327
 10
97.6018651083
 20
111.9591455747
 10
97.5904703415
 20
111.9860454141
 10
97.581095573
 20
112.0132577684
 10
97.5737941697
 20
112.0406277286
 10
97.5685779567
 20
112.0681561935
 10
97.5654351089
 20
112.0958422642
 10
97.5643835172
 20
112.1235283349
  0
LWPOLYLINE
  5
33C
100
AcDbEntity
  8
ASSI
100
AcDbPolyline
 62
7
  6
CONTINUOUS
 90
22
 70
0
 10
122.1874649017
 20
136.3236712146
 10
122.1738661504
 20
136.4614418903
 10
122.1572390637
 20
136.6002946501
 10
122.1375836418
 20
136.7402294942
 10
122.1148808037
 20
136.8813518732
 10
122.0891496304
 20
137.0235563364
 10
122.060447364
 20
137.1665265313
 10
122.0287673903
 20
137.3102641625
 10
121.9941163236
 20
137.4547675254
 10
121.9565712499
 20
137.5997151532
 10
121.9161257262
 20
137.7451080349
 10
121.8727861954
 20
137.8909451815
 10
121.826649072
 20
138.0369021591
 10
121.7777081278
 20
138.1829792345
 10
121.725969591
 20
138.3291761409
 10
121.6715485608
 20
138.4751676439
 10
121.6144390652
 20
138.6209532865
 10
121.5546470762
 20
138.7665335257
 10
121.4923056089
 20
138.9115844993
 10
121.4274590017
 20
139.0559982531
 10
121.3600629163
 20
139.1998827412
 10
121.2901173526
 20
139.3432379636
  0
LWPOLYLINE
  5
33D
100
AcDbEntity
  8
ASSI
100
AcDbPolyline
 62
7
  6
CONTINUOUS
 90
22
 70
0
 10
122.2763470986
 20
136.2723517481
 10
122.2625962261
 20
136.4140445163
 10
122.2457032938
 20
136.5568659881
 10
122.2256683017
 20
136.7008161637
 10
122.2024714133
 20
136.8460052387
 10
122.1761324652
 20
136.9923230175
 10
122.146710967
 20
137.1394389127
 10
122.1141999488
 20
137.2873547289
 10
122.0786063804
 20
137.4360686617
 10
122.0400106813
 20
137.5852447099
 10
121.9984060634
 20
137.7348839184
 10
121.9537993147
 20
137.8849852424
 10
121.9062912187
 20
138.0352095461
 10
121.8558752154
 20
138.1855571076
 10
121.8025578647
 20
138.3360276489
 10
121.7464596309
 20
138.4862812001
 10
121.6875742262
 20
138.6363172705
 10
121.6259079382
 20
138.7861363507
 10
121.5616000945
 20
138.9353999429
 10
121.4946971377
 20
139.0839952143
 10
121.4251526251
 20
139.2320349976
 10
121.3529665568
 20
139.3795192928
  0
LINE
  5
33E
100
AcDbEntity
  8
ASSI
100
AcDbLine
 62
7
  6
CONTINUOUS
 10
122.4163186384
 20
206.3818088376
 11
122.4163186384
 21
206.1590754879
  0
LINE
  5
33F
100
AcDbEntity
  8
ASSI
100
AcDbLine
 62
7
  6
CONTINUOUS
 10
123.7782336006
 20
203.9463248209
 11
123.7782336006
 21
203.5380896825
  0
LWPOLYLINE
  5
340
100
AcDbEntity
  8
ASSI
100
AcDbPolyline
 62
7
  6
CONTINUOUS
 90
88
 70
0
 10
124.0282319894
 20
203.9463248209
 10
124.0275746835
 20
203.8938017922
 10
124.0229182042
 20
203.7967028125
 10
124.0138035041
 20
203.6997780105
 10
124.0002211344
 20
203.6030277553
 10
123.9821805438
 20
203.5064516777
 10
123.9597199407
 20
203.4102543172
 10
123.9328299574
 20
203.3144364764
 10
123.9015199616
 20
203.2189973528
 10
123.865856265
 20
203.1241390777
 10
123.8258296405
 20
203.0298628822
 10
123.7814493153
 20
202.9361675354
 10
123.7328092828
 20
202.8432514755
 10
123.6799005152
 20
202.7511163541
 10
123.6227320403
 20
202.6597605196
 10
123.561424936
 20
202.5693774555
 10
123.4959704307
 20
202.4799692235
 10
123.426377296
 20
202.3915337618
 10
123.3527929238
 20
202.3042583689
 10
123.275208855
 20
202.2181455034
 10
123.1936335488
 20
202.1331927066
 10
123.1082397743
 20
202.0495799009
 10
123.0190194386
 20
201.9673099264
 10
122.9259806346
 20
201.886379943
 10
122.8293204101
 20
201.8069613532
 10
122.7290310899
 20
201.7290573602
 10
122.6251203492
 20
201.6526647608
 10
122.5178082617
 20
201.5779453476
 10
122.4070876185
 20
201.5049026668
 10
122.2929656284
 20
201.4335331722
 10
122.1756839916
 20
201.3639880181
 10
122.0552360116
 20
201.2962710709
 10
121.9316283847
 20
201.2303784641
 10
121.8051229011
 20
201.1664497524
 10
121.6757134188
 20
201.104489098
 10
121.5434060796
 20
201.0444923387
 10
121.4084810987
 20
200.9865865421
 10
121.2709329281
 20
200.9307761399
 10
121.1307671157
 20
200.8770567005
 10
120.9882805201
 20
200.8255419969
 10
120.8434682226
 20
200.7762367017
 10
120.6963351419
 20
200.7291361423
 10
120.5471928926
 20
200.6843400733
 10
120.3960372166
 20
200.6418533791
 10
120.242872372
 20
200.6016711753
 10
120.0880227482
 20
200.5638785643
 10
119.9314847746
 20
200.5284806106
 10
119.7732620218
 20
200.4954722497
 10
119.6136895914
 20
200.4649233903
 10
119.452764623
 20
200.4368392452
 10
119.2904899769
 20
200.4112146016
 10
119.1272093364
 20
200.3881037303
 10
118.9629205693
 20
200.3675119589
 10
118.7976258078
 20
200.3494339597
 10
118.6316751313
 20
200.3339080203
 10
118.4650671497
 20
200.3209395496
 10
118.2978032531
 20
200.3105231387
 10
118.1302376914
 20
200.3026808487
 10
117.9623698253
 20
200.2974181351
 10
117.7942002941
 20
200.2947295423
 10
117.6260852658
 20
200.2946207645
 10
117.4580248559
 20
200.2970972695
 10
117.2900189489
 20
200.3021535895
 10
117.1224233662
 20
200.3097790157
 10
116.9552389775
 20
200.3199789931
 10
116.7884649131
 20
200.3327480767
 10
116.6224543855
 20
200.3480592227
 10
116.457209013
 20
200.3659178188
 10
116.2927271772
 20
200.3863184773
 10
116.1293572361
 20
200.4092179916
 10
115.967101546
 20
200.4346216575
 10
115.8059577506
 20
200.4625241791
 10
115.6462671378
 20
200.4928664614
 10
115.4880327875
 20
200.5256536751
 10
115.3312516199
 20
200.5608806495
 10
115.1762556834
 20
200.5984727769
 10
115.0230487616
 20
200.6384350702
 10
114.8716270709
 20
200.6807625164
 10
114.7223113088
 20
200.72536547
 10
114.5751059387
 20
200.7722487537
 10
114.4300064972
 20
200.8214075447
 10
114.287320292
 20
200.8727377291
 10
114.1470524376
 20
200.926243909
 10
114.0091978194
 20
200.9819214824
 10
113.8740484012
 20
201.0396525291
 10
113.7417015041
 20
201.0993977424
 10
113.6120598069
 20
201.161196429
 10
113.4851233097
 20
201.2250485889
  0
LWPOLYLINE
  5
341
100
AcDbEntity
  8
ASSI
100
AcDbPolyline
 62
7
  6
CONTINUOUS
 90
5
 70
0
 10
123.7782323021
 20
203.9463248209
 10
123.7774952745
 20
203.8918078105
 10
123.7728456599
 20
203.7986902246
 10
123.7639272263
 20
203.705742092
 10
123.7507309535
 20
203.6129637707
  0
LWPOLYLINE
  5
342
100
AcDbEntity
  8
ASSI
100
AcDbPolyline
 62
7
  6
CONTINUOUS
 90
13
 70
0
 10
123.7782323021
 20
203.5380896825
 10
123.7774952745
 20
203.4835726721
 10
123.7728456599
 20
203.3904550862
 10
123.7639272263
 20
203.2975069536
 10
123.7507309535
 20
203.2047286323
 10
123.7332658618
 20
203.1121197642
 10
123.7115688294
 20
203.0198758974
 10
123.6856309141
 20
202.9279978031
 10
123.6554610582
 20
202.8364847101
 10
123.6211229668
 20
202.7455298526
 10
123.5826078322
 20
202.6551344102
 10
123.539924462
 20
202.5652972033
 10
123.4934683489
 20
202.4767897035
  0
LINE
  5
343
100
AcDbEntity
  8
0
100
AcDbLine
 62
7
  6
CONTINUOUS
 10
137.5050675425
 20
174.95722602
 11
137.5022234739
 21
174.9384563927
  0
LINE
  5
344
100
AcDbEntity
  8
0
100
AcDbLine
 62
7
  6
CONTINUOUS
 10
137.5022234739
 20
170.8561050087
 11
137.5192878859
 21
170.9687227726
  0
LWPOLYLINE
  5
345
100
AcDbEntity
  8
ASSI
100
AcDbPolyline
 62
7
  6
CONTINUOUS
 90
14
 70
0
 10
141.8118376579
 20
186.325579235
 10
141.8298782485
 20
186.4221553126
 10
141.8523388515
 20
186.5183526732
 10
141.8792288349
 20
186.6141705139
 10
141.9105388307
 20
186.7096096376
 10
141.9462025272
 20
186.8044679127
 10
141.9862291518
 20
186.8987441081
 10
142.030609477
 20
186.9924394549
 10
142.0792495095
 20
187.0853555149
 10
142.1321582771
 20
187.1774906363
 10
142.189326752
 20
187.2688464707
 10
142.2506338563
 20
187.3592295348
 10
142.3160883616
 20
187.4486377669
 10
142.3185904434
 20
187.4518172868
  0
LINE
  5
346
100
AcDbEntity
  8
0
100
AcDbLine
 62
7
  6
CONTINUOUS
 10
142.8055243328
 20
88.5559602904
 11
142.6994583156
 21
88.6172014794
  0
LINE
  5
347
100
AcDbEntity
  8
0
100
AcDbLine
 62
7
  6
CONTINUOUS
 10
142.6994583156
 20
88.8621228349
 11
142.5933957151
 21
88.9233620512
  0
LWPOLYLINE
  5
348
100
AcDbEntity
  8
0
100
AcDbPolyline
 62
7
  6
CONTINUOUS
 90
18
 70
0
 10
160.4655161929
 20
80.280019674
 10
160.4827177917
 20
80.2696134612
 10
160.4990110985
 20
80.2587626015
 10
160.5143961133
 20
80.2474670949
 10
160.5289225781
 20
80.2356866295
 10
160.5425407508
 20
80.2234615172
 10
160.5551014058
 20
80.2109126932
 10
160.5665813657
 20
80.1980372473
 10
160.5770038079
 20
80.1848380896
 10
160.5862890384
 20
80.1714448859
 10
160.5944114785
 20
80.1578954018
 10
160.601396707
 20
80.1441518717
 10
160.6072417665
 20
80.1302306639
 10
160.6119615855
 20
80.1161028361
 10
160.6155412355
 20
80.1017973306
 10
160.6179329735
 20
80.0874173429
 10
160.6191208854
 20
80.0729476167
 10
160.6192693744
 20
80.0656755125
  0
LWPOLYLINE
  5
349
100
AcDbEntity
  8
0
100
AcDbPolyline
 62
7
  6
CONTINUOUS
 90
18
 70
0
 10
127.6911168849
 20
205.0997419747
 10
127.6907062203
 20
205.119841097
 10
127.6894563589
 20
205.1393758958
 10
127.6873673008
 20
205.1583463712
 10
127.6844290082
 20
205.176815753
 10
127.6806515189
 20
205.1947208112
 10
127.6760649461
 20
205.2118718569
 10
127.6706551812
 20
205.2282502725
 10
127.6644363328
 20
205.2438746754
 10
127.6574808407
 20
205.2586112285
 10
127.6498086193
 20
205.2724189006
 10
127.6413997541
 20
205.2853387228
 10
127.632266941
 20
205.2973599514
 10
127.6223925809
 20
205.3085099832
 10
127.6117942729
 20
205.3187614213
 10
127.6005375096
 20
205.3280213314
 10
127.5886011223
 20
205.3362835581
 10
127.5823906293
 20
205.3400401799
  0
LINE
  5
34A
100
AcDbEntity
  8
0
100
AcDbLine
 62
7
  6
CONTINUOUS
 10
136.6360176669
 20
175.3569457418
 11
136.6360176669
 21
174.9487106034
  0
LINE
  5
34B
100
AcDbEntity
  8
0
100
AcDbLine
 62
7
  6
CONTINUOUS
 10
136.6360176669
 20
89.3009785678
 11
136.6360176669
 21
88.2803907218
  0
LINE
  5
34C
100
AcDbEntity
  8
0
100
AcDbLine
 62
7
  6
CONTINUOUS
 10
136.6360176669
 20
2.8367762555
 11
136.6360176669
 21
1.8161884095
  0
LINE
  5
34D
100
AcDbEntity
  8
0
100
AcDbLine
 62
7
  6
CONTINUOUS
 10
136.6360176669
 20
-2.0620454053
 11
136.6360176669
 21
-1.6538102669
  0
LINE
  5
34E
100
AcDbEntity
  8
0
100
AcDbLine
 62
7
  6
CONTINUOUS
 10
136.6360176669
 20
83.9939217687
 11
136.6360176669
 21
85.0145096147
  0
LINE
  5
34F
100
AcDbEntity
  8
0
100
AcDbLine
 62
7
  6
CONTINUOUS
 10
136.6360176669
 20
170.458124081
 11
136.6360176669
 21
171.478711927
  0
LWPOLYLINE
  5
350
100
AcDbEntity
  8
ASSI
100
AcDbPolyline
 62
7
  6
CONTINUOUS
 90
3
 70
0
 10
141.7942475437
 20
186.1862110293
 10
141.7982552882
 20
186.2288289798
 10
141.8118376579
 20
186.325579235
  0
LWPOLYLINE
  5
351
100
AcDbEntity
  8
ASSI
100
AcDbPolyline
 62
7
  6
CONTINUOUS
 90
83
 70
0
 10
154.1388574528
 20
185.9645473895
 10
154.1171604204
 20
185.8723035227
 10
154.0912225051
 20
185.7804254284
 10
154.0610526492
 20
185.6889123354
 10
154.0267145578
 20
185.5979574779
 10
153.9881994232
 20
185.5075620355
 10
153.9455160531
 20
185.4177248286
 10
153.8987545753
 20
185.3286355528
 10
153.8479063729
 20
185.2402957884
 10
153.7929800628
 20
185.1527039551
 10
153.7340916248
 20
185.0660450072
 10
153.6712326865
 20
184.9803209159
 10
153.6044116202
 20
184.89552971
 10
153.5337695217
 20
184.8118504301
 10
153.459298317
 20
184.7292854258
 10
153.3810060802
 20
184.6478323476
 10
153.2990581289
 20
184.5676631875
 10
153.2134467386
 20
184.4887806585
 10
153.1241796339
 20
184.4111820476
 10
153.0314453065
 20
184.3350312079
 10
152.9352364301
 20
184.2603311987
 10
152.8355603311
 20
184.1870789608
 10
152.7326274802
 20
184.1154291698
 10
152.6264309958
 20
184.0453852116
 10
152.5169777597
 20
183.9769437003
 10
152.4044988874
 20
183.9102491534
 10
152.2889879857
 20
183.8453052622
 10
152.1704514479
 20
183.7821083354
 10
152.0491395695
 20
183.7207918163
 10
151.9250464862
 20
183.6613596782
 10
151.7981780624
 20
183.6038079479
 10
151.6688021866
 20
183.5482581484
 10
151.5369135607
 20
183.49471451
 10
151.402517483
 20
183.4431728025
 10
151.2658977371
 20
183.3937418587
 10
151.1270496244
 20
183.3464261387
 10
150.9859778435
 20
183.3012211824
 10
150.8429802743
 20
183.2582224422
 10
150.6980528475
 20
183.2174345799
 10
150.5511996324
 20
183.1788529336
 10
150.4027307164
 20
183.1425589705
 10
150.2526426857
 20
183.1085575244
 10
150.1009389541
 20
183.0768437614
 10
149.9479398514
 20
183.0474846465
 10
149.7936426405
 20
183.0204851554
 10
149.6380500583
 20
182.9958403124
 10
149.4814906462
 20
182.9736021564
 10
149.3239623611
 20
182.9537757727
 10
149.1654672461
 20
182.9363560761
 10
149.006339971
 20
182.9213798489
 10
148.8465792002
 20
182.9088522543
 10
148.6861862693
 20
182.8987681292
 10
148.5254998557
 20
182.8911487667
 10
148.3645193393
 20
182.8859993749
 10
148.2032453402
 20
182.8833147457
 10
148.0420183962
 20
182.8831005478
 10
147.8808386066
 20
182.8853620013
 10
147.719705872
 20
182.8900938862
 10
147.5589604319
 20
182.8972862107
 10
147.3986031046
 20
182.906944174
 10
147.2386330718
 20
182.919062577
 10
147.0793881178
 20
182.9336158311
 10
146.9208697748
 20
182.9506090812
 10
146.7630765105
 20
182.9700371825
 10
146.6063415131
 20
182.9918591116
 10
146.4506670186
 20
183.0160799266
 10
146.2960507909
 20
183.0426945694
 10
146.1428193096
 20
183.0716468419
 10
145.9909755006
 20
183.1029416836
 10
145.8405164379
 20
183.136574155
 10
145.6917598231
 20
183.1724732394
 10
145.5447092534
 20
183.2106437265
 10
145.3993611314
 20
183.2510808266
 10
145.2560223668
 20
183.293699155
 10
145.1146972053
 20
183.3385033207
 10
144.9753814011
 20
183.3854887146
 10
144.8383691261
 20
183.4345561248
 10
144.7036652479
 20
183.4857099508
 10
144.5712648988
 20
183.5389457932
 10
144.4414476487
 20
183.5941512419
 10
144.3143066873
 20
183.6512888269
 10
144.1897488247
 20
183.7103960183
 10
144.0677740611
 20
183.771472816
  0
LINE
  5
352
100
AcDbEntity
  8
0
100
AcDbLine
 62
7
  6
CONTINUOUS
 10
99.4775563155
 20
106.4008794265
 11
98.6113505086
 21
106.3571231633
  0
LINE
  5
353
100
AcDbEntity
  8
0
100
AcDbLine
 62
7
  6
CONTINUOUS
 10
98.9364290457
 20
106.7817795978
 11
98.6113505086
 21
106.7653583017
  0
LINE
  5
354
100
AcDbEntity
  8
ASSI
100
AcDbLine
 62
7
  6
CONTINUOUS
 10
114.7606074257
 20
143.1858648334
 11
114.8234566298
 21
143.0770068187
  0
LWPOLYLINE
  5
355
100
AcDbEntity
  8
ASSI
100
AcDbPolyline
 62
7
  6
CONTINUOUS
 90
6
 70
0
 10
111.6698966604
 20
203.536251489
 10
111.653169655
 20
203.6288398
 10
111.640712986
 20
203.7216522025
 10
111.6325176491
 20
203.814688224
 10
111.628600949
 20
203.9077514145
 10
111.6282348992
 20
203.9463248209
  0
LWPOLYLINE
  5
356
100
AcDbEntity
  8
ASSI
100
AcDbPolyline
 62
7
  6
CONTINUOUS
 90
7
 70
0
 10
150.0792427578
 20
7.3019845481
 10
150.0773534594
 20
7.3313950976
 10
150.0742174488
 20
7.3598788376
 10
150.069821993
 20
7.3874960029
 10
150.064179825
 20
7.4141863587
 10
150.0573291447
 20
7.4397692008
 10
150.0558449729
 20
7.444270585
  0
LWPOLYLINE
  5
357
100
AcDbEntity
  8
0
100
AcDbPolyline
 62
7
  6
CONTINUOUS
 90
18
 70
0
 10
135.6814235123
 20
200.4862390701
 10
135.6810128477
 20
200.5063381924
 10
135.6797629863
 20
200.5258729912
 10
135.6776739283
 20
200.5448434666
 10
135.6747356356
 20
200.5633128484
 10
135.6709581463
 20
200.5812179066
 10
135.6663715735
 20
200.5983689523
 10
135.6609618086
 20
200.6147473679
 10
135.6547429602
 20
200.6303717708
 10
135.6477874681
 20
200.6451083239
 10
135.6401152467
 20
200.658915996
 10
135.6317063816
 20
200.6718358182
 10
135.6225735684
 20
200.6838570468
 10
135.6126992083
 20
200.6950070786
 10
135.6021009003
 20
200.7052585167
 10
135.590844137
 20
200.7145184268
 10
135.5789077498
 20
200.7227806535
 10
135.5726972567
 20
200.7265372753
  0
LINE
  5
358
100
AcDbEntity
  8
0
100
AcDbLine
 62
7
  6
CONTINUOUS
 10
137.3431244481
 20
88.8927039745
 11
137.3431244481
 21
88.6886653152
  0
LINE
  5
359
100
AcDbEntity
  8
0
100
AcDbLine
 62
7
  6
CONTINUOUS
 10
137.3431244481
 20
2.4285016622
 11
137.3431244481
 21
2.2244630028
  0
LINE
  5
35A
100
AcDbEntity
  8
0
100
AcDbLine
 62
7
  6
CONTINUOUS
 10
137.3431244481
 20
84.402196362
 11
137.3431244481
 21
84.6062350213
  0
LINE
  5
35B
100
AcDbEntity
  8
0
100
AcDbLine
 62
7
  6
CONTINUOUS
 10
137.3431244481
 20
170.8663986744
 11
137.3431244481
 21
171.0704373337
  0
LINE
  5
35C
100
AcDbEntity
  8
0
100
AcDbLine
 62
7
  6
CONTINUOUS
 10
137.5022234739
 20
174.9384563927
 11
137.5022234739
 21
174.5302212543
  0
LINE
  5
35D
100
AcDbEntity
  8
0
100
AcDbLine
 62
7
  6
CONTINUOUS
 10
137.5022234739
 20
88.3926070526
 11
137.5022234739
 21
87.9843719142
  0
LINE
  5
35E
100
AcDbEntity
  8
0
100
AcDbLine
 62
7
  6
CONTINUOUS
 10
137.5022234739
 20
1.8467577126
 11
137.5022234739
 21
1.4385225742
  0
LINE
  5
35F
100
AcDbEntity
  8
0
100
AcDbLine
 62
7
  6
CONTINUOUS
 10
137.5022234739
 20
-2.6438288098
 11
137.5022234739
 21
-2.2355936714
  0
LINE
  5
360
100
AcDbEntity
  8
0
100
AcDbLine
 62
7
  6
CONTINUOUS
 10
137.5022234739
 20
83.9020205303
 11
137.5022234739
 21
84.3102556687
  0
LINE
  5
361
100
AcDbEntity
  8
0
100
AcDbLine
 62
7
  6
CONTINUOUS
 10
137.5022234739
 20
170.4478698703
 11
137.5022234739
 21
170.8561050087
  0
LINE
  5
362
100
AcDbEntity
  8
0
100
AcDbLine
 62
250
  6
CONTINUOUS
 10
138.2270079246
 20
169.5395062461
 11
138.2270079246
 21
88.3823607329
  0
LINE
  5
363
100
AcDbEntity
  8
0
100
AcDbLine
 62
250
  6
CONTINUOUS
 10
138.2270079246
 20
83.0753039337
 11
138.2270079246
 21
1.9181584205
  0
LINE
  5
364
100
AcDbEntity
  8
0
100
AcDbLine
 62
7
  6
CONTINUOUS
 10
138.7396603409
 20
173.7340936883
 11
138.7396603409
 21
170.2640950119
  0
LINE
  5
365
100
AcDbEntity
  8
0
100
AcDbLine
 62
7
  6
CONTINUOUS
 10
138.7396603409
 20
-2.868427182
 11
138.7396603409
 21
0.6015714943
  0
LINE
  5
366
100
AcDbEntity
  8
0
100
AcDbLine
 62
7
  6
CONTINUOUS
 10
138.7396603409
 20
83.7998926995
 11
138.7396603409
 21
87.0657738067
  0
LINE
  5
367
100
AcDbEntity
  8
0
100
AcDbLine
 62
7
  6
CONTINUOUS
 10
138.9164370362
 20
173.5912015261
 11
138.9164370362
 21
170.1620263636
  0
LINE
  5
368
100
AcDbEntity
  8
0
100
AcDbLine
 62
7
  6
CONTINUOUS
 10
138.9164370362
 20
87.045352186
 11
138.9164370362
 21
83.6161770235
  0
LINE
  5
369
100
AcDbEntity
  8
0
100
AcDbLine
 62
7
  6
CONTINUOUS
 10
138.9164370362
 20
0.499502846
 11
138.9164370362
 21
-2.9296723165
  0
LINE
  5
36A
100
AcDbEntity
  8
0
100
AcDbLine
 62
7
  6
CONTINUOUS
 10
139.2699904268
 20
173.3870642294
 11
139.2699904268
 21
169.9578890669
  0
LINE
  5
36B
100
AcDbEntity
  8
0
100
AcDbLine
 62
7
  6
CONTINUOUS
 10
139.2699904268
 20
86.8412148894
 11
139.2699904268
 21
83.4120397269
  0
LINE
  5
36C
100
AcDbEntity
  8
0
100
AcDbLine
 62
7
  6
CONTINUOUS
 10
139.2699904268
 20
0.2953655493
 11
139.2699904268
 21
-3.1338096132
  0
LINE
  5
36D
100
AcDbEntity
  8
0
100
AcDbLine
 62
7
  6
CONTINUOUS
 10
139.2699904268
 20
-3.6645152931
 11
139.2699904268
 21
-3.1338096132
  0
LINE
  5
36E
100
AcDbEntity
  8
0
100
AcDbLine
 62
7
  6
CONTINUOUS
 10
139.2699904268
 20
0.2953655493
 11
139.2699904268
 21
83.4120397269
  0
LINE
  5
36F
100
AcDbEntity
  8
0
100
AcDbLine
 62
7
  6
CONTINUOUS
 10
139.2699904268
 20
86.8412148894
 11
139.2699904268
 21
169.9578890669
  0
LINE
  5
370
100
AcDbEntity
  8
0
100
AcDbLine
 62
7
  6
CONTINUOUS
 10
139.2699904268
 20
173.3870642294
 11
139.2699904268
 21
173.9177699093
  0
LINE
  5
371
100
AcDbEntity
  8
0
100
AcDbLine
 62
7
  6
CONTINUOUS
 10
139.6235438174
 20
174.142279508
 11
139.6235438174
 21
173.7340443696
  0
LINE
  5
372
100
AcDbEntity
  8
0
100
AcDbLine
 62
7
  6
CONTINUOUS
 10
139.6235438174
 20
-4.2972994851
 11
139.6235438174
 21
-3.8890643467
  0
LINE
  5
373
100
AcDbEntity
  8
0
100
AcDbLine
 62
7
  6
CONTINUOUS
 10
139.6235438174
 20
-3.8686525898
 11
139.6235438174
 21
173.7136326127
  0
LINE
  5
374
100
AcDbEntity
  8
0
100
AcDbLine
 62
7
  6
CONTINUOUS
 10
140.8609806845
 20
174.428113151
 11
140.8609806845
 21
173.9790544988
  0
LINE
  5
375
100
AcDbEntity
  8
0
100
AcDbLine
 62
7
  6
CONTINUOUS
 10
140.8609806845
 20
-3.1541720514
 11
140.8609806845
 21
-2.7051133992
  0
LINE
  5
376
100
AcDbEntity
  8
0
100
AcDbLine
 62
7
  6
CONTINUOUS
 10
140.8609806845
 20
0.8873558187
 11
140.8609806845
 21
1.3772379848
  0
LINE
  5
377
100
AcDbEntity
  8
0
100
AcDbLine
 62
7
  6
CONTINUOUS
 10
140.8609806845
 20
83.3508537748
 11
140.8609806845
 21
83.8407359408
  0
LINE
  5
378
100
AcDbEntity
  8
0
100
AcDbLine
 62
7
  6
CONTINUOUS
 10
140.8609806845
 20
87.4332051587
 11
140.8609806845
 21
87.9230873248
  0
LINE
  5
379
100
AcDbEntity
  8
0
100
AcDbLine
 62
7
  6
CONTINUOUS
 10
140.8609806845
 20
169.8967031148
 11
140.8609806845
 21
170.3865852809
  0
LINE
  5
37A
100
AcDbEntity
  8
0
100
AcDbLine
 62
7
  6
CONTINUOUS
 10
140.9670467017
 20
7.1129475975
 11
140.9670467017
 21
10.3788287046
  0
LINE
  5
37B
100
AcDbEntity
  8
0
100
AcDbLine
 62
7
  6
CONTINUOUS
 10
140.9670467017
 20
161.0175947729
 11
140.9670467017
 21
164.2834758801
  0
LINE
  5
37C
100
AcDbEntity
  8
0
100
AcDbLine
 62
7
  6
CONTINUOUS
 10
141.1084680579
 20
174.48935434
 11
141.1084680579
 21
174.0811192016
  0
LINE
  5
37D
100
AcDbEntity
  8
0
100
AcDbLine
 62
7
  6
CONTINUOUS
 10
141.1084680579
 20
87.943505
 11
141.1084680579
 21
87.5352698616
  0
LINE
  5
37E
100
AcDbEntity
  8
0
100
AcDbLine
 62
7
  6
CONTINUOUS
 10
141.1084680579
 20
1.3976556599
 11
141.1084680579
 21
0.9894205215
  0
LINE
  5
37F
100
AcDbEntity
  8
0
100
AcDbLine
 62
7
  6
CONTINUOUS
 10
141.1084680579
 20
-3.0929308624
 11
141.1084680579
 21
-2.684695724
  0
LINE
  5
380
100
AcDbEntity
  8
0
100
AcDbLine
 62
7
  6
CONTINUOUS
 10
141.1084680579
 20
83.4529184776
 11
141.1084680579
 21
83.861153616
  0
LINE
  5
381
100
AcDbEntity
  8
0
100
AcDbLine
 62
7
  6
CONTINUOUS
 10
141.1084680579
 20
169.9987678176
 11
141.1084680579
 21
170.407002956
  0
LINE
  5
382
100
AcDbEntity
  8
0
100
AcDbLine
 62
7
  6
CONTINUOUS
 10
141.4089884399
 20
164.9468806666
 11
141.4089884399
 21
160.8645292826
  0
LINE
  5
383
100
AcDbEntity
  8
0
100
AcDbLine
 62
7
  6
CONTINUOUS
 10
141.4089884399
 20
11.0014099773
 11
141.4089884399
 21
6.9190585933
  0
LINE
  5
384
100
AcDbEntity
  8
0
100
AcDbLine
 62
7
  6
CONTINUOUS
 10
141.7625418305
 20
164.7427433699
 11
141.7625418305
 21
160.6603919859
  0
LINE
  5
385
100
AcDbEntity
  8
0
100
AcDbLine
 62
7
  6
CONTINUOUS
 10
141.7625418305
 20
10.7972726806
 11
141.7625418305
 21
6.7149212966
  0
LINE
  5
386
100
AcDbEntity
  8
ASSI
100
AcDbLine
 62
7
  6
CONTINUOUS
 10
142.0338251917
 20
186.3905173078
 11
142.0338251917
 21
185.9822821694
  0
LINE
  5
387
100
AcDbEntity
  8
0
100
AcDbLine
 62
7
  6
CONTINUOUS
 10
142.6994583156
 20
175.407972175
 11
142.6994583156
 21
174.9997370366
  0
LINE
  5
388
100
AcDbEntity
  8
0
100
AcDbLine
 62
7
  6
CONTINUOUS
 10
142.6994583156
 20
88.8621228349
 11
142.6994583156
 21
88.4538876965
  0
LINE
  5
389
100
AcDbEntity
  8
0
100
AcDbLine
 62
7
  6
CONTINUOUS
 10
142.6994583156
 20
2.3162734949
 11
142.6994583156
 21
1.9080383565
  0
LINE
  5
38A
100
AcDbEntity
  8
0
100
AcDbLine
 62
7
  6
CONTINUOUS
 10
142.6994583156
 20
-2.1743130275
 11
142.6994583156
 21
-1.7660778891
  0
LINE
  5
38B
100
AcDbEntity
  8
0
100
AcDbLine
 62
7
  6
CONTINUOUS
 10
142.6994583156
 20
84.3715363126
 11
142.6994583156
 21
84.779771451
  0
LINE
  5
38C
100
AcDbEntity
  8
0
100
AcDbLine
 62
7
  6
CONTINUOUS
 10
142.6994583156
 20
170.9173856526
 11
142.6994583156
 21
171.325620791
  0
LINE
  5
38D
100
AcDbEntity
  8
0
100
AcDbLine
 62
7
  6
CONTINUOUS
 10
142.8055243328
 20
175.5508682826
 11
142.8055243328
 21
175.1018096304
  0
LINE
  5
38E
100
AcDbEntity
  8
0
100
AcDbLine
 62
7
  6
CONTINUOUS
 10
142.8055243328
 20
171.5093404125
 11
142.8055243328
 21
171.0194582464
  0
LINE
  5
38F
100
AcDbEntity
  8
0
100
AcDbLine
 62
7
  6
CONTINUOUS
 10
142.8055243328
 20
89.0458424564
 11
142.8055243328
 21
88.5559602904
  0
LINE
  5
390
100
AcDbEntity
  8
0
100
AcDbLine
 62
7
  6
CONTINUOUS
 10
142.8055243328
 20
84.9634910725
 11
142.8055243328
 21
84.4736089064
  0
LINE
  5
391
100
AcDbEntity
  8
0
100
AcDbLine
 62
7
  6
CONTINUOUS
 10
142.8055243328
 20
2.4999931164
 11
142.8055243328
 21
2.0101109503
  0
LINE
  5
392
100
AcDbEntity
  8
0
100
AcDbLine
 62
7
  6
CONTINUOUS
 10
142.8055243328
 20
-2.0314169198
 11
142.8055243328
 21
-1.5823582676
  0
LINE
  5
393
100
AcDbEntity
  8
ASSI
100
AcDbLine
 62
7
  6
CONTINUOUS
 10
144.0677740611
 20
183.771472816
 11
144.0677740611
 21
183.5814960263
  0
LWPOLYLINE
  5
394
100
AcDbEntity
  8
ASSI
100
AcDbPolyline
 62
7
  6
CONTINUOUS
 90
88
 70
0
 10
141.7838268029
 20
186.3905173078
 10
141.7844841088
 20
186.4430403365
 10
141.7891405881
 20
186.5401393162
 10
141.7982552882
 20
186.6370641182
 10
141.8118376579
 20
186.7338143734
 10
141.8298782485
 20
186.830390451
 10
141.8523388515
 20
186.9265878115
 10
141.8792288349
 20
187.0224056523
 10
141.9105388307
 20
187.117844776
 10
141.9462025272
 20
187.212703051
 10
141.9862291518
 20
187.3069792465
 10
142.030609477
 20
187.4006745933
 10
142.0792495095
 20
187.4935906533
 10
142.1321582771
 20
187.5857257747
 10
142.189326752
 20
187.6770816091
 10
142.2506338563
 20
187.7674646732
 10
142.3160883616
 20
187.8568729053
 10
142.3856814963
 20
187.9453083669
 10
142.4592658685
 20
188.0325837598
 10
142.5368499373
 20
188.1186966254
 10
142.6184252435
 20
188.2036494221
 10
142.703819018
 20
188.2872622278
 10
142.7930393537
 20
188.3695322023
 10
142.8860781577
 20
188.4504621857
 10
142.9827383822
 20
188.5298807755
 10
143.0830277024
 20
188.6077847685
 10
143.1869384431
 20
188.684177368
 10
143.2942505306
 20
188.7588967811
 10
143.4049711738
 20
188.8319394619
 10
143.5190931639
 20
188.9033089565
 10
143.6363748006
 20
188.9728541106
 10
143.7568227807
 20
189.0405710578
 10
143.8804304075
 20
189.1064636646
 10
144.0069358912
 20
189.1703923763
 10
144.1363453735
 20
189.2323530307
 10
144.2686527126
 20
189.2923497901
 10
144.4035776936
 20
189.3502555866
 10
144.5411258642
 20
189.4060659888
 10
144.6812916766
 20
189.4597854282
 10
144.8237782722
 20
189.5113001318
 10
144.9685905697
 20
189.560605427
 10
145.1157236504
 20
189.6077059865
 10
145.2648658997
 20
189.6525020554
 10
145.4160215757
 20
189.6949887497
 10
145.5691864203
 20
189.7351709535
 10
145.724036044
 20
189.7729635645
 10
145.8805740177
 20
189.8083615181
 10
146.0387967705
 20
189.841369879
 10
146.1983692009
 20
189.8719187384
 10
146.3592941693
 20
189.9000028835
 10
146.5215688154
 20
189.9256275271
 10
146.6848494559
 20
189.9487383985
 10
146.8491382229
 20
189.9693301699
 10
147.0144329844
 20
189.987408169
 10
147.1803836609
 20
190.0029341084
 10
147.3469916426
 20
190.0159025791
 10
147.5142555392
 20
190.02631899
 10
147.6818211009
 20
190.0341612801
 10
147.849688967
 20
190.0394239937
 10
148.0178584982
 20
190.0421125865
 10
148.1859735265
 20
190.0422213642
 10
148.3540339364
 20
190.0397448592
 10
148.5220398434
 20
190.0346885392
 10
148.6896354261
 20
190.027063113
 10
148.8568198148
 20
190.0168631356
 10
149.0235938792
 20
190.004094052
 10
149.1896044068
 20
189.988782906
 10
149.3548497793
 20
189.9709243099
 10
149.519331615
 20
189.9505236514
 10
149.6827015562
 20
189.9276241372
 10
149.8449572462
 20
189.9022204712
 10
150.0061010417
 20
189.8743179496
 10
150.1657916545
 20
189.8439756673
 10
150.3240260048
 20
189.8111884536
 10
150.4808071724
 20
189.7759614792
 10
150.6358031089
 20
189.7383693518
 10
150.7890100307
 20
189.6984070586
 10
150.9404317214
 20
189.6560796123
 10
151.0897474835
 20
189.6114766587
 10
151.2369528536
 20
189.564593375
 10
151.382052295
 20
189.515434584
 10
151.5247385003
 20
189.4641043996
 10
151.6650063547
 20
189.4105982197
 10
151.8028609729
 20
189.3549206463
 10
151.9380103911
 20
189.2971895997
 10
152.0703572882
 20
189.2374443864
 10
152.1999989854
 20
189.1756456998
 10
152.3269354826
 20
189.1117935398
  0
LWPOLYLINE
  5
395
100
AcDbEntity
  8
ASSI
100
AcDbPolyline
 62
7
  6
CONTINUOUS
 90
88
 70
0
 10
142.0338264902
 20
186.3905173078
 10
142.0345635178
 20
186.4450343182
 10
142.0392131324
 20
186.5381519041
 10
142.048131566
 20
186.6311000367
 10
142.0613278387
 20
186.723878358
 10
142.0787929305
 20
186.8164872261
 10
142.1004899629
 20
186.9087310929
 10
142.1264278782
 20
187.0006091872
 10
142.1565977341
 20
187.0921222802
 10
142.1909358255
 20
187.1830771377
 10
142.2294509601
 20
187.2734725801
 10
142.2721343302
 20
187.363309787
 10
142.318895808
 20
187.4523990629
 10
142.3697440104
 20
187.5407388272
 10
142.4246703205
 20
187.6283306605
 10
142.4835587586
 20
187.7149896084
 10
142.5464176968
 20
187.8007136998
 10
142.6132387631
 20
187.8855049057
 10
142.6838808616
 20
187.9691841855
 10
142.7583520663
 20
188.0517491898
 10
142.8366443031
 20
188.133202268
 10
142.9185922544
 20
188.2133714281
 10
143.0042036447
 20
188.2922539572
 10
143.0934707494
 20
188.3698525681
 10
143.1862050768
 20
188.4460034077
 10
143.2824139532
 20
188.5207034169
 10
143.3820900522
 20
188.5939556548
 10
143.4850229031
 20
188.6656054459
 10
143.5912193875
 20
188.735649404
 10
143.7006726237
 20
188.8040909153
 10
143.8131514959
 20
188.8707854623
 10
143.9286623976
 20
188.9357293535
 10
144.0471989354
 20
188.9989262803
 10
144.1685108138
 20
189.0602427994
 10
144.2926038971
 20
189.1196749374
 10
144.419472321
 20
189.1772266678
 10
144.5488481967
 20
189.2327764672
 10
144.6807368226
 20
189.2863201056
 10
144.8151329004
 20
189.3378618131
 10
144.9517526462
 20
189.3872927569
 10
145.090600759
 20
189.4346084769
 10
145.2316725398
 20
189.4798134332
 10
145.374670109
 20
189.5228121735
 10
145.5195975358
 20
189.5636000358
 10
145.6664507509
 20
189.602181682
 10
145.8149196669
 20
189.6384756451
 10
145.9650076976
 20
189.6724770913
 10
146.1167114292
 20
189.7041908543
 10
146.2697105319
 20
189.7335499691
 10
146.4240077429
 20
189.7605494603
 10
146.579600325
 20
189.7851943032
 10
146.7361597371
 20
189.8074324593
 10
146.8936880222
 20
189.8272588429
 10
147.0521831372
 20
189.8446785396
 10
147.2113104123
 20
189.8596547668
 10
147.3710711832
 20
189.8721823613
 10
147.531464114
 20
189.8822664864
 10
147.6921505276
 20
189.889885849
 10
147.853131044
 20
189.8950352407
 10
148.0144050431
 20
189.8977198699
 10
148.1756319871
 20
189.8979340678
 10
148.3368117768
 20
189.8956726143
 10
148.4979445113
 20
189.8909407295
 10
148.6586899514
 20
189.8837484049
 10
148.8190472787
 20
189.8740904416
 10
148.9790173115
 20
189.8619720387
 10
149.1382622655
 20
189.8474187846
 10
149.2967806086
 20
189.8304255344
 10
149.4545738728
 20
189.8109974331
 10
149.6113088702
 20
189.7891755041
 10
149.7669833647
 20
189.764954689
 10
149.9215995924
 20
189.7383400462
 10
150.0748310737
 20
189.7093877737
 10
150.2266748827
 20
189.678092932
 10
150.3771339454
 20
189.6444604607
 10
150.5258905603
 20
189.6085613762
 10
150.67294113
 20
189.5703908892
 10
150.8182892519
 20
189.529953789
 10
150.9616280165
 20
189.4873354606
 10
151.102953178
 20
189.442531295
 10
151.2422689822
 20
189.3955459011
 10
151.3792812572
 20
189.3464784908
 10
151.5139851355
 20
189.2953246648
 10
151.6463854845
 20
189.2420888225
 10
151.7762027347
 20
189.1868833738
 10
151.9033436961
 20
189.1297457887
 10
152.0279015586
 20
189.0706385974
 10
152.1498763222
 20
189.0095617997
  0
LINE
  5
396
100
AcDbEntity
  8
0
100
AcDbLine
 62
7
  6
CONTINUOUS
 10
137.5591048474
 20
88.7679995988
 11
137.5022234739
 21
88.3926070526
  0
LINE
  5
397
100
AcDbEntity
  8
0
100
AcDbLine
 62
7
  6
CONTINUOUS
 10
137.5022234739
 20
84.3102556687
 11
137.5306641606
 21
84.4979519418
  0
LINE
  5
398
100
AcDbEntity
  8
ASSI
100
AcDbLine
 62
7
  6
CONTINUOUS
 10
154.1563225446
 20
186.0571562576
 11
154.1388574528
 21
185.9645473895
  0
LINE
  5
399
100
AcDbEntity
  8
0
100
AcDbLine
 62
7
  6
CONTINUOUS
 10
98.6113505086
 20
110.4394745472
 11
99.4775563155
 21
110.4832308104
  0
LINE
  5
39A
100
AcDbEntity
  8
0
100
AcDbLine
 62
7
  6
CONTINUOUS
 10
98.6113505086
 20
110.8477096856
 11
99.2615075827
 21
110.8805522778
  0
LWPOLYLINE
  5
39B
100
AcDbEntity
  8
0
100
AcDbPolyline
 62
7
  6
CONTINUOUS
 90
18
 70
0
 10
160.4655161929
 20
97.7524835973
 10
160.4827177917
 20
97.7420773846
 10
160.4990110985
 20
97.7312265249
 10
160.5143961133
 20
97.7199310182
 10
160.5289225781
 20
97.7081505529
 10
160.5425407508
 20
97.6959254406
 10
160.5551014058
 20
97.6833766166
 10
160.5665813657
 20
97.6705011706
 10
160.5770038079
 20
97.657302013
 10
160.5862890384
 20
97.6439088092
 10
160.5944114785
 20
97.6303593252
 10
160.601396707
 20
97.6166157951
 10
160.6072417665
 20
97.6026945873
 10
160.6119615855
 20
97.5885667595
 10
160.6155412355
 20
97.5742612539
 10
160.6179329735
 20
97.5598812662
 10
160.6191208854
 20
97.54541154
 10
160.6192693744
 20
97.5381394358
  0
LWPOLYLINE
  5
39C
100
AcDbEntity
  8
ASSI
100
AcDbPolyline
 62
7
  6
CONTINUOUS
 90
22
 70
0
 10
120.6651173526
 20
140.4257697172
 10
120.5759402504
 20
140.5580230365
 10
120.4850299135
 20
140.6883333146
 10
120.3923863421
 20
140.8167005516
 10
120.2979382133
 20
140.9432171242
 10
120.2017568499
 20
141.0677906556
 10
120.10405622
 20
141.1901440157
 10
120.0048329413
 20
141.3102722617
 10
119.9040903961
 20
141.4281803364
 10
119.8020526994
 20
141.5436059377
 10
119.6987169678
 20
141.6565435389
 10
119.5940860848
 20
141.7669986668
 10
119.4883928155
 20
141.8747255993
 10
119.3816347947
 20
141.9797182627
 10
119.2738143875
 20
142.0819827308
 10
119.1651714548
 20
142.1812915028
 10
119.0557041653
 20
142.2776379985
 10
118.9454143501
 20
142.371028798
 10
118.8345473635
 20
142.4612561414
 10
118.7231849903
 20
142.5482507752
 10
118.6112454456
 20
142.6320819527
 10
118.4987287295
 20
142.712749674
  0
LWPOLYLINE
  5
39D
100
AcDbEntity
  8
ASSI
100
AcDbPolyline
 62
7
  6
CONTINUOUS
 90
22
 70
0
 10
120.7279665568
 20
140.4620510464
 10
120.6363338181
 20
140.5983092479
 10
120.5428990915
 20
140.7325577871
 10
120.4476623771
 20
140.8647966639
 10
120.3505491793
 20
140.9951225167
 10
120.2516339937
 20
141.1234387071
 10
120.1511403071
 20
141.2494553203
 10
120.0490645504
 20
141.3731671569
 10
119.9454102927
 20
141.4945794163
 10
119.8404117282
 20
141.6134177823
 10
119.7340658173
 20
141.7296764351
 10
119.6263755996
 20
141.8433611945
 10
119.5175843881
 20
141.9542152036
 10
119.4076896932
 20
142.0622320619
 10
119.2966940046
 20
142.1674181699
 10
119.1848481033
 20
142.2695358724
 10
119.072150067
 20
142.3685782315
 10
118.9586018181
 20
142.4645521851
 10
118.844459905
 20
142.5572408917
 10
118.729809844
 20
142.6465720709
 10
118.6145661188
 20
142.7326180031
 10
118.4987287295
 20
142.8153786883
  0
LINE
  5
39E
100
AcDbEntity
  8
ASSI
100
AcDbLine
 62
7
  6
CONTINUOUS
 10
121.3529665568
 20
133.2108930618
 11
121.2901173526
 21
133.3197510765
  0
LINE
  5
39F
100
AcDbEntity
  8
ASSI
100
AcDbLine
 62
7
  6
CONTINUOUS
 10
115.4484566298
 20
143.4378042384
 11
115.3856074257
 21
143.5466622532
  0
LWPOLYLINE
  5
3A0
100
AcDbEntity
  8
ASSI
100
AcDbPolyline
 62
7
  6
CONTINUOUS
 90
4
 70
0
 10
123.9838441693
 20
203.9699724033
 10
124.0015099102
 20
203.8734422326
 10
124.0147166849
 20
203.7766746436
 10
124.0178112485
 20
203.742395961
  0
LWPOLYLINE
  5
3A1
100
AcDbEntity
  8
ASSI
100
AcDbPolyline
 62
7
  6
CONTINUOUS
 90
7
 70
0
 10
157.1503105697
 20
11.3847304813
 10
157.1484212712
 20
11.4141410309
 10
157.1452852607
 20
11.4426247709
 10
157.1408898048
 20
11.4702419362
 10
157.1352476369
 20
11.496932292
 10
157.1283969566
 20
11.5225151341
 10
157.1269127848
 20
11.5270165183
  0
LWPOLYLINE
  5
3A2
100
AcDbEntity
  8
ASSI
100
AcDbPolyline
 62
7
  6
CONTINUOUS
 90
18
 70
0
 10
149.337423224
 20
6.414270543
 10
149.3380658103
 20
6.383933184
 10
149.3399551088
 20
6.3545226345
 10
149.3430911193
 20
6.3260388944
 10
149.3474865752
 20
6.2984217291
 10
149.3531287431
 20
6.2717313734
 10
149.3599794235
 20
6.2461485312
 10
149.3680468168
 20
6.221680718
 10
149.3773227226
 20
6.1983204185
 10
149.3877443392
 20
6.1762257909
 10
149.3993194412
 20
6.1554054239
 10
149.412040254
 20
6.1358507289
 10
149.4258206529
 20
6.1176940988
 10
149.4406678278
 20
6.1009450206
 10
149.4565745887
 20
6.0855940073
 10
149.4734332406
 20
6.0717449913
 10
149.4912502428
 20
6.0594081648
 10
149.5005046191
 20
6.0538094001
  0
LINE
  5
3A3
100
AcDbEntity
  8
ASSI
100
AcDbLine
 62
7
  6
CONTINUOUS
 10
150.0798853442
 20
7.271647189
 11
150.0792427578
 21
7.3019845481
  0
LWPOLYLINE
  5
3A4
100
AcDbEntity
  8
ASSI
100
AcDbPolyline
 62
7
  6
CONTINUOUS
 90
8
 70
0
 10
150.0975630137
 20
7.2614403242
 10
150.0969204274
 20
7.2917776832
 10
150.0950311289
 20
7.3211882328
 10
150.0918951184
 20
7.3496719728
 10
150.0874996625
 20
7.3772891381
 10
150.0818574946
 20
7.4039794939
 10
150.0750068142
 20
7.429562336
 10
150.0692383291
 20
7.447057729
  0
LWPOLYLINE
  5
3A5
100
AcDbEntity
  8
ASSI
100
AcDbPolyline
 62
7
  6
CONTINUOUS
 90
18
 70
0
 10
150.4511164043
 20
7.0573030275
 10
150.450473818
 20
7.0876403866
 10
150.4485845195
 20
7.1170509361
 10
150.445448509
 20
7.1455346761
 10
150.4410530531
 20
7.1731518414
 10
150.4354108852
 20
7.1998421972
 10
150.4285602048
 20
7.2254250393
 10
150.4204928115
 20
7.2498928525
 10
150.4112169057
 20
7.2732531521
 10
150.4007952891
 20
7.2953477796
 10
150.3892201871
 20
7.3161681467
 10
150.3764993742
 20
7.3357228417
 10
150.3627189754
 20
7.3538794718
 10
150.3478718005
 20
7.37062855
 10
150.3319650396
 20
7.3859795633
 10
150.3151063877
 20
7.3998285792
 10
150.2972893855
 20
7.4121654057
 10
150.2880350092
 20
7.4177641704
  0
LWPOLYLINE
  5
3A6
100
AcDbEntity
  8
ASSI
100
AcDbPolyline
 62
7
  6
CONTINUOUS
 90
18
 70
0
 10
149.337423224
 20
173.7906772856
 10
149.3380658103
 20
173.7603399265
 10
149.3399551088
 20
173.730929377
 10
149.3430911193
 20
173.7024456369
 10
149.3474865752
 20
173.6748284717
 10
149.3531287431
 20
173.6481381159
 10
149.3599794235
 20
173.6225552738
 10
149.3680468168
 20
173.5980874606
 10
149.3773227226
 20
173.574727161
 10
149.3877443392
 20
173.5526325334
 10
149.3993194412
 20
173.5318121664
 10
149.412040254
 20
173.5122574714
 10
149.4258206529
 20
173.4941008413
 10
149.4406678278
 20
173.4773517631
 10
149.4565745887
 20
173.4620007498
 10
149.4734332406
 20
173.4481517339
 10
149.4912502428
 20
173.4358149074
 10
149.5005046191
 20
173.4302161426
  0
LINE
  5
3A7
100
AcDbEntity
  8
ASSI
100
AcDbLine
 62
7
  6
CONTINUOUS
 10
150.0798853442
 20
174.6480539316
 11
150.0792427578
 21
174.6783912906
  0
LWPOLYLINE
  5
3A8
100
AcDbEntity
  8
ASSI
100
AcDbPolyline
 62
7
  6
CONTINUOUS
 90
8
 70
0
 10
150.0975630137
 20
174.6378470667
 10
150.0969204274
 20
174.6681844258
 10
150.0950311289
 20
174.6975949753
 10
150.0918951184
 20
174.7260787153
 10
150.0874996625
 20
174.7536958806
 10
150.0818574946
 20
174.7803862364
 10
150.0750068142
 20
174.8059690785
 10
150.0692383291
 20
174.8234644715
  0
LWPOLYLINE
  5
3A9
100
AcDbEntity
  8
ASSI
100
AcDbPolyline
 62
7
  6
CONTINUOUS
 90
18
 70
0
 10
150.4511164043
 20
174.4337097701
 10
150.450473818
 20
174.4640471291
 10
150.4485845195
 20
174.4934576786
 10
150.445448509
 20
174.5219414187
 10
150.4410530531
 20
174.5495585839
 10
150.4354108852
 20
174.5762489397
 10
150.4285602048
 20
174.6018317818
 10
150.4204928115
 20
174.6262995951
 10
150.4112169057
 20
174.6496598946
 10
150.4007952891
 20
174.6717545222
 10
150.3892201871
 20
174.6925748892
 10
150.3764993743
 20
174.7121295842
 10
150.3627189754
 20
174.7302862143
 10
150.3478718005
 20
174.7470352925
 10
150.3319650396
 20
174.7623863058
 10
150.3151063877
 20
174.7762353217
 10
150.2972893855
 20
174.7885721482
 10
150.2880350092
 20
174.794170913
  0
LWPOLYLINE
  5
3AA
100
AcDbEntity
  8
0
100
AcDbPolyline
 62
7
  6
CONTINUOUS
 90
18
 70
0
 10
143.6717301397
 20
195.8727361655
 10
143.6713194751
 20
195.8928352878
 10
143.6700696138
 20
195.9123700866
 10
143.6679805557
 20
195.931340562
 10
143.6650422631
 20
195.9498099437
 10
143.6612647737
 20
195.967715002
 10
143.6566782009
 20
195.9848660477
 10
143.651268436
 20
196.0012444633
 10
143.6450495877
 20
196.0168688662
 10
143.6380940955
 20
196.0316054193
 10
143.6304218741
 20
196.0454130914
 10
143.622013009
 20
196.0583329136
 10
143.6128801958
 20
196.0703541422
 10
143.6030058357
 20
196.081504174
 10
143.5924075277
 20
196.0917556121
 10
143.5811507644
 20
196.1010155222
 10
143.5692143772
 20
196.1092777489
 10
143.5630038841
 20
196.1130343707
  0
LINE
  5
3AB
100
AcDbEntity
  8
0
100
AcDbLine
 62
250
  6
CONTINUOUS
 10
144.9268446763
 20
177.2043389579
 11
144.9268446763
 21
176.7961038195
  0
LINE
  5
3AC
100
AcDbEntity
  8
0
100
AcDbLine
 62
250
  6
CONTINUOUS
 10
144.9268446763
 20
-1.2352400351
 11
144.9268446763
 21
-0.8270048967
  0
LINE
  5
3AD
100
AcDbEntity
  8
0
100
AcDbLine
 62
7
  6
CONTINUOUS
 10
144.9445223458
 20
176.7654851978
 11
144.9445223458
 21
168.2129590484
  0
LINE
  5
3AE
100
AcDbEntity
  8
0
100
AcDbLine
 62
7
  6
CONTINUOUS
 10
144.9445223458
 20
7.7357261448
 11
144.9445223458
 21
-0.8168000046
  0
LINE
  5
3AF
100
AcDbEntity
  8
0
100
AcDbLine
 62
7
  6
CONTINUOUS
 10
145.2980757364
 20
176.5613479011
 11
145.2980757364
 21
168.0088217517
  0
LINE
  5
3B0
100
AcDbEntity
  8
0
100
AcDbLine
 62
7
  6
CONTINUOUS
 10
145.2980757364
 20
7.5315888481
 11
145.2980757364
 21
-1.0209373013
  0
LINE
  5
3B1
100
AcDbEntity
  8
0
100
AcDbLine
 62
7
  6
CONTINUOUS
 10
145.9875048481
 20
177.8167508479
 11
145.9875048481
 21
177.4085157095
  0
LINE
  5
3B2
100
AcDbEntity
  8
0
100
AcDbLine
 62
7
  6
CONTINUOUS
 10
150.4245999
 20
168.519401723
 11
150.4245999
 21
166.8864611694
  0
LINE
  5
3B3
100
AcDbEntity
  8
0
100
AcDbLine
 62
7
  6
CONTINUOUS
 10
150.4245999
 20
14.5739310337
 11
150.4245999
 21
12.9409904801
  0
LINE
  5
3B4
100
AcDbEntity
  8
0
100
AcDbLine
 62
7
  6
CONTINUOUS
 10
150.6013765953
 20
171.0708812017
 11
150.6013765953
 21
170.2544503798
  0
LINE
  5
3B5
100
AcDbEntity
  8
0
100
AcDbLine
 62
7
  6
CONTINUOUS
 10
150.6013765953
 20
11.8183537132
 11
150.6013765953
 21
11.0019228914
  0
LINE
  5
3B6
100
AcDbEntity
  8
0
100
AcDbLine
 62
7
  6
CONTINUOUS
 10
150.6013765953
 20
13.4513337218
 11
150.6013765953
 21
14.675999682
  0
LINE
  5
3B7
100
AcDbEntity
  8
0
100
AcDbLine
 62
7
  6
CONTINUOUS
 10
150.6013765953
 20
167.396804411
 11
150.6013765953
 21
168.6214703713
  0
LINE
  5
3B8
100
AcDbEntity
  8
0
100
AcDbLine
 62
7
  6
CONTINUOUS
 10
150.9549299859
 20
171.2750184984
 11
150.9549299859
 21
170.0503130832
  0
LINE
  5
3B9
100
AcDbEntity
  8
0
100
AcDbLine
 62
7
  6
CONTINUOUS
 10
150.9549299859
 20
12.0224910099
 11
150.9549299859
 21
10.7977855947
  0
LINE
  5
3BA
100
AcDbEntity
  8
0
100
AcDbLine
 62
7
  6
CONTINUOUS
 10
150.9549299859
 20
13.2471964251
 11
150.9549299859
 21
14.8801369787
  0
LINE
  5
3BB
100
AcDbEntity
  8
0
100
AcDbLine
 62
7
  6
CONTINUOUS
 10
150.9549299859
 20
167.1926671144
 11
150.9549299859
 21
168.825607668
  0
LINE
  5
3BC
100
AcDbEntity
  8
ASSI
100
AcDbLine
 62
7
  6
CONTINUOUS
 10
150.0792427578
 20
174.6169745299
 11
150.0798853442
 21
174.6480539316
  0
LWPOLYLINE
  5
3BD
100
AcDbEntity
  8
ASSI
100
AcDbPolyline
 62
7
  6
CONTINUOUS
 90
88
 70
0
 10
150.007188558
 20
134.0683304755
 10
150.0153627765
 20
134.2101806161
 10
150.0266678405
 20
134.3533469903
 10
150.0411037499
 20
134.4978295982
 10
150.0586851271
 20
134.6437323719
 10
150.0793973496
 20
134.7909513792
 10
150.1031965511
 20
134.9391748235
 10
150.1300892739
 20
135.0884048337
 10
150.1600689755
 20
135.2386392808
 10
150.1930721617
 20
135.3895599819
 10
150.2291052403
 20
135.5411683913
 10
150.2681618035
 20
135.6934630547
 10
150.3101591329
 20
135.8461214256
 10
150.3551034612
 20
135.9991442749
 10
150.4029885558
 20
136.1525308316
 10
150.4537130002
 20
136.3059562369
 10
150.5072828122
 20
136.4594205731
 10
150.5636919742
 20
136.6129237579
 10
150.6228210165
 20
136.7661406852
 10
150.6846757036
 20
136.9190707485
 10
150.7492502712
 20
137.0717145543
 10
150.8164079559
 20
137.2237488169
 10
150.8861542326
 20
137.3751722443
 10
150.9584836264
 20
137.5259861284
 10
151.0332429503
 20
137.675871059
 10
151.1104373543
 20
137.8248250672
 10
151.1900616884
 20
137.9728501219
 10
151.2719473153
 20
138.1196327192
 10
151.3560990276
 20
138.265170226
 10
151.4425120329
 20
138.4094652754
 10
151.531003316
 20
138.5522122635
 10
151.6215772817
 20
138.6934079095
 10
151.7142295253
 20
138.8330554941
 10
151.8087638176
 20
138.9708592564
 10
151.9051841475
 20
139.1068152886
 10
152.0034865262
 20
139.2409274985
 10
152.103462758
 20
139.3729118484
 10
152.2051163905
 20
139.5027638286
 10
152.3084438762
 20
139.6304879488
 10
152.4132263766
 20
139.7558137009
 10
152.5194669757
 20
139.8787360017
 10
152.6271625895
 20
139.9992599344
 10
152.7360851285
 20
140.11713024
 10
152.846237193
 20
140.2323412945
 10
152.9576161826
 20
140.344898722
 10
153.0699862068
 20
140.454564136
 10
153.1833493658
 20
140.561331407
 10
153.2977035592
 20
140.6652066645
 10
153.4128065952
 20
140.76596991
 10
153.5286600609
 20
140.8636145478
 10
153.6452623691
 20
140.9581471736
 10
153.7623665666
 20
141.0493675758
 10
153.8799737172
 20
141.1372687344
 10
153.9980827571
 20
141.2218576694
 10
154.116443542
 20
141.302955229
 10
154.2350566055
 20
141.3805540136
 10
154.3539214139
 20
141.4546614227
 10
154.4727862223
 20
141.5251205037
 10
154.5916510308
 20
141.5919235241
 10
154.7105158392
 20
141.6550782162
 10
154.8291289026
 20
141.7144508242
 10
154.9474896875
 20
141.7700333322
 10
155.0655987275
 20
141.821833756
 10
155.183205878
 20
141.8697423869
 10
155.3003100756
 20
141.9137509767
 10
155.4169123838
 20
141.9538677737
 10
155.5327658494
 20
141.990007814
 10
155.6478688855
 20
142.0221626694
 10
155.7622230789
 20
142.0503407681
 10
155.8755862379
 20
142.0744824315
 10
155.987956262
 20
142.0945791048
 10
156.0993352517
 20
142.1106393428
 10
156.2094873162
 20
142.1226291313
 10
156.3184098552
 20
142.1305398434
 10
156.426105469
 20
142.1343801061
 10
156.532346068
 20
142.134141786
 10
156.6371285685
 20
142.129816239
 10
156.7404560541
 20
142.1214121092
 10
156.8421096866
 20
142.1089471958
 10
156.9420859185
 20
142.0924128923
 10
157.0403882971
 20
142.0718178053
 10
157.136808627
 20
142.0472055533
 10
157.2313429194
 20
142.0185676222
 10
157.323995163
 20
141.985912526
 10
157.4145691287
 20
141.9493094254
 10
157.5030604118
 20
141.9087499529
 10
157.589473417
 20
141.8642424759
 10
157.6354382348
 20
141.8384670662
  0
LWPOLYLINE
  5
3BE
100
AcDbEntity
  8
ASSI
100
AcDbPolyline
 62
7
  6
CONTINUOUS
 90
83
 70
0
 10
150.1842477184
 20
134.1705622157
 10
150.1923444495
 20
134.306727956
 10
150.2034383492
 20
134.4441461127
 10
150.2175294177
 20
134.5828166859
 10
150.2346318018
 20
134.7228391116
 10
150.2547313547
 20
134.8641139538
 10
150.2777856351
 20
135.0063429039
 10
150.3038008864
 20
135.1495279778
 10
150.3327708652
 20
135.2936671597
 10
150.3646344001
 20
135.4384560926
 10
150.3993976051
 20
135.5838961496
 10
150.4370543662
 20
135.7299859578
 10
150.4775251693
 20
135.8764170414
 10
150.5208159606
 20
136.0231901218
 10
150.5669207938
 20
136.1703044776
 10
150.6157423164
 20
136.3174494701
 10
150.6672862689
 20
136.4646251638
 10
150.7215469109
 20
136.6118314941
 10
150.7784096683
 20
136.7587576277
 10
150.8378800397
 20
136.9054029727
 10
150.8999525265
 20
137.0517681211
 10
150.9644960598
 20
137.1975440159
 10
151.031515861
 20
137.342729412
 10
151.1010067087
 20
137.4873255545
 10
151.1728218696
 20
137.6310271217
 10
151.2469662552
 20
137.7738322235
 10
151.323434954
 20
137.91574275
 10
151.4020664988
 20
138.0564590505
 10
151.4828654597
 20
138.1959786014
 10
151.5658272665
 20
138.3343039263
 10
151.6507767415
 20
138.4711429446
 10
151.7377180847
 20
138.6064925157
 10
151.826647096
 20
138.7403557802
 10
151.9173759976
 20
138.8724500795
 10
152.0099085928
 20
139.0027716757
 10
152.1042410783
 20
139.1313243067
 10
152.2001742665
 20
139.2578365274
 10
152.2977115399
 20
139.3823040264
 10
152.396849516
 20
139.5047311151
 10
152.4973788604
 20
139.6248592831
 10
152.599302513
 20
139.7426836724
 10
152.7026175338
 20
139.8582091409
 10
152.8071057682
 20
139.971191751
 10
152.9127696953
 20
140.0816261295
 10
153.019606836
 20
140.1895176497
 10
153.1273915986
 20
140.2946384934
 10
153.2361259856
 20
140.3969828061
 10
153.3458079944
 20
140.4965564423
 10
153.4562060264
 20
140.5931491475
 10
153.5673215945
 20
140.686754623
 10
153.6791531857
 20
140.7773791676
 10
153.7914646624
 20
140.8648314231
 10
153.9042570384
 20
140.9491046865
 10
154.0175292999
 20
141.0302056609
 10
154.131042267
 20
141.1079630978
 10
154.2447964484
 20
141.1823699321
 10
154.3587913353
 20
141.2534332288
 10
154.4727862223
 20
141.3210029345
 10
154.5867811093
 20
141.3850716669
 10
154.7007759963
 20
141.4456468083
 10
154.8145301777
 20
141.5026004513
 10
154.9280431448
 20
141.5559249435
 10
155.0413154062
 20
141.6056279374
 10
155.1541077823
 20
141.6516044826
 10
155.2664192589
 20
141.6938467051
 10
155.3782508502
 20
141.732362479
 10
155.4893664183
 20
141.7670704763
 10
155.5997644502
 20
141.7979626511
 10
155.7094464591
 20
141.8250470495
 10
155.818180846
 20
141.8482664813
 10
155.9259656087
 20
141.8676127798
 10
156.0328027494
 20
141.8830941118
 10
156.1384666765
 20
141.8946777877
 10
156.2429549109
 20
141.9023555716
 10
156.3462699317
 20
141.9061356995
 10
156.4481935843
 20
141.9060101893
 10
156.5487229286
 20
141.9019707884
 10
156.6478609048
 20
141.8940257495
 10
156.7453981781
 20
141.8821918489
 10
156.8413313664
 20
141.8664608693
 10
156.9356638519
 20
141.8468410281
 10
157.028196447
 20
141.8233737534
 10
157.1189253486
 20
141.7960509155
  0
LWPOLYLINE
  5
3BF
100
AcDbEntity
  8
ASSI
100
AcDbPolyline
 62
7
  6
CONTINUOUS
 90
22
 70
0
 10
114.8234566298
 20
61.4299791394
 10
114.7535110662
 20
61.3673953006
 10
114.6861149807
 20
61.3013381226
 10
114.6212683736
 20
61.2318076053
 10
114.5589269063
 20
61.1587469955
 10
114.4991349173
 20
61.0822130465
 10
114.4420254217
 20
61.002376018
 10
114.3876043915
 20
60.9192285565
 10
114.3358658547
 20
60.8327780155
 10
114.2869249105
 20
60.7432167158
 10
114.2407877871
 20
60.6505377318
 10
114.1974482563
 20
60.554747989
 10
114.1570027326
 20
60.4560605842
 10
114.1194576588
 20
60.3544690665
 10
114.0848065921
 20
60.2499798869
 10
114.0531266184
 20
60.1428254952
 10
114.0244243521
 20
60.0329999581
 10
113.9986931787
 20
59.9205092089
 10
113.9759903407
 20
59.8056034982
 10
113.9563349187
 20
59.6883662427
 10
113.9397078321
 20
59.5687140258
 10
113.9261090808
 20
59.4466468473
  0
LWPOLYLINE
  5
3C0
100
AcDbEntity
  8
ASSI
100
AcDbPolyline
 62
7
  6
CONTINUOUS
 90
22
 70
0
 10
114.7606074257
 20
61.5388371541
 10
114.6884213574
 20
61.4747115212
 10
114.6188768448
 20
61.4069799978
 10
114.5519738879
 20
61.3356425841
 10
114.4876660443
 20
61.2606400778
 10
114.4259997563
 20
61.1820316812
 10
114.3671143515
 20
61.0999950002
 10
114.3110161177
 20
61.0145222833
 10
114.2576987671
 20
60.925621282
 10
114.2072827637
 20
60.8334928575
 10
114.1597746678
 20
60.7381297121
 10
114.1151679191
 20
60.6395391435
 10
114.0735633011
 20
60.5379439049
 10
114.034967602
 20
60.4333372026
 10
113.9993740337
 20
60.3257258304
 10
113.9668630155
 20
60.215352923
 10
113.9374415172
 20
60.1022122365
 10
113.9111025691
 20
59.9863100149
 10
113.8879056807
 20
59.8679081251
 10
113.8678706887
 20
59.7470938561
 10
113.8509777564
 20
59.623779919
 10
113.8372268838
 20
59.4979663138
  0
LINE
  5
3C1
100
AcDbEntity
  8
0
100
AcDbLine
 62
7
  6
CONTINUOUS
 10
136.6360176669
 20
88.2803907218
 11
137.3431244481
 21
88.6886653152
  0
LINE
  5
3C2
100
AcDbEntity
  8
0
100
AcDbLine
 62
7
  6
CONTINUOUS
 10
138.7396603409
 20
87.0657738067
 11
138.9164199528
 21
87.1678325913
  0
LINE
  5
3C3
100
AcDbEntity
  8
0
100
AcDbLine
 62
7
  6
CONTINUOUS
 10
139.0224928034
 20
87.1065874568
 11
138.9164370362
 21
87.045352186
  0
LINE
  5
3C4
100
AcDbEntity
  8
0
100
AcDbLine
 62
7
  6
CONTINUOUS
 10
140.8609806845
 20
87.9230873248
 11
142.8055243328
 21
89.0458424564
  0
LINE
  5
3C5
100
AcDbEntity
  8
0
100
AcDbLine
 62
7
  6
CONTINUOUS
 10
141.1084680579
 20
87.943505
 11
142.6994583156
 21
88.8621228349
  0
LINE
  5
3C6
100
AcDbEntity
  8
0
100
AcDbLine
 62
7
  6
CONTINUOUS
 10
142.8055243328
 20
88.5559602904
 11
142.6994583156
 21
88.4947191014
  0
LINE
  5
3C7
100
AcDbEntity
  8
0
100
AcDbLine
 62
7
  6
CONTINUOUS
 10
141.0731093022
 20
87.555685564
 11
140.8609806845
 21
87.4332051587
  0
LINE
  5
3C8
100
AcDbEntity
  8
0
100
AcDbLine
 62
7
  6
CONTINUOUS
 10
141.1084680579
 20
87.5352698616
 11
142.6994583156
 21
88.4538876965
  0
LINE
  5
3C9
100
AcDbEntity
  8
0
100
AcDbLine
 62
7
  6
CONTINUOUS
 10
137.3431244481
 20
84.402196362
 11
136.6360176669
 21
83.9939217687
  0
LINE
  5
3CA
100
AcDbEntity
  8
0
100
AcDbLine
 62
7
  6
CONTINUOUS
 10
138.7396603409
 20
83.7998926995
 11
138.9164370362
 21
83.9019613479
  0
LINE
  5
3CB
100
AcDbEntity
  8
0
100
AcDbLine
 62
250
  6
CONTINUOUS
 10
138.2270079246
 20
83.0753039337
 11
138.5805271484
 21
83.2794215029
  0
LINE
  5
3CC
100
AcDbEntity
  8
0
100
AcDbLine
 62
7
  6
CONTINUOUS
 10
140.8609806845
 20
83.8407359408
 11
142.8055243328
 21
84.9634910725
  0
LINE
  5
3CD
100
AcDbEntity
  8
0
100
AcDbLine
 62
7
  6
CONTINUOUS
 10
142.6994583156
 20
84.779771451
 11
141.1084680579
 21
83.861153616
  0
LINE
  5
3CE
100
AcDbEntity
  8
0
100
AcDbLine
 62
7
  6
CONTINUOUS
 10
142.8055243328
 20
84.4736089064
 11
142.6994583156
 21
84.4123677174
  0
LINE
  5
3CF
100
AcDbEntity
  8
0
100
AcDbLine
 62
7
  6
CONTINUOUS
 10
141.0731093022
 20
83.47333418
 11
140.8609806845
 21
83.3508537748
  0
LINE
  5
3D0
100
AcDbEntity
  8
0
100
AcDbLine
 62
7
  6
CONTINUOUS
 10
160.6451697179
 20
7.8402824193
 11
159.5950312503
 21
21.093528578
  0
LWPOLYLINE
  5
3D1
100
AcDbEntity
  8
ASSI
100
AcDbPolyline
 62
7
  6
CONTINUOUS
 90
7
 70
0
 10
150.0792427578
 20
174.6783912906
 10
150.0773534594
 20
174.7078018401
 10
150.0742174488
 20
174.7362855802
 10
150.069821993
 20
174.7639027454
 10
150.064179825
 20
174.7905931012
 10
150.0573291447
 20
174.8161759433
 10
150.0558449729
 20
174.8206773275
  0
LWPOLYLINE
  5
3D2
100
AcDbEntity
  8
ASSI
100
AcDbPolyline
 62
7
  6
CONTINUOUS
 90
18
 70
0
 10
156.4084910358
 20
10.4970164763
 10
156.4091336222
 20
10.4666791173
 10
156.4110229207
 20
10.4372685677
 10
156.4141589312
 20
10.4087848277
 10
156.4185543871
 20
10.3811676624
 10
156.424196555
 20
10.3544773066
 10
156.4310472354
 20
10.3288944645
 10
156.4391146287
 20
10.3044266513
 10
156.4483905344
 20
10.2810663517
 10
156.4588121511
 20
10.2589717242
 10
156.4703872531
 20
10.2381513572
 10
156.4831080659
 20
10.2185966621
 10
156.4968884648
 20
10.2004400321
 10
156.5117356397
 20
10.1836909538
 10
156.5276424006
 20
10.1683399406
 10
156.5445010525
 20
10.1544909246
 10
156.5623180547
 20
10.1421540981
 10
156.571572431
 20
10.1365553334
  0
LINE
  5
3D3
100
AcDbEntity
  8
ASSI
100
AcDbLine
 62
7
  6
CONTINUOUS
 10
157.1509531561
 20
11.3543931223
 11
157.1503105697
 21
11.3847304813
  0
LWPOLYLINE
  5
3D4
100
AcDbEntity
  8
ASSI
100
AcDbPolyline
 62
7
  6
CONTINUOUS
 90
8
 70
0
 10
157.1686308256
 20
11.3441862575
 10
157.1679882392
 20
11.3745236165
 10
157.1660989408
 20
11.403934166
 10
157.1629629302
 20
11.4324179061
 10
157.1585674744
 20
11.4600350714
 10
157.1529253064
 20
11.4867254271
 10
157.1460746261
 20
11.5123082693
 10
157.1403061409
 20
11.5298036622
  0
LWPOLYLINE
  5
3D5
100
AcDbEntity
  8
ASSI
100
AcDbPolyline
 62
7
  6
CONTINUOUS
 90
18
 70
0
 10
157.5221842162
 20
11.1400489608
 10
157.5215416298
 20
11.1703863198
 10
157.5196523314
 20
11.1997968694
 10
157.5165163208
 20
11.2282806094
 10
157.512120865
 20
11.2558977747
 10
157.506478697
 20
11.2825881305
 10
157.4996280167
 20
11.3081709726
 10
157.4915606233
 20
11.3326387858
 10
157.4822847176
 20
11.3559990854
 10
157.471863101
 20
11.3780937129
 10
157.460287999
 20
11.39891408
 10
157.4475671861
 20
11.418468775
 10
157.4337867873
 20
11.436625405
 10
157.4189396123
 20
11.4533744833
 10
157.4030328514
 20
11.4687254965
 10
157.3861741995
 20
11.4825745125
 10
157.3683571974
 20
11.494911339
 10
157.359102821
 20
11.5005101037
  0
LWPOLYLINE
  5
3D6
100
AcDbEntity
  8
ASSI
100
AcDbPolyline
 62
7
  6
CONTINUOUS
 90
18
 70
0
 10
156.4084910358
 20
177.8734232188
 10
156.4091336222
 20
177.8430858598
 10
156.4110229207
 20
177.8136753103
 10
156.4141589312
 20
177.7851915702
 10
156.4185543871
 20
177.757574405
 10
156.424196555
 20
177.7308840492
 10
156.4310472354
 20
177.705301207
 10
156.4391146287
 20
177.6808333938
 10
156.4483905344
 20
177.6574730943
 10
156.4588121511
 20
177.6353784667
 10
156.4703872531
 20
177.6145580997
 10
156.4831080659
 20
177.5950034047
 10
156.4968884648
 20
177.5768467746
 10
156.5117356397
 20
177.5600976964
 10
156.5276424006
 20
177.5447466831
 10
156.5445010525
 20
177.5308976672
 10
156.5623180547
 20
177.5185608407
 10
156.571572431
 20
177.5129620759
  0
LINE
  5
3D7
100
AcDbEntity
  8
ASSI
100
AcDbLine
 62
7
  6
CONTINUOUS
 10
157.1509531561
 20
178.7307998648
 11
157.1503105697
 21
178.7611372239
  0
LWPOLYLINE
  5
3D8
100
AcDbEntity
  8
ASSI
100
AcDbPolyline
 62
7
  6
CONTINUOUS
 90
8
 70
0
 10
157.1686308256
 20
178.720593
 10
157.1679882392
 20
178.750930359
 10
157.1660989408
 20
178.7803409086
 10
157.1629629302
 20
178.8088246486
 10
157.1585674744
 20
178.8364418139
 10
157.1529253064
 20
178.8631321697
 10
157.1460746261
 20
178.8887150118
 10
157.1403061409
 20
178.9062104048
  0
LWPOLYLINE
  5
3D9
100
AcDbEntity
  8
ASSI
100
AcDbPolyline
 62
7
  6
CONTINUOUS
 90
18
 70
0
 10
157.5221842162
 20
178.5164557033
 10
157.5215416298
 20
178.5467930624
 10
157.5196523314
 20
178.5762036119
 10
157.5165163208
 20
178.6046873519
 10
157.512120865
 20
178.6323045172
 10
157.506478697
 20
178.658994873
 10
157.4996280167
 20
178.6845777151
 10
157.4915606233
 20
178.7090455283
 10
157.4822847176
 20
178.7324058279
 10
157.471863101
 20
178.7545004554
 10
157.460287999
 20
178.7753208225
 10
157.4475671861
 20
178.7948755175
 10
157.4337867873
 20
178.8130321476
 10
157.4189396123
 20
178.8297812258
 10
157.4030328514
 20
178.8451322391
 10
157.3861741995
 20
178.858981255
 10
157.3683571974
 20
178.8713180815
 10
157.359102821
 20
178.8769168463
  0
LWPOLYLINE
  5
3DA
100
AcDbEntity
  8
0
100
AcDbPolyline
 62
7
  6
CONTINUOUS
 90
18
 70
0
 10
151.6620367671
 20
191.2592332609
 10
151.6616261025
 20
191.2793323832
 10
151.6603762412
 20
191.298867182
 10
151.6582871831
 20
191.3178376574
 10
151.6553488905
 20
191.3363070391
 10
151.6515714011
 20
191.3542120974
 10
151.6469848283
 20
191.3713631431
 10
151.6415750634
 20
191.3877415587
 10
151.6353562151
 20
191.4033659616
 10
151.6284007229
 20
191.4181025147
 10
151.6207285015
 20
191.4319101868
 10
151.6123196364
 20
191.444830009
 10
151.6031868232
 20
191.4568512376
 10
151.5933124631
 20
191.4680012694
 10
151.5827141551
 20
191.4782527075
 10
151.5714573918
 20
191.4875126176
 10
151.5595210046
 20
191.4957748443
 10
151.5533105115
 20
191.4995314661
  0
LINE
  5
3DB
100
AcDbEntity
  8
0
100
AcDbLine
 62
7
  6
CONTINUOUS
 10
152.3161105397
 20
181.4708084582
 11
152.3161105397
 21
181.0625733198
  0
LINE
  5
3DC
100
AcDbEntity
  8
ASSI
100
AcDbLine
 62
7
  6
CONTINUOUS
 10
152.8219102294
 20
188.8260013245
 11
152.8219102294
 21
188.6032679748
  0
LINE
  5
3DD
100
AcDbEntity
  8
ASSI
100
AcDbLine
 62
7
  6
CONTINUOUS
 10
154.1838251917
 20
186.3905173078
 11
154.1838251917
 21
185.9822821694
  0
LINE
  5
3DE
100
AcDbEntity
  8
0
100
AcDbLine
 62
7
  6
CONTINUOUS
 10
158.6447162313
 20
185.1248660685
 11
158.6447162313
 21
184.7166309301
  0
LWPOLYLINE
  5
3DF
100
AcDbEntity
  8
ASSI
100
AcDbPolyline
 62
7
  6
CONTINUOUS
 90
88
 70
0
 10
154.4338235804
 20
186.3905173079
 10
154.4331662745
 20
186.3379942791
 10
154.4285097952
 20
186.2408952994
 10
154.4193950951
 20
186.1439704974
 10
154.4058127254
 20
186.0472202422
 10
154.3877721348
 20
185.9506441646
 10
154.3653115318
 20
185.8544468041
 10
154.3384215484
 20
185.7586289633
 10
154.3071115526
 20
185.6631898397
 10
154.2714478561
 20
185.5683315646
 10
154.2314212315
 20
185.4740553692
 10
154.1870409063
 20
185.3803600223
 10
154.1384008738
 20
185.2874439624
 10
154.0854921062
 20
185.195308841
 10
154.0283236313
 20
185.1039530065
 10
153.967016527
 20
185.0135699424
 10
153.9015620217
 20
184.9241617104
 10
153.831968887
 20
184.8357262487
 10
153.7583845148
 20
184.7484508558
 10
153.680800446
 20
184.6623379903
 10
153.5992251398
 20
184.5773851935
 10
153.5138313653
 20
184.4937723879
 10
153.4246110296
 20
184.4115024133
 10
153.3315722256
 20
184.3305724299
 10
153.2349120011
 20
184.2511538401
 10
153.1346226809
 20
184.1732498471
 10
153.0307119402
 20
184.0968572477
 10
152.9233998527
 20
184.0221378345
 10
152.8126792095
 20
183.9490951537
 10
152.6985572194
 20
183.8777256592
 10
152.5812755827
 20
183.808180505
 10
152.4608276026
 20
183.7404635578
 10
152.3372199758
 20
183.6745709511
 10
152.2107144921
 20
183.6106422393
 10
152.0813050098
 20
183.5486815849
 10
151.9489976707
 20
183.4886848256
 10
151.8140726897
 20
183.430779029
 10
151.6765245191
 20
183.3749686268
 10
151.5363587067
 20
183.3212491874
 10
151.3938721111
 20
183.2697344838
 10
151.2490598136
 20
183.2204291886
 10
151.1019267329
 20
183.1733286292
 10
150.9527844836
 20
183.1285325603
 10
150.8016288076
 20
183.086045866
 10
150.648463963
 20
183.0458636622
 10
150.4936143393
 20
183.0080710512
 10
150.3370763656
 20
182.9726730975
 10
150.1788536128
 20
182.9396647366
 10
150.0192811825
 20
182.9091158773
 10
149.858356214
 20
182.8810317321
 10
149.6960815679
 20
182.8554070885
 10
149.5328009274
 20
182.8322962172
 10
149.3685121604
 20
182.8117044458
 10
149.2032173989
 20
182.7936264466
 10
149.0372667224
 20
182.7781005072
 10
148.8706587407
 20
182.7651320365
 10
148.7033948441
 20
182.7547156256
 10
148.5358292824
 20
182.7468733356
 10
148.3679614163
 20
182.741610622
 10
148.1997918851
 20
182.7389220292
 10
148.0316768568
 20
182.7388132514
 10
147.8636164469
 20
182.7412897564
 10
147.6956105399
 20
182.7463460764
 10
147.5280149573
 20
182.7539715026
 10
147.3608305685
 20
182.76417148
 10
147.1940565041
 20
182.7769405636
 10
147.0280459765
 20
182.7922517096
 10
146.862800604
 20
182.8101103057
 10
146.6983187683
 20
182.8305109643
 10
146.5349488271
 20
182.8534104785
 10
146.3726931371
 20
182.8788141444
 10
146.2115493416
 20
182.906716666
 10
146.0518587288
 20
182.9370589483
 10
145.8936243786
 20
182.969846162
 10
145.7368432109
 20
183.0050731364
 10
145.5818472744
 20
183.0426652638
 10
145.4286403526
 20
183.0826275571
 10
145.2772186619
 20
183.1249550033
 10
145.1279028999
 20
183.1695579569
 10
144.9806975298
 20
183.2164412406
 10
144.8355980883
 20
183.2656000316
 10
144.692911883
 20
183.316930216
 10
144.5526440286
 20
183.3704363959
 10
144.4147894105
 20
183.4261139693
 10
144.2796399922
 20
183.483845016
 10
144.1472930951
 20
183.5435902293
 10
144.0176513979
 20
183.6053889159
 10
143.8907149007
 20
183.6692410758
  0
LWPOLYLINE
  5
3E0
100
AcDbEntity
  8
ASSI
100
AcDbPolyline
 62
7
  6
CONTINUOUS
 90
5
 70
0
 10
154.1838238931
 20
186.3905173078
 10
154.1830868655
 20
186.3360002974
 10
154.1784372509
 20
186.2428827115
 10
154.1695188173
 20
186.1499345789
 10
154.1563225446
 20
186.0571562576
  0
LWPOLYLINE
  5
3E1
100
AcDbEntity
  8
ASSI
100
AcDbPolyline
 62
7
  6
CONTINUOUS
 90
13
 70
0
 10
154.1838238931
 20
185.9822821694
 10
154.1830868655
 20
185.927765159
 10
154.1784372509
 20
185.8346475731
 10
154.1695188173
 20
185.7416994405
 10
154.1563225446
 20
185.6489211192
 10
154.1388574528
 20
185.5563122511
 10
154.1171604204
 20
185.4640683843
 10
154.0912225051
 20
185.37219029
 10
154.0610526492
 20
185.280677197
 10
154.0267145578
 20
185.1897223395
 10
153.9881994232
 20
185.0993268971
 10
153.9455160531
 20
185.0094896902
 10
153.8990599399
 20
184.9209821904
  0
LWPOLYLINE
  5
3E2
100
AcDbEntity
  8
0
100
AcDbPolyline
 62
7
  6
CONTINUOUS
 90
7
 70
0
 10
160.6192693744
 20
184.9004590527
 10
160.6191208854
 20
184.8931869485
 10
160.6179329735
 20
184.8787172223
 10
160.6155412355
 20
184.8643372346
 10
160.6119615855
 20
184.8500317291
 10
160.6072417665
 20
184.8359039012
 10
160.6016072852
 20
184.8224842287
  0
LWPOLYLINE
  5
3E3
100
AcDbEntity
  8
0
100
AcDbPolyline
 62
7
  6
CONTINUOUS
 90
14
 70
0
 10
160.6192693744
 20
184.1656358036
 10
160.6191208854
 20
184.1583636994
 10
160.6179329735
 20
184.1438939732
 10
160.6155412355
 20
184.1295139855
 10
160.6119615855
 20
184.1152084799
 10
160.6072417665
 20
184.1010806521
 10
160.601396707
 20
184.0871594443
 10
160.5944114785
 20
184.0734159142
 10
160.5862890384
 20
184.0598664302
 10
160.5770038079
 20
184.0464732264
 10
160.5665813657
 20
184.0332740688
 10
160.5551014058
 20
184.0203986228
 10
160.5425407508
 20
184.0078497988
 10
160.5424647921
 20
184.0077816102
  0
LWPOLYLINE
  5
3E4
100
AcDbEntity
  8
0
100
AcDbPolyline
 62
7
  6
CONTINUOUS
 90
18
 70
0
 10
160.6192693744
 20
167.4279951293
 10
160.6191208854
 20
167.4207230251
 10
160.6179329735
 20
167.4062532989
 10
160.6155412355
 20
167.3918733112
 10
160.6119615855
 20
167.3775678057
 10
160.6072417665
 20
167.3634399779
 10
160.601396707
 20
167.3495187701
 10
160.5944114785
 20
167.3357752399
 10
160.5862890384
 20
167.3222257559
 10
160.5770038079
 20
167.3088325522
 10
160.5665813657
 20
167.2956333945
 10
160.5551014058
 20
167.2827579486
 10
160.5425407508
 20
167.2702091246
 10
160.5289225781
 20
167.2579840123
 10
160.5143961133
 20
167.2462035469
 10
160.4990110985
 20
167.2349080403
 10
160.4827177917
 20
167.2240571806
 10
160.4655161929
 20
167.2136509678
  0
LWPOLYLINE
  5
3E5
100
AcDbEntity
  8
0
100
AcDbPolyline
 62
7
  6
CONTINUOUS
 90
18
 70
0
 10
160.6192693744
 20
166.6931718802
 10
160.6191208854
 20
166.685899776
 10
160.6179329735
 20
166.6714300498
 10
160.6155412355
 20
166.6570500621
 10
160.6119615855
 20
166.6427445566
 10
160.6072417665
 20
166.6286167287
 10
160.601396707
 20
166.614695521
 10
160.5944114785
 20
166.6009519908
 10
160.5862890384
 20
166.5874025068
 10
160.5770038079
 20
166.5740093031
 10
160.5665813657
 20
166.5608101454
 10
160.5551014058
 20
166.5479346995
 10
160.5425407508
 20
166.5353858754
 10
160.5289225781
 20
166.5231607631
 10
160.5143961133
 20
166.5113802978
 10
160.4990110985
 20
166.5000847911
 10
160.4827177917
 20
166.4892339314
 10
160.4655161929
 20
166.4788277187
  0
LINE
  5
3E6
100
AcDbEntity
  8
ASSI
100
AcDbLine
 62
7
  6
CONTINUOUS
 10
150.0792427578
 20
7.2405677873
 11
150.0798853442
 21
7.271647189
  0
LINE
  5
3E7
100
AcDbEntity
  8
ASSI
100
AcDbLine
 62
7
  6
CONTINUOUS
 10
157.1503105697
 20
178.6997204632
 11
157.1509531561
 21
178.7307998648
  0
LINE
  5
3E8
100
AcDbEntity
  8
ASSI
100
AcDbLine
 62
7
  6
CONTINUOUS
 10
157.1503105697
 20
11.3233137206
 11
157.1509531561
 21
11.3543931223
  0
LWPOLYLINE
  5
3E9
100
AcDbEntity
  8
ASSI
100
AcDbPolyline
 62
7
  6
CONTINUOUS
 90
88
 70
0
 10
150.007188558
 20
48.3389514123
 10
150.0153627765
 20
48.4808015528
 10
150.0266678405
 20
48.6239679271
 10
150.0411037499
 20
48.7684505349
 10
150.0586851271
 20
48.9143533086
 10
150.0793973496
 20
49.0615723159
 10
150.1031965511
 20
49.2097957603
 10
150.1300892739
 20
49.3590257704
 10
150.1600689755
 20
49.5092602176
 10
150.1930721617
 20
49.6601809186
 10
150.2291052403
 20
49.8117893281
 10
150.2681618035
 20
49.9640839915
 10
150.3101591329
 20
50.1167423624
 10
150.3551034612
 20
50.2697652116
 10
150.4029885558
 20
50.4231517684
 10
150.4537130002
 20
50.5765771737
 10
150.5072828122
 20
50.7300415099
 10
150.5636919742
 20
50.8835446946
 10
150.6228210165
 20
51.036761622
 10
150.6846757036
 20
51.1896916852
 10
150.7492502712
 20
51.3423354911
 10
150.8164079559
 20
51.4943697536
 10
150.8861542326
 20
51.645793181
 10
150.9584836264
 20
51.7966070652
 10
151.0332429503
 20
51.9464919957
 10
151.1104373543
 20
52.0954460039
 10
151.1900616884
 20
52.2434710586
 10
151.2719473153
 20
52.390253656
 10
151.3560990276
 20
52.5357911627
 10
151.4425120329
 20
52.6800862121
 10
151.531003316
 20
52.8228332003
 10
151.6215772817
 20
52.9640288462
 10
151.7142295253
 20
53.1036764308
 10
151.8087638176
 20
53.2414801932
 10
151.9051841475
 20
53.3774362253
 10
152.0034865262
 20
53.5115484352
 10
152.103462758
 20
53.6435327851
 10
152.2051163905
 20
53.7733847653
 10
152.3084438762
 20
53.9011088856
 10
152.4132263766
 20
54.0264346377
 10
152.5194669757
 20
54.1493569385
 10
152.6271625895
 20
54.2698808712
 10
152.7360851285
 20
54.3877511768
 10
152.846237193
 20
54.5029622313
 10
152.9576161826
 20
54.6155196588
 10
153.0699862068
 20
54.7251850727
 10
153.1833493658
 20
54.8319523438
 10
153.2977035592
 20
54.9358276012
 10
153.4128065952
 20
55.0365908467
 10
153.5286600609
 20
55.1342354846
 10
153.6452623691
 20
55.2287681104
 10
153.7623665666
 20
55.3199885126
 10
153.8799737172
 20
55.4078896712
 10
153.9980827571
 20
55.4924786062
 10
154.116443542
 20
55.5735761658
 10
154.2350566055
 20
55.6511749503
 10
154.3539214139
 20
55.7252823595
 10
154.4727862223
 20
55.7957414404
 10
154.5916510308
 20
55.8625444608
 10
154.7105158392
 20
55.925699153
 10
154.8291289026
 20
55.985071761
 10
154.9474896875
 20
56.0406542689
 10
155.0655987275
 20
56.0924546927
 10
155.183205878
 20
56.1403633237
 10
155.3003100756
 20
56.1843719135
 10
155.4169123838
 20
56.2244887104
 10
155.5327658494
 20
56.2606287508
 10
155.6478688855
 20
56.2927836061
 10
155.7622230789
 20
56.3209617048
 10
155.8755862379
 20
56.3451033683
 10
155.987956262
 20
56.3652000415
 10
156.0993352517
 20
56.3812602795
 10
156.2094873162
 20
56.393250068
 10
156.3184098552
 20
56.4011607802
 10
156.426105469
 20
56.4050010429
 10
156.532346068
 20
56.4047627228
 10
156.6371285685
 20
56.4004371757
 10
156.7404560541
 20
56.3920330459
 10
156.8421096866
 20
56.3795681325
 10
156.9420859185
 20
56.3630338291
 10
157.0403882971
 20
56.3424387421
 10
157.136808627
 20
56.31782649
 10
157.2313429194
 20
56.2891885589
 10
157.323995163
 20
56.2565334628
 10
157.4145691287
 20
56.2199303621
 10
157.5030604118
 20
56.1793708896
 10
157.589473417
 20
56.1348634126
 10
157.6354382348
 20
56.109088003
  0
LWPOLYLINE
  5
3EA
100
AcDbEntity
  8
ASSI
100
AcDbPolyline
 62
7
  6
CONTINUOUS
 90
88
 70
0
 10
158.9383838867
 20
138.6535615304
 10
158.9302096682
 20
138.5117113898
 10
158.9189046042
 20
138.3685450156
 10
158.9044686947
 20
138.2240624078
 10
158.8868873176
 20
138.0781596341
 10
158.866175095
 20
137.9309406267
 10
158.8423758936
 20
137.7827171824
 10
158.8154831708
 20
137.6334871722
 10
158.7855034692
 20
137.4832527251
 10
158.752500283
 20
137.332332024
 10
158.7164672043
 20
137.1807236146
 10
158.6774106412
 20
137.0284289512
 10
158.6354133117
 20
136.8757705803
 10
158.5904689834
 20
136.7227477311
 10
158.5425838889
 20
136.5693611743
 10
158.4918594445
 20
136.415935769
 10
158.4382896324
 20
136.2624714328
 10
158.3818804705
 20
136.108968248
 10
158.3227514282
 20
135.9557513207
 10
158.260896741
 20
135.8028212574
 10
158.1963221735
 20
135.6501774516
 10
158.1291644887
 20
135.498143189
 10
158.0594182121
 20
135.3467197616
 10
157.9870888182
 20
135.1959058775
 10
157.9123294943
 20
135.0460209469
 10
157.8351350903
 20
134.8970669387
 10
157.7555107563
 20
134.7490418841
 10
157.6736251294
 20
134.6022592867
 10
157.589473417
 20
134.45672178
 10
157.5030604118
 20
134.3124267305
 10
157.4145691287
 20
134.1696797424
 10
157.323995163
 20
134.0284840965
 10
157.2313429194
 20
133.8888365118
 10
157.136808627
 20
133.7510327495
 10
157.0403882971
 20
133.6150767173
 10
156.9420859185
 20
133.4809645075
 10
156.8421096866
 20
133.3489801575
 10
156.7404560541
 20
133.2191281773
 10
156.6371285685
 20
133.0914040571
 10
156.532346068
 20
132.966078305
 10
156.426105469
 20
132.8431560042
 10
156.3184098552
 20
132.7226320715
 10
156.2094873162
 20
132.6047617659
 10
156.0993352517
 20
132.4895507114
 10
155.987956262
 20
132.3769932839
 10
155.8755862379
 20
132.26732787
 10
155.7622230789
 20
132.1605605989
 10
155.6478688855
 20
132.0566853414
 10
155.5327658494
 20
131.955922096
 10
155.4169123838
 20
131.8582774581
 10
155.3003100756
 20
131.7637448323
 10
155.183205878
 20
131.6725244301
 10
155.0655987275
 20
131.5846232715
 10
154.9474896875
 20
131.5000343365
 10
154.8291289026
 20
131.4189367769
 10
154.7105158392
 20
131.3413379923
 10
154.5916510308
 20
131.2672305832
 10
154.4727862223
 20
131.1967715022
 10
154.3539214139
 20
131.1299684818
 10
154.2350566055
 20
131.0668137897
 10
154.116443542
 20
131.0074411817
 10
153.9980827571
 20
130.9518586737
 10
153.8799737172
 20
130.9000582499
 10
153.7623665666
 20
130.852149619
 10
153.6452623691
 20
130.8081410292
 10
153.5286600609
 20
130.7680242322
 10
153.4128065952
 20
130.7318841919
 10
153.2977035592
 20
130.6997293366
 10
153.1833493658
 20
130.6715512378
 10
153.0699862068
 20
130.6474095744
 10
152.9576161826
 20
130.6273129011
 10
152.846237193
 20
130.6112526632
 10
152.7360851285
 20
130.5992628746
 10
152.6271625895
 20
130.5913521625
 10
152.5194669757
 20
130.5875118998
 10
152.4132263766
 20
130.5877502199
 10
152.3084438762
 20
130.5920757669
 10
152.2051163905
 20
130.6004798967
 10
152.103462758
 20
130.6129448101
 10
152.0034865262
 20
130.6294791136
 10
151.9051841475
 20
130.6500742006
 10
151.8087638176
 20
130.6746864526
 10
151.7142295253
 20
130.7033243838
 10
151.6215772817
 20
130.7359794799
 10
151.531003316
 20
130.7725825805
 10
151.4425120329
 20
130.8131420531
 10
151.3560990276
 20
130.8576495301
 10
151.3101342098
 20
130.8834249397
  0
LWPOLYLINE
  5
3EB
100
AcDbEntity
  8
ASSI
100
AcDbPolyline
 62
7
  6
CONTINUOUS
 90
83
 70
0
 10
150.1842477184
 20
48.4411831524
 10
150.1923444495
 20
48.5773488927
 10
150.2034383492
 20
48.7147670495
 10
150.2175294177
 20
48.8534376226
 10
150.2346318018
 20
48.9934600484
 10
150.2547313547
 20
49.1347348906
 10
150.2777856351
 20
49.2769638406
 10
150.3038008864
 20
49.4201489146
 10
150.3327708652
 20
49.5642880964
 10
150.3646344001
 20
49.7090770294
 10
150.3993976051
 20
49.8545170864
 10
150.4370543662
 20
50.0006068945
 10
150.4775251693
 20
50.1470379782
 10
150.5208159606
 20
50.2938110585
 10
150.5669207938
 20
50.4409254144
 10
150.6157423164
 20
50.5880704068
 10
150.6672862689
 20
50.7352461005
 10
150.7215469109
 20
50.8824524308
 10
150.7784096683
 20
51.0293785645
 10
150.8378800397
 20
51.1760239095
 10
150.8999525265
 20
51.3223890579
 10
150.9644960598
 20
51.4681649527
 10
151.031515861
 20
51.6133503487
 10
151.1010067087
 20
51.7579464912
 10
151.1728218696
 20
51.9016480585
 10
151.2469662552
 20
52.0444531602
 10
151.323434954
 20
52.1863636868
 10
151.4020664988
 20
52.3270799872
 10
151.4828654597
 20
52.4665995382
 10
151.5658272665
 20
52.6049248631
 10
151.6507767415
 20
52.7417638814
 10
151.7377180847
 20
52.8771134525
 10
151.826647096
 20
53.010976717
 10
151.9173759976
 20
53.1430710163
 10
152.0099085928
 20
53.2733926125
 10
152.1042410783
 20
53.4019452434
 10
152.2001742665
 20
53.5284574641
 10
152.2977115399
 20
53.6529249631
 10
152.396849516
 20
53.7753520519
 10
152.4973788604
 20
53.8954802198
 10
152.599302513
 20
54.0133046092
 10
152.7026175338
 20
54.1288300776
 10
152.8071057682
 20
54.2418126877
 10
152.9127696953
 20
54.3522470663
 10
153.019606836
 20
54.4601385865
 10
153.1273915986
 20
54.5652594301
 10
153.2361259856
 20
54.6676037428
 10
153.3458079944
 20
54.767177379
 10
153.4562060264
 20
54.8637700843
 10
153.5673215945
 20
54.9573755598
 10
153.6791531857
 20
55.0480001043
 10
153.7914646624
 20
55.1354523599
 10
153.9042570384
 20
55.2197256233
 10
154.0175292999
 20
55.3008265977
 10
154.131042267
 20
55.3785840346
 10
154.2447964484
 20
55.4529908689
 10
154.3587913353
 20
55.5240541656
 10
154.4727862223
 20
55.5916238712
 10
154.5867811093
 20
55.6556926037
 10
154.7007759963
 20
55.7162677451
 10
154.8145301777
 20
55.7732213881
 10
154.9280431448
 20
55.8265458803
 10
155.0413154062
 20
55.8762488741
 10
155.1541077823
 20
55.9222254194
 10
155.2664192589
 20
55.9644676419
 10
155.3782508502
 20
56.0029834157
 10
155.4893664183
 20
56.037691413
 10
155.5997644502
 20
56.0685835879
 10
155.7094464591
 20
56.0956679862
 10
155.818180846
 20
56.1188874181
 10
155.9259656087
 20
56.1382337166
 10
156.0328027494
 20
56.1537150485
 10
156.1384666765
 20
56.1652987244
 10
156.2429549109
 20
56.1729765084
 10
156.3462699317
 20
56.1767566362
 10
156.4481935843
 20
56.1766311261
 10
156.5487229286
 20
56.1725917251
 10
156.6478609048
 20
56.1646466862
 10
156.7453981781
 20
56.1528127856
 10
156.8413313664
 20
56.1370818061
 10
156.9356638519
 20
56.1174619648
 10
157.028196447
 20
56.0939946901
 10
157.1189253486
 20
56.0666718522
  0
LWPOLYLINE
  5
3EC
100
AcDbEntity
  8
ASSI
100
AcDbPolyline
 62
7
  6
CONTINUOUS
 90
88
 70
0
 10
158.7613247263
 20
138.5513297903
 10
158.7532279952
 20
138.4151640499
 10
158.7421340954
 20
138.2777458932
 10
158.728043027
 20
138.13907532
 10
158.7109406428
 20
137.9990528943
 10
158.69084109
 20
137.8577780521
 10
158.6677868096
 20
137.7155491021
 10
158.6417715583
 20
137.5723640281
 10
158.6128015795
 20
137.4282248462
 10
158.5809380446
 20
137.2834359133
 10
158.5461748395
 20
137.1379958563
 10
158.5085180784
 20
136.9919060481
 10
158.4680472753
 20
136.8454749645
 10
158.4247564841
 20
136.6987018841
 10
158.3786516509
 20
136.5515875283
 10
158.3298301283
 20
136.4044425359
 10
158.2782861757
 20
136.2572668421
 10
158.2240255338
 20
136.1100605119
 10
158.1671627763
 20
135.9631343782
 10
158.107692405
 20
135.8164890332
 10
158.0456199182
 20
135.6701238848
 10
157.9810763849
 20
135.52434799
 10
157.9140565837
 20
135.3791625939
 10
157.844565736
 20
135.2345664514
 10
157.772750575
 20
135.0908648842
 10
157.6986061895
 20
134.9480597824
 10
157.6221374907
 20
134.8061492559
 10
157.5435059459
 20
134.6654329554
 10
157.462706985
 20
134.5259134045
 10
157.3797451781
 20
134.3875880796
 10
157.2947957031
 20
134.2507490613
 10
157.20785436
 20
134.1153994902
 10
157.1189253486
 20
133.9815362257
 10
157.028196447
 20
133.8494419264
 10
156.9356638519
 20
133.7191203302
 10
156.8413313664
 20
133.5905676993
 10
156.7453981781
 20
133.4640554786
 10
156.6478609048
 20
133.3395879795
 10
156.5487229286
 20
133.2171608908
 10
156.4481935843
 20
133.0970327229
 10
156.3462699317
 20
132.9792083335
 10
156.2429549109
 20
132.863682865
 10
156.1384666765
 20
132.7507002549
 10
156.0328027494
 20
132.6402658764
 10
155.9259656087
 20
132.5323743562
 10
155.818180846
 20
132.4272535125
 10
155.7094464591
 20
132.3249091999
 10
155.5997644502
 20
132.2253355637
 10
155.4893664183
 20
132.1287428584
 10
155.3782508502
 20
132.0351373829
 10
155.2664192589
 20
131.9445128384
 10
155.1541077823
 20
131.8570605828
 10
155.0413154062
 20
131.7727873194
 10
154.9280431448
 20
131.691686345
 10
154.8145301777
 20
131.6139289081
 10
154.7007759963
 20
131.5395220738
 10
154.5867811093
 20
131.4684587771
 10
154.4727862223
 20
131.4008890714
 10
154.3587913353
 20
131.336820339
 10
154.2447964484
 20
131.2762451976
 10
154.131042267
 20
131.2192915546
 10
154.0175292999
 20
131.1659670624
 10
153.9042570384
 20
131.1162640685
 10
153.7914646624
 20
131.0702875233
 10
153.6791531857
 20
131.0280453008
 10
153.5673215945
 20
130.989529527
 10
153.4562060264
 20
130.9548215296
 10
153.3458079944
 20
130.9239293548
 10
153.2361259856
 20
130.8968449564
 10
153.1273915986
 20
130.8736255246
 10
153.019606836
 20
130.8542792261
 10
152.9127696953
 20
130.8387978941
 10
152.8071057682
 20
130.8272142182
 10
152.7026175338
 20
130.8195364343
 10
152.599302513
 20
130.8157563065
 10
152.4973788604
 20
130.8158818166
 10
152.396849516
 20
130.8199212175
 10
152.2977115399
 20
130.8278662564
 10
152.2001742665
 20
130.839700157
 10
152.1042410783
 20
130.8554311366
 10
152.0099085928
 20
130.8750509778
 10
151.9173759976
 20
130.8985182525
 10
151.826647096
 20
130.9258410904
 10
151.7377180847
 20
130.9570113618
 10
151.6507767415
 20
130.9919632491
 10
151.5658272665
 20
131.030704743
 10
151.4828654597
 20
131.0732278528
 10
151.435140094
 20
131.0999275333
  0
LINE
  5
3ED
100
AcDbEntity
  8
0
100
AcDbLine
 62
7
  6
CONTINUOUS
 10
159.5950312503
 20
170.9566478833
 11
160.6451697179
 21
185.4225676218
  0
LINE
  5
3EE
100
AcDbEntity
  8
0
100
AcDbLine
 62
7
  6
CONTINUOUS
 10
137.5704811221
 20
2.2972287681
 11
137.5022234739
 21
1.8467577126
  0
LINE
  5
3EF
100
AcDbEntity
  8
0
100
AcDbLine
 62
7
  6
CONTINUOUS
 10
137.5022234739
 20
-2.2355936714
 11
137.5135997486
 21
-2.1605151621
  0
LINE
  5
3F0
100
AcDbEntity
  8
0
100
AcDbLine
 62
7
  6
CONTINUOUS
 10
142.6994583156
 20
84.3715363126
 11
141.1084680579
 21
83.4529184776
  0
LINE
  5
3F1
100
AcDbEntity
  8
ASSI
100
AcDbLine
 62
7
  6
CONTINUOUS
 10
113.9383295078
 20
59.5563417018
 11
113.8372268838
 21
59.4979663138
  0
LWPOLYLINE
  5
3F2
100
AcDbEntity
  8
ASSI
100
AcDbPolyline
 62
7
  6
CONTINUOUS
 90
13
 70
0
 10
152.4963746898
 20
130.8159221655
 10
152.4926838024
 20
130.8153899598
 10
152.3825317379
 20
130.8034001713
 10
152.2736091989
 20
130.7954894592
 10
152.1659135851
 20
130.7916491965
 10
152.059672986
 20
130.7918875165
 10
151.9548904856
 20
130.7962130636
 10
151.8515629999
 20
130.8046171934
 10
151.7499093674
 20
130.8170821068
 10
151.6499331356
 20
130.8336164102
 10
151.551630757
 20
130.8542114973
 10
151.455210427
 20
130.8788237493
 10
151.3606761347
 20
130.9074616804
  0
LINE
  5
3F3
100
AcDbEntity
  8
ASSI
100
AcDbLine
 62
7
  6
CONTINUOUS
 10
113.8372268838
 20
140.1244061471
 11
113.9261090808
 21
140.0730866805
  0
LINE
  5
3F4
100
AcDbEntity
  8
ASSI
100
AcDbLine
 62
7
  6
CONTINUOUS
 10
122.1874649017
 20
135.3030833686
 11
122.2763470986
 21
135.2517639021
  0
LINE
  5
3F5
100
AcDbEntity
  8
ASSI
100
AcDbLine
 62
7
  6
CONTINUOUS
 10
122.2763470986
 20
136.2723517481
 11
122.1874649017
 21
136.3236712146
  0
LINE
  5
3F6
100
AcDbEntity
  8
ASSI
100
AcDbLine
 62
7
  6
CONTINUOUS
 10
113.9261090808
 20
141.0936745265
 11
113.8372268838
 21
141.1449939931
  0
LWPOLYLINE
  5
3F7
100
AcDbEntity
  8
0
100
AcDbPolyline
 62
7
  6
CONTINUOUS
 90
18
 70
0
 10
160.4655161929
 20
115.2249475207
 10
160.4827177917
 20
115.214541308
 10
160.4990110985
 20
115.2036904483
 10
160.5143961133
 20
115.1923949416
 10
160.5289225781
 20
115.1806144763
 10
160.5425407508
 20
115.168389364
 10
160.5551014058
 20
115.1558405399
 10
160.5665813657
 20
115.142965094
 10
160.5770038079
 20
115.1297659363
 10
160.5862890384
 20
115.1163727326
 10
160.5944114785
 20
115.1028232486
 10
160.601396707
 20
115.0890797184
 10
160.6072417665
 20
115.0751585107
 10
160.6119615855
 20
115.0610306828
 10
160.6155412355
 20
115.0467251773
 10
160.6179329735
 20
115.0323451896
 10
160.6191208854
 20
115.0178754634
 10
160.6192693744
 20
115.0106033592
  0
LWPOLYLINE
  5
3F8
100
AcDbEntity
  8
ASSI
100
AcDbPolyline
 62
7
  6
CONTINUOUS
 90
6
 70
0
 10
142.0754882514
 20
185.9804439759
 10
142.058761246
 20
186.0730322869
 10
142.0463045771
 20
186.1658446894
 10
142.0381092401
 20
186.2588807109
 10
142.03419254
 20
186.3519439014
 10
142.0338264902
 20
186.3905173078
  0
LWPOLYLINE
  5
3F9
100
AcDbEntity
  8
ASSI
100
AcDbPolyline
 62
7
  6
CONTINUOUS
 90
7
 70
0
 10
157.1503105697
 20
178.7611372239
 10
157.1484212712
 20
178.7905477734
 10
157.1452852607
 20
178.8190315134
 10
157.1408898048
 20
178.8466486787
 10
157.1352476369
 20
178.8733390345
 10
157.1283969566
 20
178.8989218766
 10
157.1269127848
 20
178.9034232608
  0
LWPOLYLINE
  5
3FA
100
AcDbEntity
  8
0
100
AcDbPolyline
 62
7
  6
CONTINUOUS
 90
18
 70
0
 10
159.6523433945
 20
186.6457303563
 10
159.6519327299
 20
186.6658294786
 10
159.6506828686
 20
186.6853642774
 10
159.6485938105
 20
186.7043347528
 10
159.6456555179
 20
186.7228041345
 10
159.6418780285
 20
186.7407091928
 10
159.6372914558
 20
186.7578602384
 10
159.6318816908
 20
186.7742386541
 10
159.6256628425
 20
186.789863057
 10
159.6187073503
 20
186.8045996101
 10
159.611035129
 20
186.8184072822
 10
159.6026262638
 20
186.8313271044
 10
159.5934934506
 20
186.843348333
 10
159.5836190906
 20
186.8544983648
 10
159.5730207825
 20
186.8647498029
 10
159.5617640192
 20
186.874009713
 10
159.549827632
 20
186.8822719397
 10
159.5436171389
 20
186.8860285615
  0
LINE
  5
3FB
100
AcDbEntity
  8
0
100
AcDbLine
 62
7
  6
CONTINUOUS
 10
160.0942851328
 20
186.3905173078
 11
160.0942851328
 21
186.2067937408
  0
LINE
  5
3FC
100
AcDbEntity
  8
0
100
AcDbLine
 62
7
  6
CONTINUOUS
 10
160.3064171671
 20
186.0843113628
 11
160.3064171671
 21
185.6760762244
  0
LINE
  5
3FD
100
AcDbEntity
  8
0
100
AcDbLine
 62
7
  6
CONTINUOUS
 10
160.4655161929
 20
186.176214574
 11
160.4655161929
 21
185.5262973156
  0
LINE
  5
3FE
100
AcDbEntity
  8
0
100
AcDbLine
 62
7
  6
CONTINUOUS
 10
160.4655161929
 20
10.1075952205
 11
160.4655161929
 21
26.6991163318
  0
LINE
  5
3FF
100
AcDbEntity
  8
0
100
AcDbLine
 62
250
  6
CONTINUOUS
 10
160.4655161929
 20
26.6991163318
 11
160.4655161929
 21
27.4339395809
  0
LINE
  5
400
100
AcDbEntity
  8
0
100
AcDbLine
 62
7
  6
CONTINUOUS
 10
160.4655161929
 20
27.4339395809
 11
160.4655161929
 21
44.1715802551
  0
LINE
  5
401
100
AcDbEntity
  8
0
100
AcDbLine
 62
250
  6
CONTINUOUS
 10
160.4655161929
 20
44.1715802551
 11
160.4655161929
 21
44.9064035042
  0
LINE
  5
402
100
AcDbEntity
  8
0
100
AcDbLine
 62
7
  6
CONTINUOUS
 10
160.4655161929
 20
44.9064035042
 11
160.4655161929
 21
61.6440441785
  0
LINE
  5
403
100
AcDbEntity
  8
0
100
AcDbLine
 62
250
  6
CONTINUOUS
 10
160.4655161929
 20
61.6440441785
 11
160.4655161929
 21
62.3788674276
  0
LINE
  5
404
100
AcDbEntity
  8
0
100
AcDbLine
 62
7
  6
CONTINUOUS
 10
160.4655161929
 20
62.3788674276
 11
160.4655161929
 21
79.1165081019
  0
LINE
  5
405
100
AcDbEntity
  8
0
100
AcDbLine
 62
250
  6
CONTINUOUS
 10
160.4655161929
 20
79.1165081019
 11
160.4655161929
 21
79.851331351
  0
LINE
  5
406
100
AcDbEntity
  8
0
100
AcDbLine
 62
7
  6
CONTINUOUS
 10
160.4655161929
 20
79.851331351
 11
160.4655161929
 21
96.5889720252
  0
LINE
  5
407
100
AcDbEntity
  8
0
100
AcDbLine
 62
250
  6
CONTINUOUS
 10
160.4655161929
 20
96.5889720252
 11
160.4655161929
 21
97.3237952743
  0
LINE
  5
408
100
AcDbEntity
  8
0
100
AcDbLine
 62
7
  6
CONTINUOUS
 10
160.4655161929
 20
97.3237952743
 11
160.4655161929
 21
114.0614359486
  0
LINE
  5
409
100
AcDbEntity
  8
0
100
AcDbLine
 62
250
  6
CONTINUOUS
 10
160.4655161929
 20
114.0614359486
 11
160.4655161929
 21
114.7962591977
  0
LINE
  5
40A
100
AcDbEntity
  8
0
100
AcDbLine
 62
7
  6
CONTINUOUS
 10
160.4655161929
 20
114.7962591977
 11
160.4655161929
 21
131.533899872
  0
LINE
  5
40B
100
AcDbEntity
  8
0
100
AcDbLine
 62
250
  6
CONTINUOUS
 10
160.4655161929
 20
131.533899872
 11
160.4655161929
 21
132.2687231211
  0
LINE
  5
40C
100
AcDbEntity
  8
0
100
AcDbLine
 62
7
  6
CONTINUOUS
 10
160.4655161929
 20
132.2687231211
 11
160.4655161929
 21
149.0063637953
  0
LINE
  5
40D
100
AcDbEntity
  8
0
100
AcDbLine
 62
250
  6
CONTINUOUS
 10
160.4655161929
 20
149.0063637953
 11
160.4655161929
 21
149.7411870444
  0
LINE
  5
40E
100
AcDbEntity
  8
0
100
AcDbLine
 62
7
  6
CONTINUOUS
 10
160.4655161929
 20
149.7411870444
 11
160.4655161929
 21
166.4788277187
  0
LINE
  5
40F
100
AcDbEntity
  8
0
100
AcDbLine
 62
250
  6
CONTINUOUS
 10
160.4655161929
 20
166.4788277187
 11
160.4655161929
 21
167.2136509678
  0
LINE
  5
410
100
AcDbEntity
  8
0
100
AcDbLine
 62
7
  6
CONTINUOUS
 10
160.4655161929
 20
167.2136509678
 11
160.4655161929
 21
182.9477954331
  0
LINE
  5
411
100
AcDbEntity
  8
0
100
AcDbLine
 62
7
  6
CONTINUOUS
 10
160.6192851328
 20
9.4409965699
 11
160.6192851328
 21
10.175819819
  0
LINE
  5
412
100
AcDbEntity
  8
0
100
AcDbLine
 62
7
  6
CONTINUOUS
 10
160.6192851328
 20
26.9134604933
 11
160.6192851328
 21
27.6482837424
  0
LINE
  5
413
100
AcDbEntity
  8
0
100
AcDbLine
 62
7
  6
CONTINUOUS
 10
160.6192851328
 20
44.3859244166
 11
160.6192851328
 21
45.1207476657
  0
LINE
  5
414
100
AcDbEntity
  8
0
100
AcDbLine
 62
7
  6
CONTINUOUS
 10
160.6192851328
 20
61.85838834
 11
160.6192851328
 21
62.5932115891
  0
LINE
  5
415
100
AcDbEntity
  8
0
100
AcDbLine
 62
7
  6
CONTINUOUS
 10
160.6192851328
 20
79.3308522634
 11
160.6192851328
 21
80.0656755125
  0
LINE
  5
416
100
AcDbEntity
  8
0
100
AcDbLine
 62
7
  6
CONTINUOUS
 10
160.6192851328
 20
96.8033161867
 11
160.6192851328
 21
97.5381394358
  0
LINE
  5
417
100
AcDbEntity
  8
0
100
AcDbLine
 62
7
  6
CONTINUOUS
 10
160.6192851328
 20
114.2757801101
 11
160.6192851328
 21
115.0106033592
  0
LINE
  5
418
100
AcDbEntity
  8
0
100
AcDbLine
 62
7
  6
CONTINUOUS
 10
160.6192851328
 20
131.7482440335
 11
160.6192851328
 21
132.4830672826
  0
LINE
  5
419
100
AcDbEntity
  8
0
100
AcDbLine
 62
7
  6
CONTINUOUS
 10
160.6192851328
 20
149.2207079568
 11
160.6192851328
 21
149.9555312059
  0
LINE
  5
41A
100
AcDbEntity
  8
0
100
AcDbLine
 62
7
  6
CONTINUOUS
 10
160.6192851328
 20
166.6931718802
 11
160.6192851328
 21
167.4279951293
  0
LINE
  5
41B
100
AcDbEntity
  8
0
100
AcDbLine
 62
7
  6
CONTINUOUS
 10
160.6192851328
 20
184.1656358036
 11
160.6192851328
 21
184.9004590527
  0
LWPOLYLINE
  5
41C
100
AcDbEntity
  8
0
100
AcDbPolyline
 62
7
  6
CONTINUOUS
 90
18
 70
0
 10
160.6192693744
 20
149.9555312059
 10
160.6191208854
 20
149.9482591017
 10
160.6179329735
 20
149.9337893755
 10
160.6155412355
 20
149.9194093878
 10
160.6119615855
 20
149.9051038823
 10
160.6072417665
 20
149.8909760545
 10
160.601396707
 20
149.8770548467
 10
160.5944114785
 20
149.8633113166
 10
160.5862890384
 20
149.8497618325
 10
160.5770038079
 20
149.8363686288
 10
160.5665813657
 20
149.8231694711
 10
160.5551014058
 20
149.8102940252
 10
160.5425407508
 20
149.7977452012
 10
160.5289225781
 20
149.7855200889
 10
160.5143961133
 20
149.7737396235
 10
160.4990110985
 20
149.7624441169
 10
160.4827177917
 20
149.7515932572
 10
160.4655161929
 20
149.7411870444
  0
LWPOLYLINE
  5
41D
100
AcDbEntity
  8
0
100
AcDbPolyline
 62
7
  6
CONTINUOUS
 90
18
 70
0
 10
160.6192693744
 20
149.2207079568
 10
160.6191208854
 20
149.2134358526
 10
160.6179329735
 20
149.1989661264
 10
160.6155412355
 20
149.1845861387
 10
160.6119615855
 20
149.1702806332
 10
160.6072417665
 20
149.1561528054
 10
160.601396707
 20
149.1422315976
 10
160.5944114785
 20
149.1284880675
 10
160.5862890384
 20
149.1149385834
 10
160.5770038079
 20
149.1015453797
 10
160.5665813657
 20
149.088346222
 10
160.5551014058
 20
149.0754707761
 10
160.5425407508
 20
149.0629219521
 10
160.5289225781
 20
149.0506968398
 10
160.5143961133
 20
149.0389163744
 10
160.4990110985
 20
149.0276208678
 10
160.4827177917
 20
149.0167700081
 10
160.4655161929
 20
149.0063637953
  0
LWPOLYLINE
  5
41E
100
AcDbEntity
  8
0
100
AcDbPolyline
 62
7
  6
CONTINUOUS
 90
18
 70
0
 10
160.6192693744
 20
132.4830672826
 10
160.6191208854
 20
132.4757951784
 10
160.6179329735
 20
132.4613254522
 10
160.6155412355
 20
132.4469454645
 10
160.6119615855
 20
132.432639959
 10
160.6072417665
 20
132.4185121311
 10
160.601396707
 20
132.4045909233
 10
160.5944114785
 20
132.3908473932
 10
160.5862890384
 20
132.3772979092
 10
160.5770038079
 20
132.3639047054
 10
160.5665813657
 20
132.3507055478
 10
160.5551014058
 20
132.3378301019
 10
160.5425407508
 20
132.3252812778
 10
160.5289225781
 20
132.3130561655
 10
160.5143961133
 20
132.3012757002
 10
160.4990110985
 20
132.2899801935
 10
160.4827177917
 20
132.2791293338
 10
160.4655161929
 20
132.2687231211
  0
LWPOLYLINE
  5
41F
100
AcDbEntity
  8
0
100
AcDbPolyline
 62
7
  6
CONTINUOUS
 90
18
 70
0
 10
160.6192693744
 20
131.7482440335
 10
160.6191208854
 20
131.7409719293
 10
160.6179329735
 20
131.7265022031
 10
160.6155412355
 20
131.7121222154
 10
160.6119615855
 20
131.6978167098
 10
160.6072417665
 20
131.683688882
 10
160.601396707
 20
131.6697676742
 10
160.5944114785
 20
131.6560241441
 10
160.5862890384
 20
131.6424746601
 10
160.5770038079
 20
131.6290814563
 10
160.5665813657
 20
131.6158822987
 10
160.5551014058
 20
131.6030068527
 10
160.5425407508
 20
131.5904580287
 10
160.5289225781
 20
131.5782329164
 10
160.5143961133
 20
131.5664524511
 10
160.4990110985
 20
131.5551569444
 10
160.4827177917
 20
131.5443060847
 10
160.4655161929
 20
131.533899872
  0
LWPOLYLINE
  5
420
100
AcDbEntity
  8
0
100
AcDbPolyline
 62
7
  6
CONTINUOUS
 90
18
 70
0
 10
160.6192693744
 20
115.0106033592
 10
160.6191208854
 20
115.003331255
 10
160.6179329735
 20
114.9888615288
 10
160.6155412355
 20
114.9744815411
 10
160.6119615855
 20
114.9601760356
 10
160.6072417665
 20
114.9460482078
 10
160.601396707
 20
114.932127
 10
160.5944114785
 20
114.9183834698
 10
160.5862890384
 20
114.9048339858
 10
160.5770038079
 20
114.8914407821
 10
160.5665813657
 20
114.8782416244
 10
160.5551014058
 20
114.8653661785
 10
160.5425407508
 20
114.8528173545
 10
160.5289225781
 20
114.8405922422
 10
160.5143961133
 20
114.8288117768
 10
160.4990110985
 20
114.8175162702
 10
160.4827177917
 20
114.8066654105
 10
160.4655161929
 20
114.7962591977
  0
LWPOLYLINE
  5
421
100
AcDbEntity
  8
0
100
AcDbPolyline
 62
7
  6
CONTINUOUS
 90
18
 70
0
 10
160.6192693744
 20
114.2757801101
 10
160.6191208854
 20
114.2685080059
 10
160.6179329735
 20
114.2540382797
 10
160.6155412355
 20
114.239658292
 10
160.6119615855
 20
114.2253527865
 10
160.6072417665
 20
114.2112249586
 10
160.601396707
 20
114.1973037509
 10
160.5944114785
 20
114.1835602207
 10
160.5862890384
 20
114.1700107367
 10
160.5770038079
 20
114.156617533
 10
160.5665813657
 20
114.1434183753
 10
160.5551014058
 20
114.1305429294
 10
160.5425407508
 20
114.1179941053
 10
160.5289225781
 20
114.105768993
 10
160.5143961133
 20
114.0939885277
 10
160.4990110985
 20
114.082693021
 10
160.4827177917
 20
114.0718421613
 10
160.4655161929
 20
114.0614359486
  0
LWPOLYLINE
  5
422
100
AcDbEntity
  8
0
100
AcDbPolyline
 62
7
  6
CONTINUOUS
 90
18
 70
0
 10
160.6192693744
 20
97.5381394358
 10
160.6191208854
 20
97.5308673316
 10
160.6179329735
 20
97.5163976054
 10
160.6155412355
 20
97.5020176177
 10
160.6119615855
 20
97.4877121122
 10
160.6072417665
 20
97.4735842844
 10
160.601396707
 20
97.4596630766
 10
160.5944114785
 20
97.4459195465
 10
160.5862890384
 20
97.4323700624
 10
160.5770038079
 20
97.4189768587
 10
160.5665813657
 20
97.405777701
 10
160.5551014058
 20
97.3929022551
 10
160.5425407508
 20
97.3803534311
 10
160.5289225781
 20
97.3681283188
 10
160.5143961133
 20
97.3563478534
 10
160.4990110985
 20
97.3450523468
 10
160.4827177917
 20
97.3342014871
 10
160.4655161929
 20
97.3237952743
  0
LWPOLYLINE
  5
423
100
AcDbEntity
  8
0
100
AcDbPolyline
 62
7
  6
CONTINUOUS
 90
18
 70
0
 10
160.6192693744
 20
96.8033161867
 10
160.6191208854
 20
96.7960440825
 10
160.6179329735
 20
96.7815743563
 10
160.6155412355
 20
96.7671943686
 10
160.6119615855
 20
96.7528888631
 10
160.6072417665
 20
96.7387610353
 10
160.601396707
 20
96.7248398275
 10
160.5944114785
 20
96.7110962974
 10
160.5862890384
 20
96.6975468133
 10
160.5770038079
 20
96.6841536096
 10
160.5665813657
 20
96.6709544519
 10
160.5551014058
 20
96.658079006
 10
160.5425407508
 20
96.645530182
 10
160.5289225781
 20
96.6333050697
 10
160.5143961133
 20
96.6215246043
 10
160.4990110985
 20
96.6102290977
 10
160.4827177917
 20
96.599378238
 10
160.4655161929
 20
96.5889720252
  0
LWPOLYLINE
  5
424
100
AcDbEntity
  8
0
100
AcDbPolyline
 62
7
  6
CONTINUOUS
 90
18
 70
0
 10
160.6192693744
 20
80.0656755125
 10
160.6191208854
 20
80.0584034083
 10
160.6179329735
 20
80.0439336821
 10
160.6155412355
 20
80.0295536944
 10
160.6119615855
 20
80.0152481889
 10
160.6072417665
 20
80.001120361
 10
160.601396707
 20
79.9871991532
 10
160.5944114785
 20
79.9734556231
 10
160.5862890384
 20
79.9599061391
 10
160.5770038079
 20
79.9465129353
 10
160.5665813657
 20
79.9333137777
 10
160.5551014058
 20
79.9204383318
 10
160.5425407508
 20
79.9078895077
 10
160.5289225781
 20
79.8956643954
 10
160.5143961133
 20
79.8838839301
 10
160.4990110985
 20
79.8725884234
 10
160.4827177917
 20
79.8617375637
 10
160.4655161929
 20
79.851331351
  0
LWPOLYLINE
  5
425
100
AcDbEntity
  8
0
100
AcDbPolyline
 62
7
  6
CONTINUOUS
 90
18
 70
0
 10
160.6192693744
 20
79.3308522634
 10
160.6191208854
 20
79.3235801592
 10
160.6179329735
 20
79.309110433
 10
160.6155412355
 20
79.2947304453
 10
160.6119615855
 20
79.2804249397
 10
160.6072417665
 20
79.2662971119
 10
160.601396707
 20
79.2523759041
 10
160.5944114785
 20
79.238632374
 10
160.5862890384
 20
79.22508289
 10
160.5770038079
 20
79.2116896862
 10
160.5665813657
 20
79.1984905286
 10
160.5551014058
 20
79.1856150826
 10
160.5425407508
 20
79.1730662586
 10
160.5289225781
 20
79.1608411463
 10
160.5143961133
 20
79.149060681
 10
160.4990110985
 20
79.1377651743
 10
160.4827177917
 20
79.1269143146
 10
160.4655161929
 20
79.1165081019
  0
LWPOLYLINE
  5
426
100
AcDbEntity
  8
0
100
AcDbPolyline
 62
7
  6
CONTINUOUS
 90
18
 70
0
 10
160.6192693744
 20
62.5932115891
 10
160.6191208854
 20
62.5859394849
 10
160.6179329735
 20
62.5714697587
 10
160.6155412355
 20
62.557089771
 10
160.6119615855
 20
62.5427842655
 10
160.6072417665
 20
62.5286564377
 10
160.601396707
 20
62.5147352299
 10
160.5944114785
 20
62.5009916997
 10
160.5862890384
 20
62.4874422157
 10
160.5770038079
 20
62.474049012
 10
160.5665813657
 20
62.4608498543
 10
160.5551014058
 20
62.4479744084
 10
160.5425407508
 20
62.4354255844
 10
160.5289225781
 20
62.4232004721
 10
160.5143961133
 20
62.4114200067
 10
160.4990110985
 20
62.4001245001
 10
160.4827177917
 20
62.3892736404
 10
160.4655161929
 20
62.3788674276
  0
LWPOLYLINE
  5
427
100
AcDbEntity
  8
0
100
AcDbPolyline
 62
7
  6
CONTINUOUS
 90
18
 70
0
 10
160.6192693744
 20
61.85838834
 10
160.6191208854
 20
61.8511162358
 10
160.6179329735
 20
61.8366465096
 10
160.6155412355
 20
61.8222665219
 10
160.6119615855
 20
61.8079610164
 10
160.6072417665
 20
61.7938331885
 10
160.601396707
 20
61.7799119808
 10
160.5944114785
 20
61.7661684506
 10
160.5862890384
 20
61.7526189666
 10
160.5770038079
 20
61.7392257629
 10
160.5665813657
 20
61.7260266052
 10
160.5551014058
 20
61.7131511593
 10
160.5425407508
 20
61.7006023352
 10
160.5289225781
 20
61.6883772229
 10
160.5143961133
 20
61.6765967576
 10
160.4990110985
 20
61.6653012509
 10
160.4827177917
 20
61.6544503912
 10
160.4655161929
 20
61.6440441785
  0
LWPOLYLINE
  5
428
100
AcDbEntity
  8
0
100
AcDbPolyline
 62
7
  6
CONTINUOUS
 90
18
 70
0
 10
160.6192693744
 20
45.1207476657
 10
160.6191208854
 20
45.1134755615
 10
160.6179329735
 20
45.0990058353
 10
160.6155412355
 20
45.0846258476
 10
160.6119615855
 20
45.0703203421
 10
160.6072417665
 20
45.0561925143
 10
160.601396707
 20
45.0422713065
 10
160.5944114785
 20
45.0285277764
 10
160.5862890384
 20
45.0149782923
 10
160.5770038079
 20
45.0015850886
 10
160.5665813657
 20
44.9883859309
 10
160.5551014058
 20
44.975510485
 10
160.5425407508
 20
44.962961661
 10
160.5289225781
 20
44.9507365487
 10
160.5143961133
 20
44.9389560834
 10
160.4990110985
 20
44.9276605767
 10
160.4827177917
 20
44.916809717
 10
160.4655161929
 20
44.9064035042
  0
LWPOLYLINE
  5
429
100
AcDbEntity
  8
0
100
AcDbPolyline
 62
7
  6
CONTINUOUS
 90
18
 70
0
 10
160.6192693744
 20
44.3859244166
 10
160.6191208854
 20
44.3786523124
 10
160.6179329735
 20
44.3641825862
 10
160.6155412355
 20
44.3498025985
 10
160.6119615855
 20
44.335497093
 10
160.6072417665
 20
44.3213692652
 10
160.601396707
 20
44.3074480574
 10
160.5944114785
 20
44.2937045273
 10
160.5862890384
 20
44.2801550432
 10
160.5770038079
 20
44.2667618395
 10
160.5665813657
 20
44.2535626818
 10
160.5551014058
 20
44.2406872359
 10
160.5425407508
 20
44.2281384119
 10
160.5289225781
 20
44.2159132996
 10
160.5143961133
 20
44.2041328342
 10
160.4990110985
 20
44.1928373276
 10
160.4827177917
 20
44.1819864679
 10
160.4655161929
 20
44.1715802551
  0
LWPOLYLINE
  5
42A
100
AcDbEntity
  8
0
100
AcDbPolyline
 62
7
  6
CONTINUOUS
 90
18
 70
0
 10
160.6192693744
 20
27.6482837424
 10
160.6191208854
 20
27.6410116382
 10
160.6179329735
 20
27.626541912
 10
160.6155412355
 20
27.6121619243
 10
160.6119615855
 20
27.5978564188
 10
160.6072417665
 20
27.5837285909
 10
160.601396707
 20
27.5698073831
 10
160.5944114785
 20
27.556063853
 10
160.5862890384
 20
27.542514369
 10
160.5770038079
 20
27.5291211652
 10
160.5665813657
 20
27.5159220076
 10
160.5551014058
 20
27.5030465617
 10
160.5425407508
 20
27.4904977376
 10
160.5289225781
 20
27.4782726253
 10
160.5143961133
 20
27.46649216
 10
160.4990110985
 20
27.4551966533
 10
160.4827177917
 20
27.4443457936
 10
160.4655161929
 20
27.4339395809
  0
LWPOLYLINE
  5
42B
100
AcDbEntity
  8
0
100
AcDbPolyline
 62
7
  6
CONTINUOUS
 90
18
 70
0
 10
160.6192693744
 20
26.9134604933
 10
160.6191208854
 20
26.9061883891
 10
160.6179329735
 20
26.8917186629
 10
160.6155412355
 20
26.8773386752
 10
160.6119615855
 20
26.8630331697
 10
160.6072417665
 20
26.8489053418
 10
160.601396707
 20
26.834984134
 10
160.5944114785
 20
26.8212406039
 10
160.5862890384
 20
26.8076911199
 10
160.5770038079
 20
26.7942979161
 10
160.5665813657
 20
26.7810987585
 10
160.5551014058
 20
26.7682233125
 10
160.5425407508
 20
26.7556744885
 10
160.5289225781
 20
26.7434493762
 10
160.5143961133
 20
26.7316689109
 10
160.4990110985
 20
26.7203734042
 10
160.4827177917
 20
26.7095225445
 10
160.4655161929
 20
26.6991163318
  0
LWPOLYLINE
  5
42C
100
AcDbEntity
  8
0
100
AcDbPolyline
 62
7
  6
CONTINUOUS
 90
18
 70
0
 10
160.6192693744
 20
10.175819819
 10
160.6191208854
 20
10.1685477148
 10
160.6179329735
 20
10.1540779886
 10
160.6155412355
 20
10.1396980009
 10
160.6119615855
 20
10.1253924954
 10
160.6072417665
 20
10.1112646676
 10
160.601396707
 20
10.0973434598
 10
160.5944114785
 20
10.0835999296
 10
160.5862890384
 20
10.0700504456
 10
160.5770038079
 20
10.0566572419
 10
160.5665813657
 20
10.0434580842
 10
160.5551014058
 20
10.0305826383
 10
160.5425407508
 20
10.0180338143
 10
160.5289225781
 20
10.005808702
 10
160.5143961133
 20
9.9940282366
 10
160.4990110985
 20
9.98273273
 10
160.4827177917
 20
9.9718818703
 10
160.476564571
 20
9.9681594417
  0
LWPOLYLINE
  5
42D
100
AcDbEntity
  8
0
100
AcDbPolyline
 62
7
  6
CONTINUOUS
 90
14
 70
0
 10
160.6192693744
 20
9.4409965699
 10
160.6191208854
 20
9.4337244657
 10
160.6179329735
 20
9.4192547395
 10
160.6155412355
 20
9.4048747518
 10
160.6119615855
 20
9.3905692463
 10
160.6072417665
 20
9.3764414185
 10
160.601396707
 20
9.3625202107
 10
160.5944114785
 20
9.3487766805
 10
160.5862890384
 20
9.3352271965
 10
160.5770038079
 20
9.3218339928
 10
160.5665813657
 20
9.3086348351
 10
160.5551014058
 20
9.2957593892
 10
160.5425407508
 20
9.2832105651
 10
160.5316145879
 20
9.2734020857
  0
LWPOLYLINE
  5
42E
100
AcDbEntity
  8
ASSI
100
AcDbPolyline
 62
7
  6
CONTINUOUS
 90
88
 70
0
 10
158.9383838867
 20
52.9241824672
 10
158.9302096682
 20
52.7823323266
 10
158.9189046042
 20
52.6391659524
 10
158.9044686947
 20
52.4946833445
 10
158.8868873176
 20
52.3487805708
 10
158.866175095
 20
52.2015615635
 10
158.8423758936
 20
52.0533381191
 10
158.8154831708
 20
51.904108109
 10
158.7855034692
 20
51.7538736619
 10
158.752500283
 20
51.6029529608
 10
158.7164672043
 20
51.4513445513
 10
158.6774106412
 20
51.2990498879
 10
158.6354133117
 20
51.1463915171
 10
158.5904689834
 20
50.9933686678
 10
158.5425838889
 20
50.8399821111
 10
158.4918594445
 20
50.6865567057
 10
158.4382896324
 20
50.5330923695
 10
158.3818804705
 20
50.3795891848
 10
158.3227514282
 20
50.2263722574
 10
158.260896741
 20
50.0734421942
 10
158.1963221735
 20
49.9207983884
 10
158.1291644887
 20
49.7687641258
 10
158.0594182121
 20
49.6173406984
 10
157.9870888182
 20
49.4665268143
 10
157.9123294943
 20
49.3166418837
 10
157.8351350903
 20
49.1676878755
 10
157.7555107563
 20
49.0196628208
 10
157.6736251294
 20
48.8728802235
 10
157.589473417
 20
48.7273427167
 10
157.5030604118
 20
48.5830476673
 10
157.4145691287
 20
48.4403006791
 10
157.323995163
 20
48.2991050332
 10
157.2313429194
 20
48.1594574486
 10
157.136808627
 20
48.0216536863
 10
157.0403882971
 20
47.8856976541
 10
156.9420859185
 20
47.7515854442
 10
156.8421096866
 20
47.6196010943
 10
156.7404560541
 20
47.4897491141
 10
156.6371285685
 20
47.3620249938
 10
156.532346068
 20
47.2366992418
 10
156.426105469
 20
47.1137769409
 10
156.3184098552
 20
46.9932530083
 10
156.2094873162
 20
46.8753827026
 10
156.0993352517
 20
46.7601716481
 10
155.987956262
 20
46.6476142206
 10
155.8755862379
 20
46.5379488067
 10
155.7622230789
 20
46.4311815357
 10
155.6478688855
 20
46.3273062782
 10
155.5327658494
 20
46.2265430327
 10
155.4169123838
 20
46.1288983949
 10
155.3003100756
 20
46.034365769
 10
155.183205878
 20
45.9431453669
 10
155.0655987275
 20
45.8552442082
 10
154.9474896875
 20
45.7706552732
 10
154.8291289026
 20
45.6895577136
 10
154.7105158392
 20
45.6119589291
 10
154.5916510308
 20
45.5378515199
 10
154.4727862223
 20
45.467392439
 10
154.3539214139
 20
45.4005894186
 10
154.2350566055
 20
45.3374347264
 10
154.116443542
 20
45.2780621185
 10
153.9980827571
 20
45.2224796105
 10
153.8799737172
 20
45.1706791867
 10
153.7623665666
 20
45.1227705557
 10
153.6452623691
 20
45.0787619659
 10
153.5286600609
 20
45.038645169
 10
153.4128065952
 20
45.0025051287
 10
153.2977035592
 20
44.9703502733
 10
153.1833493658
 20
44.9421721746
 10
153.0699862068
 20
44.9180305112
 10
152.9576161826
 20
44.8979338379
 10
152.846237193
 20
44.8818735999
 10
152.7360851285
 20
44.8698838114
 10
152.6271625895
 20
44.8619730992
 10
152.5194669757
 20
44.8581328366
 10
152.4132263766
 20
44.8583711566
 10
152.3084438762
 20
44.8626967037
 10
152.2051163905
 20
44.8711008335
 10
152.103462758
 20
44.8835657469
 10
152.0034865262
 20
44.9001000503
 10
151.9051841475
 20
44.9206951373
 10
151.8087638176
 20
44.9453073894
 10
151.7142295253
 20
44.9739453205
 10
151.6215772817
 20
45.0066004167
 10
151.531003316
 20
45.0432035173
 10
151.4425120329
 20
45.0837629898
 10
151.3560990276
 20
45.1282704668
 10
151.3101342098
 20
45.1540458765
  0
LWPOLYLINE
  5
42F
100
AcDbEntity
  8
ASSI
100
AcDbPolyline
 62
7
  6
CONTINUOUS
 90
88
 70
0
 10
158.7613247263
 20
52.821950727
 10
158.7532279952
 20
52.6857849867
 10
158.7421340954
 20
52.54836683
 10
158.728043027
 20
52.4096962568
 10
158.7109406428
 20
52.269673831
 10
158.69084109
 20
52.1283989889
 10
158.6677868096
 20
51.9861700388
 10
158.6417715583
 20
51.8429849648
 10
158.6128015795
 20
51.698845783
 10
158.5809380446
 20
51.55405685
 10
158.5461748395
 20
51.408616793
 10
158.5085180784
 20
51.2625269849
 10
158.4680472753
 20
51.1160959012
 10
158.4247564841
 20
50.9693228209
 10
158.3786516509
 20
50.822208465
 10
158.3298301283
 20
50.6750634726
 10
158.2782861757
 20
50.5278877789
 10
158.2240255338
 20
50.3806814486
 10
158.1671627763
 20
50.2337553149
 10
158.107692405
 20
50.0871099699
 10
158.0456199182
 20
49.9407448216
 10
157.9810763849
 20
49.7949689268
 10
157.9140565837
 20
49.6497835307
 10
157.844565736
 20
49.5051873882
 10
157.772750575
 20
49.3614858209
 10
157.6986061895
 20
49.2186807192
 10
157.6221374907
 20
49.0767701927
 10
157.5435059459
 20
48.9360538922
 10
157.462706985
 20
48.7965343413
 10
157.3797451781
 20
48.6582090164
 10
157.2947957031
 20
48.5213699981
 10
157.20785436
 20
48.386020427
 10
157.1189253486
 20
48.2521571624
 10
157.028196447
 20
48.1200628631
 10
156.9356638519
 20
47.989741267
 10
156.8413313664
 20
47.861188636
 10
156.7453981781
 20
47.7346764153
 10
156.6478609048
 20
47.6102089163
 10
156.5487229286
 20
47.4877818275
 10
156.4481935843
 20
47.3676536596
 10
156.3462699317
 20
47.2498292703
 10
156.2429549109
 20
47.1343038018
 10
156.1384666765
 20
47.0213211917
 10
156.0328027494
 20
46.9108868131
 10
155.9259656087
 20
46.802995293
 10
155.818180846
 20
46.6978744493
 10
155.7094464591
 20
46.5955301366
 10
155.5997644502
 20
46.4959565004
 10
155.4893664183
 20
46.3993637952
 10
155.3782508502
 20
46.3057583197
 10
155.2664192589
 20
46.2151337751
 10
155.1541077823
 20
46.1276815196
 10
155.0413154062
 20
46.0434082561
 10
154.9280431448
 20
45.9623072817
 10
154.8145301777
 20
45.8845498449
 10
154.7007759963
 20
45.8101430106
 10
154.5867811093
 20
45.7390797138
 10
154.4727862223
 20
45.6715100082
 10
154.3587913353
 20
45.6074412757
 10
154.2447964484
 20
45.5468661344
 10
154.131042267
 20
45.4899124914
 10
154.0175292999
 20
45.4365879991
 10
153.9042570384
 20
45.3868850053
 10
153.7914646624
 20
45.3409084601
 10
153.6791531857
 20
45.2986662376
 10
153.5673215945
 20
45.2601504637
 10
153.4562060264
 20
45.2254424664
 10
153.3458079944
 20
45.1945502915
 10
153.2361259856
 20
45.1674658932
 10
153.1273915986
 20
45.1442464614
 10
153.019606836
 20
45.1249001629
 10
152.9127696953
 20
45.1094188309
 10
152.8071057682
 20
45.097835155
 10
152.7026175338
 20
45.0901573711
 10
152.599302513
 20
45.0863772432
 10
152.4973788604
 20
45.0865027534
 10
152.396849516
 20
45.0905421543
 10
152.2977115399
 20
45.0984871932
 10
152.2001742665
 20
45.1103210938
 10
152.1042410783
 20
45.1260520734
 10
152.0099085928
 20
45.1456719146
 10
151.9173759976
 20
45.1691391893
 10
151.826647096
 20
45.1964620272
 10
151.7377180847
 20
45.2276322985
 10
151.6507767415
 20
45.2625841858
 10
151.5658272665
 20
45.3013256797
 10
151.4828654597
 20
45.3438487896
 10
151.435140094
 20
45.3705484701
  0
LWPOLYLINE
  5
430
100
AcDbEntity
  8
ASSI
100
AcDbPolyline
 62
7
  6
CONTINUOUS
 90
22
 70
0
 10
121.2901173526
 20
51.6727233972
 10
121.3600629163
 20
51.735307236
 10
121.4274590017
 20
51.801364414
 10
121.4923056089
 20
51.8708949313
 10
121.5546470762
 20
51.9439555411
 10
121.6144390652
 20
52.0204894902
 10
121.6715485608
 20
52.1003265187
 10
121.725969591
 20
52.1834739802
 10
121.7777081278
 20
52.2699245211
 10
121.826649072
 20
52.3594858208
 10
121.8727861954
 20
52.4521648048
 10
121.9161257262
 20
52.5479545476
 10
121.9565712499
 20
52.6466419524
 10
121.9941163236
 20
52.7482334701
 10
122.0287673903
 20
52.8527226497
 10
122.060447364
 20
52.9598770414
 10
122.0891496304
 20
53.0697025786
 10
122.1148808037
 20
53.1821933277
 10
122.1375836418
 20
53.2970990385
 10
122.1572390637
 20
53.4143362939
 10
122.1738661504
 20
53.5339885109
 10
122.1874649017
 20
53.6560556894
  0
LWPOLYLINE
  5
431
100
AcDbEntity
  8
ASSI
100
AcDbPolyline
 62
7
  6
CONTINUOUS
 90
22
 70
0
 10
121.3529665568
 20
51.5638653825
 10
121.4251526251
 20
51.6279910154
 10
121.4946971377
 20
51.6957225388
 10
121.5616000945
 20
51.7670599525
 10
121.6259079382
 20
51.8420624588
 10
121.6875742262
 20
51.9206708554
 10
121.7464596309
 20
52.0027075364
 10
121.8025578647
 20
52.0881802533
 10
121.8558752154
 20
52.1770812546
 10
121.9062912187
 20
52.2692096791
 10
121.9537993147
 20
52.3645728245
 10
121.9984060634
 20
52.4631633931
 10
122.0400106813
 20
52.5647586317
 10
122.0786063804
 20
52.669365334
 10
122.1141999488
 20
52.7769767063
 10
122.146710967
 20
52.8873496136
 10
122.1761324652
 20
53.0004903001
 10
122.2024714133
 20
53.1163925218
 10
122.2256683017
 20
53.2347944115
 10
122.2457032938
 20
53.3556086805
 10
122.2625962261
 20
53.4789226176
 10
122.2763470986
 20
53.6047362228
  0
LINE
  5
432
100
AcDbEntity
  8
ASSI
100
AcDbLine
 62
7
  6
CONTINUOUS
 10
114.8234566298
 20
55.4064922523
 11
114.7606074257
 21
55.3702109231
  0
LINE
  5
433
100
AcDbEntity
  8
ASSI
100
AcDbLine
 62
7
  6
CONTINUOUS
 10
115.3856074257
 20
54.2876791695
 11
115.4484566298
 21
54.3239604987
  0
LINE
  5
434
100
AcDbEntity
  8
ASSI
100
AcDbLine
 62
7
  6
CONTINUOUS
 10
121.2901173526
 20
57.6962102843
 11
121.3529665568
 21
57.7324916135
  0
LWPOLYLINE
  5
435
100
AcDbEntity
  8
ASSI
100
AcDbPolyline
 62
7
  6
CONTINUOUS
 90
4
 70
0
 10
151.3606761347
 20
130.9074616804
 10
151.2680238911
 20
130.9401167766
 10
151.1774499254
 20
130.9767198772
 10
151.1383974109
 20
130.9946193734
  0
LWPOLYLINE
  5
436
100
AcDbEntity
  8
ASSI
100
AcDbPolyline
 62
7
  6
CONTINUOUS
 90
22
 70
0
 10
117.614845253
 20
143.2230929157
 10
117.5023285369
 20
143.2723566778
 10
117.3903889922
 20
143.3177904806
 10
117.2790266189
 20
143.3593943241
 10
117.1681596323
 20
143.3971933979
 10
117.0578698172
 20
143.4311625123
 10
116.9484025276
 20
143.4612260987
 10
116.8397595949
 20
143.4873754622
 10
116.7319391878
 20
143.5096192976
 10
116.625181167
 20
143.5279081206
 10
116.5194878977
 20
143.5422331262
 10
116.4148570146
 20
143.5526031195
 10
116.3115212831
 20
143.5589950308
 10
116.2094835864
 20
143.561400004
 10
116.1087410411
 20
143.5598268954
 10
116.0095177624
 20
143.5542792046
 10
115.9118171325
 20
143.5447480829
 10
115.8156357691
 20
143.531242379
 10
115.7211876404
 20
143.5137921381
 10
115.6285440689
 20
143.4924073753
 10
115.5376337321
 20
143.4670780754
 10
115.4484566298
 20
143.4378042384
  0
LWPOLYLINE
  5
437
100
AcDbEntity
  8
ASSI
100
AcDbPolyline
 62
7
  6
CONTINUOUS
 90
22
 70
0
 10
117.614845253
 20
143.3257219299
 10
117.4990078637
 20
143.3767273583
 10
117.3837641385
 20
143.4237619913
 10
117.2691140774
 20
143.4668258288
 10
117.1549721644
 20
143.5059453423
 10
117.0414239155
 20
143.5410940603
 10
116.9287258792
 20
143.5721925687
 10
116.8168799779
 20
143.5992317095
 10
116.7058842892
 20
143.6222206406
 10
116.5959895944
 20
143.6411074213
 10
116.4871983828
 20
143.6558827763
 10
116.3795081651
 20
143.666555981
 10
116.2731622542
 20
143.6731029204
 10
116.1681636897
 20
143.6755142648
 10
116.064509432
 20
143.673799344
 10
115.9624336753
 20
143.6679620327
 10
115.8619399887
 20
143.6579930098
 10
115.7630248031
 20
143.6439015963
 10
115.6659116053
 20
143.6257196301
 10
115.5706748909
 20
143.6034577239
 10
115.4772401644
 20
143.5771052649
 10
115.3856074257
 20
143.5466622532
  0
LINE
  5
438
100
AcDbEntity
  8
ASSI
100
AcDbLine
 62
7
  6
CONTINUOUS
 10
151.4351394495
 20
131.099926417
 11
151.0815860589
 21
131.3040637137
  0
LINE
  5
439
100
AcDbEntity
  8
ASSI
100
AcDbLine
 62
7
  6
CONTINUOUS
 10
150.1842477184
 20
134.1705622157
 11
150.0197349783
 21
134.2655498099
  0
LWPOLYLINE
  5
43A
100
AcDbEntity
  8
ASSI
100
AcDbPolyline
 62
7
  6
CONTINUOUS
 90
14
 70
0
 10
151.0815867034
 20
131.30406483
 10
151.0485131082
 20
131.3235800857
 10
150.9698815634
 20
131.3734946492
 10
150.8934128646
 20
131.4271010391
 10
150.819268479
 20
131.4842860629
 10
150.7474533181
 20
131.5450572824
 10
150.6779624704
 20
131.6094071358
 10
150.6109426692
 20
131.6771997454
 10
150.5463991359
 20
131.7484423857
 10
150.4843266491
 20
131.8231277823
 10
150.4248562777
 20
131.9010982331
 10
150.3679935203
 20
131.9823606798
 10
150.3137328783
 20
132.0669081808
 10
150.304884163
 20
132.0819560287
  0
LWPOLYLINE
  5
43B
100
AcDbEntity
  8
ASSI
100
AcDbPolyline
 62
7
  6
CONTINUOUS
 90
5
 70
0
 10
151.435140094
 20
131.0999275333
 10
151.4020664988
 20
131.119442789
 10
151.323434954
 20
131.1693573525
 10
151.2469662552
 20
131.2229637424
 10
151.1728218696
 20
131.2801487662
  0
LWPOLYLINE
  5
43C
100
AcDbEntity
  8
ASSI
100
AcDbPolyline
 62
7
  6
CONTINUOUS
 90
29
 70
0
 10
151.3101342098
 20
130.8834249397
 10
151.2719473153
 20
130.9060107487
 10
151.1900616884
 20
130.9582338766
 10
151.1104373543
 20
131.0143107462
 10
151.0332429503
 20
131.0741225916
 10
150.9584836264
 20
131.1376773289
 10
150.8861542326
 20
131.204967042
 10
150.8164079559
 20
131.2758492174
 10
150.7492502712
 20
131.3503314689
 10
150.6846757036
 20
131.4284061828
 10
150.6228210165
 20
131.5099080037
 10
150.5636919742
 20
131.5948441952
 10
150.5072828122
 20
131.6832074937
 10
150.4537130002
 20
131.7748107537
 10
150.4029885558
 20
131.869660842
 10
150.3551034612
 20
131.9677508919
 10
150.3101591329
 20
132.0688731574
 10
150.2681618035
 20
132.173034065
 10
150.2291052403
 20
132.2802271882
 10
150.1930721617
 20
132.3902255016
 10
150.1600689755
 20
132.5030349506
 10
150.1300892739
 20
132.6186495897
 10
150.1031965511
 20
132.7368245576
 10
150.0793973496
 20
132.8575652807
 10
150.0586851271
 20
132.9808663326
 10
150.0411037499
 20
133.1064665727
 10
150.0266678405
 20
133.2342789542
 10
150.0153627765
 20
133.3643905238
 10
150.007188558
 20
133.4968012818
  0
LINE
  5
43D
100
AcDbEntity
  8
ASSI
100
AcDbLine
 62
7
  6
CONTINUOUS
 10
151.1728218696
 20
131.2801487662
 11
151.1010067087
 21
131.3409199857
  0
LWPOLYLINE
  5
43E
100
AcDbEntity
  8
ASSI
100
AcDbPolyline
 62
7
  6
CONTINUOUS
 90
24
 70
0
 10
151.1010067087
 20
131.3409199857
 10
151.031515861
 20
131.4052698392
 10
150.9644960598
 20
131.4730624487
 10
150.8999525265
 20
131.5443050891
 10
150.8378800397
 20
131.6189904856
 10
150.7784096683
 20
131.6969609365
 10
150.7215469109
 20
131.7782233831
 10
150.6672862689
 20
131.8627708842
 10
150.6157423164
 20
131.9504249135
 10
150.5669207938
 20
132.0411920353
 10
150.5208159606
 20
132.1350656855
 10
150.4775251693
 20
132.2318476452
 10
150.4370543662
 20
132.3315440599
 10
150.3993976051
 20
132.4341487842
 10
150.3646344001
 20
132.5394451634
 10
150.3327708652
 20
132.647438885
 10
150.3038008864
 20
132.7581242614
 10
150.2777856351
 20
132.8712675753
 10
150.2547313547
 20
132.9868740202
 10
150.2346318018
 20
133.1049384026
 10
150.2175294177
 20
133.2252114238
 10
150.2034383492
 20
133.3476099843
 10
150.1923444495
 20
133.4722171837
 10
150.1842477184
 20
133.5990330219
  0
LWPOLYLINE
  5
43F
100
AcDbEntity
  8
ASSI
100
AcDbPolyline
 62
7
  6
CONTINUOUS
 90
14
 70
0
 10
111.9136482991
 20
202.4761715808
 10
111.9050080945
 20
202.4914164629
 10
111.8589131508
 20
202.580689935
 10
111.8169641712
 20
202.6705744371
 10
111.7791699164
 20
202.7610712602
 10
111.7455216258
 20
202.8521791134
 10
111.7160903494
 20
202.943705618
 10
111.6908849978
 20
203.0356516586
 10
111.6698966604
 20
203.1280163506
 10
111.653169655
 20
203.2206046616
 10
111.640712986
 20
203.3134170642
 10
111.6325176491
 20
203.4064530856
 10
111.628600949
 20
203.4995162761
 10
111.6282348992
 20
203.5380896825
  0
LINE
  5
440
100
AcDbEntity
  8
ASSI
100
AcDbLine
 62
7
  6
CONTINUOUS
 10
122.2669148142
 20
54.7225169191
 11
122.1874649017
 21
54.6766435354
  0
LINE
  5
441
100
AcDbEntity
  8
ASSI
100
AcDbLine
 62
7
  6
CONTINUOUS
 10
118.5998188969
 20
51.4823764816
 11
118.4987287295
 21
51.424008286
  0
LINE
  5
442
100
AcDbEntity
  8
ASSI
100
AcDbLine
 62
7
  6
CONTINUOUS
 10
121.6611014203
 20
51.8869249484
 11
121.2901173526
 21
51.6727233972
  0
LWPOLYLINE
  5
443
100
AcDbEntity
  8
ASSI
100
AcDbPolyline
 62
7
  6
CONTINUOUS
 90
13
 70
0
 10
156.0956443642
 20
142.1101071371
 10
156.195169538
 20
142.1061080851
 10
156.2943075142
 20
142.0981630461
 10
156.3918447875
 20
142.0863291456
 10
156.4877779758
 20
142.070598166
 10
156.5821104613
 20
142.0509783247
 10
156.6746430564
 20
142.02751105
 10
156.7653719581
 20
142.0001882121
 10
156.8543009694
 20
141.9690179408
 10
156.9412423125
 20
141.9340660535
 10
157.0261917875
 20
141.8953245596
 10
157.1091535944
 20
141.8528014498
 10
157.1568789601
 20
141.8261017693
  0
LWPOLYLINE
  5
444
100
AcDbEntity
  8
ASSI
100
AcDbPolyline
 62
7
  6
CONTINUOUS
 90
6
 70
0
 10
157.1189253486
 20
141.7960509155
 10
157.20785436
 20
141.7648806441
 10
157.2947957031
 20
141.7299287569
 10
157.3797451781
 20
141.691187263
 10
157.462706985
 20
141.6486641531
 10
157.5104323507
 20
141.6219644726
  0
LWPOLYLINE
  5
445
100
AcDbEntity
  8
0
100
AcDbPolyline
 62
7
  6
CONTINUOUS
 90
18
 70
0
 10
160.4655161929
 20
132.6974114441
 10
160.4827177917
 20
132.6870052313
 10
160.4990110985
 20
132.6761543716
 10
160.5143961133
 20
132.664858865
 10
160.5289225781
 20
132.6530783996
 10
160.5425407508
 20
132.6408532873
 10
160.5551014058
 20
132.6283044633
 10
160.5665813657
 20
132.6154290174
 10
160.5770038079
 20
132.6022298597
 10
160.5862890384
 20
132.588836656
 10
160.5944114785
 20
132.5752871719
 10
160.601396707
 20
132.5615436418
 10
160.6072417665
 20
132.547622434
 10
160.6119615855
 20
132.5334946062
 10
160.6155412355
 20
132.5191891007
 10
160.6179329735
 20
132.504809113
 10
160.6191208854
 20
132.4903393868
 10
160.6192693744
 20
132.4830672826
  0
LWPOLYLINE
  5
446
100
AcDbEntity
  8
ASSI
100
AcDbPolyline
 62
7
  6
CONTINUOUS
 90
4
 70
0
 10
154.3894357603
 20
186.4141648902
 10
154.4071015012
 20
186.3176347195
 10
154.4203082759
 20
186.2208671305
 10
154.4234028396
 20
186.1865884479
  0
LINE
  5
447
100
AcDbEntity
  8
0
100
AcDbLine
 62
7
  6
CONTINUOUS
 10
97.5643835172
 20
25.738727693
 11
96.8435835556
 21
25.3225468289
  0
LINE
  5
448
100
AcDbEntity
  8
0
100
AcDbLine
 62
7
  6
CONTINUOUS
 10
96.8435835556
 20
24.791841149
 11
96.9496393228
 21
24.8530764198
  0
LINE
  5
449
100
AcDbEntity
  8
0
100
AcDbLine
 62
7
  6
CONTINUOUS
 10
97.1971369462
 20
24.5877038523
 11
97.3031927134
 21
24.6489391231
  0
LINE
  5
44A
100
AcDbEntity
  8
0
100
AcDbLine
 62
7
  6
CONTINUOUS
 10
97.3739136415
 20
24.485635204
 11
97.4799694087
 21
24.5468704748
  0
LINE
  5
44B
100
AcDbEntity
  8
ASSI
100
AcDbLine
 62
7
  6
CONTINUOUS
 10
158.9383838867
 20
139.2250907242
 11
158.7455015544
 21
139.3364585654
  0
LINE
  5
44C
100
AcDbEntity
  8
ASSI
100
AcDbLine
 62
7
  6
CONTINUOUS
 10
157.5104329952
 20
141.6219655889
 11
157.1568796046
 21
141.8261028855
  0
LWPOLYLINE
  5
44D
100
AcDbEntity
  8
ASSI
100
AcDbPolyline
 62
7
  6
CONTINUOUS
 90
29
 70
0
 10
157.5104323507
 20
141.6219644726
 10
157.5435059459
 20
141.6024492169
 10
157.6221374907
 20
141.5525346534
 10
157.6986061895
 20
141.4989282635
 10
157.772750575
 20
141.4417432397
 10
157.844565736
 20
141.3809720202
 10
157.9140565837
 20
141.3166221668
 10
157.9810763849
 20
141.2488295572
 10
158.0456199182
 20
141.1775869168
 10
158.107692405
 20
141.1029015203
 10
158.1671627763
 20
141.0249310695
 10
158.2240255338
 20
140.9436686228
 10
158.2782861757
 20
140.8591211217
 10
158.3298301283
 20
140.7714670924
 10
158.3786516509
 20
140.6806999706
 10
158.4247564841
 20
140.5868263204
 10
158.4680472753
 20
140.4900443607
 10
158.5085180784
 20
140.390347946
 10
158.5461748395
 20
140.2877432217
 10
158.5809380446
 20
140.1824468425
 10
158.6128015795
 20
140.0744531209
 10
158.6417715583
 20
139.9637677445
 10
158.6677868096
 20
139.8506244306
 10
158.69084109
 20
139.7350179857
 10
158.7109406428
 20
139.6169536033
 10
158.728043027
 20
139.4966805821
 10
158.7421340954
 20
139.3742820216
 10
158.7532279952
 20
139.2496748222
 10
158.7613247263
 20
139.122858984
  0
LWPOLYLINE
  5
44E
100
AcDbEntity
  8
ASSI
100
AcDbPolyline
 62
7
  6
CONTINUOUS
 90
29
 70
0
 10
157.6354382348
 20
141.8384670662
 10
157.6736251294
 20
141.8158812572
 10
157.7555107563
 20
141.7636581293
 10
157.8351350903
 20
141.7075812597
 10
157.9123294943
 20
141.6477694143
 10
157.9870888182
 20
141.584214677
 10
158.0594182121
 20
141.5169249639
 10
158.1291644887
 20
141.4460427885
 10
158.1963221735
 20
141.371560537
 10
158.260896741
 20
141.2934858231
 10
158.3227514282
 20
141.2119840022
 10
158.3818804705
 20
141.1270478107
 10
158.4382896324
 20
141.0386845123
 10
158.4918594445
 20
140.9470812522
 10
158.5425838889
 20
140.8522311639
 10
158.5904689834
 20
140.754141114
 10
158.6354133117
 20
140.6530188485
 10
158.6774106412
 20
140.5488579409
 10
158.7164672043
 20
140.4416648177
 10
158.752500283
 20
140.3316665043
 10
158.7855034692
 20
140.2188570554
 10
158.8154831708
 20
140.1032424162
 10
158.8423758936
 20
139.9850674483
 10
158.866175095
 20
139.8643267252
 10
158.8868873176
 20
139.7410256733
 10
158.9044686947
 20
139.6154254332
 10
158.9189046042
 20
139.4876130518
 10
158.9302096682
 20
139.3575014821
 10
158.9383838867
 20
139.2250907242
  0
LWPOLYLINE
  5
44F
100
AcDbEntity
  8
ASSI
100
AcDbPolyline
 62
7
  6
CONTINUOUS
 90
3
 70
0
 10
157.4536216432
 20
141.9314099291
 10
157.4815816997
 20
141.9117185564
 10
157.5587761037
 20
141.8519067109
  0
LWPOLYLINE
  5
450
100
AcDbEntity
  8
ASSI
100
AcDbPolyline
 62
7
  6
CONTINUOUS
 90
14
 70
0
 10
157.5587761037
 20
141.8519067109
 10
157.6335354276
 20
141.7883519737
 10
157.7058648215
 20
141.7210622606
 10
157.7756110981
 20
141.6501800852
 10
157.8427687829
 20
141.5756978336
 10
157.9073433504
 20
141.4976231198
 10
157.9691980376
 20
141.4161212988
 10
158.0283270799
 20
141.3311851074
 10
158.0847362418
 20
141.2428218089
 10
158.1383060539
 20
141.1512185489
 10
158.1890304983
 20
141.0563684606
 10
158.2369155928
 20
140.9582784107
 10
158.2818599212
 20
140.8571561452
 10
158.2871348911
 20
140.8440732739
  0
LWPOLYLINE
  5
451
100
AcDbEntity
  8
ASSI
100
AcDbPolyline
 62
7
  6
CONTINUOUS
 90
14
 70
0
 10
142.3192398901
 20
184.9203640677
 10
142.3105996856
 20
184.9356089498
 10
142.2645047418
 20
185.0248824219
 10
142.2225557622
 20
185.114766924
 10
142.1847615074
 20
185.2052637471
 10
142.1511132168
 20
185.2963716003
 10
142.1216819404
 20
185.3878981049
 10
142.0964765888
 20
185.4798441455
 10
142.0754882514
 20
185.5722088375
 10
142.058761246
 20
185.6647971485
 10
142.0463045771
 20
185.7576095511
 10
142.0381092401
 20
185.8506455725
 10
142.03419254
 20
185.943708763
 10
142.0338264902
 20
185.9822821694
  0
LINE
  5
452
100
AcDbEntity
  8
0
100
AcDbLine
 62
7
  6
CONTINUOUS
 10
96.8435835556
 20
21.240195445
 11
96.9496393228
 21
21.3014307157
  0
LINE
  5
453
100
AcDbEntity
  8
0
100
AcDbLine
 62
7
  6
CONTINUOUS
 10
96.490030165
 20
21.0156858463
 11
96.5077061262
 21
21.0258917248
  0
LINE
  5
454
100
AcDbEntity
  8
0
100
AcDbLine
 62
7
  6
CONTINUOUS
 10
97.3739136415
 20
21.2605973381
 11
97.1971369462
 21
21.1585286898
  0
LINE
  5
455
100
AcDbEntity
  8
ASSI
100
AcDbLine
 62
7
  6
CONTINUOUS
 10
150.007188558
 20
48.3389514123
 11
150.1842477184
 21
48.4411831524
  0
LINE
  5
456
100
AcDbEntity
  8
ASSI
100
AcDbLine
 62
7
  6
CONTINUOUS
 10
158.7613247263
 20
53.3934799208
 11
158.9383838867
 21
53.4957116609
  0
LINE
  5
457
100
AcDbEntity
  8
ASSI
100
AcDbLine
 62
7
  6
CONTINUOUS
 10
158.9383838867
 20
52.9241824672
 11
158.7613247263
 21
52.821950727
  0
LINE
  5
458
100
AcDbEntity
  8
ASSI
100
AcDbLine
 62
7
  6
CONTINUOUS
 10
150.1842477184
 20
47.8696539587
 11
150.007188558
 21
47.7674222185
  0
LINE
  5
459
100
AcDbEntity
  8
0
100
AcDbLine
 62
7
  6
CONTINUOUS
 10
141.7625418305
 20
160.6603919859
 11
141.4089884399
 21
160.8645292826
  0
LINE
  5
45A
100
AcDbEntity
  8
0
100
AcDbLine
 62
7
  6
CONTINUOUS
 10
141.7625418305
 20
164.7427433699
 11
141.4089884399
 21
164.9468806666
  0
LWPOLYLINE
  5
45B
100
AcDbEntity
  8
0
100
AcDbPolyline
 62
7
  6
CONTINUOUS
 90
19
 70
0
 10
97.8865660579
 20
192.8315717954
 10
97.8532832145
 20
192.8516573076
 10
97.8216594762
 20
192.872477878
 10
97.7916948429
 20
192.8940335066
 10
97.7633386559
 20
192.9163679685
 10
97.736641574
 20
192.9394374886
 10
97.711755573
 20
192.9631107412
 10
97.6886909823
 20
192.9873911697
 10
97.6674374725
 20
193.0122753307
 10
97.6481160314
 20
193.0376215686
 10
97.6307376785
 20
193.0634325188
 10
97.6152913942
 20
193.0897055459
 10
97.6018651083
 20
193.1162910879
 10
97.5904703415
 20
193.1431909273
 10
97.581095573
 20
193.1704032816
 10
97.5737941697
 20
193.1977732418
 10
97.5685779567
 20
193.2253017067
 10
97.5654351089
 20
193.2529877774
 10
97.5643835172
 20
193.2806738481
  0
LWPOLYLINE
  5
45C
100
AcDbEntity
  8
0
100
AcDbPolyline
 62
7
  6
CONTINUOUS
 90
18
 70
0
 10
160.4655161929
 20
150.1698753674
 10
160.4827177917
 20
150.1594691547
 10
160.4990110985
 20
150.148618295
 10
160.5143961133
 20
150.1373227883
 10
160.5289225781
 20
150.125542323
 10
160.5425407508
 20
150.1133172107
 10
160.5551014058
 20
150.1007683867
 10
160.5665813657
 20
150.0878929407
 10
160.5770038079
 20
150.0746937831
 10
160.5862890384
 20
150.0613005793
 10
160.5944114785
 20
150.0477510953
 10
160.601396707
 20
150.0340075652
 10
160.6072417665
 20
150.0200863574
 10
160.6119615855
 20
150.0059585296
 10
160.6155412355
 20
149.991653024
 10
160.6179329735
 20
149.9772730363
 10
160.6191208854
 20
149.9628033101
 10
160.6192693744
 20
149.9555312059
  0
LWPOLYLINE
  5
45D
100
AcDbEntity
  8
ASSI
100
AcDbPolyline
 62
7
  6
CONTINUOUS
 90
13
 70
0
 10
123.4928189022
 20
205.0082429227
 10
123.5015098622
 20
204.9971350615
 10
123.5666171421
 20
204.9076423503
 10
123.6276281207
 20
204.817118869
 10
123.6844135821
 20
204.7257563383
 10
123.7369645708
 20
204.6335529799
 10
123.7852900424
 20
204.540510572
 10
123.8292876478
 20
204.4468261701
 10
123.8689482146
 20
204.3524984136
 10
123.9042809153
 20
204.2575286631
 10
123.9352109183
 20
204.162118056
 10
123.9617288926
 20
204.066265658
 10
123.9838441693
 20
203.9699724033
  0
LWPOLYLINE
  5
45E
100
AcDbEntity
  8
0
100
AcDbPolyline
 62
7
  6
CONTINUOUS
 90
6
 70
0
 10
160.6111129178
 20
184.9534266921
 10
160.6119615855
 20
184.9508863763
 10
160.6155412355
 20
184.9365808708
 10
160.6179329735
 20
184.9222008831
 10
160.6191208854
 20
184.9077311569
 10
160.6192693744
 20
184.9004590527
  0
LWPOLYLINE
  5
45F
100
AcDbEntity
  8
ASSI
100
AcDbPolyline
 62
7
  6
CONTINUOUS
 90
41
 70
0
 10
149.3657479086
 20
173.6050598808
 10
149.3838346099
 20
173.6088237052
 10
149.4094163861
 20
173.6156840727
 10
149.4353530136
 20
173.6241447518
 10
149.4614688911
 20
173.6341484605
 10
149.4877652352
 20
173.6457056692
 10
149.5142408294
 20
173.6588059075
 10
149.5407164236
 20
173.6733604815
 10
149.5671920177
 20
173.68937926
 10
149.5936676119
 20
173.7068523743
 10
149.619963956
 20
173.7256615245
 10
149.6460798336
 20
173.7458157767
 10
149.672016461
 20
173.7673060648
 10
149.6975982372
 20
173.7899868911
 10
149.7228227542
 20
173.8138663345
 10
149.7476924199
 20
173.8389363161
 10
149.7720388571
 20
173.8650271024
 10
149.7958585151
 20
173.8921456203
 10
149.8191549445
 20
173.9202849429
 10
149.8417704193
 20
173.949254556
 10
149.8637003187
 20
173.9790600936
 10
149.8849492636
 20
174.0096959218
 10
149.9053733903
 20
174.0409546238
 10
149.9249671017
 20
174.0728404264
 10
149.9437359949
 20
174.105349103
 10
149.9615529971
 20
174.138260557
 10
149.978411649
 20
174.1715775216
 10
149.9943184099
 20
174.2052972636
 10
150.0091655848
 20
174.2391914873
 10
150.0229459837
 20
174.2732613765
 10
150.0356667965
 20
174.3075057474
 10
150.0472418985
 20
174.3416927521
 10
150.0576635151
 20
174.3758220013
 10
150.0669394209
 20
174.4098938843
 10
150.0750068142
 20
174.4436777211
 10
150.0818574946
 20
174.4771715572
 10
150.0874996625
 20
174.5103773471
 10
150.0918951184
 20
174.5430702746
 10
150.0950311289
 20
174.575175401
 10
150.0969204274
 20
174.606767665
 10
150.0975630137
 20
174.6378470667
  0
LWPOLYLINE
  5
460
100
AcDbEntity
  8
ASSI
100
AcDbPolyline
 62
7
  6
CONTINUOUS
 90
40
 70
0
 10
149.3614635952
 20
173.6180538896
 10
149.3661569404
 20
173.61903057
 10
149.3917387166
 20
173.6258909375
 10
149.417675344
 20
173.6343516167
 10
149.4437912216
 20
173.6443553253
 10
149.4700875657
 20
173.655912534
 10
149.4965631598
 20
173.6690127723
 10
149.523038754
 20
173.6835673463
 10
149.5495143482
 20
173.6995861248
 10
149.5759899424
 20
173.7170592391
 10
149.6022862865
 20
173.7358683894
 10
149.628402164
 20
173.7560226415
 10
149.6543387915
 20
173.7775129296
 10
149.6799205676
 20
173.800193756
 10
149.7051450847
 20
173.8240731993
 10
149.7300147504
 20
173.8491431809
 10
149.7543611875
 20
173.8752339672
 10
149.7781808455
 20
173.9023524851
 10
149.8014772749
 20
173.9304918077
 10
149.8240927497
 20
173.9594614208
 10
149.8460226492
 20
173.9892669585
 10
149.8672715941
 20
174.0199027866
 10
149.8876957208
 20
174.0511614887
 10
149.9072894322
 20
174.0830472913
 10
149.9260583254
 20
174.1155559678
 10
149.9438753275
 20
174.1484674218
 10
149.9607339795
 20
174.1817843864
 10
149.9766407404
 20
174.2155041285
 10
149.9914879153
 20
174.2493983521
 10
150.0052683141
 20
174.2834682414
 10
150.017989127
 20
174.3177126122
 10
150.029564229
 20
174.3518996169
 10
150.0399858456
 20
174.3860288661
 10
150.0492617513
 20
174.4201007491
 10
150.0573291447
 20
174.4538845859
 10
150.064179825
 20
174.487378422
 10
150.069821993
 20
174.5205842119
 10
150.0742174488
 20
174.5532771394
 10
150.0773534594
 20
174.5853822658
 10
150.0792427578
 20
174.6169745299
  0
LWPOLYLINE
  5
461
100
AcDbEntity
  8
ASSI
100
AcDbPolyline
 62
7
  6
CONTINUOUS
 90
41
 70
0
 10
156.4368157205
 20
177.6878058141
 10
156.4549024218
 20
177.6915696384
 10
156.480484198
 20
177.6984300059
 10
156.5064208254
 20
177.7068906851
 10
156.532536703
 20
177.7168943938
 10
156.558833047
 20
177.7284516025
 10
156.5853086412
 20
177.7415518407
 10
156.6117842354
 20
177.7561064148
 10
156.6382598296
 20
177.7721251933
 10
156.6647354238
 20
177.7895983076
 10
156.6910317678
 20
177.8084074578
 10
156.7171476454
 20
177.8285617099
 10
156.7430842729
 20
177.850051998
 10
156.768666049
 20
177.8727328244
 10
156.7938905661
 20
177.8966122677
 10
156.8187602318
 20
177.9216822494
 10
156.8431066689
 20
177.9477730357
 10
156.8669263269
 20
177.9748915536
 10
156.8902227563
 20
178.0030308762
 10
156.9128382311
 20
178.0320004892
 10
156.9347681306
 20
178.0618060269
 10
156.9560170755
 20
178.092441855
 10
156.9764412022
 20
178.1237005571
 10
156.9960349136
 20
178.1555863597
 10
157.0148038068
 20
178.1880950363
 10
157.0326208089
 20
178.2210064903
 10
157.0494794608
 20
178.2543234549
 10
157.0653862218
 20
178.2880431969
 10
157.0802333967
 20
178.3219374206
 10
157.0940137955
 20
178.3560073098
 10
157.1067346084
 20
178.3902516807
 10
157.1183097104
 20
178.4244386853
 10
157.128731327
 20
178.4585679345
 10
157.1380072327
 20
178.4926398176
 10
157.1460746261
 20
178.5264236544
 10
157.1529253064
 20
178.5599174905
 10
157.1585674744
 20
178.5931232803
 10
157.1629629302
 20
178.6258162079
 10
157.1660989408
 20
178.6579213343
 10
157.1679882392
 20
178.6895135983
 10
157.1686308256
 20
178.720593
  0
LWPOLYLINE
  5
462
100
AcDbEntity
  8
ASSI
100
AcDbPolyline
 62
7
  6
CONTINUOUS
 90
40
 70
0
 10
156.4325314071
 20
177.7007998228
 10
156.4372247523
 20
177.7017765033
 10
156.4628065285
 20
177.7086368708
 10
156.4887431559
 20
177.7170975499
 10
156.5148590335
 20
177.7271012586
 10
156.5411553775
 20
177.7386584673
 10
156.5676309717
 20
177.7517587056
 10
156.5941065659
 20
177.7663132796
 10
156.6205821601
 20
177.7823320581
 10
156.6470577543
 20
177.7998051724
 10
156.6733540983
 20
177.8186143226
 10
156.6994699759
 20
177.8387685748
 10
156.7254066033
 20
177.8602588629
 10
156.7509883795
 20
177.8829396893
 10
156.7762128965
 20
177.9068191326
 10
156.8010825623
 20
177.9318891142
 10
156.8254289994
 20
177.9579799005
 10
156.8492486574
 20
177.9850984184
 10
156.8725450868
 20
178.013237741
 10
156.8951605616
 20
178.0422073541
 10
156.9170904611
 20
178.0720128917
 10
156.938339406
 20
178.1026487199
 10
156.9587635326
 20
178.1339074219
 10
156.9783572441
 20
178.1657932246
 10
156.9971261372
 20
178.1983019011
 10
157.0149431394
 20
178.2312133551
 10
157.0318017913
 20
178.2645303197
 10
157.0477085522
 20
178.2982500617
 10
157.0625557271
 20
178.3321442854
 10
157.076336126
 20
178.3662141747
 10
157.0890569389
 20
178.4004585455
 10
157.1006320408
 20
178.4346455502
 10
157.1110536575
 20
178.4687747994
 10
157.1203295632
 20
178.5028466824
 10
157.1283969566
 20
178.5366305192
 10
157.1352476369
 20
178.5701243553
 10
157.1408898048
 20
178.6033301452
 10
157.1452852607
 20
178.6360230727
 10
157.1484212712
 20
178.6681281991
 10
157.1503105697
 20
178.6997204632
  0
LWPOLYLINE
  5
463
100
AcDbEntity
  8
0
100
AcDbPolyline
 62
7
  6
CONTINUOUS
 90
25
 70
0
 10
138.2270079246
 20
169.5395062461
 10
138.261794811
 20
169.5202891494
 10
138.2978547734
 20
169.5020299993
 10
138.335187812
 20
169.4847287955
 10
138.3738697425
 20
169.4683562886
 10
138.4138247492
 20
169.4529417281
 10
138.4548253839
 20
169.438572863
 10
138.4968776103
 20
169.4252556574
 10
138.5399754647
 20
169.4129841472
 10
138.5838736083
 20
169.4018281893
 10
138.6285766053
 20
169.3917941461
 10
138.6740798913
 20
169.3828756551
 10
138.7201244343
 20
169.3751234859
 10
138.7667133211
 20
169.3685442904
 10
138.8138434649
 20
169.3631314165
 10
138.8612465724
 20
169.3589156778
 10
138.9089242005
 20
169.3559039018
 10
138.9568747922
 20
169.3540892608
 10
139.0048253839
 20
169.353482085
 10
139.0527759756
 20
169.3540892608
 10
139.1007265673
 20
169.3559039018
 10
139.1484041953
 20
169.3589156778
 10
139.1958073028
 20
169.3631314165
 10
139.2429374466
 20
169.3685442904
 10
139.2699904268
 20
169.3723646617
  0
LINE
  5
464
100
AcDbEntity
  8
0
100
AcDbLine
 62
7
  6
CONTINUOUS
 10
138.2270079246
 20
169.5395062461
 11
136.6360176669
 21
170.458124081
  0
LINE
  5
465
100
AcDbEntity
  8
0
100
AcDbLine
 62
7
  6
CONTINUOUS
 10
97.8865660579
 20
192.8315717954
 11
99.4775563155
 21
191.9129539604
  0
LINE
  5
466
100
AcDbEntity
  8
0
100
AcDbLine
 62
7
  6
CONTINUOUS
 10
139.2699904268
 20
169.427183387
 11
137.5022234739
 21
170.4478698703
  0
LINE
  5
467
100
AcDbEntity
  8
0
100
AcDbLine
 62
7
  6
CONTINUOUS
 10
98.6113505086
 20
192.9029725033
 11
96.8435835556
 21
193.9236589866
  0
LINE
  5
468
100
AcDbEntity
  8
0
100
AcDbLine
 62
7
  6
CONTINUOUS
 10
137.5022234739
 20
170.7745368909
 11
137.3431244481
 21
170.8663986744
  0
LINE
  5
469
100
AcDbEntity
  8
0
100
AcDbLine
 62
7
  6
CONTINUOUS
 10
99.1316018401
 20
192.9292529254
 11
99.4775563155
 21
192.7295031471
  0
LINE
  5
46A
100
AcDbEntity
  8
0
100
AcDbLine
 62
7
  6
CONTINUOUS
 10
139.2699904268
 20
169.8354185254
 11
137.5022234739
 21
170.8561050087
  0
LINE
  5
46B
100
AcDbEntity
  8
0
100
AcDbLine
 62
7
  6
CONTINUOUS
 10
98.6113505086
 20
193.3112076417
 11
96.8435835556
 21
194.331894125
  0
LINE
  5
46C
100
AcDbEntity
  8
0
100
AcDbLine
 62
7
  6
CONTINUOUS
 10
139.2699904268
 20
169.9578890669
 11
138.9164370362
 21
170.1620263636
  0
LINE
  5
46D
100
AcDbEntity
  8
0
100
AcDbLine
 62
7
  6
CONTINUOUS
 10
96.8435835556
 20
194.4543646666
 11
97.1971369462
 21
194.2502273699
  0
LINE
  5
46E
100
AcDbEntity
  8
0
100
AcDbLine
 62
7
  6
CONTINUOUS
 10
97.3739136415
 20
194.1481587216
 11
99.4775563155
 21
192.9335418064
  0
LINE
  5
46F
100
AcDbEntity
  8
0
100
AcDbLine
 62
7
  6
CONTINUOUS
 10
138.7396603409
 20
170.2640950119
 11
136.6360176669
 21
171.478711927
  0
LINE
  5
470
100
AcDbEntity
  8
0
100
AcDbLine
 62
250
  6
CONTINUOUS
 10
145.2980757364
 20
166.7841163365
 11
144.9445223458
 21
166.9882536332
  0
LINE
  5
471
100
AcDbEntity
  8
0
100
AcDbLine
 62
7
  6
CONTINUOUS
 10
141.1084680579
 20
169.9987678176
 11
140.8609806845
 21
170.1416639253
  0
LINE
  5
472
100
AcDbEntity
  8
0
100
AcDbLine
 62
7
  6
CONTINUOUS
 10
141.1084680579
 20
170.407002956
 11
141.0024054574
 21
170.4682421723
  0
LINE
  5
473
100
AcDbEntity
  8
0
100
AcDbLine
 62
7
  6
CONTINUOUS
 10
145.2980757364
 20
168.0088217517
 11
144.9445223458
 21
168.2129590484
  0
LINE
  5
474
100
AcDbEntity
  8
0
100
AcDbLine
 62
7
  6
CONTINUOUS
 10
142.8055243328
 20
171.0194582464
 11
142.6994583156
 21
171.0806994354
  0
LINE
  5
475
100
AcDbEntity
  8
0
100
AcDbLine
 62
7
  6
CONTINUOUS
 10
142.5933957151
 20
171.3868600073
 11
142.6994583156
 21
171.325620791
  0
LINE
  5
476
100
AcDbEntity
  8
0
100
AcDbLine
 62
7
  6
CONTINUOUS
 10
96.8435835556
 20
197.8835398291
 11
97.1971369462
 21
197.6794025324
  0
LINE
  5
477
100
AcDbEntity
  8
0
100
AcDbLine
 62
7
  6
CONTINUOUS
 10
139.2699904268
 20
173.3870642294
 11
138.9164370362
 21
173.5912015261
  0
LINE
  5
478
100
AcDbEntity
  8
0
100
AcDbLine
 62
7
  6
CONTINUOUS
 10
97.3739136415
 20
197.6181573979
 11
99.4775563155
 21
196.4035404828
  0
LINE
  5
479
100
AcDbEntity
  8
0
100
AcDbLine
 62
7
  6
CONTINUOUS
 10
138.7396603409
 20
173.7340936883
 11
136.6360176669
 21
174.9487106034
  0
LINE
  5
47A
100
AcDbEntity
  8
0
100
AcDbLine
 62
7
  6
CONTINUOUS
 10
96.8435835556
 20
198.0060103706
 11
98.6113505086
 21
196.9853238873
  0
LINE
  5
47B
100
AcDbEntity
  8
0
100
AcDbLine
 62
7
  6
CONTINUOUS
 10
137.5022234739
 20
174.5302212543
 11
139.2699904268
 21
173.5095347709
  0
LINE
  5
47C
100
AcDbEntity
  8
0
100
AcDbLine
 62
7
  6
CONTINUOUS
 10
136.6360176669
 20
175.3569457418
 11
99.4775563155
 21
196.8117756212
  0
LINE
  5
47D
100
AcDbEntity
  8
0
100
AcDbLine
 62
7
  6
CONTINUOUS
 10
96.490030165
 20
198.6183828057
 11
96.8435835556
 21
198.414245509
  0
LINE
  5
47E
100
AcDbEntity
  8
0
100
AcDbLine
 62
7
  6
CONTINUOUS
 10
96.8435835556
 20
198.414245509
 11
98.6113505086
 21
197.3935590257
  0
LINE
  5
47F
100
AcDbEntity
  8
0
100
AcDbLine
 62
7
  6
CONTINUOUS
 10
139.6235438174
 20
173.7136326127
 11
139.2699904268
 21
173.9177699093
  0
LINE
  5
480
100
AcDbEntity
  8
0
100
AcDbLine
 62
7
  6
CONTINUOUS
 10
137.5022234739
 20
174.9384563927
 11
139.2699904268
 21
173.9177699093
  0
LINE
  5
481
100
AcDbEntity
  8
0
100
AcDbLine
 62
7
  6
CONTINUOUS
 10
96.490030165
 20
198.6387945626
 11
139.6235438174
 21
173.7340443696
  0
LINE
  5
482
100
AcDbEntity
  8
0
100
AcDbLine
 62
7
  6
CONTINUOUS
 10
150.9549299859
 20
167.1926671144
 11
150.6013765953
 21
167.396804411
  0
LINE
  5
483
100
AcDbEntity
  8
0
100
AcDbLine
 62
7
  6
CONTINUOUS
 10
96.490030165
 20
199.047029701
 11
139.6235438174
 21
174.142279508
  0
LINE
  5
484
100
AcDbEntity
  8
0
100
AcDbLine
 62
7
  6
CONTINUOUS
 10
140.8609806845
 20
174.2240153093
 11
141.1084680579
 21
174.0811192016
  0
LINE
  5
485
100
AcDbEntity
  8
0
100
AcDbLine
 62
7
  6
CONTINUOUS
 10
140.8609806845
 20
174.428113151
 11
140.8433047233
 21
174.4383190295
  0
LINE
  5
486
100
AcDbEntity
  8
0
100
AcDbLine
 62
7
  6
CONTINUOUS
 10
141.0200814186
 20
174.5403876778
 11
141.1084680579
 21
174.48935434
  0
LWPOLYLINE
  5
487
100
AcDbEntity
  8
ASSI
100
AcDbPolyline
 62
7
  6
CONTINUOUS
 90
51
 70
0
 10
149.5005046191
 20
173.4302161426
 10
149.510019136
 20
173.4249800782
 10
149.5296128474
 20
173.4157206024
 10
149.5500369741
 20
173.4080471699
 10
149.571285919
 20
173.4019490907
 10
149.5932158184
 20
173.3974676512
 10
149.6158312932
 20
173.3946138216
 10
149.6391277226
 20
173.3933766317
 10
149.6629473806
 20
173.3937644578
 10
149.6872938178
 20
173.3957883268
 10
149.7121634835
 20
173.3994372118
 10
149.7373880005
 20
173.4046864085
 10
149.7629697767
 20
173.411546776
 10
149.7889064041
 20
173.4200074552
 10
149.8150222817
 20
173.4300111638
 10
149.8413186258
 20
173.4415683726
 10
149.86779422
 20
173.4546686108
 10
149.8942698141
 20
173.4692231848
 10
149.9207454083
 20
173.4852419633
 10
149.9472210025
 20
173.5027150776
 10
149.9735173466
 20
173.5215242279
 10
149.9996332241
 20
173.54167848
 10
150.0255698516
 20
173.5631687681
 10
150.0511516278
 20
173.5858495945
 10
150.0763761448
 20
173.6097290378
 10
150.1012458105
 20
173.6347990194
 10
150.1255922477
 20
173.6608898057
 10
150.1494119057
 20
173.6880083236
 10
150.1727083351
 20
173.7161476462
 10
150.1953238099
 20
173.7451172593
 10
150.2172537093
 20
173.774922797
 10
150.2385026542
 20
173.8055586251
 10
150.2589267809
 20
173.8368173272
 10
150.2785204923
 20
173.8687031298
 10
150.2972893855
 20
173.9012118063
 10
150.3151063877
 20
173.9341232603
 10
150.3319650396
 20
173.9674402249
 10
150.3478718005
 20
174.001159967
 10
150.3627189754
 20
174.0350541906
 10
150.3764993743
 20
174.0691240799
 10
150.3892201871
 20
174.1033684507
 10
150.4007952891
 20
174.1375554554
 10
150.4112169057
 20
174.1716847046
 10
150.4204928115
 20
174.2057565876
 10
150.4285602048
 20
174.2395404244
 10
150.4354108852
 20
174.2730342605
 10
150.4410530531
 20
174.3062400504
 10
150.445448509
 20
174.3389329779
 10
150.4485845195
 20
174.3710381043
 10
150.450473818
 20
174.4026303684
 10
150.4511164043
 20
174.4337097701
  0
LWPOLYLINE
  5
488
100
AcDbEntity
  8
ASSI
100
AcDbPolyline
 62
7
  6
CONTINUOUS
 90
51
 70
0
 10
150.2880350092
 20
174.794170913
 10
150.2785204923
 20
174.7994069774
 10
150.2589267809
 20
174.8086664532
 10
150.2385026542
 20
174.8163398858
 10
150.2172537093
 20
174.8224379649
 10
150.1953238099
 20
174.8269194044
 10
150.1727083351
 20
174.829773234
 10
150.1494119057
 20
174.8310104239
 10
150.1255922477
 20
174.8306225978
 10
150.1012458105
 20
174.8285987288
 10
150.0763761448
 20
174.8249498438
 10
150.0511516278
 20
174.8197006471
 10
150.0255698516
 20
174.8128402796
 10
149.9996332241
 20
174.8043796005
 10
149.9735173466
 20
174.7943758918
 10
149.9472210025
 20
174.7828186831
 10
149.9207454083
 20
174.7697184448
 10
149.8942698141
 20
174.7551638708
 10
149.86779422
 20
174.7391450923
 10
149.8413186258
 20
174.721671978
 10
149.8150222817
 20
174.7028628278
 10
149.7889064041
 20
174.6827085756
 10
149.7629697767
 20
174.6612182875
 10
149.7373880005
 20
174.6385374611
 10
149.7121634835
 20
174.6146580178
 10
149.6872938178
 20
174.5895880362
 10
149.6629473806
 20
174.5634972499
 10
149.6391277226
 20
174.536378732
 10
149.6158312932
 20
174.5082394094
 10
149.5932158184
 20
174.4792697963
 10
149.571285919
 20
174.4494642587
 10
149.5500369741
 20
174.4188284305
 10
149.5296128474
 20
174.3875697285
 10
149.510019136
 20
174.3556839258
 10
149.4912502428
 20
174.3231752493
 10
149.4734332406
 20
174.2902637953
 10
149.4565745887
 20
174.2569468307
 10
149.4406678278
 20
174.2232270886
 10
149.4258206529
 20
174.189332865
 10
149.412040254
 20
174.1552629757
 10
149.3993194412
 20
174.1210186049
 10
149.3877443392
 20
174.0868316002
 10
149.3773227226
 20
174.052702351
 10
149.3680468168
 20
174.018630468
 10
149.3599794235
 20
173.9848466312
 10
149.3531287431
 20
173.9513527951
 10
149.3474865752
 20
173.9181470052
 10
149.3430911193
 20
173.8854540777
 10
149.3399551088
 20
173.8533489513
 10
149.3380658103
 20
173.8217566872
 10
149.337423224
 20
173.7906772856
  0
LWPOLYLINE
  5
489
100
AcDbEntity
  8
0
100
AcDbPolyline
 62
7
  6
CONTINUOUS
 90
18
 70
0
 10
102.8539911957
 20
202.7215010409
 10
102.8363789323
 20
202.7311959617
 10
102.8188357642
 20
202.7398819981
 10
102.8013616913
 20
202.74755915
 10
102.7838969339
 20
202.7542503432
 10
102.7665012718
 20
202.759932652
 10
102.749354044
 20
202.764537299
 10
102.7324643192
 20
202.7680427572
 10
102.7158230287
 20
202.7704705536
 10
102.699582306
 20
202.7718164916
 10
102.6837876445
 20
202.7720772984
 10
102.6683935508
 20
202.7712562468
 10
102.6534156782
 20
202.7693589582
 10
102.6388214991
 20
202.7663838927
 10
102.6246435411
 20
202.7623325903
 10
102.6109950397
 20
202.757215292
 10
102.5978707406
 20
202.7510105891
 10
102.5914863912
 20
202.7474965123
  0
LWPOLYLINE
  5
48A
100
AcDbEntity
  8
0
100
AcDbPolyline
 62
7
  6
CONTINUOUS
 90
18
 70
0
 10
103.4903872988
 20
203.0889481749
 10
103.4727750354
 20
203.0986430957
 10
103.4552318672
 20
203.1073291321
 10
103.4377577943
 20
203.115006284
 10
103.420293037
 20
203.1216974772
 10
103.4028973749
 20
203.127379786
 10
103.3857501471
 20
203.131984433
 10
103.3688604222
 20
203.1354898912
 10
103.3522191317
 20
203.1379176876
 10
103.3359784091
 20
203.1392636256
 10
103.3201837476
 20
203.1395244324
 10
103.3047896539
 20
203.1387033808
 10
103.2898117813
 20
203.1368060922
 10
103.2752176022
 20
203.1338310267
 10
103.2610396442
 20
203.1297797243
 10
103.2473911428
 20
203.124662426
 10
103.2342668437
 20
203.1184577231
 10
103.2278824942
 20
203.1149436463
  0
LINE
  5
48B
100
AcDbEntity
  8
0
100
AcDbLine
 62
7
  6
CONTINUOUS
 10
150.9549299859
 20
170.0503130832
 11
150.6013765953
 21
170.2544503798
  0
LINE
  5
48C
100
AcDbEntity
  8
0
100
AcDbLine
 62
7
  6
CONTINUOUS
 10
142.8055243328
 20
175.1018096304
 11
142.6994583156
 21
175.1630508194
  0
LINE
  5
48D
100
AcDbEntity
  8
0
100
AcDbLine
 62
7
  6
CONTINUOUS
 10
142.6994583156
 20
175.407972175
 11
142.6110716763
 21
175.4590055128
  0
LINE
  5
48E
100
AcDbEntity
  8
0
100
AcDbLine
 62
7
  6
CONTINUOUS
 10
142.8055243328
 20
175.5508682826
 11
142.7878483716
 21
175.5610741611
  0
LINE
  5
48F
100
AcDbEntity
  8
0
100
AcDbLine
 62
7
  6
CONTINUOUS
 10
145.2980757364
 20
176.5613479011
 11
144.9445223458
 21
176.7654851978
  0
LINE
  5
490
100
AcDbEntity
  8
ASSI
100
AcDbLine
 62
250
  6
CONTINUOUS
 10
150.4511164043
 20
174.4337097701
 11
150.0975630137
 21
174.6378470667
  0
LINE
  5
491
100
AcDbEntity
  8
ASSI
100
AcDbLine
 62
250
  6
CONTINUOUS
 10
150.0798853442
 20
174.6480539316
 11
149.894324947
 21
174.7551941793
  0
LINE
  5
492
100
AcDbEntity
  8
0
100
AcDbLine
 62
7
  6
CONTINUOUS
 10
146.3587359082
 20
177.1737597911
 11
146.0051825176
 21
177.3778970878
  0
LWPOLYLINE
  5
493
100
AcDbEntity
  8
0
100
AcDbPolyline
 62
7
  6
CONTINUOUS
 90
34
 70
0
 10
145.9875048481
 20
177.8167508479
 10
146.0051171115
 20
177.8061075684
 10
146.0226602796
 20
177.7945351939
 10
146.0401343526
 20
177.7820337244
 10
146.0575991099
 20
177.7685570537
 10
146.074994772
 20
177.7541512879
 10
146.0921419998
 20
177.7389547461
 10
146.1090317246
 20
177.7229563734
 10
146.1256730151
 20
177.7061672246
 10
146.1419137378
 20
177.6887587831
 10
146.1577083993
 20
177.6707803108
 10
146.173102493
 20
177.6521825457
 10
146.1880803656
 20
177.6329891852
 10
146.2026745447
 20
177.6131611276
 10
146.2168525027
 20
177.5927374745
 10
146.2305010041
 20
177.571859229
 10
146.2436253032
 20
177.5504989145
 10
146.2562201457
 20
177.5286840074
 10
146.2681565329
 20
177.50663794
 10
146.2794132962
 20
177.4843790017
 10
146.2900116042
 20
177.4618889032
 10
146.2998859643
 20
177.4393362079
 10
146.3090187775
 20
177.4167686356
 10
146.3174276426
 20
177.3941384666
 10
146.325099864
 20
177.3714711056
 10
146.3320553562
 20
177.3487025245
 10
146.3382742045
 20
177.3258967514
 10
146.3436839694
 20
177.3032712748
 10
146.3482705422
 20
177.28082377
 10
146.3520480316
 20
177.2585565617
 10
146.3549863242
 20
177.2366941133
 10
146.3570753823
 20
177.215311246
 10
146.3583252436
 20
177.1943331386
 10
146.3587359082
 20
177.1737597911
  0
LWPOLYLINE
  5
494
100
AcDbEntity
  8
0
100
AcDbPolyline
 62
7
  6
CONTINUOUS
 90
34
 70
0
 10
146.6239009512
 20
178.1841979819
 10
146.6415132146
 20
178.1735547024
 10
146.6590563827
 20
178.1619823279
 10
146.6765304556
 20
178.1494808584
 10
146.693995213
 20
178.1360041877
 10
146.7113908751
 20
178.1215984219
 10
146.7285381029
 20
178.1064018801
 10
146.7454278277
 20
178.0904035074
 10
146.7620691182
 20
178.0736143586
 10
146.7783098409
 20
178.0562059171
 10
146.7941045024
 20
178.0382274448
 10
146.809498596
 20
178.0196296797
 10
146.8244764687
 20
178.0004363192
 10
146.8390706477
 20
177.9806082616
 10
146.8532486058
 20
177.9601846085
 10
146.8668971071
 20
177.939306363
 10
146.8800214063
 20
177.9179460484
 10
146.8926162487
 20
177.8961311414
 10
146.904552636
 20
177.874085074
 10
146.9158093993
 20
177.8518261357
 10
146.9264077073
 20
177.8293360371
 10
146.9362820674
 20
177.8067833419
 10
146.9454148805
 20
177.7842157696
 10
146.9538237457
 20
177.7615856006
 10
146.9614959671
 20
177.7389182396
 10
146.9684514592
 20
177.7161496585
 10
146.9746703076
 20
177.6933438854
 10
146.9800800725
 20
177.6707184088
 10
146.9846666453
 20
177.648270904
 10
146.9884441346
 20
177.6260036957
 10
146.9913824272
 20
177.6041412473
 10
146.9934714853
 20
177.58275838
 10
146.9947213467
 20
177.5617802726
 10
146.9951320113
 20
177.5412069251
  0
LWPOLYLINE
  5
495
100
AcDbEntity
  8
0
100
AcDbPolyline
 62
7
  6
CONTINUOUS
 90
18
 70
0
 10
160.4655161929
 20
167.6423392908
 10
160.4827177917
 20
167.6319330781
 10
160.4990110985
 20
167.6210822184
 10
160.5143961133
 20
167.6097867117
 10
160.5289225781
 20
167.5980062464
 10
160.5425407508
 20
167.5857811341
 10
160.5551014058
 20
167.57323231
 10
160.5665813657
 20
167.5603568641
 10
160.5770038079
 20
167.5471577064
 10
160.5862890384
 20
167.5337645027
 10
160.5944114785
 20
167.5202150187
 10
160.601396707
 20
167.5064714885
 10
160.6072417665
 20
167.4925502808
 10
160.6119615855
 20
167.4784224529
 10
160.6155412355
 20
167.4641169474
 10
160.6179329735
 20
167.4497369597
 10
160.6191208854
 20
167.4352672335
 10
160.6192693744
 20
167.4279951293
  0
LWPOLYLINE
  5
496
100
AcDbEntity
  8
0
100
AcDbPolyline
 62
7
  6
CONTINUOUS
 90
16
 70
0
 10
145.9875048481
 20
177.4085157095
 10
145.9893888385
 20
177.4073042398
 10
145.9912113881
 20
177.4059182958
 10
145.9929724969
 20
177.4043578777
 10
145.9946883297
 20
177.4026044812
 10
145.9963427218
 20
177.4006766106
 10
145.9978871784
 20
177.3986297783
 10
145.9993215563
 20
177.3964547383
 10
146.0006459988
 20
177.3941607367
 10
146.0018124411
 20
177.391831024
 10
146.002812804
 20
177.3894700995
 10
146.0036551668
 20
177.3870734639
 10
146.0043157022
 20
177.3847108697
 10
146.004786468
 20
177.3824055677
 10
146.0050754065
 20
177.3801343071
 10
146.0051825176
 20
177.3778970878
  0
LWPOLYLINE
  5
497
100
AcDbEntity
  8
ASSI
100
AcDbPolyline
 62
7
  6
CONTINUOUS
 90
29
 70
0
 10
112.9901485628
 20
201.5108408043
 10
112.8795605027
 20
201.5841323469
 10
112.7725289335
 20
201.658985838
 10
112.6690538553
 20
201.7354012777
 10
112.5690671913
 20
201.813434858
 10
112.4726370183
 20
201.8930303868
 10
112.3799675667
 20
201.974019288
 10
112.2910668071
 20
202.0564045146
 10
112.2059267689
 20
202.1401831136
 10
112.1247277711
 20
202.2251776494
 10
112.0474781663
 20
202.311390699
 10
111.974169602
 20
202.3988196855
 10
111.904957339
 20
202.487279442
 10
111.8398500591
 20
202.5767721532
 10
111.7788390806
 20
202.6672956344
 10
111.7220536192
 20
202.7586581651
 10
111.6695026305
 20
202.8508615236
 10
111.6211771589
 20
202.9439039315
 10
111.5771795534
 20
203.0375883333
 10
111.5375189866
 20
203.1319160899
 10
111.502186286
 20
203.2268858404
 10
111.4712562829
 20
203.3222964475
 10
111.4447383086
 20
203.4181488455
 10
111.422623032
 20
203.5144421001
 10
111.4049572911
 20
203.6109722708
 10
111.3917505163
 20
203.7077398598
 10
111.3829932774
 20
203.8047443649
 10
111.3787041213
 20
203.9017803393
 10
111.3782352118
 20
203.9463248209
  0
LWPOLYLINE
  5
498
100
AcDbEntity
  8
ASSI
100
AcDbPolyline
 62
7
  6
CONTINUOUS
 90
29
 70
0
 10
143.3957401539
 20
183.9550332912
 10
143.2851520937
 20
184.0283248338
 10
143.1781205245
 20
184.1031783249
 10
143.0746454463
 20
184.1795937646
 10
142.9746587823
 20
184.2576273449
 10
142.8782286093
 20
184.3372228737
 10
142.7855591577
 20
184.4182117749
 10
142.6966583981
 20
184.5005970015
 10
142.6115183599
 20
184.5843756005
 10
142.5303193621
 20
184.6693701363
 10
142.4530697574
 20
184.7555831859
 10
142.379761193
 20
184.8430121724
 10
142.3105489301
 20
184.9314719289
 10
142.2454416502
 20
185.0209646401
 10
142.1844306716
 20
185.1114881213
 10
142.1276452102
 20
185.202850652
 10
142.0750942215
 20
185.2950540105
 10
142.0267687499
 20
185.3880964183
 10
141.9827711445
 20
185.4817808202
 10
141.9431105777
 20
185.5761085768
 10
141.907777877
 20
185.6710783273
 10
141.876847874
 20
185.7664889344
 10
141.8503298997
 20
185.8623413324
 10
141.828214623
 20
185.958634587
 10
141.8105488821
 20
186.0551647577
 10
141.7973421074
 20
186.1519323467
 10
141.7885848684
 20
186.2489368518
 10
141.7842957124
 20
186.3459728262
 10
141.7838268029
 20
186.3905173078
  0
LWPOLYLINE
  5
499
100
AcDbEntity
  8
ASSI
100
AcDbPolyline
 62
7
  6
CONTINUOUS
 90
24
 70
0
 10
113.1672077232
 20
201.6130725444
 10
113.0614264218
 20
201.6834992442
 10
112.9590563588
 20
201.755417393
 10
112.8600975343
 20
201.8288269906
 10
112.7644850525
 20
201.9037818439
 10
112.6722838091
 20
201.980228146
 10
112.5836884916
 20
202.0580044771
 10
112.4987067193
 20
202.1371136475
 10
112.4173308727
 20
202.2175528468
 10
112.339732781
 20
202.2991522239
 10
112.2659204265
 20
202.3819142301
 10
112.1958858268
 20
202.4658364141
 10
112.1297768632
 20
202.55074157
 10
112.0676018308
 20
202.6366317751
 10
112.0093524346
 20
202.7235049522
 10
111.9551516708
 20
202.8111776644
 10
111.9050080945
 20
202.8996516013
 10
111.8589131508
 20
202.9889250734
 10
111.8169641712
 20
203.0788095755
 10
111.7791699164
 20
203.1693063986
 10
111.7455216258
 20
203.2604142518
 10
111.7160903494
 20
203.3519407564
 10
111.6908849978
 20
203.443886797
 10
111.6698966604
 20
203.536251489
  0
LWPOLYLINE
  5
49A
100
AcDbEntity
  8
ASSI
100
AcDbPolyline
 62
7
  6
CONTINUOUS
 90
24
 70
0
 10
143.5727993143
 20
184.0572650313
 10
143.4670180128
 20
184.1276917311
 10
143.3646479498
 20
184.1996098799
 10
143.2656891253
 20
184.2730194775
 10
143.1700766435
 20
184.3479743308
 10
143.0778754002
 20
184.4244206329
 10
142.9892800826
 20
184.502196964
 10
142.9042983103
 20
184.5813061344
 10
142.8229224638
 20
184.6617453337
 10
142.745324372
 20
184.7433447108
 10
142.6715120175
 20
184.826106717
 10
142.6014774178
 20
184.910028901
 10
142.5353684542
 20
184.9949340569
 10
142.4731934218
 20
185.080824262
 10
142.4149440256
 20
185.1676974391
 10
142.3607432619
 20
185.2553701513
 10
142.3105996856
 20
185.3438440882
 10
142.2645047418
 20
185.4331175603
 10
142.2225557622
 20
185.5230020624
 10
142.1847615074
 20
185.6134988855
 10
142.1511132168
 20
185.7046067387
 10
142.1216819404
 20
185.7961332433
 10
142.0964765888
 20
185.8880792839
 10
142.0754882514
 20
185.9804439759
  0
LWPOLYLINE
  5
49B
100
AcDbEntity
  8
ASSI
100
AcDbPolyline
 62
7
  6
CONTINUOUS
 90
13
 70
0
 10
153.8984104932
 20
187.4524354096
 10
153.9071014533
 20
187.4413275484
 10
153.9722087332
 20
187.3518348372
 10
154.0332197117
 20
187.2613113559
 10
154.0900051731
 20
187.1699488252
 10
154.1425561618
 20
187.0777454668
 10
154.1908816334
 20
186.9847030589
 10
154.2348792388
 20
186.891018657
 10
154.2745398056
 20
186.7966909005
 10
154.3098725063
 20
186.70172115
 10
154.3408025093
 20
186.6063105429
 10
154.3673204836
 20
186.5104581449
 10
154.3894357603
 20
186.4141648902
  0
LWPOLYLINE
  5
49C
100
AcDbEntity
  8
ASSI
100
AcDbPolyline
 62
7
  6
CONTINUOUS
 90
18
 70
0
 10
149.3780040952
 20
6.6785270028
 10
149.4008077969
 20
6.7029645214
 10
149.424627455
 20
6.7300830393
 10
149.4479238843
 20
6.7582223619
 10
149.4705393591
 20
6.7871919749
 10
149.4924692586
 20
6.8169975126
 10
149.5137182035
 20
6.8476333407
 10
149.5341423302
 20
6.8788920428
 10
149.5537360416
 20
6.9107778454
 10
149.5725049348
 20
6.943286522
 10
149.5903219369
 20
6.976197976
 10
149.6071805889
 20
7.0095149406
 10
149.6230873498
 20
7.0432346826
 10
149.6379345247
 20
7.0771289063
 10
149.6517149235
 20
7.1111987955
 10
149.6644357364
 20
7.1454431664
 10
149.6760108384
 20
7.179630171
 10
149.6857510824
 20
7.2115280259
  0
LWPOLYLINE
  5
49D
100
AcDbEntity
  8
ASSI
100
AcDbPolyline
 62
7
  6
CONTINUOUS
 90
51
 70
0
 10
156.571572431
 20
177.5129620759
 10
156.5810869478
 20
177.5077260115
 10
156.6006806593
 20
177.4984665357
 10
156.6211047859
 20
177.4907931031
 10
156.6423537308
 20
177.484695024
 10
156.6642836303
 20
177.4802135845
 10
156.6868991051
 20
177.4773597549
 10
156.7101955345
 20
177.476122565
 10
156.7340151925
 20
177.4765103911
 10
156.7583616296
 20
177.4785342601
 10
156.7832312954
 20
177.4821831451
 10
156.8084558124
 20
177.4874323418
 10
156.8340375886
 20
177.4942927093
 10
156.859974216
 20
177.5027533884
 10
156.8860900936
 20
177.5127570971
 10
156.9123864376
 20
177.5243143058
 10
156.9388620318
 20
177.5374145441
 10
156.965337626
 20
177.5519691181
 10
156.9918132202
 20
177.5679878966
 10
157.0182888144
 20
177.5854610109
 10
157.0445851584
 20
177.6042701611
 10
157.070701036
 20
177.6244244133
 10
157.0966376635
 20
177.6459147014
 10
157.1222194396
 20
177.6685955278
 10
157.1474439566
 20
177.6924749711
 10
157.1723136224
 20
177.7175449527
 10
157.1966600595
 20
177.743635739
 10
157.2204797175
 20
177.7707542569
 10
157.2437761469
 20
177.7988935795
 10
157.2663916217
 20
177.8278631926
 10
157.2883215212
 20
177.8576687302
 10
157.3095704661
 20
177.8883045584
 10
157.3299945928
 20
177.9195632604
 10
157.3495883042
 20
177.9514490631
 10
157.3683571974
 20
177.9839577396
 10
157.3861741995
 20
178.0168691936
 10
157.4030328514
 20
178.0501861582
 10
157.4189396123
 20
178.0839059003
 10
157.4337867873
 20
178.1178001239
 10
157.4475671861
 20
178.1518700132
 10
157.460287999
 20
178.186114384
 10
157.471863101
 20
178.2203013887
 10
157.4822847176
 20
178.2544306379
 10
157.4915606233
 20
178.2885025209
 10
157.4996280167
 20
178.3222863577
 10
157.506478697
 20
178.3557801938
 10
157.512120865
 20
178.3889859837
 10
157.5165163208
 20
178.4216789112
 10
157.5196523314
 20
178.4537840376
 10
157.5215416298
 20
178.4853763017
 10
157.5221842162
 20
178.5164557033
  0
LWPOLYLINE
  5
49E
100
AcDbEntity
  8
ASSI
100
AcDbPolyline
 62
7
  6
CONTINUOUS
 90
51
 70
0
 10
157.359102821
 20
178.8769168463
 10
157.3495883042
 20
178.8821529107
 10
157.3299945928
 20
178.8914123865
 10
157.3095704661
 20
178.899085819
 10
157.2883215212
 20
178.9051838982
 10
157.2663916217
 20
178.9096653377
 10
157.2437761469
 20
178.9125191673
 10
157.2204797175
 20
178.9137563572
 10
157.1966600595
 20
178.9133685311
 10
157.1723136224
 20
178.9113446621
 10
157.1474439566
 20
178.9076957771
 10
157.1222194396
 20
178.9024465804
 10
157.0966376635
 20
178.8955862129
 10
157.070701036
 20
178.8871255337
 10
157.0445851584
 20
178.8771218251
 10
157.0182888144
 20
178.8655646163
 10
156.9918132202
 20
178.8524643781
 10
156.965337626
 20
178.8379098041
 10
156.9388620318
 20
178.8218910256
 10
156.9123864376
 20
178.8044179113
 10
156.8860900936
 20
178.785608761
 10
156.859974216
 20
178.7654545089
 10
156.8340375886
 20
178.7439642208
 10
156.8084558124
 20
178.7212833944
 10
156.7832312954
 20
178.6974039511
 10
156.7583616296
 20
178.6723339695
 10
156.7340151925
 20
178.6462431832
 10
156.7101955345
 20
178.6191246653
 10
156.6868991051
 20
178.5909853427
 10
156.6642836303
 20
178.5620157296
 10
156.6423537308
 20
178.5322101919
 10
156.6211047859
 20
178.5015743638
 10
156.6006806593
 20
178.4703156617
 10
156.5810869478
 20
178.4384298591
 10
156.5623180547
 20
178.4059211826
 10
156.5445010525
 20
178.3730097286
 10
156.5276424006
 20
178.339692764
 10
156.5117356397
 20
178.3059730219
 10
156.4968884648
 20
178.2720787983
 10
156.4831080659
 20
178.238008909
 10
156.4703872531
 20
178.2037645382
 10
156.4588121511
 20
178.1695775335
 10
156.4483905344
 20
178.1354482843
 10
156.4391146287
 20
178.1013764013
 10
156.4310472354
 20
178.0675925644
 10
156.424196555
 20
178.0340987284
 10
156.4185543871
 20
178.0008929385
 10
156.4141589312
 20
177.968200011
 10
156.4110229207
 20
177.9360948846
 10
156.4091336222
 20
177.9045026205
 10
156.4084910358
 20
177.8734232188
  0
LWPOLYLINE
  5
49F
100
AcDbEntity
  8
0
100
AcDbPolyline
 62
7
  6
CONTINUOUS
 90
18
 70
0
 10
109.1825968873
 20
206.3755586512
 10
109.1649846239
 20
206.385253572
 10
109.1474414558
 20
206.3939396083
 10
109.1299673829
 20
206.4016167603
 10
109.1125026255
 20
206.4083079535
 10
109.0951069634
 20
206.4139902623
 10
109.0779597356
 20
206.4185949093
 10
109.0610700108
 20
206.4221003675
 10
109.0444287203
 20
206.4245281639
 10
109.0281879976
 20
206.4258741018
 10
109.0123933361
 20
206.4261349087
 10
108.9969992425
 20
206.4253138571
 10
108.9820213698
 20
206.4234165685
 10
108.9674271908
 20
206.420441503
 10
108.9532492327
 20
206.4163902005
 10
108.9396007313
 20
206.4112729023
 10
108.9264764322
 20
206.4050681994
 10
108.9200920828
 20
206.4015541226
  0
LWPOLYLINE
  5
4A0
100
AcDbEntity
  8
0
100
AcDbPolyline
 62
7
  6
CONTINUOUS
 90
18
 70
0
 10
109.8189929904
 20
206.7430057852
 10
109.801380727
 20
206.752700706
 10
109.7838375588
 20
206.7613867423
 10
109.7663634859
 20
206.7690638942
 10
109.7488987286
 20
206.7757550875
 10
109.7315030665
 20
206.7814373963
 10
109.7143558387
 20
206.7860420433
 10
109.6974661139
 20
206.7895475015
 10
109.6808248234
 20
206.7919752979
 10
109.6645841007
 20
206.7933212358
 10
109.6487894392
 20
206.7935820427
 10
109.6333953455
 20
206.7927609911
 10
109.6184174729
 20
206.7908637025
 10
109.6038232938
 20
206.787888637
 10
109.5896453358
 20
206.7838373345
 10
109.5759968344
 20
206.7787200363
 10
109.5628725353
 20
206.7725153334
 10
109.5564881859
 20
206.7690012566
  0
LINE
  5
4A1
100
AcDbEntity
  8
0
100
AcDbLine
 62
7
  6
CONTINUOUS
 10
152.6873415998
 20
180.8278174014
 11
152.3337882092
 21
181.0319546981
  0
LINE
  5
4A2
100
AcDbEntity
  8
ASSI
100
AcDbLine
 62
250
  6
CONTINUOUS
 10
157.5221842162
 20
178.5164557033
 11
157.1686308256
 21
178.720593
  0
LINE
  5
4A3
100
AcDbEntity
  8
ASSI
100
AcDbLine
 62
250
  6
CONTINUOUS
 10
157.1509531561
 20
178.7307998648
 11
156.9653927589
 21
178.8379401126
  0
LWPOLYLINE
  5
4A4
100
AcDbEntity
  8
0
100
AcDbPolyline
 62
7
  6
CONTINUOUS
 90
34
 70
0
 10
152.3161105397
 20
181.4708084582
 10
152.3337228031
 20
181.4601651787
 10
152.3512659713
 20
181.4485928042
 10
152.3687400442
 20
181.4360913347
 10
152.3862048015
 20
181.4226146639
 10
152.4036004636
 20
181.4082088982
 10
152.4207476914
 20
181.3930123564
 10
152.4376374163
 20
181.3770139837
 10
152.4542787067
 20
181.3602248349
 10
152.4705194294
 20
181.3428163934
 10
152.4863140909
 20
181.3248379211
 10
152.5017081846
 20
181.306240156
 10
152.5166860572
 20
181.2870467955
 10
152.5312802363
 20
181.2672187379
 10
152.5454581943
 20
181.2467950848
 10
152.5591066957
 20
181.2259168393
 10
152.5722309948
 20
181.2045565247
 10
152.5848258373
 20
181.1827416177
 10
152.5967622245
 20
181.1606955503
 10
152.6080189878
 20
181.138436612
 10
152.6186172959
 20
181.1159465134
 10
152.6284916559
 20
181.0933938182
 10
152.6376244691
 20
181.0708262459
 10
152.6460333343
 20
181.0481960769
 10
152.6537055556
 20
181.0255287159
 10
152.6606610478
 20
181.0027601348
 10
152.6668798961
 20
180.9799543617
 10
152.6722896611
 20
180.9573288851
 10
152.6768762338
 20
180.9348813802
 10
152.6806537232
 20
180.9126141719
 10
152.6835920158
 20
180.8907517236
 10
152.6856810739
 20
180.8693688563
 10
152.6869309352
 20
180.8483907489
 10
152.6873415998
 20
180.8278174014
  0
LWPOLYLINE
  5
4A5
100
AcDbEntity
  8
0
100
AcDbPolyline
 62
7
  6
CONTINUOUS
 90
34
 70
0
 10
152.9525066428
 20
181.8382555922
 10
152.9701189062
 20
181.8276123127
 10
152.9876620743
 20
181.8160399382
 10
153.0051361472
 20
181.8035384687
 10
153.0226009046
 20
181.7900617979
 10
153.0399965667
 20
181.7756560322
 10
153.0571437945
 20
181.7604594904
 10
153.0740335193
 20
181.7444611177
 10
153.0906748098
 20
181.7276719689
 10
153.1069155325
 20
181.7102635274
 10
153.122710194
 20
181.6922850551
 10
153.1381042877
 20
181.67368729
 10
153.1530821603
 20
181.6544939295
 10
153.1676763393
 20
181.6346658719
 10
153.1818542974
 20
181.6142422188
 10
153.1955027988
 20
181.5933639733
 10
153.2086270979
 20
181.5720036587
 10
153.2212219404
 20
181.5501887517
 10
153.2331583276
 20
181.5281426843
 10
153.2444150909
 20
181.505883746
 10
153.2550133989
 20
181.4833936474
 10
153.264887759
 20
181.4608409522
 10
153.2740205722
 20
181.4382733799
 10
153.2824294373
 20
181.4156432109
 10
153.2901016587
 20
181.3929758499
 10
153.2970571509
 20
181.3702072688
 10
153.3032759992
 20
181.3474014957
 10
153.3086857641
 20
181.3247760191
 10
153.3132723369
 20
181.3023285142
 10
153.3170498262
 20
181.2800613059
 10
153.3199881189
 20
181.2581988576
 10
153.3220771769
 20
181.2368159902
 10
153.3233270383
 20
181.2158378829
 10
153.3237377029
 20
181.1952645354
  0
LWPOLYLINE
  5
4A6
100
AcDbEntity
  8
0
100
AcDbPolyline
 62
7
  6
CONTINUOUS
 90
16
 70
0
 10
152.3161105397
 20
181.0625733198
 10
152.3179945301
 20
181.0613618501
 10
152.3198170797
 20
181.0599759061
 10
152.3215781885
 20
181.058415488
 10
152.3232940213
 20
181.0566620915
 10
152.3249484134
 20
181.0547342209
 10
152.3264928701
 20
181.0526873885
 10
152.3279272479
 20
181.0505123486
 10
152.3292516904
 20
181.048218347
 10
152.3304181327
 20
181.0458886343
 10
152.3314184956
 20
181.0435277098
 10
152.3322608584
 20
181.0411310742
 10
152.3329213939
 20
181.03876848
 10
152.3333921596
 20
181.036463178
 10
152.3336810981
 20
181.0341919173
 10
152.3337882092
 20
181.0319546981
  0
LWPOLYLINE
  5
4A7
100
AcDbEntity
  8
ASSI
100
AcDbPolyline
 62
7
  6
CONTINUOUS
 90
29
 70
0
 10
122.4163186384
 20
206.3818088376
 10
122.5269066986
 20
206.308517295
 10
122.6339382678
 20
206.2336638038
 10
122.7374133459
 20
206.1572483641
 10
122.83740001
 20
206.0792147838
 10
122.933830183
 20
205.999619255
 10
123.0264996345
 20
205.9186303539
 10
123.1154003942
 20
205.8362451272
 10
123.2005404324
 20
205.7524665283
 10
123.2817394302
 20
205.6674719925
 10
123.3589890349
 20
205.5812589428
 10
123.4322975992
 20
205.4938299564
 10
123.5015098622
 20
205.4053701999
 10
123.5666171421
 20
205.3158774887
 10
123.6276281207
 20
205.2253540074
 10
123.6844135821
 20
205.1339914767
 10
123.7369645708
 20
205.0417881183
 10
123.7852900424
 20
204.9487457104
 10
123.8292876478
 20
204.8550613085
 10
123.8689482146
 20
204.760733552
 10
123.9042809153
 20
204.6657638015
 10
123.9352109183
 20
204.5703531944
 10
123.9617288926
 20
204.4745007963
 10
123.9838441693
 20
204.3782075417
 10
124.0015099102
 20
204.281677371
 10
124.0147166849
 20
204.184909782
 10
124.0234739238
 20
204.0879052769
 10
124.0277630799
 20
203.9908693026
 10
124.0282319894
 20
203.9463248209
  0
LWPOLYLINE
  5
4A8
100
AcDbEntity
  8
ASSI
100
AcDbPolyline
 62
7
  6
CONTINUOUS
 90
29
 70
0
 10
122.239259478
 20
206.2795770974
 10
122.3450407795
 20
206.2091503976
 10
122.4474108424
 20
206.1372322489
 10
122.546369667
 20
206.0638226512
 10
122.6419821488
 20
205.988867798
 10
122.7341833921
 20
205.9124214958
 10
122.8227787097
 20
205.8346451647
 10
122.907760482
 20
205.7555359943
 10
122.9891363285
 20
205.675096795
 10
123.0667344203
 20
205.593497418
 10
123.1405467748
 20
205.5107354117
 10
123.2105813745
 20
205.4268132278
 10
123.2766903381
 20
205.3419080718
 10
123.3388653705
 20
205.2560178667
 10
123.3971147667
 20
205.1691446897
 10
123.4513155304
 20
205.0814719774
 10
123.5014591067
 20
204.9929980405
 10
123.5475540505
 20
204.9037245684
 10
123.58950303
 20
204.8138400664
 10
123.6272972848
 20
204.7233432432
 10
123.6609455754
 20
204.6322353901
 10
123.6903768519
 20
204.5407088855
 10
123.7155822035
 20
204.4487628449
 10
123.7365705409
 20
204.3563981528
 10
123.7532975462
 20
204.2638098418
 10
123.7657542152
 20
204.1709974393
 10
123.7739495522
 20
204.0779614178
 10
123.7778662522
 20
203.9848982273
 10
123.7782323021
 20
203.9463248209
  0
LWPOLYLINE
  5
4A9
100
AcDbEntity
  8
ASSI
100
AcDbPolyline
 62
7
  6
CONTINUOUS
 90
18
 70
0
 10
156.4490719071
 20
10.7612729361
 10
156.4718756088
 20
10.7857104546
 10
156.4956952668
 20
10.8128289725
 10
156.5189916962
 20
10.8409682951
 10
156.541607171
 20
10.8699379082
 10
156.5635370705
 20
10.8997434459
 10
156.5847860154
 20
10.930379274
 10
156.605210142
 20
10.9616379761
 10
156.6248038535
 20
10.9935237787
 10
156.6435727466
 20
11.0260324552
 10
156.6613897488
 20
11.0589439092
 10
156.6782484007
 20
11.0922608738
 10
156.6941551616
 20
11.1259806159
 10
156.7090023365
 20
11.1598748395
 10
156.7227827354
 20
11.1939447288
 10
156.7355035483
 20
11.2281890996
 10
156.7470786502
 20
11.2623761043
 10
156.7568188942
 20
11.2942739592
  0
LWPOLYLINE
  5
4AA
100
AcDbEntity
  8
0
100
AcDbPolyline
 62
250
  6
CONTINUOUS
 90
17
 70
0
 10
158.2991432763
 20
19.5288288264
 10
158.1617988495
 20
19.433978326
 10
158.0296858291
 20
19.3116415526
 10
157.9078363592
 20
19.1664782758
 10
157.7991432763
 20
19.0009964854
 10
157.7115485231
 20
18.8272875385
 10
157.6463350714
 20
18.6492009821
 10
157.6059868814
 20
18.4735200778
 10
157.5920364952
 20
18.3040839562
 10
157.605503234
 20
18.1532729079
 10
157.6453905065
 20
18.023757258
 10
157.7101790188
 20
17.9204702174
 10
157.7991432763
 20
17.8463331467
 10
157.9057828743
 20
17.8067630637
 10
158.0274054477
 20
17.8016868315
 10
158.1593784306
 20
17.831297802
 10
158.2991433382
 20
17.8958883085
  0
LWPOLYLINE
  5
4AB
100
AcDbEntity
  8
0
100
AcDbPolyline
 62
250
  6
CONTINUOUS
 90
17
 70
0
 10
158.2991432763
 20
17.8958882728
 10
158.4364877032
 20
17.9907387731
 10
158.5686007236
 20
18.1130755465
 10
158.6904501935
 20
18.2582388233
 10
158.7991432763
 20
18.4237206137
 10
158.8867380296
 20
18.5974295606
 10
158.9519514813
 20
18.775516117
 10
158.9922996713
 20
18.9511970213
 10
159.0062500575
 20
19.1206331429
 10
158.9927833187
 20
19.2714441912
 10
158.9528960462
 20
19.4009598411
 10
158.8881075338
 20
19.5042468818
 10
158.7991432763
 20
19.5783839524
 10
158.6925036784
 20
19.6179540354
 10
158.570881105
 20
19.6230302676
 10
158.4389081221
 20
19.5934192971
 10
158.2991432145
 20
19.5288287907
  0
LWPOLYLINE
  5
4AC
100
AcDbEntity
  8
0
100
AcDbPolyline
 62
250
  6
CONTINUOUS
 90
17
 70
0
 10
146.7122892988
 20
7.531667758
 10
146.5749448719
 20
7.4368172576
 10
146.4428318516
 20
7.3144804842
 10
146.3209823817
 20
7.1693172074
 10
146.2122892988
 20
7.003835417
 10
146.1246945455
 20
6.8301264701
 10
146.0594810938
 20
6.6520399137
 10
146.0191329038
 20
6.4763590094
 10
146.0051825176
 20
6.3069228878
 10
146.0186492564
 20
6.1561118395
 10
146.0585365289
 20
6.0265961896
 10
146.1233250413
 20
5.923309149
 10
146.2122892988
 20
5.8491720783
 10
146.3189288967
 20
5.8096019953
 10
146.4405514702
 20
5.8045257631
 10
146.5725244531
 20
5.8341367336
 10
146.7122893606
 20
5.8987272401
  0
LWPOLYLINE
  5
4AD
100
AcDbEntity
  8
0
100
AcDbPolyline
 62
250
  6
CONTINUOUS
 90
17
 70
0
 10
146.7122892988
 20
5.8987272044
 10
146.8496337257
 20
5.9935777047
 10
146.981746746
 20
6.1159144781
 10
147.1035962159
 20
6.2610777549
 10
147.2122892988
 20
6.4265595453
 10
147.2998840521
 20
6.6002684923
 10
147.3650975038
 20
6.7783550487
 10
147.4054456938
 20
6.9540359529
 10
147.41939608
 20
7.1234720745
 10
147.4059293412
 20
7.2742831228
 10
147.3660420687
 20
7.4037987727
 10
147.3012535563
 20
7.5070858134
 10
147.2122892988
 20
7.5812228841
 10
147.1056497009
 20
7.620792967
 10
146.9840271274
 20
7.6258691992
 10
146.8520541445
 20
7.5962582287
 10
146.712289237
 20
7.5316677223
  0
LINE
  5
4AE
100
AcDbEntity
  8
0
100
AcDbLine
 62
7
  6
CONTINUOUS
 10
159.2414778597
 20
21.2976658747
 11
141.4089884399
 21
11.0014099773
  0
LINE
  5
4AF
100
AcDbEntity
  8
0
100
AcDbLine
 62
7
  6
CONTINUOUS
 10
140.9670467017
 20
10.3788287046
 11
141.4089884399
 21
10.6340003255
  0
LINE
  5
4B0
100
AcDbEntity
  8
0
100
AcDbLine
 62
7
  6
CONTINUOUS
 10
159.5950312503
 20
21.093528578
 11
141.7625418305
 21
10.7972726806
  0
LINE
  5
4B1
100
AcDbEntity
  8
0
100
AcDbLine
 62
7
  6
CONTINUOUS
 10
150.9549299859
 20
14.8801369787
 11
150.4245999
 21
14.5739310337
  0
LINE
  5
4B2
100
AcDbEntity
  8
0
100
AcDbLine
 62
7
  6
CONTINUOUS
 10
150.4245999
 20
13.3492650734
 11
150.6013765953
 21
13.4513337218
  0
LINE
  5
4B3
100
AcDbEntity
  8
0
100
AcDbLine
 62
7
  6
CONTINUOUS
 10
141.4089884399
 20
7.7763938116
 11
140.9670467017
 21
7.5212221908
  0
LINE
  5
4B4
100
AcDbEntity
  8
0
100
AcDbLine
 62
7
  6
CONTINUOUS
 10
150.4245999
 20
12.9409904801
 11
150.9549299859
 21
13.2471964251
  0
LINE
  5
4B5
100
AcDbEntity
  8
0
100
AcDbLine
 62
7
  6
CONTINUOUS
 10
141.4089884399
 20
7.3681192183
 11
140.9670467017
 21
7.1129475975
  0
LINE
  5
4B6
100
AcDbEntity
  8
0
100
AcDbLine
 62
7
  6
CONTINUOUS
 10
141.7625418305
 20
6.7149212966
 11
150.9549299859
 21
12.0224910099
  0
LWPOLYLINE
  5
4B7
100
AcDbEntity
  8
0
100
AcDbPolyline
 62
7
  6
CONTINUOUS
 90
18
 70
0
 10
115.511202579
 20
210.0296162615
 10
115.4935903156
 20
210.0393111823
 10
115.4760471474
 20
210.0479972186
 10
115.4585730745
 20
210.0556743705
 10
115.4411083171
 20
210.0623655638
 10
115.423712655
 20
210.0680478726
 10
115.4065654273
 20
210.0726525196
 10
115.3896757024
 20
210.0761579778
 10
115.3730344119
 20
210.0785857742
 10
115.3567936892
 20
210.0799317121
 10
115.3409990278
 20
210.080192519
 10
115.3256049341
 20
210.0793714674
 10
115.3106270614
 20
210.0774741788
 10
115.2960328824
 20
210.0744991133
 10
115.2818549244
 20
210.0704478108
 10
115.268206423
 20
210.0653305126
 10
115.2550821239
 20
210.0591258097
 10
115.2486977744
 20
210.0556117329
  0
LWPOLYLINE
  5
4B8
100
AcDbEntity
  8
0
100
AcDbPolyline
 62
7
  6
CONTINUOUS
 90
18
 70
0
 10
116.147598682
 20
210.3970633955
 10
116.1299864186
 20
210.4067583163
 10
116.1124432505
 20
210.4154443526
 10
116.0949691776
 20
210.4231215045
 10
116.0775044202
 20
210.4298126978
 10
116.0601087581
 20
210.4354950066
 10
116.0429615303
 20
210.4400996536
 10
116.0260718055
 20
210.4436051118
 10
116.009430515
 20
210.4460329082
 10
115.9931897923
 20
210.4473788461
 10
115.9773951308
 20
210.447639653
 10
115.9620010371
 20
210.4468186014
 10
115.9470231645
 20
210.4449213128
 10
115.9324289855
 20
210.4419462473
 10
115.9182510274
 20
210.4378949448
 10
115.904602526
 20
210.4327776466
 10
115.8914782269
 20
210.4265729437
 10
115.8850938775
 20
210.4230588669
  0
LWPOLYLINE
  5
4B9
100
AcDbEntity
  8
0
100
AcDbPolyline
 62
7
  6
CONTINUOUS
 90
18
 70
0
 10
159.5436171389
 20
186.8860285615
 10
159.5372327895
 20
186.8895426383
 10
159.5241084904
 20
186.8957473412
 10
159.510459989
 20
186.9008646395
 10
159.496282031
 20
186.904915942
 10
159.4816878519
 20
186.9078910075
 10
159.4667099793
 20
186.909788296
 10
159.4513158856
 20
186.9106093476
 10
159.4355212241
 20
186.9103485408
 10
159.4192805014
 20
186.9090026028
 10
159.4026392109
 20
186.9065748065
 10
159.3857494861
 20
186.9030693482
 10
159.3686022583
 20
186.8984647013
 10
159.3512065962
 20
186.8927823924
 10
159.3337418389
 20
186.8860911992
 10
159.316267766
 20
186.8784140473
 10
159.2987245978
 20
186.8697280109
 10
159.2811123344
 20
186.8600330901
  0
LWPOLYLINE
  5
4BA
100
AcDbEntity
  8
0
100
AcDbPolyline
 62
7
  6
CONTINUOUS
 90
18
 70
0
 10
158.9072210359
 20
187.2534756955
 10
158.9008366864
 20
187.2569897723
 10
158.8877123873
 20
187.2631944752
 10
158.8740638859
 20
187.2683117735
 10
158.8598859279
 20
187.272363076
 10
158.8452917488
 20
187.2753381414
 10
158.8303138762
 20
187.27723543
 10
158.8149197825
 20
187.2780564816
 10
158.7991251211
 20
187.2777956748
 10
158.7828843984
 20
187.2764497368
 10
158.7662431079
 20
187.2740219405
 10
158.749353383
 20
187.2705164822
 10
158.7322061553
 20
187.2659118353
 10
158.7148104932
 20
187.2602295264
 10
158.6973457358
 20
187.2535383332
 10
158.6798716629
 20
187.2458611813
 10
158.6623284947
 20
187.2371751449
 10
158.6447162313
 20
187.2274802241
  0
LWPOLYLINE
  5
4BB
100
AcDbEntity
  8
0
100
AcDbPolyline
 62
7
  6
CONTINUOUS
 90
18
 70
0
 10
151.5533105115
 20
191.4995314661
 10
151.5469261621
 20
191.5030455429
 10
151.533801863
 20
191.5092502458
 10
151.5201533616
 20
191.5143675441
 10
151.5059754036
 20
191.5184188466
 10
151.4913812245
 20
191.5213939121
 10
151.4764033519
 20
191.5232912006
 10
151.4610092582
 20
191.5241122522
 10
151.4452145967
 20
191.5238514454
 10
151.428973874
 20
191.5225055074
 10
151.4123325835
 20
191.5200777111
 10
151.3954428587
 20
191.5165722528
 10
151.3782956309
 20
191.5119676059
 10
151.3608999688
 20
191.506285297
 10
151.3434352114
 20
191.4995941038
 10
151.3259611385
 20
191.4919169519
 10
151.3084179704
 20
191.4832309155
 10
151.290805707
 20
191.4735359948
  0
LWPOLYLINE
  5
4BC
100
AcDbEntity
  8
0
100
AcDbPolyline
 62
7
  6
CONTINUOUS
 90
18
 70
0
 10
150.9169144085
 20
191.8669786001
 10
150.910530059
 20
191.8704926769
 10
150.8974057599
 20
191.8766973798
 10
150.8837572585
 20
191.8818146781
 10
150.8695793005
 20
191.8858659806
 10
150.8549851214
 20
191.8888410461
 10
150.8400072488
 20
191.8907383346
 10
150.8246131551
 20
191.8915593862
 10
150.8088184936
 20
191.8912985794
 10
150.792577771
 20
191.8899526414
 10
150.7759364805
 20
191.8875248451
 10
150.7590467556
 20
191.8840193868
 10
150.7418995279
 20
191.8794147399
 10
150.7245038657
 20
191.873732431
 10
150.7070391084
 20
191.8670412378
 10
150.6895650355
 20
191.8593640859
 10
150.6720218673
 20
191.8506780495
 10
150.6544096039
 20
191.8409831287
  0
LWPOLYLINE
  5
4BD
100
AcDbEntity
  8
0
100
AcDbPolyline
 62
7
  6
CONTINUOUS
 90
18
 70
0
 10
143.5630038841
 20
196.1130343707
 10
143.5566195347
 20
196.1165484475
 10
143.5434952356
 20
196.1227531504
 10
143.5298467342
 20
196.1278704487
 10
143.5156687762
 20
196.1319217512
 10
143.5010745971
 20
196.1348968167
 10
143.4860967245
 20
196.1367941052
 10
143.4707026308
 20
196.1376151568
 10
143.4549079693
 20
196.13735435
 10
143.4386672466
 20
196.136008412
 10
143.4220259561
 20
196.1335806157
 10
143.4051362313
 20
196.1300751575
 10
143.3879890035
 20
196.1254705105
 10
143.3705933414
 20
196.1197882017
 10
143.353128584
 20
196.1130970084
 10
143.3356545111
 20
196.1054198565
 10
143.318111343
 20
196.0967338201
 10
143.3004990796
 20
196.0870388994
  0
LWPOLYLINE
  5
4BE
100
AcDbEntity
  8
0
100
AcDbPolyline
 62
7
  6
CONTINUOUS
 90
18
 70
0
 10
142.926607781
 20
196.4804815047
 10
142.9202234316
 20
196.4839955815
 10
142.9070991325
 20
196.4902002844
 10
142.8934506311
 20
196.4953175827
 10
142.8792726731
 20
196.4993688852
 10
142.864678494
 20
196.5023439507
 10
142.8497006214
 20
196.5042412392
 10
142.8343065277
 20
196.5050622908
 10
142.8185118662
 20
196.504801484
 10
142.8022711435
 20
196.503455546
 10
142.7856298531
 20
196.5010277497
 10
142.7687401282
 20
196.4975222914
 10
142.7515929004
 20
196.4929176445
 10
142.7341972383
 20
196.4872353356
 10
142.716732481
 20
196.4805441424
 10
142.6992584081
 20
196.4728669905
 10
142.6817152399
 20
196.4641809541
 10
142.6641029765
 20
196.4544860333
  0
LWPOLYLINE
  5
4BF
100
AcDbEntity
  8
0
100
AcDbPolyline
 62
7
  6
CONTINUOUS
 90
18
 70
0
 10
135.5726972567
 20
200.7265372753
 10
135.5663129073
 20
200.7300513521
 10
135.5531886082
 20
200.736256055
 10
135.5395401068
 20
200.7413733533
 10
135.5253621487
 20
200.7454246558
 10
135.5107679697
 20
200.7483997213
 10
135.495790097
 20
200.7502970098
 10
135.4803960034
 20
200.7511180614
 10
135.4646013419
 20
200.7508572546
 10
135.4483606192
 20
200.7495113166
 10
135.4317193287
 20
200.7470835203
 10
135.4148296039
 20
200.7435780621
 10
135.3976823761
 20
200.7389734151
 10
135.380286714
 20
200.7332911063
 10
135.3628219566
 20
200.726599913
 10
135.3453478837
 20
200.7189227611
 10
135.3278047156
 20
200.7102367247
 10
135.3101924522
 20
200.700541804
  0
LWPOLYLINE
  5
4C0
100
AcDbEntity
  8
0
100
AcDbPolyline
 62
7
  6
CONTINUOUS
 90
18
 70
0
 10
134.9363011536
 20
201.0939844093
 10
134.9299168042
 20
201.0974984861
 10
134.9167925051
 20
201.103703189
 10
134.9031440037
 20
201.1088204873
 10
134.8889660457
 20
201.1128717898
 10
134.8743718666
 20
201.1158468553
 10
134.859393994
 20
201.1177441438
 10
134.8439999003
 20
201.1185651954
 10
134.8282052388
 20
201.1183043886
 10
134.8119645161
 20
201.1169584506
 10
134.7953232256
 20
201.1145306543
 10
134.7784335008
 20
201.111025196
 10
134.761286273
 20
201.1064205491
 10
134.7438906109
 20
201.1007382403
 10
134.7264258536
 20
201.094047047
 10
134.7089517807
 20
201.0863698951
 10
134.6914086125
 20
201.0776838587
 10
134.6737963491
 20
201.067988938
  0
LWPOLYLINE
  5
4C1
100
AcDbEntity
  8
0
100
AcDbPolyline
 62
7
  6
CONTINUOUS
 90
18
 70
0
 10
127.5823906293
 20
205.3400401799
 10
127.5760062799
 20
205.3435542567
 10
127.5628819808
 20
205.3497589596
 10
127.5492334794
 20
205.3548762579
 10
127.5350555213
 20
205.3589275604
 10
127.5204613423
 20
205.3619026259
 10
127.5054834696
 20
205.3637999144
 10
127.490089376
 20
205.364620966
 10
127.4742947145
 20
205.3643601592
 10
127.4580539918
 20
205.3630142212
 10
127.4414127013
 20
205.3605864249
 10
127.4245229765
 20
205.3570809667
 10
127.4073757487
 20
205.3524763197
 10
127.3899800866
 20
205.3467940109
 10
127.3725153292
 20
205.3401028176
 10
127.3550412563
 20
205.3324256657
 10
127.3374980882
 20
205.3237396293
 10
127.3198858248
 20
205.3140447086
  0
LWPOLYLINE
  5
4C2
100
AcDbEntity
  8
0
100
AcDbPolyline
 62
7
  6
CONTINUOUS
 90
18
 70
0
 10
126.9459945262
 20
205.7074873139
 10
126.9396101768
 20
205.7110013907
 10
126.9264858777
 20
205.7172060936
 10
126.9128373763
 20
205.7223233919
 10
126.8986594183
 20
205.7263746944
 10
126.8840652392
 20
205.7293497599
 10
126.8690873666
 20
205.7312470484
 10
126.8536932729
 20
205.7320681
 10
126.8378986114
 20
205.7318072932
 10
126.8216578887
 20
205.7304613552
 10
126.8050165982
 20
205.7280335589
 10
126.7881268734
 20
205.7245281007
 10
126.7709796456
 20
205.7199234537
 10
126.7535839835
 20
205.7142411449
 10
126.7361192262
 20
205.7075499516
 10
126.7186451533
 20
205.6998727997
 10
126.7011019851
 20
205.6911867633
 10
126.6834897217
 20
205.6814918426
  0
LWPOLYLINE
  5
4C3
100
AcDbEntity
  8
0
100
AcDbPolyline
 62
7
  6
CONTINUOUS
 90
18
 70
0
 10
119.5920840019
 20
209.9535430845
 10
119.5856996525
 20
209.9570571613
 10
119.5725753533
 20
209.9632618642
 10
119.558926852
 20
209.9683791625
 10
119.5447488939
 20
209.972430465
 10
119.5301547149
 20
209.9754055305
 10
119.5151768422
 20
209.977302819
 10
119.4997827486
 20
209.9781238706
 10
119.4839880871
 20
209.9778630638
 10
119.4677473644
 20
209.9765171258
 10
119.4511060739
 20
209.9740893295
 10
119.4342163491
 20
209.9705838713
 10
119.4170691213
 20
209.9659792243
 10
119.3996734592
 20
209.9602969155
 10
119.3822087018
 20
209.9536057222
 10
119.3647346289
 20
209.9459285703
 10
119.3471914608
 20
209.937242534
 10
119.3295791974
 20
209.9275476132
  0
LWPOLYLINE
  5
4C4
100
AcDbEntity
  8
0
100
AcDbPolyline
 62
7
  6
CONTINUOUS
 90
18
 70
0
 10
118.9556878988
 20
210.3209902185
 10
118.9493035494
 20
210.3245042953
 10
118.9361792503
 20
210.3307089982
 10
118.9225307489
 20
210.3358262965
 10
118.9083527909
 20
210.339877599
 10
118.8937586118
 20
210.3428526645
 10
118.8787807392
 20
210.344749953
 10
118.8633866455
 20
210.3455710046
 10
118.847591984
 20
210.3453101978
 10
118.8313512613
 20
210.3439642598
 10
118.8147099708
 20
210.3415364635
 10
118.797820246
 20
210.3380310053
 10
118.7806730182
 20
210.3334263583
 10
118.7632773561
 20
210.3277440495
 10
118.7458125988
 20
210.3210528562
 10
118.7283385258
 20
210.3133757043
 10
118.7107953577
 20
210.3046896679
 10
118.6931830943
 20
210.2949947472
  0
LINE
  5
4C5
100
AcDbEntity
  8
0
100
AcDbLine
 62
7
  6
CONTINUOUS
 10
159.0159472915
 20
184.4818750117
 11
158.6623939009
 21
184.6860123084
  0
LINE
  5
4C6
100
AcDbEntity
  8
0
100
AcDbLine
 62
7
  6
CONTINUOUS
 10
160.6451697179
 20
185.4225676218
 11
160.2916163273
 21
185.6267049185
  0
LINE
  5
4C7
100
AcDbEntity
  8
0
100
AcDbLine
 62
7
  6
CONTINUOUS
 10
160.4655161929
 20
185.747526251
 11
160.3064171671
 21
185.8393880345
  0
LINE
  5
4C8
100
AcDbEntity
  8
0
100
AcDbLine
 62
7
  6
CONTINUOUS
 10
160.3064171671
 20
186.0843113628
 11
159.935186107
 21
186.2986555243
  0
LINE
  5
4C9
100
AcDbEntity
  8
0
100
AcDbLine
 62
7
  6
CONTINUOUS
 10
117.5441345749
 20
210.7747173943
 11
117.1729035147
 21
210.9890615558
  0
LINE
  5
4CA
100
AcDbEntity
  8
0
100
AcDbLine
 62
250
  6
CONTINUOUS
 10
159.2811123344
 20
186.8600330901
 11
158.6447162313
 21
187.2274802241
  0
LINE
  5
4CB
100
AcDbEntity
  8
0
100
AcDbLine
 62
7
  6
CONTINUOUS
 10
158.6447162313
 20
187.2274802241
 11
151.290805707
 21
191.4735359948
  0
LINE
  5
4CC
100
AcDbEntity
  8
0
100
AcDbLine
 62
250
  6
CONTINUOUS
 10
151.290805707
 20
191.4735359948
 11
150.6544096039
 21
191.8409831287
  0
LINE
  5
4CD
100
AcDbEntity
  8
0
100
AcDbLine
 62
7
  6
CONTINUOUS
 10
150.6544096039
 20
191.8409831287
 11
143.3004990796
 21
196.0870388994
  0
LINE
  5
4CE
100
AcDbEntity
  8
0
100
AcDbLine
 62
250
  6
CONTINUOUS
 10
143.3004990796
 20
196.0870388994
 11
142.6641029765
 21
196.4544860333
  0
LINE
  5
4CF
100
AcDbEntity
  8
0
100
AcDbLine
 62
7
  6
CONTINUOUS
 10
142.6641029765
 20
196.4544860333
 11
135.3101924522
 21
200.700541804
  0
LINE
  5
4D0
100
AcDbEntity
  8
0
100
AcDbLine
 62
250
  6
CONTINUOUS
 10
135.3101924522
 20
200.700541804
 11
134.6737963491
 21
201.067988938
  0
LINE
  5
4D1
100
AcDbEntity
  8
0
100
AcDbLine
 62
7
  6
CONTINUOUS
 10
134.6737963491
 20
201.067988938
 11
127.3198858248
 21
205.3140447086
  0
LINE
  5
4D2
100
AcDbEntity
  8
0
100
AcDbLine
 62
250
  6
CONTINUOUS
 10
127.3198858248
 20
205.3140447086
 11
126.6834897217
 21
205.6814918426
  0
LINE
  5
4D3
100
AcDbEntity
  8
0
100
AcDbLine
 62
7
  6
CONTINUOUS
 10
126.6834897217
 20
205.6814918426
 11
119.3295791974
 21
209.9275476132
  0
LINE
  5
4D4
100
AcDbEntity
  8
0
100
AcDbLine
 62
250
  6
CONTINUOUS
 10
119.3295791974
 20
209.9275476132
 11
118.6931830943
 21
210.2949947472
  0
LINE
  5
4D5
100
AcDbEntity
  8
0
100
AcDbLine
 62
7
  6
CONTINUOUS
 10
118.6931830943
 20
210.2949947472
 11
117.7032336006
 21
210.8665791778
  0
LINE
  5
4D6
100
AcDbEntity
  8
0
100
AcDbLine
 62
7
  6
CONTINUOUS
 10
160.4655161929
 20
186.176214574
 11
159.2811123344
 21
186.8600330901
  0
LINE
  5
4D7
100
AcDbEntity
  8
0
100
AcDbLine
 62
7
  6
CONTINUOUS
 10
159.5436250185
 20
186.8860422084
 11
158.9072289154
 21
187.2534893424
  0
LINE
  5
4D8
100
AcDbEntity
  8
0
100
AcDbLine
 62
7
  6
CONTINUOUS
 10
151.5533183911
 20
191.499545113
 11
150.916922288
 21
191.866992247
  0
LINE
  5
4D9
100
AcDbEntity
  8
0
100
AcDbLine
 62
7
  6
CONTINUOUS
 10
143.5630117637
 20
196.1130480176
 11
142.9266156606
 21
196.4804951516
  0
LINE
  5
4DA
100
AcDbEntity
  8
0
100
AcDbLine
 62
7
  6
CONTINUOUS
 10
135.5727051362
 20
200.7265509222
 11
134.9363090332
 21
201.0939980562
  0
LINE
  5
4DB
100
AcDbEntity
  8
0
100
AcDbLine
 62
7
  6
CONTINUOUS
 10
127.5823985088
 20
205.3400538268
 11
126.9460024058
 21
205.7075009608
  0
LINE
  5
4DC
100
AcDbEntity
  8
0
100
AcDbLine
 62
7
  6
CONTINUOUS
 10
119.5920918814
 20
209.9535567314
 11
118.9556957784
 21
210.3210038654
  0
LWPOLYLINE
  5
4DD
100
AcDbEntity
  8
0
100
AcDbPolyline
 62
7
  6
CONTINUOUS
 90
34
 70
0
 10
158.6447162313
 20
185.1248660685
 10
158.6623284947
 20
185.114222789
 10
158.6798716629
 20
185.1026504145
 10
158.6973457358
 20
185.090148945
 10
158.7148104932
 20
185.0766722742
 10
158.7322061553
 20
185.0622665085
 10
158.749353383
 20
185.0470699667
 10
158.7662431079
 20
185.031071594
 10
158.7828843984
 20
185.0142824452
 10
158.7991251211
 20
184.9968740037
 10
158.8149197825
 20
184.9788955314
 10
158.8303138762
 20
184.9602977663
 10
158.8452917488
 20
184.9411044058
 10
158.8598859279
 20
184.9212763481
 10
158.8740638859
 20
184.9008526951
 10
158.8877123873
 20
184.8799744496
 10
158.9008366864
 20
184.858614135
 10
158.9134315289
 20
184.836799228
 10
158.9253679161
 20
184.8147531605
 10
158.9366246794
 20
184.7924942223
 10
158.9472229875
 20
184.7700041237
 10
158.9570973476
 20
184.7474514284
 10
158.9662301607
 20
184.7248838562
 10
158.9746390259
 20
184.7022536872
 10
158.9823112473
 20
184.6795863262
 10
158.9892667394
 20
184.6568177451
 10
158.9954855878
 20
184.634011972
 10
159.0008953527
 20
184.6113864954
 10
159.0054819254
 20
184.5889389905
 10
159.0092594148
 20
184.5666717822
 10
159.0121977074
 20
184.5448093339
 10
159.0142867655
 20
184.5234264665
 10
159.0155366268
 20
184.5024483591
 10
159.0159472915
 20
184.4818750117
  0
LWPOLYLINE
  5
4DE
100
AcDbEntity
  8
0
100
AcDbPolyline
 62
7
  6
CONTINUOUS
 90
34
 70
0
 10
159.2811123344
 20
185.4923132025
 10
159.2987245978
 20
185.481669923
 10
159.316267766
 20
185.4700975485
 10
159.3337418389
 20
185.457596079
 10
159.3512065962
 20
185.4441194082
 10
159.3686022583
 20
185.4297136425
 10
159.3857494861
 20
185.4145171006
 10
159.4026392109
 20
185.398518728
 10
159.4192805014
 20
185.3817295792
 10
159.4355212241
 20
185.3643211377
 10
159.4513158856
 20
185.3463426653
 10
159.4667099793
 20
185.3277449003
 10
159.4816878519
 20
185.3085515398
 10
159.496282031
 20
185.2887234821
 10
159.510459989
 20
185.2682998291
 10
159.5241084904
 20
185.2474215836
 10
159.5372327895
 20
185.226061269
 10
159.549827632
 20
185.204246362
 10
159.5617640192
 20
185.1822002945
 10
159.5730207825
 20
185.1599413563
 10
159.5836190906
 20
185.1374512577
 10
159.5934934506
 20
185.1148985624
 10
159.6026262638
 20
185.0923309902
 10
159.611035129
 20
185.0697008212
 10
159.6187073503
 20
185.0470334602
 10
159.6256628425
 20
185.0242648791
 10
159.6318816908
 20
185.001459106
 10
159.6372914558
 20
184.9788336294
 10
159.6418780285
 20
184.9563861245
 10
159.6456555179
 20
184.9341189162
 10
159.6485938105
 20
184.9122564679
 10
159.6506828686
 20
184.8908736005
 10
159.6519327299
 20
184.8698954931
 10
159.6523433945
 20
184.8493221457
  0
LWPOLYLINE
  5
4DF
100
AcDbEntity
  8
0
100
AcDbPolyline
 62
7
  6
CONTINUOUS
 90
16
 70
0
 10
158.6447162313
 20
184.7166309301
 10
158.6466002217
 20
184.7154194604
 10
158.6484227713
 20
184.7140335164
 10
158.6501838801
 20
184.7124730983
 10
158.651899713
 20
184.7107197018
 10
158.653554105
 20
184.7087918311
 10
158.6550985617
 20
184.7067449988
 10
158.6565329396
 20
184.7045699589
 10
158.657857382
 20
184.7022759573
 10
158.6590238243
 20
184.6999462446
 10
158.6600241872
 20
184.6975853201
 10
158.66086655
 20
184.6951886845
 10
158.6615270855
 20
184.6928260903
 10
158.6619978512
 20
184.6905207883
 10
158.6622867897
 20
184.6882495276
 10
158.6623939009
 20
184.6860123084
  0
LWPOLYLINE
  5
4E0
100
AcDbEntity
  8
ASSI
100
AcDbPolyline
 62
7
  6
CONTINUOUS
 90
29
 70
0
 10
152.8219102294
 20
188.8260013245
 10
152.9324982896
 20
188.7527097819
 10
153.0395298588
 20
188.6778562907
 10
153.143004937
 20
188.601440851
 10
153.242991601
 20
188.5234072707
 10
153.339421774
 20
188.4438117419
 10
153.4320912256
 20
188.3628228408
 10
153.5209919852
 20
188.2804376141
 10
153.6061320234
 20
188.1966590152
 10
153.6873310212
 20
188.1116644794
 10
153.7645806259
 20
188.0254514297
 10
153.8378891903
 20
187.9380224433
 10
153.9071014533
 20
187.8495626868
 10
153.9722087332
 20
187.7600699756
 10
154.0332197117
 20
187.6695464943
 10
154.0900051731
 20
187.5781839636
 10
154.1425561618
 20
187.4859806052
 10
154.1908816334
 20
187.3929381973
 10
154.2348792388
 20
187.2992537954
 10
154.2745398056
 20
187.2049260389
 10
154.3098725063
 20
187.1099562884
 10
154.3408025093
 20
187.0145456813
 10
154.3673204836
 20
186.9186932832
 10
154.3894357603
 20
186.8224000286
 10
154.4071015012
 20
186.7258698579
 10
154.4203082759
 20
186.6291022689
 10
154.4290655149
 20
186.5320977638
 10
154.4333546709
 20
186.4350617895
 10
154.4338235804
 20
186.3905173079
  0
LWPOLYLINE
  5
4E1
100
AcDbEntity
  8
ASSI
100
AcDbPolyline
 62
7
  6
CONTINUOUS
 90
29
 70
0
 10
152.644851069
 20
188.7237695843
 10
152.7506323705
 20
188.6533428845
 10
152.8530024335
 20
188.5814247358
 10
152.951961258
 20
188.5080151381
 10
153.0475737398
 20
188.4330602849
 10
153.1397749831
 20
188.3566139827
 10
153.2283703007
 20
188.2788376516
 10
153.313352073
 20
188.1997284812
 10
153.3947279196
 20
188.1192892819
 10
153.4723260113
 20
188.0376899049
 10
153.5461383658
 20
187.9549278986
 10
153.6161729655
 20
187.8710057147
 10
153.6822819291
 20
187.7861005587
 10
153.7444569615
 20
187.7002103536
 10
153.8027063577
 20
187.6133371765
 10
153.8569071215
 20
187.5256644643
 10
153.9070506977
 20
187.4371905274
 10
153.9531456415
 20
187.3479170553
 10
153.9950946211
 20
187.2580325533
 10
154.0328888759
 20
187.1675357301
 10
154.0665371665
 20
187.076427877
 10
154.0959684429
 20
186.9849013724
 10
154.1211737945
 20
186.8929553317
 10
154.1421621319
 20
186.8005906397
 10
154.1588891373
 20
186.7080023287
 10
154.1713458063
 20
186.6151899262
 10
154.1795411432
 20
186.5221539047
 10
154.1834578433
 20
186.4290907142
 10
154.1838238931
 20
186.3905173078
  0
LWPOLYLINE
  5
4E2
100
AcDbEntity
  8
0
100
AcDbPolyline
 62
7
  6
CONTINUOUS
 90
18
 70
0
 10
146.2500096526
 20
-0.6488236165
 10
146.2562201457
 20
-0.6450669946
 10
146.2681565329
 20
-0.636804768
 10
146.2794132962
 20
-0.6275448579
 10
146.2900116042
 20
-0.6172934197
 10
146.2998859643
 20
-0.606143388
 10
146.3090187775
 20
-0.5941221594
 10
146.3174276426
 20
-0.5812023372
 10
146.325099864
 20
-0.5673946651
 10
146.3320553562
 20
-0.552658112
 10
146.3382742045
 20
-0.537033709
 10
146.3436839694
 20
-0.5206552934
 10
146.3482705422
 20
-0.5035042478
 10
146.3520480316
 20
-0.4855991895
 10
146.3549863242
 20
-0.4671298078
 10
146.3570753823
 20
-0.4481593324
 10
146.3583252436
 20
-0.4286245336
 10
146.3587359082
 20
-0.4085254113
  0
LWPOLYLINE
  5
4E3
100
AcDbEntity
  8
0
100
AcDbPolyline
 62
7
  6
CONTINUOUS
 90
18
 70
0
 10
146.8864057557
 20
-0.2813764825
 10
146.8926162487
 20
-0.2776198606
 10
146.904552636
 20
-0.269357634
 10
146.9158093993
 20
-0.2600977239
 10
146.9264077073
 20
-0.2498462858
 10
146.9362820674
 20
-0.238696254
 10
146.9454148805
 20
-0.2266750254
 10
146.9538237457
 20
-0.2137552032
 10
146.9614959671
 20
-0.1999475311
 10
146.9684514592
 20
-0.185210978
 10
146.9746703076
 20
-0.1695865751
 10
146.9800800725
 20
-0.1532081594
 10
146.9846666453
 20
-0.1360571138
 10
146.9884441346
 20
-0.1181520555
 10
146.9913824272
 20
-0.0996826738
 10
146.9934714853
 20
-0.0807121984
 10
146.9947213467
 20
-0.0611773996
 10
146.9951320113
 20
-0.0410782773
  0
LWPOLYLINE
  5
4E4
100
AcDbEntity
  8
0
100
AcDbPolyline
 62
7
  6
CONTINUOUS
 90
18
 70
0
 10
152.5786153442
 20
3.0052339938
 10
152.5848258373
 20
3.0089906156
 10
152.5967622245
 20
3.0172528423
 10
152.6080189878
 20
3.0265127524
 10
152.6186172959
 20
3.0367641905
 10
152.6284916559
 20
3.0479142223
 10
152.6376244691
 20
3.0599354509
 10
152.6460333343
 20
3.0728552731
 10
152.6537055556
 20
3.0866629452
 10
152.6606610478
 20
3.1013994983
 10
152.6668798961
 20
3.1170239012
 10
152.6722896611
 20
3.1334023168
 10
152.6768762338
 20
3.1505533625
 10
152.6806537232
 20
3.1684584208
 10
152.6835920158
 20
3.1869278025
 10
152.6856810739
 20
3.2058982779
 10
152.6869309352
 20
3.2254330767
 10
152.6873415998
 20
3.245532199
  0
LWPOLYLINE
  5
4E5
100
AcDbEntity
  8
0
100
AcDbPolyline
 62
7
  6
CONTINUOUS
 90
18
 70
0
 10
153.2150114473
 20
3.3726811278
 10
153.2212219404
 20
3.3764377496
 10
153.2331583276
 20
3.3846999763
 10
153.2444150909
 20
3.3939598864
 10
153.2550133989
 20
3.4042113245
 10
153.264887759
 20
3.4153613563
 10
153.2740205722
 20
3.4273825849
 10
153.2824294373
 20
3.4403024071
 10
153.2901016587
 20
3.4541100792
 10
153.2970571509
 20
3.4688466323
 10
153.3032759992
 20
3.4844710352
 10
153.3086857641
 20
3.5008494508
 10
153.3132723369
 20
3.5180004965
 10
153.3170498262
 20
3.5359055547
 10
153.3199881189
 20
3.5543749365
 10
153.3220771769
 20
3.5733454119
 10
153.3233270383
 20
3.5928802107
 10
153.3237377029
 20
3.612979333
  0
LINE
  5
4E6
100
AcDbEntity
  8
0
100
AcDbLine
 62
7
  6
CONTINUOUS
 10
150.6013765953
 20
11.0019228914
 11
144.9445223458
 21
7.7357261448
  0
LINE
  5
4E7
100
AcDbEntity
  8
0
100
AcDbLine
 62
7
  6
CONTINUOUS
 10
150.9549299859
 20
10.7977855947
 11
145.2980757364
 21
7.5315888481
  0
LINE
  5
4E8
100
AcDbEntity
  8
0
100
AcDbLine
 62
7
  6
CONTINUOUS
 10
136.6360176669
 20
1.8161884095
 11
137.3431244481
 21
2.2244630028
  0
LINE
  5
4E9
100
AcDbEntity
  8
0
100
AcDbLine
 62
7
  6
CONTINUOUS
 10
138.7396603409
 20
0.6015714943
 11
138.8457161081
 21
0.6628067651
  0
LINE
  5
4EA
100
AcDbEntity
  8
0
100
AcDbLine
 62
7
  6
CONTINUOUS
 10
139.0224928034
 20
0.5607381168
 11
138.9164370362
 21
0.499502846
  0
LINE
  5
4EB
100
AcDbEntity
  8
0
100
AcDbLine
 62
7
  6
CONTINUOUS
 10
140.8609806845
 20
1.3772379848
 11
142.8055243328
 21
2.4999931164
  0
LINE
  5
4EC
100
AcDbEntity
  8
0
100
AcDbLine
 62
7
  6
CONTINUOUS
 10
141.1084680579
 20
1.3976556599
 11
142.6994583156
 21
2.3162734949
  0
LINE
  5
4ED
100
AcDbEntity
  8
0
100
AcDbLine
 62
7
  6
CONTINUOUS
 10
142.8055243328
 20
2.0101109503
 11
142.6994583156
 21
1.9488697613
  0
LINE
  5
4EE
100
AcDbEntity
  8
0
100
AcDbLine
 62
7
  6
CONTINUOUS
 10
141.0731093022
 20
1.0098362239
 11
140.8609806845
 21
0.8873558187
  0
LINE
  5
4EF
100
AcDbEntity
  8
0
100
AcDbLine
 62
7
  6
CONTINUOUS
 10
141.1084680579
 20
0.9894205215
 11
142.6994583156
 21
1.9080383565
  0
LINE
  5
4F0
100
AcDbEntity
  8
0
100
AcDbLine
 62
7
  6
CONTINUOUS
 10
136.9895368907
 20
-1.8579278361
 11
136.6360176669
 21
-2.0620454053
  0
LINE
  5
4F1
100
AcDbEntity
  8
0
100
AcDbLine
 62
7
  6
CONTINUOUS
 10
138.9164370362
 20
-2.7663585337
 11
138.7396603409
 21
-2.868427182
  0
LINE
  5
4F2
100
AcDbEntity
  8
0
100
AcDbLine
 62
7
  6
CONTINUOUS
 10
140.8609806845
 20
-2.7051133992
 11
142.8055243328
 21
-1.5823582676
  0
LINE
  5
4F3
100
AcDbEntity
  8
0
100
AcDbLine
 62
7
  6
CONTINUOUS
 10
142.6994583156
 20
-1.7660778891
 11
141.1084680579
 21
-2.684695724
  0
LINE
  5
4F4
100
AcDbEntity
  8
0
100
AcDbLine
 62
7
  6
CONTINUOUS
 10
99.456554705
 20
192.9456678731
 11
98.6113505086
 21
192.9029725033
  0
LINE
  5
4F5
100
AcDbEntity
  8
0
100
AcDbLine
 62
7
  6
CONTINUOUS
 10
98.8063976308
 20
193.3210604194
 11
98.6113505086
 21
193.3112076417
  0
LINE
  5
4F6
100
AcDbEntity
  8
0
100
AcDbLine
 62
7
  6
CONTINUOUS
 10
98.6113505086
 20
196.9853238873
 11
99.2940154364
 21
197.0198086091
  0
LINE
  5
4F7
100
AcDbEntity
  8
0
100
AcDbLine
 62
7
  6
CONTINUOUS
 10
98.6113505086
 20
197.3935590257
 11
98.6438583623
 21
197.3952011553
  0
LWPOLYLINE
  5
4F8
100
AcDbEntity
  8
0
100
AcDbPolyline
 62
7
  6
CONTINUOUS
 90
18
 70
0
 10
158.9072210359
 20
6.6592916041
 10
158.9134315289
 20
6.6630482259
 10
158.9253679161
 20
6.6713104526
 10
158.9366246794
 20
6.6805703627
 10
158.9472229875
 20
6.6908218008
 10
158.9570973476
 20
6.7019718326
 10
158.9662301607
 20
6.7139930612
 10
158.9746390259
 20
6.7269128834
 10
158.9823112473
 20
6.7407205555
 10
158.9892667394
 20
6.7554571086
 10
158.9954855878
 20
6.7710815115
 10
159.0008953527
 20
6.7874599271
 10
159.0054819254
 20
6.8046109728
 10
159.0092594148
 20
6.822516031
 10
159.0121977074
 20
6.8409854128
 10
159.0142867655
 20
6.8599558882
 10
159.0155366268
 20
6.879490687
 10
159.0159472915
 20
6.8995898093
  0
LWPOLYLINE
  5
4F9
100
AcDbEntity
  8
0
100
AcDbPolyline
 62
7
  6
CONTINUOUS
 90
18
 70
0
 10
159.5436171389
 20
7.026738738
 10
159.549827632
 20
7.0304953599
 10
159.5617640192
 20
7.0387575866
 10
159.5730207825
 20
7.0480174967
 10
159.5836190906
 20
7.0582689348
 10
159.5934934506
 20
7.0694189666
 10
159.6026262638
 20
7.0814401952
 10
159.611035129
 20
7.0943600174
 10
159.6187073503
 20
7.1081676895
 10
159.6256628425
 20
7.1229042426
 10
159.6318816908
 20
7.1385286455
 10
159.6372914558
 20
7.1549070611
 10
159.6418780285
 20
7.1720581067
 10
159.6456555179
 20
7.189963165
 10
159.6485938105
 20
7.2084325467
 10
159.6506828686
 20
7.2274030222
 10
159.6519327299
 20
7.246937821
 10
159.6523433945
 20
7.2670369432
  0
LINE
  5
4FA
100
AcDbEntity
  8
0
100
AcDbLine
 62
7
  6
CONTINUOUS
 10
144.9445223458
 20
-0.796386275
 11
142.8055243328
 21
-2.0314169198
  0
LINE
  5
4FB
100
AcDbEntity
  8
0
100
AcDbLine
 62
7
  6
CONTINUOUS
 10
140.8609806845
 20
-3.1541720514
 11
139.6235438174
 21
-3.8686525898
  0
LINE
  5
4FC
100
AcDbEntity
  8
0
100
AcDbLine
 62
7
  6
CONTINUOUS
 10
141.055433341
 20
-3.0623092816
 11
139.6235438174
 21
-3.8890643467
  0
LINE
  5
4FD
100
AcDbEntity
  8
0
100
AcDbLine
 62
7
  6
CONTINUOUS
 10
142.6994583156
 20
-2.1130698657
 11
144.9445214916
 21
-0.8167985251
  0
LINE
  5
4FE
100
AcDbEntity
  8
0
100
AcDbLine
 62
7
  6
CONTINUOUS
 10
142.6994583156
 20
-2.1743130275
 11
141.1084680579
 21
-3.0929308624
  0
LINE
  5
4FF
100
AcDbEntity
  8
0
100
AcDbLine
 62
7
  6
CONTINUOUS
 10
160.6451697179
 20
7.8402824193
 11
159.6523433945
 21
7.2670369432
  0
LINE
  5
500
100
AcDbEntity
  8
0
100
AcDbLine
 62
7
  6
CONTINUOUS
 10
159.0159472915
 20
6.8995898093
 11
153.3237377029
 21
3.612979333
  0
LINE
  5
501
100
AcDbEntity
  8
0
100
AcDbLine
 62
7
  6
CONTINUOUS
 10
152.6873415998
 20
3.245532199
 11
146.9951320113
 21
-0.0410782773
  0
LINE
  5
502
100
AcDbEntity
  8
0
100
AcDbLine
 62
7
  6
CONTINUOUS
 10
146.3587359082
 20
-0.4085254113
 11
139.6235438174
 21
-4.2972994851
  0
LINE
  5
503
100
AcDbEntity
  8
0
100
AcDbLine
 62
250
  6
CONTINUOUS
 10
146.3587359082
 20
-0.4085254113
 11
146.9951320113
 21
-0.0410782773
  0
LINE
  5
504
100
AcDbEntity
  8
0
100
AcDbLine
 62
250
  6
CONTINUOUS
 10
152.6873415998
 20
3.245532199
 11
153.3237377029
 21
3.612979333
  0
LINE
  5
505
100
AcDbEntity
  8
0
100
AcDbLine
 62
250
  6
CONTINUOUS
 10
159.0159472915
 20
6.8995898093
 11
159.6523433945
 21
7.2670369432
  0
LINE
  5
506
100
AcDbEntity
  8
0
100
AcDbLine
 62
7
  6
CONTINUOUS
 10
146.2500175322
 20
-0.6488372634
 11
146.8864136352
 21
-0.2813901294
  0
LINE
  5
507
100
AcDbEntity
  8
0
100
AcDbLine
 62
7
  6
CONTINUOUS
 10
152.5786232238
 20
3.0052203469
 11
153.2150193269
 21
3.3726674809
  0
LINE
  5
508
100
AcDbEntity
  8
0
100
AcDbLine
 62
7
  6
CONTINUOUS
 10
158.9072289154
 20
6.6592779572
 11
159.5436250185
 21
7.0267250911
  0
ENDSEC
  0
SECTION
  2
OBJECTS
  0
DICTIONARY
  5
C
100
AcDbDictionary
280
0
281
1
  3
ACAD_GROUP
350
D
  3
ACAD_MLINESTYLE
350
17
  3
ACAD_LAYOUT
350
1A
  3
ACAD_PLOTSETTINGS
350
19
  3
ACAD_PLOTSTYLENAME
350
E
  0
DICTIONARY
  5
D
102
{ACAD_REACTORS
330
C
102
}
100
AcDbDictionary
280
0
281
1
  0
ACDBDICTIONARYWDFLT
  5
E
102
{ACAD_REACTORS
330
C
102
}
100
AcDbDictionary
281
1
  3
Normal
350
F
100
AcDbDictionaryWithDefault
340
F
  0
DICTIONARY
  5
17
102
{ACAD_REACTORS
330
C
102
}
100
AcDbDictionary
280
0
281
1
  3
Standard
350
18
  0
DICTIONARY
  5
19
102
{ACAD_REACTORS
330
C
102
}
100
AcDbDictionary
281
1
  0
DICTIONARY
  5
1A
102
{ACAD_REACTORS
330
C
102
}
100
AcDbDictionary
281
1
  3
Model
350
509
  3
Layout1
350
50A
  0
ACDBPLACEHOLDER
  5
F
102
{ACAD_REACTORS
330
E
102
}
  0
MLINESTYLE
  5
18
102
{ACAD_REACTORS
330
17
102
}
100
AcDbMlineStyle
  2
STANDARD
 70
0
  3

 62
256
 51
90.0
 52
90.0
 71
2
 49
0.5
 62
256
  6
BYLAYER
 49
-0.5
 62
256
  6
BYLAYER
  0
LAYOUT
  5
509
102
{ACAD_REACTORS
330
1A
102
}
100
AcDbPlotSettings
  1

  2
none_device
  4
ISO_A4_(297.00_x_210.00_MM)
  6

 40
0.0
 41
0.0
 42
0.0
 43
0.0
 44
297.0
 45
210.0
 46
0.0
 47
0.0
 48
0.0
 49
0.0
140
0.0
141
0.0
142
1.0
143
1.0
 70
1024
 72
1
 73
0
 74
0
  7

 75
0
147
1.0
148
0.0
149
0.0
100
AcDbLayout
  1
Model
 70
0
 71
0
 10
0.0
 20
0.0
 11
297.0
 21
210.0
 12
0.0
 22
0.0
 32
0.0
 14
0.0
 24
0.0
 34
0.0
 15
0.0
 25
0.0
 35
0.0
146
0.0
 13
0.0
 23
0.0
 33
0.0
 16
1.0
 26
0.0
 36
0.0
 17
0.0
 27
1.0
 37
0.0
 76
0
330
20F
345
0
346
0
  0
LAYOUT
  5
50A
102
{ACAD_REACTORS
330
1A
102
}
100
AcDbPlotSettings
  1

  2
none_device
  4
ISO_A4_(297.00_x_210.00_MM)
  6

 40
0.0
 41
0.0
 42
0.0
 43
0.0
 44
297.0
 45
210.0
 46
0.0
 47
0.0
 48
0.0
 49
0.0
140
0.0
141
0.0
142
1.0
143
1.0
 70
0
 72
1
 73
0
 74
0
  7

 75
0
147
1.0
148
0.0
149
0.0
100
AcDbLayout
  1
Layout1
 70
0
 71
1
 10
0.0
 20
0.0
 11
297.0
 21
210.0
 12
0.0
 22
0.0
 32
0.0
 14
0.0
 24
0.0
 34
0.0
 15
0.0
 25
0.0
 35
0.0
146
0.0
 13
0.0
 23
0.0
 33
0.0
 16
1.0
 26
0.0
 36
0.0
 17
0.0
 27
1.0
 37
0.0
 76
0
330
210
345
0
346
0
  0
ENDSEC
  0
EOF
