  0
SECTION
  2
HEADER
  9
$ACADVER
  1
AC1021
  9
$DWGCODEPAGE
  3
ANSI_1252
  9
$EXTMAX
 10
297.0
 20
210.0
 30
0.0
  9
$EXTMIN
 10
0.0
 20
0.0
 30
0.0
  9
$LIMMIN
 10
0.0
 20
0.0
  9
$LIMMAX
 10
297.0
 20
210.0
  9
$VIEWCTR
 10
148.5
 20
105.0
  9
$VIEWSIZE
 40
210.0
  9
$CLAYER
  8
0
  9
$LTSCALE
 40
16.335
  9
$CELTYPE
  6
BYLAYER
  9
$DIMSCALE
 40
1.0
  9
$DIMASZ
 40
3.0
  9
$DIMEXO
 40
0.5
  9
$DIMDLI
 40
11.286
  9
$DIMEXE
 40
1.5
  9
$DIMCEN
 40
2.673
  9
$DIMLFAC
 40
1.0
  9
$DIMBLK
  1
_FILLED
  9
$DIMALT
 70
0
  9
$DIMALTF
 40
0.0393700787
  9
$DIMTXT
 40
3.0
  9
$DIMTOL
 70
1
  9
$DIMLIM
 70
0
  9
$DIMTFAC
 40
1.0
  9
$DIMTP
 40
0.01
  9
$DIMTM
 40
0.01
  9
$DIMGAP
 40
0.625
  9
$DIMDSEP
 70
44
  9
$AUNITS
 70
0
  9
$PDMODE
 70
3
  9
$PDSIZE
 40
3.0
  9
$HANDSEED
  5
3DF
  9
$TILEMODE
 70
1
  9
$MEASUREMENT
 70
1
  9
$INSUNITS
 70
4
  0
ENDSEC
  0
SECTION
  2
CLASSES
  0
CLASS
  1
ACDBDICTIONARYWDFLT
  2
AcDbDictionaryWithDefault
  3
AutoCAD 2000
 90
0
 91
1
280
0
281
0
  0
CLASS
  1
ACDBPLACEHOLDER
  2
AcDbPlaceHolder
  3
AutoCAD 2000
 90
0
 91
1
280
0
281
0
  0
CLASS
  1
LAYOUT
  2
AcDbLayout
  3
AutoCAD 2000
 90
0
 91
0
280
0
281
0
  0
ENDSEC
  0
SECTION
  2
TABLES
  0
TABLE
  2
VPORT
  5
8
100
AcDbSymbolTable
 70
2
  0
VPORT
  5
1F4
100
AcDbSymbolTableRecord
100
AcDbViewportTableRecord
  2
*ACTIVE
 70
0
 10
0.0
 20
0.0
 11
1.0
 21
1.0
 12
148.5
 22
105.0
 13
0.0
 23
0.0
 14
1.0
 24
1.0
 15
0.0
 25
0.0
 16
0.0
 26
0.0
 36
1.0
 17
0.0
 27
0.0
 37
0.0
 40
210.0
 41
1.4142857143
 42
50.0
 43
0.0
 44
0.0
 50
0.0
 51
0.0
 71
0
 72
100
 73
1
 74
1
 75
0
 76
0
 77
0
 78
0
  0
ENDTAB
  0
TABLE
  2
LTYPE
  5
5
100
AcDbSymbolTable
 70
6
  0
LTYPE
  5
14
100
AcDbSymbolTableRecord
100
AcDbLinetypeTableRecord
  2
BYBLOCK
 70
0
  3

 72
65
 73
0
 40
0.0
  0
LTYPE
  5
15
100
AcDbSymbolTableRecord
100
AcDbLinetypeTableRecord
  2
BYLAYER
 70
0
  3

 72
65
 73
0
 40
0.0
  0
LTYPE
  5
16
100
AcDbSymbolTableRecord
100
AcDbLinetypeTableRecord
  2
CONTINUOUS
 70
64
  3
Solid line
 72
65
 73
0
 40
0.0
  0
LTYPE
  5
1F5
100
AcDbSymbolTableRecord
100
AcDbLinetypeTableRecord
  2
CENTER
 70
64
  3
____ _ ____ _ ____ _ ____ _ ____ _ ____ _ ____
 72
65
 73
4
 40
0.6
 49
0.375
 74
0
 49
-0.075
 74
0
 49
0.075
 74
0
 49
-0.075
 74
0
  0
LTYPE
  5
1F6
100
AcDbSymbolTableRecord
100
AcDbLinetypeTableRecord
  2
HIDDEN
 70
64
  3
- - - - - - - - - - - - - - - - - - - -
 72
65
 73
2
 40
0.2
 49
0.1
 74
0
 49
-0.1
 74
0
  0
LTYPE
  5
1F7
100
AcDbSymbolTableRecord
100
AcDbLinetypeTableRecord
  2
PHANTOM
 70
64
  3
_____ _ _ _____ _ _ _____ _ _ _____
 72
65
 73
6
 40
0.8
 49
0.45
 74
0
 49
-0.05
 74
0
 49
0.1
 74
0
 49
-0.05
 74
0
 49
0.1
 74
0
 49
-0.05
 74
0
  0
LTYPE
  5
1F8
100
AcDbSymbolTableRecord
100
AcDbLinetypeTableRecord
  2
DOT
 70
64
  3
. . . . . . . . . . . . . . . . . . . .
 72
65
 73
2
 40
0.2
 49
0.1
 74
0
 49
-0.1
 74
0
  0
LTYPE
  5
1F9
100
AcDbSymbolTableRecord
100
AcDbLinetypeTableRecord
  2
DASHED
 70
64
  3
- - - - - - - - - - - - - - - - - - - -
 72
65
 73
2
 40
0.2
 49
0.1
 74
0
 49
-0.1
 74
0
  0
ENDTAB
  0
TABLE
  2
LAYER
  5
2
100
AcDbSymbolTable
 70
36
  0
LAYER
  5
10
100
AcDbSymbolTableRecord
100
AcDbLayerTableRecord
  2
0
 70
0
 62
7
  6
CONTINUOUS
370
-3
390
F
  0
LAYER
  5
1FA
100
AcDbSymbolTableRecord
100
AcDbLayerTableRecord
  2
DEFAULT_1
 70
0
 62
7
  6
CENTER
370
-3
390
F
  0
LAYER
  5
1FB
100
AcDbSymbolTableRecord
100
AcDbLayerTableRecord
  2
DEFAULT_2
 70
0
 62
7
  6
HIDDEN
370
-3
390
F
  0
LAYER
  5
1FC
100
AcDbSymbolTableRecord
100
AcDbLayerTableRecord
  2
DEFAULT_3
 70
0
 62
7
  6
PHANTOM
370
-3
390
F
  0
LAYER
  5
1FD
100
AcDbSymbolTableRecord
100
AcDbLayerTableRecord
  2
ASSI
 70
0
 62
7
  6
CONTINUOUS
370
-3
390
F
  0
LAYER
  5
1FE
100
AcDbSymbolTableRecord
100
AcDbLayerTableRecord
  2
COORDINATE
 70
0
 62
7
  6
CONTINUOUS
370
-3
390
F
  0
LAYER
  5
1FF
100
AcDbSymbolTableRecord
100
AcDbLayerTableRecord
  2
COPY_PUBLISH
 70
0
 62
7
  6
CONTINUOUS
370
-3
390
F
  0
LAYER
  5
200
100
AcDbSymbolTableRecord
100
AcDbLayerTableRecord
  2
COSMETICI
 70
0
 62
7
  6
CONTINUOUS
370
-3
390
F
  0
LAYER
  5
201
100
AcDbSymbolTableRecord
100
AcDbLayerTableRecord
  2
CURVE
 70
0
 62
7
  6
CONTINUOUS
370
-3
390
F
  0
LAYER
  5
202
100
AcDbSymbolTableRecord
100
AcDbLayerTableRecord
  2
DRAFT
 70
0
 62
7
  6
CONTINUOUS
370
-3
390
F
  0
LAYER
  5
203
100
AcDbSymbolTableRecord
100
AcDbLayerTableRecord
  2
IMPORT_IGES
 70
0
 62
7
  6
CONTINUOUS
370
-3
390
F
  0
LAYER
  5
204
100
AcDbSymbolTableRecord
100
AcDbLayerTableRecord
  2
NOTE
 70
0
 62
7
  6
CONTINUOUS
370
-3
390
F
  0
LAYER
  5
205
100
AcDbSymbolTableRecord
100
AcDbLayerTableRecord
  2
PIANI
 70
0
 62
7
  6
CONTINUOUS
370
-3
390
F
  0
LAYER
  5
206
100
AcDbSymbolTableRecord
100
AcDbLayerTableRecord
  2
PUNTI
 70
0
 62
7
  6
CONTINUOUS
370
-3
390
F
  0
LAYER
  5
207
100
AcDbSymbolTableRecord
100
AcDbLayerTableRecord
  2
RACCORDO
 70
0
 62
7
  6
CONTINUOUS
370
-3
390
F
  0
LAYER
  5
208
100
AcDbSymbolTableRecord
100
AcDbLayerTableRecord
  2
SIMBOLI
 70
0
 62
7
  6
CONTINUOUS
370
-3
390
F
  0
LAYER
  5
209
100
AcDbSymbolTableRecord
100
AcDbLayerTableRecord
  2
SMUSSO
 70
0
 62
7
  6
CONTINUOUS
370
-3
390
F
  0
LAYER
  5
20A
100
AcDbSymbolTableRecord
100
AcDbLayerTableRecord
  2
SNAPLINE
 70
0
 62
7
  6
CONTINUOUS
370
-3
390
F
  0
LAYER
  5
20B
100
AcDbSymbolTableRecord
100
AcDbLayerTableRecord
  2
SUPERFICI
 70
0
 62
7
  6
CONTINUOUS
370
-3
390
F
  0
LAYER
  5
20C
100
AcDbSymbolTableRecord
100
AcDbLayerTableRecord
  2
TRASH
 70
0
 62
7
  6
CONTINUOUS
370
-3
390
F
  0
ENDTAB
  0
TABLE
  2
STYLE
  5
3
100
AcDbSymbolTable
 70
1
  0
STYLE
  5
11
100
AcDbSymbolTableRecord
100
AcDbTextStyleTableRecord
  2
STANDARD
 70
0
 40
0.0
 41
0.8
 50
0.0
 71
0
 42
0.2
  3
txt
  4

  0
STYLE
  5
20D
100
AcDbSymbolTableRecord
100
AcDbTextStyleTableRecord
  2
TEXTSTYLE_1
 70
0
 40
0.0
 41
0.8
 50
0.0
 71
0
 42
0.2
  3
gdt
  4

  0
ENDTAB
  0
TABLE
  2
VIEW
  5
6
100
AcDbSymbolTable
 70
0
  0
ENDTAB
  0
TABLE
  2
UCS
  5
7
100
AcDbSymbolTable
 70
0
  0
ENDTAB
  0
TABLE
  2
APPID
  5
9
100
AcDbSymbolTable
 70
1
  0
APPID
  5
20E
100
AcDbSymbolTableRecord
100
AcDbRegAppTableRecord
  2
ACAD
 70
0
  0
ENDTAB
  0
TABLE
  2
BLOCK_RECORD
  5
1
100
AcDbSymbolTable
 70
0
  0
BLOCK_RECORD
  5
20F
100
AcDbSymbolTableRecord
100
AcDbBlockTableRecord
  2
*Model_Space
  0
BLOCK_RECORD
  5
210
100
AcDbSymbolTableRecord
100
AcDbBlockTableRecord
  2
*Paper_Space
  0
BLOCK_RECORD
  5
211
100
AcDbSymbolTableRecord
100
AcDbBlockTableRecord
  2
_FILLED
  0
ENDTAB
  0
TABLE
  2
DIMSTYLE
  5
A
100
AcDbSymbolTable
 70
1
100
AcDbDimStyleTable
 71
0
  0
DIMSTYLE
105
212
100
AcDbSymbolTableRecord
100
AcDbDimStyleTableRecord
  2
STANDARD
 70
0
  3

  4

 40
1.0
 41
3.0
 42
0.5
 43
0.38
 44
1.5
 45
0.0
 46
0.0
 47
0.01
 48
0.01
140
3.0
141
0.09
142
0.0
143
25.4
144
1.0
145
0.0
146
1.0
147
0.625
 71
1.0
 72
0.0
 73
0
 74
0
 75
0
 76
0
 77
1
 78
8
 79
2
170
0
171
1
172
0
173
0
174
0
175
0
176
0
177
0
178
0
270
2
179
2
271
2
272
2
273
2
274
2
275
0
280
0
281
0
282
0
283
1
284
8
285
0
286
0
287
3
288
0
340
11
278
44
341
211
342
211
343
211
344
211
  0
ENDTAB
  0
ENDSEC
  0
SECTION
  2
BLOCKS
  0
BLOCK
  5
20
100
AcDbEntity
  8
0
100
AcDbBlockBegin
  2
*Model_Space
 70
0
 10
0.0
 20
0.0
 30
0.0
  3
*Model_Space
  1

  0
ENDBLK
  5
21
100
AcDbEntity
  8
0
100
AcDbBlockEnd
  0
BLOCK
  5
1C
100
AcDbEntity
  8
0
100
AcDbBlockBegin
  2
*Paper_Space
 70
0
 10
0.0
 20
0.0
 30
0.0
  3
*Paper_Space
  1

  0
ENDBLK
  5
1D
100
AcDbEntity
  8
0
100
AcDbBlockEnd
  0
BLOCK
  5
213
100
AcDbEntity
  8
0
100
AcDbBlockBegin
  2
_FILLED
 70
64
 10
0.0
 20
0.0
  3
_FILLED
  1

  0
SOLID
  5
214
100
AcDbEntity
  8
0
  6
BYBLOCK
 62
0
100
AcDbTrace
 10
0.0
 20
0.0
 11
-1.0
 21
0.3166666667
 12
-1.0
 22
-0.3166666667
 13
-1.0
 23
-0.3166666667
  0
ENDBLK
  5
215
100
AcDbEntity
  8
0
  6
BYBLOCK
 62
0
100
AcDbBlockEnd
  0
ENDSEC
  0
SECTION
  2
ENTITIES
  0
LINE
  5
216
100
AcDbEntity
  8
0
100
AcDbLine
 62
7
  6
CONTINUOUS
 10
80.0006443165
 20
189.1578131364
 11
109.1687990404
 21
205.9991401112
  0
LWPOLYLINE
  5
217
100
AcDbEntity
  8
0
100
AcDbPolyline
 62
7
  6
CONTINUOUS
 90
28
 70
0
 10
109.1687990404
 20
205.9991401112
 10
109.2164721796
 20
206.0254574894
 10
109.265312126
 20
206.0500150255
 10
109.3152479832
 20
206.0727515397
 10
109.3661880353
 20
206.0936033548
 10
109.4180699071
 20
206.1125254449
 10
109.470864185
 20
206.1294854538
 10
109.5244894847
 20
206.1444345404
 10
109.578858265
 20
206.1573280018
 10
109.6339333088
 20
206.1681360554
 10
109.6895948055
 20
206.1768153245
 10
109.7457810224
 20
206.1833387006
 10
109.8025459909
 20
206.1876868572
 10
109.8598264247
 20
206.1898213138
 10
109.9174958694
 20
206.189706242
 10
109.9755197464
 20
206.1873112455
 10
110.0338312503
 20
206.1826056047
 10
110.0923014989
 20
206.1755686994
 10
110.1508149076
 20
206.1661887647
 10
110.2092199388
 20
206.1544712647
 10
110.2674845841
 20
206.1404057893
 10
110.3256877649
 20
206.123944323
 10
110.3838156767
 20
206.1050480214
 10
110.4417027989
 20
206.0837291615
 10
110.4992240282
 20
206.0600008698
 10
110.5562992431
 20
206.0338666635
 10
110.6128719157
 20
206.0053218367
 10
110.6688715208
 20
205.9743695223
  0
LWPOLYLINE
  5
218
100
AcDbEntity
  8
0
100
AcDbPolyline
 62
250
  6
CONTINUOUS
 90
19
 70
0
 10
110.0438413207
 20
205.9124430502
 10
110.0823957764
 20
205.9337325363
 10
110.1208768415
 20
205.9530387496
 10
110.1592112652
 20
205.9703249398
 10
110.1973260756
 20
205.9855582015
 10
110.2351487191
 20
205.9987095374
 10
110.272607198
 20
206.0097539132
 10
110.3096302081
 20
206.0186703052
 10
110.346147274
 20
206.0254417406
 10
110.3820888832
 20
206.0300553297
 10
110.4173866191
 20
206.0325022901
 10
110.4519732902
 20
206.0327779639
 10
110.4857830589
 20
206.0308818265
 10
110.5187515664
 20
206.0268174871
 10
110.5508160552
 20
206.0205926825
 10
110.5819154889
 20
206.012219262
 10
110.6119906677
 20
206.0017131648
 10
110.640984342
 20
205.9890943899
 10
110.6688413207
 20
205.9743869578
  0
LWPOLYLINE
  5
219
100
AcDbEntity
  8
0
100
AcDbPolyline
 62
250
  6
CONTINUOUS
 90
22
 70
0
 10
109.1687990404
 20
205.9991401112
 10
109.202170499
 20
206.0169916129
 10
109.23667683
 20
206.0326741461
 10
109.2723120536
 20
206.0461901872
 10
109.3090263306
 20
206.0575208326
 10
109.3467683128
 20
206.0666502355
 10
109.3854852147
 20
206.0735656276
 10
109.4251228871
 20
206.078257337
 10
109.4656258932
 20
206.080718802
 10
109.5069375858
 20
206.08094658
 10
109.5490001869
 20
206.0789403525
 10
109.591754868
 20
206.0747029252
 10
109.635141833
 20
206.0682402247
 10
109.6791004011
 20
206.0595612897
 10
109.7235690923
 20
206.0486782583
 10
109.7684857133
 20
206.0356063516
 10
109.8137874439
 20
206.0203638516
 10
109.8594109257
 20
206.0029720766
 10
109.9052923501
 20
205.9834553504
 10
109.9513675478
 20
205.9618409689
 10
109.9975720784
 20
205.9381591618
 10
110.0438413207
 20
205.9124430502
  0
LWPOLYLINE
  5
21A
100
AcDbEntity
  8
0
100
AcDbPolyline
 62
7
  6
CONTINUOUS
 90
16
 70
0
 10
80.0006443165
 20
189.1578131364
 10
79.9561418378
 20
189.1293360562
 10
79.9139910127
 20
189.0966881514
 10
79.8745791418
 20
189.0601610671
 10
79.8379287058
 20
189.0197229639
 10
79.8040172241
 20
188.9754056812
 10
79.7731222749
 20
188.9275719728
 10
79.7452686172
 20
188.8761929767
 10
79.7204314921
 20
188.8212975548
 10
79.6988142008
 20
188.7633350469
 10
79.6804431709
 20
188.7022802792
 10
79.6652919749
 20
188.6381584255
 10
79.6534846309
 20
188.5714943476
 10
79.6450624784
 20
188.5024629991
 10
79.639984178
 20
188.4308894264
 10
79.6382497296
 20
188.3567736294
  0
LWPOLYLINE
  5
21B
100
AcDbEntity
  8
0
100
AcDbPolyline
 62
7
  6
CONTINUOUS
 90
16
 70
0
 10
80.3756624366
 20
188.5083045455
 10
80.3502324488
 20
188.4920319283
 10
80.326146263
 20
188.4733759827
 10
80.3036251939
 20
188.4525033631
 10
80.2826820876
 20
188.4293958755
 10
80.2633040981
 20
188.404071714
 10
80.2456498414
 20
188.3767381664
 10
80.2297334656
 20
188.34737874
 10
80.2155408226
 20
188.3160099275
 10
80.2031880847
 20
188.2828884944
 10
80.1926903534
 20
188.2480000557
 10
80.1840325271
 20
188.2113589965
 10
80.1772854734
 20
188.1732652376
 10
80.1724728148
 20
188.1338187528
 10
80.1695709289
 20
188.0929195684
 10
80.1685798155
 20
188.0505676844
  0
LINE
  5
21C
100
AcDbEntity
  8
0
100
AcDbLine
 62
250
  6
CONTINUOUS
 10
80.8756865967
 20
189.0711160755
 11
110.0438413207
 21
205.9124430502
  0
LINE
  5
21D
100
AcDbEntity
  8
0
100
AcDbLine
 62
250
  6
CONTINUOUS
 10
80.1685798155
 20
188.0505676844
 11
80.8756524266
 21
188.4588225483
  0
LINE
  5
21E
100
AcDbEntity
  8
0
100
AcDbLine
 62
250
  6
CONTINUOUS
 10
114.1221567978
 20
203.9804858832
 11
114.392548025
 21
204.136606389
  0
LWPOLYLINE
  5
21F
100
AcDbEntity
  8
0
100
AcDbPolyline
 62
7
  6
CONTINUOUS
 90
18
 70
0
 10
142.0189620885
 20
-8.5545036803
 10
142.0280235331
 20
-8.5594904083
 10
142.0466842107
 20
-8.5683089567
 10
142.0661357599
 20
-8.5756169877
 10
142.0863728502
 20
-8.5814246821
 10
142.1072584688
 20
-8.5856927197
 10
142.1287970162
 20
-8.5884106527
 10
142.1509840918
 20
-8.5895889288
 10
142.1736694804
 20
-8.5892195706
 10
142.1968565634
 20
-8.5872920763
 10
142.2205419593
 20
-8.5838169477
 10
142.2445653089
 20
-8.5788177128
 10
142.2689289052
 20
-8.5722840294
 10
142.2936304552
 20
-8.5642262398
 10
142.3185027195
 20
-8.5546988982
 10
142.3434899519
 20
-8.5437201895
 10
142.3686478987
 20
-8.5312719288
 10
142.3939765599
 20
-8.5173541163
  0
LINE
  5
220
100
AcDbEntity
  8
0
100
AcDbLine
 62
250
  6
CONTINUOUS
 10
99.6131108787
 20
177.6400094225
 11
99.2604629076
 21
177.4363949037
  0
LINE
  5
221
100
AcDbEntity
  8
0
100
AcDbLine
 62
7
  6
CONTINUOUS
 10
99.7907929934
 20
176.9261305719
 11
100.144346384
 21
177.1302678686
  0
LINE
  5
222
100
AcDbEntity
  8
0
100
AcDbLine
 62
7
  6
CONTINUOUS
 10
99.7907929934
 20
176.5190001716
 11
100.6727118806
 21
177.028209084
  0
LINE
  5
223
100
AcDbEntity
  8
0
100
AcDbLine
 62
7
  6
CONTINUOUS
 10
99.7903316975
 20
176.1104592317
 11
101.0262652712
 21
176.8240717873
  0
LINE
  5
224
100
AcDbEntity
  8
0
100
AcDbLine
 62
7
  6
CONTINUOUS
 10
99.7907929934
 20
176.1096602951
 11
99.2604629076
 21
175.8034543501
  0
LINE
  5
225
100
AcDbEntity
  8
0
100
AcDbLine
 62
7
  6
CONTINUOUS
 10
98.0230260405
 20
173.0479953945
 11
97.4926959546
 21
172.7417894495
  0
LWPOLYLINE
  5
226
100
AcDbEntity
  8
0
100
AcDbPolyline
 62
7
  6
CONTINUOUS
 90
18
 70
0
 10
86.6878564606
 20
23.3929832476
 10
86.6969179053
 20
23.3879965196
 10
86.7155785828
 20
23.3791779712
 10
86.735030132
 20
23.3718699402
 10
86.7552672224
 20
23.3660622458
 10
86.7761528409
 20
23.3617942082
 10
86.7976913884
 20
23.3590762752
 10
86.819878464
 20
23.3578979991
 10
86.8425638526
 20
23.3582673573
 10
86.8657509355
 20
23.3601948516
 10
86.8894363315
 20
23.3636699802
 10
86.913459681
 20
23.3686692151
 10
86.9378232774
 20
23.3752028985
 10
86.9625248273
 20
23.3832606881
 10
86.9873970917
 20
23.3927880297
 10
87.0123843241
 20
23.4037667384
 10
87.0375422709
 20
23.4162149991
 10
87.0628709321
 20
23.4301328116
  0
LINE
  5
227
100
AcDbEntity
  8
0
100
AcDbLine
 62
7
  6
CONTINUOUS
 10
86.687852812
 20
23.3929769284
 11
86.1575227261
 21
23.6991828734
  0
LINE
  5
228
100
AcDbEntity
  8
0
100
AcDbLine
 62
7
  6
CONTINUOUS
 10
141.4886283539
 20
-8.2483040545
 11
142.0189584398
 21
-8.5545099995
  0
LINE
  5
229
100
AcDbEntity
  8
0
100
AcDbLine
 62
250
  6
CONTINUOUS
 10
86.5325408462
 20
23.7362795742
 11
86.0022107603
 21
24.0424855192
  0
LINE
  5
22A
100
AcDbEntity
  8
0
100
AcDbLine
 62
250
  6
CONTINUOUS
 10
141.3333163882
 20
-7.9050014087
 11
141.863646474
 21
-8.2112073537
  0
LINE
  5
22B
100
AcDbEntity
  8
0
100
AcDbLine
 62
7
  6
CONTINUOUS
 10
89.1841912757
 20
24.6549565916
 11
141.3333163882
 21
-5.4552946663
  0
LWPOLYLINE
  5
22C
100
AcDbEntity
  8
0
100
AcDbPolyline
 62
7
  6
CONTINUOUS
 90
18
 70
0
 10
86.1575263748
 20
23.6991891926
 10
86.148712683
 20
23.7045213495
 10
86.1317441095
 20
23.7162707081
 10
86.1156882506
 20
23.7294602471
 10
86.1005389545
 20
23.7440802597
 10
86.0863987879
 20
23.7600317628
 10
86.0732745985
 20
23.7773237914
 10
86.0611595386
 20
23.7959473105
 10
86.050135632
 20
23.8157762315
 10
86.0402102828
 20
23.8368187339
 10
86.0313760869
 20
23.8590666383
 10
86.0236928551
 20
23.8823693175
 10
86.0171683976
 20
23.9067339291
 10
86.0117949043
 20
23.9321533155
 10
86.0076087559
 20
23.9584553777
 10
86.0046220792
 20
23.9855827491
 10
86.0028227473
 20
24.0135927963
 10
86.0022107603
 20
24.0424855192
  0
LWPOLYLINE
  5
22D
100
AcDbEntity
  8
0
100
AcDbPolyline
 62
7
  6
CONTINUOUS
 90
18
 70
0
 10
141.4886320026
 20
-8.2482977353
 10
141.4798183109
 20
-8.2429655784
 10
141.4628497374
 20
-8.2312162198
 10
141.4467938784
 20
-8.2180266808
 10
141.4316445823
 20
-8.2034066682
 10
141.4175044157
 20
-8.1874551651
 10
141.4043802263
 20
-8.1701631365
 10
141.3922651665
 20
-8.1515396174
 10
141.3812412598
 20
-8.1317106964
 10
141.3713159107
 20
-8.110668194
 10
141.3624817147
 20
-8.0884202896
 10
141.3547984829
 20
-8.0651176104
 10
141.3482740255
 20
-8.0407529988
 10
141.3429005322
 20
-8.0153336124
 10
141.3387143838
 20
-7.9890315502
 10
141.3357277071
 20
-7.9619041787
 10
141.3339283752
 20
-7.9338941316
 10
141.3333163882
 20
-7.9050014087
  0
LWPOLYLINE
  5
22E
100
AcDbEntity
  8
RACCORDO
100
AcDbPolyline
 62
7
  6
CONTINUOUS
 90
8
 70
0
 10
100.144346384
 20
29.9301678499
 10
100.1620240536
 20
29.929468578
 10
100.1944537848
 20
29.9307513942
 10
100.2268835161
 20
29.9344759329
 10
100.2576949117
 20
29.940456329
 10
100.2863485264
 20
29.9486306274
 10
100.3133838055
 20
29.9590607832
 10
100.3388007489
 20
29.9717467964
  0
LWPOLYLINE
  5
22F
100
AcDbEntity
  8
RACCORDO
100
AcDbPolyline
 62
7
  6
CONTINUOUS
 90
7
 70
0
 10
101.1032334845
 20
31.9489845211
 10
101.0928344132
 20
31.9534484235
 10
101.0811702915
 20
31.9557128251
 10
101.068819568
 20
31.955666818
 10
101.0559762672
 20
31.9532727355
 10
101.0424463647
 20
31.9485682443
 10
101.0282298605
 20
31.9415533444
  0
LWPOLYLINE
  5
230
100
AcDbEntity
  8
0
100
AcDbPolyline
 62
7
  6
CONTINUOUS
 90
12
 70
0
 10
133.3783650998
 20
9.3437321509
 10
133.4211883983
 20
9.3200131477
 10
133.4638045503
 20
9.2983836094
 10
133.5062135558
 20
9.2788435361
 10
133.5484834568
 20
9.2613680389
 10
133.5905462112
 20
9.2459820067
 10
133.6321976934
 20
9.2327601062
 10
133.6734359042
 20
9.2217128567
 10
133.7142628426
 20
9.2128297388
 10
133.7544803802
 20
9.2061538613
 10
133.7940855548
 20
9.2016959532
 10
133.8146240899
 20
9.2005105576
  0
LINE
  5
231
100
AcDbEntity
  8
0
100
AcDbLine
 62
7
  6
CONTINUOUS
 10
136.7342277651
 20
6.5080212573
 11
135.7825281558
 21
7.0575206841
  0
LINE
  5
232
100
AcDbEntity
  8
0
100
AcDbLine
 62
7
  6
CONTINUOUS
 10
98.1969081904
 20
28.7589865937
 11
97.2452085812
 21
29.3084860204
  0
LINE
  5
233
100
AcDbEntity
  8
0
100
AcDbLine
 62
7
  6
CONTINUOUS
 10
97.6694726499
 20
29.1044394701
 11
98.1990570727
 21
28.7986640617
  0
LINE
  5
234
100
AcDbEntity
  8
0
100
AcDbLine
 62
7
  6
CONTINUOUS
 10
136.2067922246
 20
6.8534741338
 11
136.7363766473
 21
6.5476987253
  0
LINE
  5
235
100
AcDbEntity
  8
0
100
AcDbLine
 62
7
  6
CONTINUOUS
 10
97.6694726499
 20
29.2269100116
 11
98.1968922819
 21
28.9223845262
  0
LINE
  5
236
100
AcDbEntity
  8
0
100
AcDbLine
 62
7
  6
CONTINUOUS
 10
136.2067922246
 20
6.9759446753
 11
136.7342118566
 21
6.6714191899
  0
LINE
  5
237
100
AcDbEntity
  8
RACCORDO
100
AcDbLine
 62
7
  6
CONTINUOUS
 10
97.4426935386
 20
29.3648204376
 11
98.1963915232
 21
28.9296446673
  0
LINE
  5
238
100
AcDbEntity
  8
RACCORDO
100
AcDbLine
 62
7
  6
CONTINUOUS
 10
135.9800131132
 20
7.1138551012
 11
136.7337110979
 21
6.6786793309
  0
LINE
  5
239
100
AcDbEntity
  8
RACCORDO
100
AcDbLine
 62
250
  6
CONTINUOUS
 10
97.4219852765
 20
29.4105941237
 11
98.1933140282
 21
28.9652385695
  0
LINE
  5
23A
100
AcDbEntity
  8
RACCORDO
100
AcDbLine
 62
250
  6
CONTINUOUS
 10
135.9593048511
 20
7.1596287873
 11
136.7306336029
 21
6.7142732331
  0
LINE
  5
23B
100
AcDbEntity
  8
0
100
AcDbLine
 62
7
  6
CONTINUOUS
 10
132.8480350139
 20
9.0375262059
 11
100.3211230793
 21
27.818157499
  0
LINE
  5
23C
100
AcDbEntity
  8
0
100
AcDbLine
 62
7
  6
CONTINUOUS
 10
133.3783650998
 20
9.3437321509
 11
100.8514531652
 21
28.124363444
  0
LINE
  5
23D
100
AcDbEntity
  8
0
100
AcDbLine
 62
7
  6
CONTINUOUS
 10
133.8937549668
 20
9.4544270944
 11
100.144346384
 21
28.9409126307
  0
LINE
  5
23E
100
AcDbEntity
  8
0
100
AcDbLine
 62
7
  6
CONTINUOUS
 10
100.3034454098
 20
30.0738154447
 11
100.409511427
 21
30.0125742557
  0
LINE
  5
23F
100
AcDbEntity
  8
SMUSSO
100
AcDbLine
 62
7
  6
CONTINUOUS
 10
100.409511427
 20
30.5024564218
 11
100.3034454098
 21
30.5636976108
  0
LINE
  5
240
100
AcDbEntity
  8
0
100
AcDbLine
 62
7
  6
CONTINUOUS
 10
100.144346384
 20
30.9820883226
 11
99.7907929934
 21
31.1862256193
  0
LINE
  5
241
100
AcDbEntity
  8
RACCORDO
100
AcDbLine
 62
250
  6
CONTINUOUS
 10
100.108991045
 20
31.0433926395
 11
99.7907929934
 21
31.2271162065
  0
LINE
  5
242
100
AcDbEntity
  8
0
100
AcDbLine
 62
7
  6
CONTINUOUS
 10
100.4271890965
 20
31.4720493986
 11
99.8615036716
 21
31.7986690732
  0
LINE
  5
243
100
AcDbEntity
  8
0
100
AcDbLine
 62
7
  6
CONTINUOUS
 10
100.4271890965
 20
31.5945199401
 11
99.8615036716
 21
31.9211396148
  0
LINE
  5
244
100
AcDbEntity
  8
SMUSSO
100
AcDbLine
 62
7
  6
CONTINUOUS
 10
100.9398415129
 20
31.4210150744
 11
100.8337754957
 21
31.4822562634
  0
LINE
  5
245
100
AcDbEntity
  8
RACCORDO
100
AcDbLine
 62
7
  6
CONTINUOUS
 10
99.7907929934
 20
32.2069752305
 11
100.0736732894
 21
32.043643693
  0
LINE
  5
246
100
AcDbEntity
  8
RACCORDO
100
AcDbLine
 62
7
  6
CONTINUOUS
 10
100.7454144815
 20
31.6557887475
 11
100.9398688463
 21
31.5435132344
  0
LINE
  5
247
100
AcDbEntity
  8
0
100
AcDbLine
 62
7
  6
CONTINUOUS
 10
101.2226842254
 20
31.7068072897
 11
101.0282298605
 21
31.8190828029
  0
LINE
  5
248
100
AcDbEntity
  8
0
100
AcDbLine
 62
7
  6
CONTINUOUS
 10
99.7907929934
 20
32.5335633412
 11
100.3564886684
 21
32.2069377483
  0
LINE
  5
249
100
AcDbEntity
  8
RACCORDO
100
AcDbLine
 62
250
  6
CONTINUOUS
 10
100.4625444356
 20
32.2681730191
 11
101.0282298605
 21
31.9415533444
  0
LINE
  5
24A
100
AcDbEntity
  8
RACCORDO
100
AcDbLine
 62
7
  6
CONTINUOUS
 10
101.3287502425
 20
31.7680484787
 11
101.1342958777
 21
31.8803239919
  0
LINE
  5
24B
100
AcDbEntity
  8
RACCORDO
100
AcDbLine
 62
7
  6
CONTINUOUS
 10
99.7907929934
 20
32.6560457192
 11
100.4625495611
 21
32.2681818962
  0
LINE
  5
24C
100
AcDbEntity
  8
RACCORDO
100
AcDbLine
 62
7
  6
CONTINUOUS
 10
100.5375480596
 20
32.2756041957
 11
101.1032334845
 21
31.9489845211
  0
LWPOLYLINE
  5
24D
100
AcDbEntity
  8
0
100
AcDbPolyline
 62
7
  6
CONTINUOUS
 90
40
 70
0
 10
100.3211230793
 20
27.818157499
 10
100.2782997809
 20
27.8438897674
 10
100.2356836289
 20
27.8714722933
 10
100.1932746234
 20
27.9009050766
 10
100.1510047224
 20
27.9322418015
 10
100.1089419679
 20
27.9654287838
 10
100.0672904857
 20
28.0003049708
 10
100.026052275
 20
28.0368785734
 10
99.9852253365
 20
28.0751413807
 10
99.9450077989
 20
28.1149077076
 10
99.9054026243
 20
28.1561848623
 10
99.8664068506
 20
28.1989655366
 10
99.8282097198
 20
28.2430421208
 10
99.7908151141
 20
28.2884209138
 10
99.7542191512
 20
28.3350956167
 10
99.7185994275
 20
28.3828397222
 10
99.6839606881
 20
28.4316584286
 10
99.6502981877
 20
28.4815465376
 10
99.6177752867
 20
28.532261948
 10
99.5863975245
 20
28.583808681
 10
99.5561593616
 20
28.6361827153
 10
99.5272075406
 20
28.6891298857
 10
99.499548314
 20
28.7426529779
 10
99.4731754291
 20
28.7967492061
 10
99.4482168708
 20
28.8511560474
 10
99.4246795135
 20
28.9058750117
 10
99.4025564828
 20
28.960904589
 10
99.3819551391
 20
29.015977727
 10
99.3628828789
 20
29.0710946375
 10
99.3453323058
 20
29.1262551087
 10
99.3293885908
 20
29.1811914531
 10
99.3150595442
 20
29.2359025813
 10
99.3023373557
 20
29.2903895825
 10
99.2912837645
 20
29.3443880377
 10
99.2819068813
 20
29.397895572
 10
99.2741985954
 20
29.4509145601
 10
99.2681963144
 20
29.503187707
 10
99.2639125073
 20
29.5546292474
 10
99.261334705
 20
29.6053249464
 10
99.2604629076
 20
29.6552748042
  0
LINE
  5
24E
100
AcDbEntity
  8
ASSI
100
AcDbLine
 62
7
  6
CONTINUOUS
 10
117.0896942809
 20
16.0957753774
 11
117.1149078934
 21
16.0805201476
  0
LWPOLYLINE
  5
24F
100
AcDbEntity
  8
RACCORDO
100
AcDbPolyline
 62
250
  6
CONTINUOUS
 90
6
 70
0
 10
97.4219852765
 20
29.4105941237
 10
97.4106513326
 20
29.4184109726
 10
97.4018773116
 20
29.4272541128
 10
97.3959341507
 20
29.4368472288
 10
97.3929989422
 20
29.44693035
 10
97.3926959546
 20
29.451420188
  0
LWPOLYLINE
  5
250
100
AcDbEntity
  8
RACCORDO
100
AcDbPolyline
 62
250
  6
CONTINUOUS
 90
4
 70
0
 10
100.144346384
 20
30.9079650214
 10
100.1522117975
 20
30.9096783014
 10
100.1668679796
 20
30.9146601668
 10
100.1797017231
 20
30.9209181525
  0
LINE
  5
251
100
AcDbEntity
  8
ASSI
100
AcDbLine
 62
250
  6
CONTINUOUS
 10
141.863646474
 20
15.0581955349
 11
141.3333163882
 21
15.3644014799
  0
LINE
  5
252
100
AcDbEntity
  8
ASSI
100
AcDbLine
 62
250
  6
CONTINUOUS
 10
86.0022107603
 20
47.3118884078
 11
86.5325408462
 21
47.0056824628
  0
LINE
  5
253
100
AcDbEntity
  8
ASSI
100
AcDbLine
 62
250
  6
CONTINUOUS
 10
141.8620803424
 20
15.1116020946
 11
141.3317502566
 21
15.4178080396
  0
LINE
  5
254
100
AcDbEntity
  8
ASSI
100
AcDbLine
 62
250
  6
CONTINUOUS
 10
86.0006446287
 20
47.3652949675
 11
86.5309747146
 21
47.0590890225
  0
LINE
  5
255
100
AcDbEntity
  8
0
100
AcDbLine
 62
250
  6
CONTINUOUS
 10
109.5135112348
 20
36.1886743982
 11
133.9086951857
 21
22.1032009284
  0
LWPOLYLINE
  5
256
100
AcDbEntity
  8
RACCORDO
100
AcDbPolyline
 62
250
  6
CONTINUOUS
 90
6
 70
0
 10
135.9593048511
 20
7.1596287873
 10
135.9479709072
 20
7.1674456362
 10
135.9391968863
 20
7.1762887764
 10
135.9332537253
 20
7.1858818924
 10
135.9303185169
 20
7.1959650136
 10
135.9300155293
 20
7.2004548516
  0
LWPOLYLINE
  5
257
100
AcDbEntity
  8
RACCORDO
100
AcDbPolyline
 62
250
  6
CONTINUOUS
 90
3
 70
0
 10
100.1331754843
 20
31.0245049446
 10
100.1212698066
 20
31.0350626384
 10
100.108991045
 20
31.0433926395
  0
LINE
  5
258
100
AcDbEntity
  8
0
100
AcDbLine
 62
7
  6
CONTINUOUS
 10
97.4926959546
 20
172.7417894495
 11
99.2604629076
 21
175.8034543501
  0
LINE
  5
259
100
AcDbEntity
  8
0
100
AcDbLine
 62
7
  6
CONTINUOUS
 10
98.0230260405
 20
173.0479953945
 11
99.7907929934
 21
176.1096602951
  0
LWPOLYLINE
  5
25A
100
AcDbEntity
  8
ASSI
100
AcDbPolyline
 62
7
  6
CONTINUOUS
 90
58
 70
0
 10
120.4932421687
 20
164.3399527167
 10
120.4861313597
 20
164.3357590829
 10
120.458221722
 20
164.3175563027
 10
120.4316248083
 20
164.297341631
 10
120.4063475194
 20
164.2751044917
 10
120.3823829546
 20
164.2508554609
 10
120.359856872
 20
164.2247217896
 10
120.3387768335
 20
164.1966935704
 10
120.3191352772
 20
164.1667807107
 10
120.3010352755
 20
164.1351401833
 10
120.2844849321
 20
164.1017629061
 10
120.2694761434
 20
164.0666579611
 10
120.2560876704
 20
164.0300095676
 10
120.244328031
 20
163.9918096119
 10
120.2341887073
 20
163.9520662077
 10
120.2257229073
 20
163.9109879152
 10
120.2189394283
 20
163.8685677172
 10
120.2138294729
 20
163.8248126309
 10
120.2104198566
 20
163.7799522686
 10
120.2087195176
 20
163.7339808201
 10
120.2087195176
 20
163.6869040956
 10
120.2104198566
 20
163.6389691383
 10
120.2138294729
 20
163.5901714365
 10
120.2189394283
 20
163.5405155018
 10
120.2257229073
 20
163.4902619123
 10
120.2341887073
 20
163.4394075262
 10
120.244328031
 20
163.3879554851
 10
120.2560876704
 20
163.3361757926
 10
120.2694761434
 20
163.2840667261
 10
120.2844849321
 20
163.2316300081
 10
120.3010352755
 20
163.1791408092
 10
120.3191352772
 20
163.1265988535
 10
120.3387768335
 20
163.0740044169
 10
120.359856872
 20
163.0216334976
 10
120.3823829546
 20
162.9694872708
 10
120.4063475194
 20
162.9175645612
 10
120.4316248083
 20
162.8661378423
 10
120.458221722
 20
162.8152097214
 10
120.4861313597
 20
162.7647775911
 10
120.515207261
 20
162.7151061027
 10
120.5454555565
 20
162.6661992546
 10
120.5768701156
 20
162.6180530484
 10
120.6092860849
 20
162.5709201394
 10
120.6427087287
 20
162.5248058544
 10
120.6771327827
 20
162.4797048666
 10
120.7123776008
 20
162.4358538512
 10
120.7484474978
 20
162.3932593791
 10
120.7853381588
 20
162.3519148793
 10
120.822855994
 20
162.3120373143
 10
120.8610043002
 20
162.2736343953
 10
120.8997797806
 20
162.236698411
 10
120.9389789541
 20
162.2014231892
 10
120.9786040481
 20
162.1678174604
 10
121.0186528352
 20
162.1358724941
 10
121.0589151527
 20
162.105755927
 10
121.0993209463
 20
162.077523638
 10
121.1399402701
 20
162.0511197481
 10
121.1807731243
 20
162.0265442574
  0
LINE
  5
25B
100
AcDbEntity
  8
ASSI
100
AcDbLine
 62
250
  6
CONTINUOUS
 10
121.5343265149
 20
162.2306815541
 11
121.1807731243
 21
162.0265442574
  0
LINE
  5
25C
100
AcDbEntity
  8
0
100
AcDbLine
 62
250
  6
CONTINUOUS
 10
109.8670646254
 20
36.8010468332
 11
133.9086951857
 21
22.9197106601
  0
LWPOLYLINE
  5
25D
100
AcDbEntity
  8
RACCORDO
100
AcDbPolyline
 62
250
  6
CONTINUOUS
 90
3
 70
0
 10
100.1544429225
 20
30.9980475873
 10
100.1443463313
 20
31.0120403479
 10
100.1331754843
 20
31.0245049446
  0
LWPOLYLINE
  5
25E
100
AcDbEntity
  8
ASSI
100
AcDbPolyline
 62
7
  6
CONTINUOUS
 90
28
 70
0
 10
97.2278158397
 20
29.283327398
 10
97.2548346992
 20
29.2384304694
 10
97.2828408131
 20
29.1943414709
 10
97.3118393712
 20
29.1510646499
 10
97.3418251837
 20
29.1085957591
 10
97.3726408948
 20
29.0671576612
 10
97.4042908673
 20
29.026755775
 10
97.4367707385
 20
28.9873846817
 10
97.4699100647
 20
28.9492509879
 10
97.5037123127
 20
28.9123611984
 10
97.5381740156
 20
28.8767088083
 10
97.5731143299
 20
28.8424809097
 10
97.6085357716
 20
28.8096849909
 10
97.6444358246
 20
28.7783135636
 10
97.6806260974
 20
28.7485312546
 10
97.7171081156
 20
28.7203464178
 10
97.7538803535
 20
28.6937506993
 10
97.7907498425
 20
28.6688836647
 10
97.8277170939
 20
28.6457544015
 10
97.8647815965
 20
28.6243538223
 10
97.9017488479
 20
28.6047942302
 10
97.9386183369
 20
28.5870853029
 10
97.9753905748
 20
28.5712173628
 10
98.011872593
 20
28.5572736796
 10
98.0480628657
 20
28.5452643687
 10
98.0839629188
 20
28.5351793146
 10
98.1193843605
 20
28.5270714404
 10
98.1469284348
 20
28.5222466981
  0
LINE
  5
25F
100
AcDbEntity
  8
ASSI
100
AcDbLine
 62
7
  6
CONTINUOUS
 10
97.2019260205
 20
29.3287966525
 11
97.2278158397
 21
29.283327398
  0
LWPOLYLINE
  5
260
100
AcDbEntity
  8
ASSI
100
AcDbPolyline
 62
7
  6
CONTINUOUS
 90
58
 70
0
 10
124.6967312048
 20
160.3253306861
 10
124.7038420137
 20
160.3295243199
 10
124.7317516515
 20
160.3477271001
 10
124.7583485652
 20
160.3679417717
 10
124.783625854
 20
160.390178911
 10
124.8075904188
 20
160.4144279418
 10
124.8301165014
 20
160.4405616132
 10
124.8511965399
 20
160.4685898323
 10
124.8708380962
 20
160.4985026921
 10
124.8889380979
 20
160.5301432195
 10
124.9054884413
 20
160.5635204967
 10
124.92049723
 20
160.5986254416
 10
124.933885703
 20
160.6352738351
 10
124.9456453425
 20
160.6734737908
 10
124.9557846661
 20
160.713217195
 10
124.9642504662
 20
160.7542954875
 10
124.9710339451
 20
160.7967156856
 10
124.9761439005
 20
160.8404707718
 10
124.9795535169
 20
160.8853311341
 10
124.9812538558
 20
160.9313025826
 10
124.9812538558
 20
160.9783793071
 10
124.9795535169
 20
161.0263142645
 10
124.9761439005
 20
161.0751119663
 10
124.9710339451
 20
161.1247679009
 10
124.9642504662
 20
161.1750214904
 10
124.9557846661
 20
161.2258758766
 10
124.9456453425
 20
161.2773279176
 10
124.933885703
 20
161.3291076102
 10
124.92049723
 20
161.3812166767
 10
124.9054884413
 20
161.4336533947
 10
124.8889380979
 20
161.4861425936
 10
124.8708380962
 20
161.5386845493
 10
124.8511965399
 20
161.5912789859
 10
124.8301165014
 20
161.6436499051
 10
124.8075904188
 20
161.695796132
 10
124.783625854
 20
161.7477188415
 10
124.7583485652
 20
161.7991455604
 10
124.7317516515
 20
161.8500736813
 10
124.7038420137
 20
161.9005058116
 10
124.6747661125
 20
161.9501773001
 10
124.6445178169
 20
161.9990841481
 10
124.6131032578
 20
162.0472303544
 10
124.5806872885
 20
162.0943632634
 10
124.5472646447
 20
162.1404775484
 10
124.5128405907
 20
162.1855785361
 10
124.4775957726
 20
162.2294295515
 10
124.4415258757
 20
162.2720240236
 10
124.4046352146
 20
162.3133685234
 10
124.3671173794
 20
162.3532460885
 10
124.3289690732
 20
162.3916490075
 10
124.2901935928
 20
162.4285849917
 10
124.2509944193
 20
162.4638602135
 10
124.2113693253
 20
162.4974659423
 10
124.1713205382
 20
162.5294109086
 10
124.1310582207
 20
162.5595274757
 10
124.0906524272
 20
162.5877597648
 10
124.0500331033
 20
162.6141636546
 10
124.0092002491
 20
162.6387391453
  0
LINE
  5
261
100
AcDbEntity
  8
ASSI
100
AcDbLine
 62
250
  6
CONTINUOUS
 10
124.3627536397
 20
160.5975831808
 11
124.0092002491
 21
160.3934458841
  0
LINE
  5
262
100
AcDbEntity
  8
0
100
AcDbLine
 62
7
  6
CONTINUOUS
 10
98.0230260405
 20
144.4724037152
 11
101.0282298605
 21
146.2075707368
  0
LINE
  5
263
100
AcDbEntity
  8
0
100
AcDbLine
 62
7
  6
CONTINUOUS
 10
98.0230260405
 20
143.8591829991
 11
97.4926959546
 21
143.5529770541
  0
LINE
  5
264
100
AcDbEntity
  8
0
100
AcDbLine
 62
250
  6
CONTINUOUS
 10
162.9125246997
 20
175.8095389436
 11
163.1829159268
 21
175.9656594494
  0
LINE
  5
265
100
AcDbEntity
  8
0
100
AcDbLine
 62
7
  6
CONTINUOUS
 10
99.7907929934
 20
138.7561451318
 11
99.2604629076
 21
138.4499391868
  0
LINE
  5
266
100
AcDbEntity
  8
0
100
AcDbLine
 62
250
  6
CONTINUOUS
 10
163.4304033002
 20
175.087711254
 11
134.2622485763
 21
158.2463842792
  0
LINE
  5
267
100
AcDbEntity
  8
0
100
AcDbLine
 62
250
  6
CONTINUOUS
 10
100.144346384
 20
138.3479297209
 11
99.7907929934
 21
138.1437924242
  0
LWPOLYLINE
  5
268
100
AcDbEntity
  8
0
100
AcDbPolyline
 62
250
  6
CONTINUOUS
 90
19
 70
0
 10
163.4304033002
 20
175.087711254
 10
163.468957756
 20
175.10900074
 10
163.5074388211
 20
175.1283069534
 10
163.5457732448
 20
175.1455931435
 10
163.5838880552
 20
175.1608264052
 10
163.6217106987
 20
175.1739777411
 10
163.6591691776
 20
175.1850221169
 10
163.6961921877
 20
175.1939385089
 10
163.7327092535
 20
175.2007099444
 10
163.7686508628
 20
175.2053235334
 10
163.8039485987
 20
175.2077704938
 10
163.8385352698
 20
175.2080461677
 10
163.8723450385
 20
175.2061500302
 10
163.905313546
 20
175.2020856909
 10
163.9373780348
 20
175.1958608863
 10
163.9684774685
 20
175.1874874657
 10
163.9985526473
 20
175.1769813685
 10
164.0275463216
 20
175.1643625936
 10
164.0554033002
 20
175.1496551616
  0
LWPOLYLINE
  5
269
100
AcDbEntity
  8
RACCORDO
100
AcDbPolyline
 62
7
  6
CONTINUOUS
 90
34
 70
0
 10
127.7205457987
 20
50.3807091593
 10
127.8332749312
 20
50.3730101445
 10
127.9506586333
 20
50.3549284564
 10
128.0720428462
 20
50.3264491202
 10
128.1963251842
 20
50.2877905964
 10
128.323081512
 20
50.2390835517
 10
128.4527669864
 20
50.1800223458
 10
128.5850638164
 20
50.110488854
 10
128.7189579252
 20
50.0307775029
 10
128.8540439868
 20
49.9409214112
 10
128.9897728005
 20
49.8410567425
 10
129.1253701935
 20
49.73153974
 10
129.2601719314
 20
49.6127208715
 10
129.3935714911
 20
49.4849580031
 10
129.5248938093
 20
49.3487320997
 10
129.6534320521
 20
49.204636271
 10
129.778595188
 20
49.053212427
 10
129.8997910921
 20
48.8950658182
 10
130.0163740332
 20
48.7309518395
 10
130.1278189725
 20
48.5615458182
 10
130.2336247588
 20
48.3875566097
 10
130.333251198
 20
48.2098464627
 10
130.4262729632
 20
48.0291778033
 10
130.5123005413
 20
47.8463276618
 10
130.5909256973
 20
47.6622224554
 10
130.6618477699
 20
47.4776718815
 10
130.7248134338
 20
47.2934749351
 10
130.7795723259
 20
47.1105713431
 10
130.8259674117
 20
46.9297896408
 10
130.8639050483
 20
46.7518912055
 10
130.893318811
 20
46.5777385721
 10
130.9142131139
 20
46.4081341949
 10
130.9266578759
 20
46.2437793447
 10
130.9307711926
 20
46.0853628216
  0
LWPOLYLINE
  5
26A
100
AcDbEntity
  8
RACCORDO
100
AcDbPolyline
 62
250
  6
CONTINUOUS
 90
24
 70
0
 10
129.0586678354
 20
43.8848779061
 10
129.2327803024
 20
43.821928711
 10
129.4045588876
 20
43.7726321097
 10
129.5733519733
 20
43.7371751022
 10
129.7385192645
 20
43.7156921903
 10
129.8994342189
 20
43.7082648667
 10
130.0554864245
 20
43.714921305
 10
130.206083922
 20
43.735636254
 10
130.3506554468
 20
43.7703311357
 10
130.4886525969
 20
43.8188743457
 10
130.6195518861
 20
43.8810817408
 10
130.7428567405
 20
43.95671733
 10
130.8580993856
 20
44.0454941606
 10
130.9648427128
 20
44.1470754868
 10
131.0626818882
 20
44.2610760676
 10
131.1512458292
 20
44.3870635988
 10
131.2301984694
 20
44.5245600894
 10
131.299240174
 20
44.673043701
 10
131.3581091396
 20
44.8319513293
 10
131.4065820061
 20
45.0006799791
 10
131.4444747642
 20
45.1785886057
 10
131.4716438429
 20
45.3650018394
 10
131.4879864681
 20
45.5592127152
 10
131.4934408593
 20
45.7604844081
  0
LINE
  5
26B
100
AcDbEntity
  8
RACCORDO
100
AcDbLine
 62
250
  6
CONTINUOUS
 10
129.5200171845
 20
43.6240098597
 11
129.3197815235
 21
43.7109946145
  0
LINE
  5
26C
100
AcDbEntity
  8
RACCORDO
100
AcDbLine
 62
250
  6
CONTINUOUS
 10
128.8828819579
 20
43.9612409061
 11
129.0586678354
 21
43.8848779061
  0
LINE
  5
26D
100
AcDbEntity
  8
RACCORDO
100
AcDbLine
 62
250
  6
CONTINUOUS
 10
129.3197815235
 20
43.7109946145
 11
129.1183991778
 21
43.812928987
  0
LWPOLYLINE
  5
26E
100
AcDbEntity
  8
ASSI
100
AcDbPolyline
 62
7
  6
CONTINUOUS
 90
9
 70
0
 10
86.0006446287
 20
47.3652949675
 10
79.6394872399
 20
153.8676465582
 10
79.6391972632
 20
153.8735087112
 10
79.6389459309
 20
153.8793951586
 10
79.6387332337
 20
153.8853062251
 10
79.638559181
 20
153.891241586
 10
79.6384238014
 20
153.8972002673
 10
79.6383271044
 20
153.9031819443
 10
79.6382690805
 20
153.9091869416
  0
LWPOLYLINE
  5
26F
100
AcDbEntity
  8
ASSI
100
AcDbPolyline
 62
7
  6
CONTINUOUS
 90
10
 70
0
 10
86.0006446287
 20
47.3652949675
 10
86.00097325
 20
47.3594571089
 10
86.0012632268
 20
47.3535949559
 10
86.001514559
 20
47.3477085085
 10
86.0017272562
 20
47.341797442
 10
86.0019013089
 20
47.3358620811
 10
86.0020366886
 20
47.3299033999
 10
86.0021333856
 20
47.3239217229
 10
86.0021914095
 20
47.3179167255
 10
86.0022107603
 20
47.3118884078
  0
LWPOLYLINE
  5
270
100
AcDbEntity
  8
ASSI
100
AcDbPolyline
 62
7
  6
CONTINUOUS
 90
9
 70
0
 10
86.5309747146
 20
47.0590890225
 10
80.1698173258
 20
153.5614406132
 10
80.1695273491
 20
153.5673027662
 10
80.1692760168
 20
153.5731892136
 10
80.1690633196
 20
153.5791002801
 10
80.1688892669
 20
153.585035641
 10
80.1687538873
 20
153.5909943223
 10
80.1686571903
 20
153.5969759993
 10
80.1685991664
 20
153.6029809966
  0
LWPOLYLINE
  5
271
100
AcDbEntity
  8
ASSI
100
AcDbPolyline
 62
7
  6
CONTINUOUS
 90
10
 70
0
 10
86.5309747146
 20
47.0590890225
 10
86.5313033359
 20
47.0532511639
 10
86.5315933127
 20
47.0473890109
 10
86.5318446449
 20
47.0415025635
 10
86.5320573421
 20
47.035591497
 10
86.5322313948
 20
47.0296561361
 10
86.5323667744
 20
47.0236974549
 10
86.5324634715
 20
47.0177157779
 10
86.5325214954
 20
47.0117107805
 10
86.5325408462
 20
47.0056824628
  0
LWPOLYLINE
  5
272
100
AcDbEntity
  8
0
100
AcDbPolyline
 62
7
  6
CONTINUOUS
 90
18
 70
0
 10
86.5325408462
 20
23.7362795742
 10
86.5331528332
 20
23.7073868513
 10
86.5349521651
 20
23.6793768042
 10
86.5379388418
 20
23.6522494327
 10
86.5421249902
 20
23.6259473705
 10
86.5474984835
 20
23.6005279841
 10
86.554022941
 20
23.5761633725
 10
86.5617061727
 20
23.5528606933
 10
86.5705403687
 20
23.5306127889
 10
86.5804657179
 20
23.5095702865
 10
86.5914896245
 20
23.4897413655
 10
86.6036046844
 20
23.4711178464
 10
86.6167288738
 20
23.4538258178
 10
86.6308690403
 20
23.4378743147
 10
86.6460183364
 20
23.4232543021
 10
86.6620741954
 20
23.4100647631
 10
86.6790427689
 20
23.3983154045
 10
86.6878564606
 20
23.3929832476
  0
LINE
  5
273
100
AcDbEntity
  8
ASSI
100
AcDbLine
 62
7
  6
CONTINUOUS
 10
79.6382497296
 20
188.3567736294
 11
79.6382690805
 21
153.9091869416
  0
LINE
  5
274
100
AcDbEntity
  8
ASSI
100
AcDbLine
 62
7
  6
CONTINUOUS
 10
80.1685798155
 20
188.0505676844
 11
80.1685991664
 21
153.6029809966
  0
LINE
  5
275
100
AcDbEntity
  8
0
100
AcDbLine
 62
250
  6
CONTINUOUS
 10
80.8756865967
 20
189.0711160755
 11
80.8756865967
 21
188.4587633679
  0
LWPOLYLINE
  5
276
100
AcDbEntity
  8
ASSI
100
AcDbPolyline
 62
7
  6
CONTINUOUS
 90
52
 70
0
 10
120.6929721069
 20
164.4016843204
 10
120.6923302241
 20
164.4008308671
 10
120.6726886678
 20
164.3709180074
 10
120.6545886661
 20
164.33927748
 10
120.6380383227
 20
164.3059002027
 10
120.623029534
 20
164.2707952578
 10
120.609641061
 20
164.2341468643
 10
120.5978814216
 20
164.1959469086
 10
120.5877420979
 20
164.1562035044
 10
120.5792762978
 20
164.1151252119
 10
120.5724928189
 20
164.0727050139
 10
120.5673828635
 20
164.0289499276
 10
120.5639732472
 20
163.9840895653
 10
120.5622729082
 20
163.9381181168
 10
120.5622729082
 20
163.8910413923
 10
120.5639732472
 20
163.8431064349
 10
120.5673828635
 20
163.7943087331
 10
120.5724928189
 20
163.7446527985
 10
120.5792762978
 20
163.694399209
 10
120.5877420979
 20
163.6435448228
 10
120.5978814216
 20
163.5920927818
 10
120.609641061
 20
163.5403130892
 10
120.623029534
 20
163.4882040228
 10
120.6380383227
 20
163.4357673048
 10
120.6545886661
 20
163.3832781058
 10
120.6726886678
 20
163.3307361502
 10
120.6923302241
 20
163.2781417135
 10
120.7134102626
 20
163.2257707943
 10
120.7359363452
 20
163.1736245674
 10
120.75990091
 20
163.1217018579
 10
120.7851781989
 20
163.070275139
 10
120.8117751126
 20
163.0193470181
 10
120.8396847503
 20
162.9689148878
 10
120.8687606516
 20
162.9192433993
 10
120.8990089471
 20
162.8703365513
 10
120.9304235062
 20
162.822190345
 10
120.9628394755
 20
162.775057436
 10
120.9962621193
 20
162.728943151
 10
121.0306861733
 20
162.6838421633
 10
121.0659309914
 20
162.6399911479
 10
121.1020008884
 20
162.5973966758
 10
121.1388915494
 20
162.556052176
 10
121.1764093846
 20
162.5161746109
 10
121.2145576908
 20
162.477771692
 10
121.2533331712
 20
162.4408357077
 10
121.2925323447
 20
162.4055604859
 10
121.3321574387
 20
162.3719547571
 10
121.3722062258
 20
162.3400097908
 10
121.4124685433
 20
162.3098932237
 10
121.4528743369
 20
162.2816609346
 10
121.4934936607
 20
162.2552570448
 10
121.5343265149
 20
162.2306815541
  0
LWPOLYLINE
  5
277
100
AcDbEntity
  8
0
100
AcDbPolyline
 62
250
  6
CONTINUOUS
 90
19
 70
0
 10
164.6678401673
 20
172.9444077313
 10
164.7055533618
 20
172.9671543245
 10
164.7415122447
 20
172.9908290857
 10
164.7756483662
 20
173.0153869485
 10
164.8078967462
 20
173.0407811657
 10
164.8381959981
 20
173.066963398
 10
164.8664884456
 20
173.093883806
 10
164.8927202323
 20
173.1214911452
 10
164.9168414246
 20
173.1497328633
 10
164.9388061065
 20
173.1785552008
 10
164.9585724668
 20
173.2079032926
 10
164.9761028793
 20
173.237721273
 10
164.9913639737
 20
173.2679523818
 10
165.0043266997
 20
173.2985390723
 10
165.0149663821
 20
173.3294231211
 10
165.0232627675
 20
173.3605457385
 10
165.0292000634
 20
173.391847681
 10
165.0327669678
 20
173.4232693634
 10
165.0339566908
 20
173.4547509729
  0
LINE
  5
278
100
AcDbEntity
  8
0
100
AcDbLine
 62
7
  6
CONTINUOUS
 10
100.6746764699
 20
138.2470052656
 11
100.144346384
 21
137.9407993206
  0
LINE
  5
279
100
AcDbEntity
  8
0
100
AcDbLine
 62
7
  6
CONTINUOUS
 10
101.0282298605
 20
138.0428679689
 11
100.144346384
 21
137.5325247273
  0
LINE
  5
27A
100
AcDbEntity
  8
0
100
AcDbLine
 62
250
  6
CONTINUOUS
 10
164.6678401673
 20
172.9444077313
 11
135.4996854434
 21
156.1030807565
  0
LINE
  5
27B
100
AcDbEntity
  8
0
100
AcDbLine
 62
250
  6
CONTINUOUS
 10
165.0339566908
 20
171.7271139313
 11
165.4810129657
 21
171.9852386215
  0
LWPOLYLINE
  5
27C
100
AcDbEntity
  8
RACCORDO
100
AcDbPolyline
 62
7
  6
CONTINUOUS
 90
15
 70
0
 10
129.0176458684
 20
43.8693090113
 10
129.1455875837
 20
43.7982382803
 10
129.3543533106
 20
43.6942587366
 10
129.5631027171
 20
43.6052039722
 10
129.7710124199
 20
43.5315285169
 10
129.9762340122
 20
43.4738487617
 10
130.1779919735
 20
43.4321982741
 10
130.3759809109
 20
43.4064727107
 10
130.569111605
 20
43.3966221882
 10
130.7566759601
 20
43.4024138756
 10
130.9382893769
 20
43.423568079
 10
131.1132928654
 20
43.4597456731
 10
131.2810522629
 20
43.510523679
 10
131.4410186113
 20
43.5754211692
 10
131.5926411218
 20
43.6538794672
  0
LWPOLYLINE
  5
27D
100
AcDbEntity
  8
RACCORDO
100
AcDbPolyline
 62
250
  6
CONTINUOUS
 90
3
 70
0
 10
128.6178042979
 20
44.1001278977
 10
128.7060894895
 20
44.0507280383
 10
128.8828819579
 20
43.9612409061
  0
LINE
  5
27E
100
AcDbEntity
  8
0
100
AcDbLine
 62
7
  6
CONTINUOUS
 10
128.6178042979
 20
44.1001278977
 11
129.017842955
 21
43.869195231
  0
LINE
  5
27F
100
AcDbEntity
  8
0
100
AcDbLine
 62
7
  6
CONTINUOUS
 10
109.8670646254
 20
59.0498618758
 11
110.220618016
 21
58.8457245792
  0
LWPOLYLINE
  5
280
100
AcDbEntity
  8
RACCORDO
100
AcDbPolyline
 62
7
  6
CONTINUOUS
 90
25
 70
0
 10
128.6178042979
 20
44.1001278977
 10
128.4235941003
 20
44.2195891779
 10
128.2317165355
 20
44.3522275255
 10
128.0428097905
 20
44.4973927811
 10
127.8574515172
 20
44.6544561137
 10
127.6762816031
 20
44.8227118881
 10
127.5000319947
 20
45.0013164951
 10
127.3293776415
 20
45.1894111766
 10
127.1648064443
 20
45.38629791
 10
127.0067895279
 20
45.591291999
 10
126.8558833264
 20
45.8035778073
 10
126.7126189065
 20
46.0223282191
 10
126.5774382095
 20
46.2468174068
 10
126.4508418466
 20
46.4761943196
 10
126.3333079005
 20
46.7095916054
 10
126.2252347294
 20
46.9462551265
 10
126.1270572332
 20
47.1853165673
 10
126.0391919194
 20
47.4258817993
 10
125.9619883698
 20
47.6671796644
 10
125.8958043106
 20
47.9083795391
 10
125.841003153
 20
48.1485426816
 10
125.7979024941
 20
48.3867927302
 10
125.7667923717
 20
48.6222840188
 10
125.7479455274
 20
48.8541505661
 10
125.741611863
 20
49.0815183832
  0
LWPOLYLINE
  5
281
100
AcDbEntity
  8
RACCORDO
100
AcDbPolyline
 62
250
  6
CONTINUOUS
 90
6
 70
0
 10
97.4219852765
 20
29.4105941237
 10
97.4230847868
 20
29.3968867045
 10
97.426349188
 20
29.3848750941
 10
97.4316770513
 20
29.3749329337
 10
97.4389342216
 20
29.3673451477
 10
97.4426935386
 20
29.3648204376
  0
LINE
  5
282
100
AcDbEntity
  8
0
100
AcDbLine
 62
7
  6
CONTINUOUS
 10
86.0022107603
 20
24.0424855192
 11
86.0022107603
 21
47.3118884078
  0
LINE
  5
283
100
AcDbEntity
  8
0
100
AcDbLine
 62
7
  6
CONTINUOUS
 10
86.5325408462
 20
23.7362795742
 11
86.5325408462
 21
47.0056824628
  0
LWPOLYLINE
  5
284
100
AcDbEntity
  8
ASSI
100
AcDbPolyline
 62
7
  6
CONTINUOUS
 90
28
 70
0
 10
135.7651354143
 20
7.0323620616
 10
135.7921542739
 20
6.987465133
 10
135.8201603878
 20
6.9433761346
 10
135.8491589459
 20
6.9000993135
 10
135.8791447584
 20
6.8576304227
 10
135.9099604695
 20
6.8161923248
 10
135.941610442
 20
6.7757904386
 10
135.9740903132
 20
6.7364193453
 10
136.0072296394
 20
6.6982856515
 10
136.0410318873
 20
6.661395862
 10
136.0754935903
 20
6.6257434719
 10
136.1104339046
 20
6.5915155733
 10
136.1458553463
 20
6.5587196546
 10
136.1817553993
 20
6.5273482272
 10
136.2179456721
 20
6.4975659182
 10
136.2544276902
 20
6.4693810814
 10
136.2911999281
 20
6.4427853629
 10
136.3280694172
 20
6.4179183284
 10
136.3650366686
 20
6.3947890652
 10
136.4021011711
 20
6.3733884859
 10
136.4390684225
 20
6.3538288938
 10
136.4759379116
 20
6.3361199666
 10
136.5127101495
 20
6.3202520265
 10
136.5491921676
 20
6.3063083432
 10
136.5853824404
 20
6.2942990323
 10
136.6212824935
 20
6.2842139783
 10
136.6567039351
 20
6.2761061041
 10
136.6842480094
 20
6.2712813617
  0
LINE
  5
285
100
AcDbEntity
  8
ASSI
100
AcDbLine
 62
7
  6
CONTINUOUS
 10
135.7392455952
 20
7.0778313162
 11
135.7651354143
 21
7.0323620616
  0
LWPOLYLINE
  5
286
100
AcDbEntity
  8
CURVE
100
AcDbPolyline
 62
250
  6
CONTINUOUS
 90
17
 70
0
 10
95.5481523063
 20
79.1539924731
 10
95.5649857298
 20
78.9460398473
 10
95.6148448205
 20
78.7265692568
 10
95.6958304609
 20
78.5039402683
 10
95.8070357828
 20
78.2828518117
 10
95.9403352802
 20
78.0794582897
 10
96.092363497
 20
77.8975546253
 10
96.2573297256
 20
77.7440694727
 10
96.4320357828
 20
77.6230613855
 10
96.6037163164
 20
77.543372134
 10
96.7688575918
 20
77.5055920954
 10
96.9211694292
 20
77.5111602994
 10
97.0570357828
 20
77.5611174779
 10
97.1665292244
 20
77.6518133797
 10
97.248046039
 20
77.780288001
 10
97.2984812765
 20
77.9416477833
 10
97.3159192593
 20
78.133306079
  0
LWPOLYLINE
  5
287
100
AcDbEntity
  8
CURVE
100
AcDbPolyline
 62
250
  6
CONTINUOUS
 90
17
 70
0
 10
97.3159192593
 20
78.1333059898
 10
97.2990858358
 20
78.3412586157
 10
97.2492267452
 20
78.5607292062
 10
97.1682411047
 20
78.7833581947
 10
97.0570357828
 20
79.0044466513
 10
96.9237362854
 20
79.2078401733
 10
96.7717080686
 20
79.3897438376
 10
96.60674184
 20
79.5432289903
 10
96.4320357828
 20
79.6642370775
 10
96.2603552492
 20
79.7439263289
 10
96.0952139738
 20
79.7817063676
 10
95.9429021364
 20
79.7761381636
 10
95.8070357828
 20
79.7261809851
 10
95.6975423412
 20
79.6354850833
 10
95.6160255266
 20
79.507010462
 10
95.5655902891
 20
79.3456506797
 10
95.5481523063
 20
79.1539923839
  0
LWPOLYLINE
  5
288
100
AcDbEntity
  8
CURVE
100
AcDbPolyline
 62
250
  6
CONTINUOUS
 90
17
 70
0
 10
103.3263268994
 20
22.4088742318
 10
103.3431603229
 20
22.2009216059
 10
103.3930194135
 20
21.9814510154
 10
103.474005054
 20
21.7588220269
 10
103.5852103759
 20
21.5377335704
 10
103.7185098733
 20
21.3343400483
 10
103.8705380901
 20
21.152436384
 10
104.0355043187
 20
20.9989512314
 10
104.2102103759
 20
20.8779431441
 10
104.3818909095
 20
20.7982538927
 10
104.5470321849
 20
20.760473854
 10
104.6993440223
 20
20.7660420581
 10
104.8352103759
 20
20.8159992365
 10
104.9447038175
 20
20.9066951384
 10
105.0262206321
 20
21.0351697596
 10
105.0766558696
 20
21.1965295419
 10
105.0940938523
 20
21.3881878377
  0
LWPOLYLINE
  5
289
100
AcDbEntity
  8
CURVE
100
AcDbPolyline
 62
250
  6
CONTINUOUS
 90
17
 70
0
 10
95.5481523063
 20
132.2245604647
 10
95.5649857298
 20
132.0166078388
 10
95.6148448205
 20
131.7971372483
 10
95.6958304609
 20
131.5745082598
 10
95.8070357828
 20
131.3534198032
 10
95.9403352802
 20
131.1500262812
 10
96.092363497
 20
130.9681226169
 10
96.2573297256
 20
130.8146374642
 10
96.4320357828
 20
130.693629377
 10
96.6037163164
 20
130.6139401256
 10
96.7688575918
 20
130.5761600869
 10
96.9211694292
 20
130.5817282909
 10
97.0570357828
 20
130.6316854694
 10
97.1665292244
 20
130.7223813712
 10
97.248046039
 20
130.8508559925
 10
97.2984812765
 20
131.0122157748
 10
97.3159192593
 20
131.2038740706
  0
LWPOLYLINE
  5
28A
100
AcDbEntity
  8
CURVE
100
AcDbPolyline
 62
250
  6
CONTINUOUS
 90
17
 70
0
 10
105.0940938523
 20
21.3881877485
 10
105.0772604288
 20
21.5961403744
 10
105.0274013382
 20
21.8156109649
 10
104.9464156977
 20
22.0382399533
 10
104.8352103759
 20
22.2593284099
 10
104.7019108784
 20
22.462721932
 10
104.5498826617
 20
22.6446255963
 10
104.384916433
 20
22.7981107489
 10
104.2102103759
 20
22.9191188361
 10
104.0385298423
 20
22.9988080876
 10
103.8733885668
 20
23.0365881263
 10
103.7210767295
 20
23.0310199222
 10
103.5852103759
 20
22.9810627437
 10
103.4757169343
 20
22.8903668419
 10
103.3942001196
 20
22.7618922207
 10
103.3437648821
 20
22.6005324384
 10
103.3263268994
 20
22.4088741426
  0
LWPOLYLINE
  5
28B
100
AcDbEntity
  8
CURVE
100
AcDbPolyline
 62
250
  6
CONTINUOUS
 90
17
 70
0
 10
97.3159192593
 20
131.2038739814
 10
97.2990858358
 20
131.4118266072
 10
97.2492267452
 20
131.6312971977
 10
97.1682411047
 20
131.8539261862
 10
97.0570357828
 20
132.0750146428
 10
96.9237362854
 20
132.2784081648
 10
96.7717080686
 20
132.4603118292
 10
96.60674184
 20
132.6137969818
 10
96.4320357828
 20
132.734805069
 10
96.2603552492
 20
132.8144943205
 10
96.0952139738
 20
132.8522743591
 10
95.9429021364
 20
132.8467061551
 10
95.8070357828
 20
132.7967489766
 10
95.6975423412
 20
132.7060530748
 10
95.6160255266
 20
132.5775784535
 10
95.5655902891
 20
132.4162186712
 10
95.5481523063
 20
132.2245603755
  0
LWPOLYLINE
  5
28C
100
AcDbEntity
  8
RACCORDO
100
AcDbPolyline
 62
250
  6
CONTINUOUS
 90
6
 70
0
 10
97.4219852765
 20
104.7299771578
 10
97.4230847868
 20
104.7162697387
 10
97.426349188
 20
104.7042581282
 10
97.4316770513
 20
104.6943159678
 10
97.4389342216
 20
104.6867281818
 10
97.4426935386
 20
104.6842034717
  0
LWPOLYLINE
  5
28D
100
AcDbEntity
  8
RACCORDO
100
AcDbPolyline
 62
250
  6
CONTINUOUS
 90
6
 70
0
 10
100.1797017231
 20
30.9209181525
 10
100.1786274574
 20
30.935716354
 10
100.1754373093
 20
30.9513054207
 10
100.1702282221
 20
30.9672116801
 10
100.1631584875
 20
30.9829518166
 10
100.1544429225
 20
30.9980475873
  0
LWPOLYLINE
  5
28E
100
AcDbEntity
  8
RACCORDO
100
AcDbPolyline
 62
7
  6
CONTINUOUS
 90
7
 70
0
 10
101.1342958777
 20
31.8803239919
 10
101.1332622158
 20
31.8961424447
 10
101.1305709509
 20
31.9102110244
 10
101.1262220829
 20
31.9225297312
 10
101.120085969
 20
31.9332477434
 10
101.112292252
 20
31.9422158827
 10
101.1032334845
 20
31.9489845211
  0
LWPOLYLINE
  5
28F
100
AcDbEntity
  8
ASSI
100
AcDbPolyline
 62
7
  6
CONTINUOUS
 90
51
 70
0
 10
96.9623658687
 20
110.9962543582
 10
96.9629778557
 20
110.966654928
 10
96.9647771876
 20
110.9365670575
 10
96.9677638643
 20
110.9059907466
 10
96.9719500127
 20
110.8748546252
 10
96.977323506
 20
110.8432300634
 10
96.9838479635
 20
110.8113311719
 10
96.9915311952
 20
110.7791560892
 10
97.0003653912
 20
110.7467066768
 10
97.0102907404
 20
110.71420263
 10
97.021314647
 20
110.6816435779
 10
97.0334297069
 20
110.6490298914
 10
97.0465538963
 20
110.6165823778
 10
97.0606940628
 20
110.5843021648
 10
97.075843359
 20
110.5521881247
 10
97.0918992179
 20
110.5204576823
 10
97.1088677914
 20
110.4891134404
 10
97.1267429278
 20
110.458152796
 10
97.1454036053
 20
110.427785365
 10
97.1648551545
 20
110.3980151725
 10
97.1850922449
 20
110.3688381934
 10
97.2059778634
 20
110.340451967
 10
97.2275164109
 20
110.3128618593
 10
97.2497034865
 20
110.2860625045
 10
97.2723888751
 20
110.2602353446
 10
97.295575958
 20
110.2353869766
 10
97.319261354
 20
110.2115108037
 10
97.3432847035
 20
110.1887684767
 10
97.3676482999
 20
110.1671676897
 10
97.3923498498
 20
110.1467007486
 10
97.4172221142
 20
110.1275062228
 10
97.4422662514
 20
110.1095927464
 10
97.467481103
 20
110.0929516851
 10
97.4926959546
 20
110.0776957056
 10
97.5179108062
 20
110.0638342065
 10
97.5431256578
 20
110.0513577892
 10
97.568169795
 20
110.0403509237
 10
97.5930420594
 20
110.0308235821
 10
97.6177436093
 20
110.0227657924
 10
97.6421072057
 20
110.0162321091
 10
97.6661305552
 20
110.0112328742
 10
97.6898159511
 20
110.0077577456
 10
97.7130030341
 20
110.0058302513
 10
97.7356884227
 20
110.0054608931
 10
97.7578754983
 20
110.0066391692
 10
97.7794140457
 20
110.0093571022
 10
97.8002996643
 20
110.0136251397
 10
97.8205367547
 20
110.0194328342
 10
97.8399883039
 20
110.0267408652
 10
97.8586489814
 20
110.0355594136
 10
97.867710426
 20
110.0405461416
  0
LWPOLYLINE
  5
290
100
AcDbEntity
  8
ASSI
100
AcDbPolyline
 62
7
  6
CONTINUOUS
 90
33
 70
0
 10
97.4926959546
 20
111.3024603032
 10
97.4933079416
 20
111.272860873
 10
97.4951072735
 20
111.2427730025
 10
97.4980939502
 20
111.2121966916
 10
97.5022800986
 20
111.1810605702
 10
97.5076535919
 20
111.1494360084
 10
97.5141780494
 20
111.1175371169
 10
97.5218612811
 20
111.0853620342
 10
97.5306954771
 20
111.0529126218
 10
97.5406208263
 20
111.0204085749
 10
97.5516447329
 20
110.9878495229
 10
97.5637597928
 20
110.9552358364
 10
97.5768839822
 20
110.9227883228
 10
97.5910241487
 20
110.8905081098
 10
97.6061734448
 20
110.8583940697
 10
97.6222293038
 20
110.8266636273
 10
97.6391978773
 20
110.7953193854
 10
97.6570730137
 20
110.764358741
 10
97.6757336912
 20
110.73399131
 10
97.6951852404
 20
110.7042211175
 10
97.7154223308
 20
110.6750441384
 10
97.7363079493
 20
110.646657912
 10
97.7578464968
 20
110.6190678043
 10
97.7800335724
 20
110.5922684495
 10
97.802718961
 20
110.5664412896
 10
97.8259060439
 20
110.5415929216
 10
97.8495914399
 20
110.5177167487
 10
97.8736147894
 20
110.4949744217
 10
97.8979783858
 20
110.4733736347
 10
97.9226799357
 20
110.4529066936
 10
97.9475522001
 20
110.4337121678
 10
97.9725963373
 20
110.4157986914
 10
97.9978111889
 20
110.3991576301
  0
LWPOLYLINE
  5
291
100
AcDbEntity
  8
ASSI
100
AcDbPolyline
 62
7
  6
CONTINUOUS
 90
51
 70
0
 10
98.0230260405
 20
110.3838424682
 10
98.0224140535
 20
110.4134418984
 10
98.0206147216
 20
110.4435297689
 10
98.0176280449
 20
110.4741060798
 10
98.0134418964
 20
110.5052422012
 10
98.0080684032
 20
110.536866763
 10
98.0015439457
 20
110.5687656545
 10
97.9938607139
 20
110.6009407372
 10
97.985026518
 20
110.6333901496
 10
97.9751011688
 20
110.6658941965
 10
97.9640772622
 20
110.6984532485
 10
97.9519622023
 20
110.731066935
 10
97.9388380129
 20
110.7635144486
 10
97.9246978463
 20
110.7957946616
 10
97.9095485502
 20
110.8279087017
 10
97.8934926913
 20
110.8596391441
 10
97.8765241178
 20
110.890983386
 10
97.8586489814
 20
110.9219440304
 10
97.8399883039
 20
110.9523114614
 10
97.8205367547
 20
110.9820816539
 10
97.8002996643
 20
111.0112586331
 10
97.7794140457
 20
111.0396448594
 10
97.7578754983
 20
111.0672349671
 10
97.7356884227
 20
111.0940343219
 10
97.7130030341
 20
111.1198614819
 10
97.6898159511
 20
111.1447098498
 10
97.6661305552
 20
111.1685860227
 10
97.6421072057
 20
111.1913283497
 10
97.6177436093
 20
111.2129291367
 10
97.5930420594
 20
111.2333960778
 10
97.568169795
 20
111.2525906036
 10
97.5431256578
 20
111.2705040801
 10
97.5179108062
 20
111.2871451413
 10
97.4926959546
 20
111.3024011208
 10
97.467481103
 20
111.3162626199
 10
97.4422662514
 20
111.3287390373
 10
97.4172221142
 20
111.3397459027
 10
97.3923498498
 20
111.3492732443
 10
97.3676482999
 20
111.357331034
 10
97.3432847035
 20
111.3638647173
 10
97.319261354
 20
111.3688639522
 10
97.295575958
 20
111.3723390808
 10
97.2723888751
 20
111.3742665751
 10
97.2497034865
 20
111.3746359333
 10
97.2275164109
 20
111.3734576572
 10
97.2059778634
 20
111.3707397242
 10
97.1850922449
 20
111.3664716867
 10
97.1648551545
 20
111.3606639922
 10
97.1454036053
 20
111.3533559612
 10
97.1267429278
 20
111.3445374128
 10
97.1176814832
 20
111.3395506848
  0
LWPOLYLINE
  5
292
100
AcDbEntity
  8
ASSI
100
AcDbPolyline
 62
7
  6
CONTINUOUS
 90
58
 70
0
 10
96.4320357828
 20
29.8595501931
 10
96.4328224052
 20
29.8162340074
 10
96.4351456336
 20
29.7722547462
 10
96.439005468
 20
29.7276124093
 10
96.4444140572
 20
29.6822264469
 10
96.4513592524
 20
29.6361774089
 10
96.4598046076
 20
29.5897069455
 10
96.4697580088
 20
29.5428128413
 10
96.48121157
 20
29.4954973117
 10
96.4941051866
 20
29.448008653
 10
96.5084464288
 20
29.4003459551
 10
96.5242277265
 20
29.3525101281
 10
96.5413662645
 20
29.3047521987
 10
96.5598691777
 20
29.2570725763
 10
96.5797293313
 20
29.2094708515
 10
96.6008425058
 20
29.1621968224
 10
96.623215288
 20
29.1152522116
 10
96.6468410911
 20
29.0686352966
 10
96.6715959346
 20
29.0225907075
 10
96.6974857538
 20
28.977121453
 10
96.7245046133
 20
28.9322245244
 10
96.7525107272
 20
28.8881355259
 10
96.7815092854
 20
28.8448587049
 10
96.8114950978
 20
28.8023898141
 10
96.842310809
 20
28.7609517162
 10
96.8739607815
 20
28.72054983
 10
96.9064406526
 20
28.6811787367
 10
96.9395799789
 20
28.6430450429
 10
96.9733822268
 20
28.6061552534
 10
97.0078439297
 20
28.5705028633
 10
97.042784244
 20
28.5362749647
 10
97.0782056857
 20
28.5034790459
 10
97.1141057388
 20
28.4721076186
 10
97.1502960115
 20
28.4423253096
 10
97.1867780297
 20
28.4141404728
 10
97.2235502676
 20
28.3875447543
 10
97.2604197566
 20
28.3626777197
 10
97.297387008
 20
28.3395484566
 10
97.3344515106
 20
28.3181478773
 10
97.371418762
 20
28.2985882852
 10
97.408288251
 20
28.280879358
 10
97.4450604889
 20
28.2650114178
 10
97.4815425071
 20
28.2510677346
 10
97.5177327798
 20
28.2390584237
 10
97.5536328329
 20
28.2289733696
 10
97.5890542746
 20
28.2208654954
 10
97.6239945889
 20
28.2147451949
 10
97.6584562918
 20
28.2106020742
 10
97.6922585397
 20
28.2084578751
 10
97.725397866
 20
28.2083231057
 10
97.7578777371
 20
28.2101872578
 10
97.7895277096
 20
28.2140405491
 10
97.8203434208
 20
28.2198934362
 10
97.8503292332
 20
28.2277354625
 10
97.8793277913
 20
28.2375254755
 10
97.9073339053
 20
28.2492737155
 10
97.9343527648
 20
28.2629699424
 10
97.9409474098
 20
28.2666961839
  0
LWPOLYLINE
  5
293
100
AcDbEntity
  8
ASSI
100
AcDbPolyline
 62
7
  6
CONTINUOUS
 90
19
 70
0
 10
96.9623658687
 20
30.1657561381
 10
96.9631524911
 20
30.1224399524
 10
96.9654757195
 20
30.0784606912
 10
96.9693355539
 20
30.0338183543
 10
96.9747441431
 20
29.9884323919
 10
96.9816893383
 20
29.9423833539
 10
96.9901346935
 20
29.8959128905
 10
97.0000880947
 20
29.8490187863
 10
97.0115416559
 20
29.8017032567
 10
97.0244352725
 20
29.754214598
 10
97.0387765147
 20
29.7065519001
 10
97.0545578123
 20
29.6587160731
 10
97.0716963504
 20
29.6109581437
 10
97.0901992636
 20
29.5632785213
 10
97.1100594172
 20
29.5156767965
 10
97.1311725917
 20
29.4684027674
 10
97.1535453739
 20
29.4214581566
 10
97.177171177
 20
29.3748412416
 10
97.2019260205
 20
29.3287966525
  0
LWPOLYLINE
  5
294
100
AcDbEntity
  8
ASSI
100
AcDbPolyline
 62
7
  6
CONTINUOUS
 90
58
 70
0
 10
96.4320357828
 20
105.1789332273
 10
96.4328224052
 20
105.1356170416
 10
96.4351456336
 20
105.0916377803
 10
96.439005468
 20
105.0469954435
 10
96.4444140572
 20
105.001609481
 10
96.4513592524
 20
104.955560443
 10
96.4598046076
 20
104.9090899796
 10
96.4697580088
 20
104.8621958754
 10
96.48121157
 20
104.8148803458
 10
96.4941051866
 20
104.7673916871
 10
96.5084464288
 20
104.7197289892
 10
96.5242277265
 20
104.6718931623
 10
96.5413662645
 20
104.6241352328
 10
96.5598691777
 20
104.5764556104
 10
96.5797293313
 20
104.5288538856
 10
96.6008425058
 20
104.4815798565
 10
96.623215288
 20
104.4346352458
 10
96.6468410911
 20
104.3880183308
 10
96.6715959346
 20
104.3419737417
 10
96.6974857538
 20
104.2965044871
 10
96.7245046133
 20
104.2516075585
 10
96.7525107272
 20
104.2075185601
 10
96.7815092854
 20
104.164241739
 10
96.8114950978
 20
104.1217728482
 10
96.842310809
 20
104.0803347503
 10
96.8739607815
 20
104.0399328641
 10
96.9064406526
 20
104.0005617708
 10
96.9395799789
 20
103.962428077
 10
96.9733822268
 20
103.9255382875
 10
97.0078439297
 20
103.8898858974
 10
97.042784244
 20
103.8556579988
 10
97.0782056857
 20
103.8228620801
 10
97.1141057388
 20
103.7914906527
 10
97.1502960115
 20
103.7617083437
 10
97.1867780297
 20
103.7335235069
 10
97.2235502676
 20
103.7069277884
 10
97.2604197566
 20
103.6820607539
 10
97.297387008
 20
103.6589314907
 10
97.3344515106
 20
103.6375309114
 10
97.371418762
 20
103.6179713193
 10
97.408288251
 20
103.6002623921
 10
97.4450604889
 20
103.584394452
 10
97.4815425071
 20
103.5704507687
 10
97.5177327798
 20
103.5584414578
 10
97.5536328329
 20
103.5483564038
 10
97.5890542746
 20
103.5402485296
 10
97.6239945889
 20
103.534128229
 10
97.6584562918
 20
103.5299851083
 10
97.6922585397
 20
103.5278409092
 10
97.725397866
 20
103.5277061398
 10
97.7578777371
 20
103.529570292
 10
97.7895277096
 20
103.5334235833
 10
97.8203434208
 20
103.5392764704
 10
97.8503292332
 20
103.5471184966
 10
97.8793277913
 20
103.5569085096
 10
97.9073339053
 20
103.5686567497
 10
97.9343527648
 20
103.5823529765
 10
97.9409474098
 20
103.586079218
  0
LWPOLYLINE
  5
295
100
AcDbEntity
  8
ASSI
100
AcDbPolyline
 62
7
  6
CONTINUOUS
 90
58
 70
0
 10
98.1998027358
 20
28.8388637098
 10
98.1990161134
 20
28.8821798955
 10
98.196692885
 20
28.9261591567
 10
98.1928330506
 20
28.9708014936
 10
98.1874244614
 20
29.016187456
 10
98.1804792662
 20
29.062236494
 10
98.172033911
 20
29.1087069574
 10
98.1620805098
 20
29.1556010616
 10
98.1506269486
 20
29.2029165912
 10
98.137733332
 20
29.2504052499
 10
98.1233920898
 20
29.2980679478
 10
98.1076107921
 20
29.3459037748
 10
98.0904722541
 20
29.3936617042
 10
98.0719693409
 20
29.4413413266
 10
98.0521091873
 20
29.4889430514
 10
98.0309960128
 20
29.5362170805
 10
98.0086232306
 20
29.5831616913
 10
97.9849974275
 20
29.6297786063
 10
97.9602425839
 20
29.6758231954
 10
97.9343527648
 20
29.7212924499
 10
97.9073339053
 20
29.7661893785
 10
97.8793277913
 20
29.810278377
 10
97.8503292332
 20
29.853555198
 10
97.8203434208
 20
29.8960240888
 10
97.7895277096
 20
29.9374621867
 10
97.7578777371
 20
29.9778640729
 10
97.725397866
 20
30.0172351662
 10
97.6922585397
 20
30.05536886
 10
97.6584562918
 20
30.0922586495
 10
97.6239945889
 20
30.1279110396
 10
97.5890542746
 20
30.1621389382
 10
97.5536328329
 20
30.194934857
 10
97.5177327798
 20
30.2263062843
 10
97.4815425071
 20
30.2560885933
 10
97.4450604889
 20
30.2842734301
 10
97.408288251
 20
30.3108691486
 10
97.371418762
 20
30.3357361832
 10
97.3344515106
 20
30.3588654464
 10
97.297387008
 20
30.3802660256
 10
97.2604197566
 20
30.3998256177
 10
97.2235502676
 20
30.417534545
 10
97.1867780297
 20
30.4334024851
 10
97.1502960115
 20
30.4473461683
 10
97.1141057388
 20
30.4593554792
 10
97.0782056857
 20
30.4694405333
 10
97.042784244
 20
30.4775484075
 10
97.0078439297
 20
30.483668708
 10
96.9733822268
 20
30.4878118287
 10
96.9395799789
 20
30.4899560278
 10
96.9064406526
 20
30.4900907972
 10
96.8739607815
 20
30.4882266451
 10
96.842310809
 20
30.4843733538
 10
96.8114950978
 20
30.4785204667
 10
96.7815092854
 20
30.4706784404
 10
96.7525107272
 20
30.4608884274
 10
96.7245046133
 20
30.4491401874
 10
96.6974857538
 20
30.4354439605
 10
96.6908911088
 20
30.431717719
  0
LWPOLYLINE
  5
296
100
AcDbEntity
  8
ASSI
100
AcDbPolyline
 62
7
  6
CONTINUOUS
 90
19
 70
0
 10
96.9623658687
 20
105.4851391722
 10
96.9631524911
 20
105.4418229866
 10
96.9654757195
 20
105.3978437253
 10
96.9693355539
 20
105.3532013885
 10
96.9747441431
 20
105.307815426
 10
96.9816893383
 20
105.261766388
 10
96.9901346935
 20
105.2152959246
 10
97.0000880947
 20
105.1684018204
 10
97.0115416559
 20
105.1210862908
 10
97.0244352725
 20
105.0735976321
 10
97.0387765147
 20
105.0259349342
 10
97.0545578123
 20
104.9780991073
 10
97.0716963504
 20
104.9303411778
 10
97.0901992636
 20
104.8826615554
 10
97.1100594172
 20
104.8350598306
 10
97.1311725917
 20
104.7877858015
 10
97.1535453739
 20
104.7408411908
 10
97.177171177
 20
104.6942242758
 10
97.2019260205
 20
104.6481796867
  0
LWPOLYLINE
  5
297
100
AcDbEntity
  8
ASSI
100
AcDbPolyline
 62
7
  6
CONTINUOUS
 90
58
 70
0
 10
98.1998027358
 20
104.1582467439
 10
98.1990161134
 20
104.2015629296
 10
98.196692885
 20
104.2455421909
 10
98.1928330506
 20
104.2901845277
 10
98.1874244614
 20
104.3355704901
 10
98.1804792662
 20
104.3816195282
 10
98.172033911
 20
104.4280899916
 10
98.1620805098
 20
104.4749840958
 10
98.1506269486
 20
104.5222996254
 10
98.137733332
 20
104.569788284
 10
98.1233920898
 20
104.6174509819
 10
98.1076107921
 20
104.6652868089
 10
98.0904722541
 20
104.7130447384
 10
98.0719693409
 20
104.7607243607
 10
98.0521091873
 20
104.8083260856
 10
98.0309960128
 20
104.8556001147
 10
98.0086232306
 20
104.9025447254
 10
97.9849974275
 20
104.9491616404
 10
97.9602425839
 20
104.9952062295
 10
97.9343527648
 20
105.0406754841
 10
97.9073339053
 20
105.0855724127
 10
97.8793277913
 20
105.1296614111
 10
97.8503292332
 20
105.1729382321
 10
97.8203434208
 20
105.215407123
 10
97.7895277096
 20
105.2568452209
 10
97.7578777371
 20
105.2972471071
 10
97.725397866
 20
105.3366182004
 10
97.6922585397
 20
105.3747518942
 10
97.6584562918
 20
105.4116416837
 10
97.6239945889
 20
105.4472940737
 10
97.5890542746
 20
105.4815219723
 10
97.5536328329
 20
105.5143178911
 10
97.5177327798
 20
105.5456893185
 10
97.4815425071
 20
105.5754716274
 10
97.4450604889
 20
105.6036564643
 10
97.408288251
 20
105.6302521828
 10
97.371418762
 20
105.6551192173
 10
97.3344515106
 20
105.6782484805
 10
97.297387008
 20
105.6996490597
 10
97.2604197566
 20
105.7192086519
 10
97.2235502676
 20
105.7369175791
 10
97.1867780297
 20
105.7527855192
 10
97.1502960115
 20
105.7667292025
 10
97.1141057388
 20
105.7787385134
 10
97.0782056857
 20
105.7888235674
 10
97.042784244
 20
105.7969314416
 10
97.0078439297
 20
105.8030517422
 10
96.9733822268
 20
105.8071948629
 10
96.9395799789
 20
105.809339062
 10
96.9064406526
 20
105.8094738314
 10
96.8739607815
 20
105.8076096792
 10
96.842310809
 20
105.8037563879
 10
96.8114950978
 20
105.7979035008
 10
96.7815092854
 20
105.7900614746
 10
96.7525107272
 20
105.7802714616
 10
96.7245046133
 20
105.7685232215
 10
96.6974857538
 20
105.7548269946
 10
96.6908911088
 20
105.7511007531
  0
LWPOLYLINE
  5
298
100
AcDbEntity
  8
0
100
AcDbPolyline
 62
7
  6
CONTINUOUS
 90
40
 70
0
 10
99.7907929934
 20
29.9614807492
 10
99.7916647909
 20
29.9115308914
 10
99.7942425932
 20
29.8608351924
 10
99.7985264003
 20
29.809393652
 10
99.8045286813
 20
29.7571205051
 10
99.8122369672
 20
29.704101517
 10
99.8216138504
 20
29.6505939827
 10
99.8326674416
 20
29.5965955275
 10
99.8453896301
 20
29.5421085263
 10
99.8597186766
 20
29.4873973981
 10
99.8756623917
 20
29.4324610537
 10
99.8932129648
 20
29.3773005825
 10
99.912285225
 20
29.322183672
 10
99.9328865687
 20
29.267110534
 10
99.9550095994
 20
29.2120809567
 10
99.9785469567
 20
29.1573619924
 10
100.003505515
 20
29.1029551511
 10
100.0298783999
 20
29.0488589229
 10
100.0575376265
 20
28.9953358307
 10
100.0864894475
 20
28.9423886603
 10
100.1167276104
 20
28.890014626
 10
100.1481053726
 20
28.838467893
 10
100.1806282736
 20
28.7877524826
 10
100.2142907739
 20
28.7378643736
 10
100.2489295134
 20
28.6890456672
 10
100.2845492371
 20
28.6413015617
 10
100.3211452
 20
28.5946268588
 10
100.3585398057
 20
28.5492480658
 10
100.3967369365
 20
28.5051714816
 10
100.4357327102
 20
28.4623908073
 10
100.4753378848
 20
28.4211136526
 10
100.5155554224
 20
28.3813473257
 10
100.5563823609
 20
28.3430845184
 10
100.5976205716
 20
28.3065109158
 10
100.6392720538
 20
28.2716347288
 10
100.6813348083
 20
28.2384477465
 10
100.7236047092
 20
28.2071110215
 10
100.7660137148
 20
28.1776782383
 10
100.8086298667
 20
28.1500957124
 10
100.8514531652
 20
28.124363444
  0
LINE
  5
299
100
AcDbEntity
  8
0
100
AcDbLine
 62
250
  6
CONTINUOUS
 10
97.1744979031
 20
105.7574790697
 11
97.1744979031
 21
104.699499008
  0
LINE
  5
29A
100
AcDbEntity
  8
0
100
AcDbLine
 62
250
  6
CONTINUOUS
 10
97.1744979031
 20
30.4380960356
 11
97.1744979031
 21
29.3801159738
  0
LINE
  5
29B
100
AcDbEntity
  8
0
100
AcDbLine
 62
7
  6
CONTINUOUS
 10
97.2452085812
 20
29.3084860204
 11
97.2452085812
 21
29.3901133206
  0
LINE
  5
29C
100
AcDbEntity
  8
0
100
AcDbLine
 62
7
  6
CONTINUOUS
 10
97.2452085812
 20
104.6278690546
 11
97.2452085812
 21
104.7094963548
  0
LINE
  5
29D
100
AcDbEntity
  8
RACCORDO
100
AcDbLine
 62
7
  6
CONTINUOUS
 10
97.3926959546
 20
104.7946537157
 11
97.3926959546
 21
104.7708046172
  0
LINE
  5
29E
100
AcDbEntity
  8
RACCORDO
100
AcDbLine
 62
7
  6
CONTINUOUS
 10
97.3926959546
 20
29.4752706816
 11
97.3926959546
 21
29.451421583
  0
LINE
  5
29F
100
AcDbEntity
  8
RACCORDO
100
AcDbLine
 62
250
  6
CONTINUOUS
 10
97.4219852765
 20
104.8115650031
 11
97.4219852765
 21
104.7299771578
  0
LINE
  5
2A0
100
AcDbEntity
  8
RACCORDO
100
AcDbLine
 62
250
  6
CONTINUOUS
 10
97.4219852765
 20
29.492181969
 11
97.4219852765
 21
29.4105941237
  0
LINE
  5
2A1
100
AcDbEntity
  8
0
100
AcDbLine
 62
7
  6
CONTINUOUS
 10
97.4926959546
 20
143.5529770541
 11
97.4926959546
 21
172.7417894495
  0
LINE
  5
2A2
100
AcDbEntity
  8
0
100
AcDbLine
 62
250
  6
CONTINUOUS
 10
97.5987619718
 20
105.4720122103
 11
97.5987619718
 21
104.9136336515
  0
LINE
  5
2A3
100
AcDbEntity
  8
0
100
AcDbLine
 62
250
  6
CONTINUOUS
 10
97.5987619718
 20
30.1526291761
 11
97.5987619718
 21
29.5942506173
  0
LINE
  5
2A4
100
AcDbEntity
  8
0
100
AcDbLine
 62
7
  6
CONTINUOUS
 10
97.6694726499
 20
29.1044394701
 11
97.6694726499
 21
29.2269100116
  0
LINE
  5
2A5
100
AcDbEntity
  8
0
100
AcDbLine
 62
7
  6
CONTINUOUS
 10
97.6694726499
 20
104.4238225043
 11
97.6694726499
 21
104.5462930458
  0
LINE
  5
2A6
100
AcDbEntity
  8
0
100
AcDbLine
 62
7
  6
CONTINUOUS
 10
97.6866299374
 20
105.3808946204
 11
97.6866299374
 21
105.0361160294
  0
LINE
  5
2A7
100
AcDbEntity
  8
0
100
AcDbLine
 62
7
  6
CONTINUOUS
 10
97.6866299374
 20
30.0615115863
 11
97.6866299374
 21
29.7167329953
  0
LINE
  5
2A8
100
AcDbEntity
  8
0
100
AcDbLine
 62
7
  6
CONTINUOUS
 10
98.0230260405
 20
143.8591829991
 11
98.0230260405
 21
173.0479953945
  0
LINE
  5
2A9
100
AcDbEntity
  8
0
100
AcDbLine
 62
7
  6
CONTINUOUS
 10
99.2604629076
 20
29.6552748042
 11
99.2604629076
 21
138.4499391868
  0
LINE
  5
2AA
100
AcDbEntity
  8
0
100
AcDbLine
 62
7
  6
CONTINUOUS
 10
99.2604629076
 20
175.8034543501
 11
99.2604629076
 21
177.4363949037
  0
LINE
  5
2AB
100
AcDbEntity
  8
0
100
AcDbLine
 62
7
  6
CONTINUOUS
 10
99.7907929934
 20
29.9614807492
 11
99.7907929934
 21
138.7561451318
  0
LINE
  5
2AC
100
AcDbEntity
  8
0
100
AcDbLine
 62
7
  6
CONTINUOUS
 10
99.7907929934
 20
176.1096602951
 11
99.7907929934
 21
177.5374179963
  0
LINE
  5
2AD
100
AcDbEntity
  8
0
100
AcDbLine
 62
7
  6
CONTINUOUS
 10
99.8615036716
 20
31.7986690732
 11
99.8615036716
 21
31.9211396148
  0
LINE
  5
2AE
100
AcDbEntity
  8
0
100
AcDbLine
 62
7
  6
CONTINUOUS
 10
100.144346384
 20
138.3479297209
 11
100.144346384
 21
69.7644264703
  0
LINE
  5
2AF
100
AcDbEntity
  8
0
100
AcDbLine
 62
7
  6
CONTINUOUS
 10
100.144346384
 20
30.9820883226
 11
100.144346384
 21
28.9409126307
  0
LINE
  5
2B0
100
AcDbEntity
  8
0
100
AcDbLine
 62
7
  6
CONTINUOUS
 10
100.144346384
 20
177.1302678686
 11
100.144346384
 21
177.3332806997
  0
LINE
  5
2B1
100
AcDbEntity
  8
RACCORDO
100
AcDbLine
 62
250
  6
CONTINUOUS
 10
100.1797017231
 20
30.0172426642
 11
100.1797017231
 21
30.9209181525
  0
LINE
  5
2B2
100
AcDbEntity
  8
RACCORDO
100
AcDbLine
 62
250
  6
CONTINUOUS
 10
100.1797017231
 20
103.2193611625
 11
100.1797017231
 21
103.6166103305
  0
LINE
  5
2B3
100
AcDbEntity
  8
RACCORDO
100
AcDbLine
 62
250
  6
CONTINUOUS
 10
100.1797017231
 20
105.3366256983
 11
100.1797017231
 21
106.2403011867
  0
LINE
  5
2B4
100
AcDbEntity
  8
SMUSSO
100
AcDbLine
 62
7
  6
CONTINUOUS
 10
100.3034454098
 20
30.0738154447
 11
100.3034454098
 21
30.5636976108
  0
LINE
  5
2B5
100
AcDbEntity
  8
SMUSSO
100
AcDbLine
 62
7
  6
CONTINUOUS
 10
100.3034454098
 20
103.2703757592
 11
100.3034454098
 21
103.6416690509
  0
LINE
  5
2B6
100
AcDbEntity
  8
SMUSSO
100
AcDbLine
 62
7
  6
CONTINUOUS
 10
100.3034454098
 20
105.3931984789
 11
100.3034454098
 21
105.883080645
  0
LINE
  5
2B7
100
AcDbEntity
  8
RACCORDO
100
AcDbLine
 62
250
  6
CONTINUOUS
 10
100.3388007489
 20
28.8286371175
 11
100.3388007489
 21
29.9717467964
  0
LINE
  5
2B8
100
AcDbEntity
  8
RACCORDO
100
AcDbLine
 62
250
  6
CONTINUOUS
 10
100.3388007489
 20
103.658189277
 11
100.3388007489
 21
105.2911298306
  0
LINE
  5
2B9
100
AcDbEntity
  8
SMUSSO
100
AcDbLine
 62
7
  6
CONTINUOUS
 10
100.409511427
 20
30.0125742557
 11
100.409511427
 21
30.5024564218
  0
LINE
  5
2BA
100
AcDbEntity
  8
SMUSSO
100
AcDbLine
 62
7
  6
CONTINUOUS
 10
100.409511427
 20
103.2091345702
 11
100.409511427
 21
103.6990167363
  0
LINE
  5
2BB
100
AcDbEntity
  8
SMUSSO
100
AcDbLine
 62
7
  6
CONTINUOUS
 10
100.409511427
 20
105.3319572899
 11
100.409511427
 21
105.821839456
  0
LINE
  5
2BC
100
AcDbEntity
  8
0
100
AcDbLine
 62
7
  6
CONTINUOUS
 10
100.4271890965
 20
106.9139029742
 11
100.4271890965
 21
106.7914324327
  0
LINE
  5
2BD
100
AcDbEntity
  8
0
100
AcDbLine
 62
7
  6
CONTINUOUS
 10
100.4271890965
 20
102.9540221318
 11
100.4271890965
 21
102.8315515903
  0
LINE
  5
2BE
100
AcDbEntity
  8
0
100
AcDbLine
 62
7
  6
CONTINUOUS
 10
100.4271890965
 20
31.5945199401
 11
100.4271890965
 21
31.4720493986
  0
LWPOLYLINE
  5
2BF
100
AcDbEntity
  8
0
100
AcDbPolyline
 62
7
  6
CONTINUOUS
 90
10
 70
0
 10
99.2604629076
 20
177.4363949037
 10
99.261334705
 20
177.4853380315
 10
99.2639125073
 20
177.5330569492
 10
99.2681963144
 20
177.5795516565
 10
99.2741985954
 20
177.6248935197
 10
99.2819068813
 20
177.6690111725
 10
99.2912837645
 20
177.7116905172
 10
99.3023373557
 20
177.7529245623
 10
99.3150595442
 20
177.7927202991
 10
99.3210396013
 20
177.8086477176
  0
LWPOLYLINE
  5
2C0
100
AcDbEntity
  8
0
100
AcDbPolyline
 62
7
  6
CONTINUOUS
 90
6
 70
0
 10
97.6861133995
 20
105.0361160294
 10
97.6850349868
 20
105.0207272308
 10
97.6764076853
 20
104.9912843676
 10
97.6591530823
 20
104.9640660614
 10
97.6332711778
 20
104.9381824893
 10
97.5987619718
 20
104.9136336515
  0
LINE
  5
2C1
100
AcDbEntity
  8
SMUSSO
100
AcDbLine
 62
7
  6
CONTINUOUS
 10
100.3034454098
 20
105.883080645
 11
100.8337754957
 21
106.8016392976
  0
LINE
  5
2C2
100
AcDbEntity
  8
SMUSSO
100
AcDbLine
 62
7
  6
CONTINUOUS
 10
100.9398415129
 20
106.7403981086
 11
100.409511427
 21
105.821839456
  0
LWPOLYLINE
  5
2C3
100
AcDbEntity
  8
ASSI
100
AcDbPolyline
 62
7
  6
CONTINUOUS
 90
18
 70
0
 10
97.1176814832
 20
111.3395506848
 10
97.1088677914
 20
111.3342185279
 10
97.0918992179
 20
111.3224691693
 10
97.075843359
 20
111.3092796303
 10
97.0606940628
 20
111.2946596177
 10
97.0465538963
 20
111.2787081146
 10
97.0334297069
 20
111.261416086
 10
97.021314647
 20
111.2427925669
 10
97.0102907404
 20
111.2229636459
 10
97.0003653912
 20
111.2019211435
 10
96.9915311952
 20
111.1796732392
 10
96.9838479635
 20
111.1563705599
 10
96.977323506
 20
111.1320059484
 10
96.9719500127
 20
111.1065865619
 10
96.9677638643
 20
111.0802844997
 10
96.9647771876
 20
111.0531571283
 10
96.9629778557
 20
111.0251470811
 10
96.9623658687
 20
110.9962543582
  0
LWPOLYLINE
  5
2C4
100
AcDbEntity
  8
ASSI
100
AcDbPolyline
 62
7
  6
CONTINUOUS
 90
18
 70
0
 10
97.867710426
 20
110.0405461416
 10
97.8765241178
 20
110.0458782985
 10
97.8934926913
 20
110.0576276571
 10
97.9095485502
 20
110.0708171961
 10
97.9246978463
 20
110.0854372087
 10
97.9388380129
 20
110.1013887118
 10
97.9519622023
 20
110.1186807404
 10
97.9640772622
 20
110.1373042595
 10
97.9751011688
 20
110.1571331805
 10
97.985026518
 20
110.1781756829
 10
97.9938607139
 20
110.2004235873
 10
98.0015439457
 20
110.2237262665
 10
98.0080684032
 20
110.2480908781
 10
98.0134418964
 20
110.2735102645
 10
98.0176280449
 20
110.2998123267
 10
98.0206147216
 20
110.3269396981
 10
98.0224140535
 20
110.3549497453
 10
98.0230260405
 20
110.3838424682
  0
LINE
  5
2C5
100
AcDbEntity
  8
ASSI
100
AcDbLine
 62
250
  6
CONTINUOUS
 10
97.4926959546
 20
111.3024603032
 11
96.9623658687
 21
110.9962543582
  0
LINE
  5
2C6
100
AcDbEntity
  8
0
100
AcDbLine
 62
7
  6
CONTINUOUS
 10
100.6746764699
 20
85.176437274
 11
101.0282298605
 21
84.9722999774
  0
LWPOLYLINE
  5
2C7
100
AcDbEntity
  8
RACCORDO
100
AcDbPolyline
 62
7
  6
CONTINUOUS
 90
7
 70
0
 10
101.3726842254
 20
31.7068072897
 10
101.3713511695
 20
31.718042002
 10
101.3674807647
 20
31.7292767142
 10
101.3612661552
 20
31.7399507824
 10
101.3527717224
 20
31.7498773252
 10
101.3419330848
 20
31.759243224
 10
101.3287502425
 20
31.7680484787
  0
LWPOLYLINE
  5
2C8
100
AcDbEntity
  8
RACCORDO
100
AcDbPolyline
 62
250
  6
CONTINUOUS
 90
7
 70
0
 10
100.1797017231
 20
106.2403011867
 10
100.1786274574
 20
106.2550993881
 10
100.1754373093
 20
106.2706884548
 10
100.1702282221
 20
106.2865947143
 10
100.1631584875
 20
106.3023348508
 10
100.1544429225
 20
106.3174306214
 10
100.144346384
 20
106.331423309
  0
LWPOLYLINE
  5
2C9
100
AcDbEntity
  8
RACCORDO
100
AcDbPolyline
 62
7
  6
CONTINUOUS
 90
7
 70
0
 10
101.1342958777
 20
107.199707026
 10
101.1332622158
 20
107.2155254788
 10
101.1305709509
 20
107.2295940586
 10
101.1262220829
 20
107.2419127653
 10
101.120085969
 20
107.2526307776
 10
101.112292252
 20
107.2615989168
 10
101.1032334845
 20
107.2683675552
  0
LINE
  5
2CA
100
AcDbEntity
  8
0
100
AcDbLine
 62
7
  6
CONTINUOUS
 10
100.6746764699
 20
146.0034334402
 11
100.6746764699
 21
138.2470052656
  0
LINE
  5
2CB
100
AcDbEntity
  8
0
100
AcDbLine
 62
7
  6
CONTINUOUS
 10
100.6746764699
 20
92.9328654486
 11
100.6746764699
 21
85.176437274
  0
LINE
  5
2CC
100
AcDbEntity
  8
0
100
AcDbLine
 62
7
  6
CONTINUOUS
 10
101.0282298605
 20
146.2075707368
 11
101.0282298605
 21
138.0428679689
  0
LINE
  5
2CD
100
AcDbEntity
  8
0
100
AcDbLine
 62
7
  6
CONTINUOUS
 10
101.0282298605
 20
93.1370027453
 11
101.0282298605
 21
84.9722999774
  0
LINE
  5
2CE
100
AcDbEntity
  8
RACCORDO
100
AcDbLine
 62
250
  6
CONTINUOUS
 10
101.3287502425
 20
106.9649491349
 11
101.3287502425
 21
103.127538834
  0
LINE
  5
2CF
100
AcDbEntity
  8
RACCORDO
100
AcDbLine
 62
250
  6
CONTINUOUS
 10
101.3287502425
 20
31.6455661007
 11
101.3287502425
 21
28.2570526868
  0
LINE
  5
2D0
100
AcDbEntity
  8
RACCORDO
100
AcDbLine
 62
7
  6
CONTINUOUS
 10
101.3726842254
 20
107.0261903239
 11
101.3726842254
 21
103.188780023
  0
LINE
  5
2D1
100
AcDbEntity
  8
RACCORDO
100
AcDbLine
 62
7
  6
CONTINUOUS
 10
101.3726842254
 20
31.7068072897
 11
101.3726842254
 21
28.2316857558
  0
LWPOLYLINE
  5
2D2
100
AcDbEntity
  8
0
100
AcDbPolyline
 62
7
  6
CONTINUOUS
 90
19
 70
0
 10
100.144346384
 20
69.7644264703
 10
100.1436627281
 20
69.7290950131
 10
100.1416462626
 20
69.6947357096
 10
100.1382969875
 20
69.6613485598
 10
100.1336034677
 20
69.6288737863
 10
100.1275771382
 20
69.5973711665
 10
100.1202523047
 20
69.5670200323
 10
100.1116215613
 20
69.5378269511
 10
100.1016923137
 20
69.5097853556
 10
100.0905210853
 20
69.4830548753
 10
100.0781007926
 20
69.4576429881
 10
100.064438519
 20
69.4335422162
 10
100.0496120386
 20
69.4108897557
 10
100.0336147112
 20
69.3896938669
 10
100.016453177
 20
69.3699462896
 10
99.9982251297
 20
69.3517594388
 10
99.9789244864
 20
69.335142216
 10
99.9585573301
 20
69.3200857198
 10
99.937263763
 20
69.3066896092
  0
LWPOLYLINE
  5
2D3
100
AcDbEntity
  8
0
100
AcDbPolyline
 62
7
  6
CONTINUOUS
 90
6
 70
0
 10
97.6861133995
 20
29.7167329953
 10
97.6850349868
 20
29.7013441966
 10
97.6764076853
 20
29.6719013334
 10
97.6591530823
 20
29.6446830272
 10
97.6332711778
 20
29.6187994552
 10
97.5987619718
 20
29.5942506173
  0
LWPOLYLINE
  5
2D4
100
AcDbEntity
  8
RACCORDO
100
AcDbPolyline
 62
7
  6
CONTINUOUS
 90
7
 70
0
 10
101.3726842254
 20
103.188780023
 10
101.3713511695
 20
103.1775453107
 10
101.3674807647
 20
103.1663105985
 10
101.3612661552
 20
103.1556365303
 10
101.3527717224
 20
103.1457099875
 10
101.3419330848
 20
103.1363440887
 10
101.3287502425
 20
103.127538834
  0
LWPOLYLINE
  5
2D5
100
AcDbEntity
  8
RACCORDO
100
AcDbPolyline
 62
250
  6
CONTINUOUS
 90
6
 70
0
 10
100.158993461
 20
103.1735874764
 10
100.1631586259
 20
103.1764313228
 10
100.170228319
 20
103.1840075343
 10
100.1754373609
 20
103.1938984664
 10
100.1786274723
 20
103.2058035855
 10
100.1797017231
 20
103.2193611625
  0
LWPOLYLINE
  5
2D6
100
AcDbEntity
  8
RACCORDO
100
AcDbPolyline
 62
7
  6
CONTINUOUS
 90
7
 70
0
 10
101.3287502425
 20
106.9649491349
 10
101.3419330848
 20
106.9737543896
 10
101.3527717224
 20
106.9831202884
 10
101.3612661552
 20
106.9930468312
 10
101.3674807647
 20
107.0037208994
 10
101.3713511695
 20
107.0149556117
 10
101.3726842254
 20
107.0261903239
  0
LWPOLYLINE
  5
2D7
100
AcDbEntity
  8
ASSI
100
AcDbPolyline
 62
7
  6
CONTINUOUS
 90
20
 70
0
 10
96.6908911088
 20
105.7511007531
 10
96.6715959346
 20
105.7392546543
 10
96.6468410911
 20
105.721796338
 10
96.623215288
 20
105.7024619082
 10
96.6008425058
 20
105.6813528256
 10
96.5797293313
 20
105.6584597611
 10
96.5598691777
 20
105.6337920439
 10
96.5413662645
 20
105.6074791219
 10
96.5242277265
 20
105.5795123466
 10
96.5084464288
 20
105.5499003666
 10
96.4941051866
 20
105.5187985757
 10
96.48121157
 20
105.4861991423
 10
96.4697580088
 20
105.4521098981
 10
96.4598046076
 20
105.4167097321
 10
96.4513592524
 20
105.3799917531
 10
96.4444140572
 20
105.3419628525
 10
96.439005468
 20
105.3028225932
 10
96.4351456336
 20
105.2626374965
 10
96.4328224052
 20
105.2213410411
 10
96.4320357828
 20
105.1789332273
  0
LWPOLYLINE
  5
2D8
100
AcDbEntity
  8
ASSI
100
AcDbPolyline
 62
7
  6
CONTINUOUS
 90
20
 70
0
 10
97.9409474098
 20
103.586079218
 10
97.9602425839
 20
103.5979253169
 10
97.9849974275
 20
103.6153836332
 10
98.0086232306
 20
103.634718063
 10
98.0309960128
 20
103.6558271456
 10
98.0521091873
 20
103.67872021
 10
98.0719693409
 20
103.7033879273
 10
98.0904722541
 20
103.7297008493
 10
98.1076107921
 20
103.7576676246
 10
98.1233920898
 20
103.7872796046
 10
98.137733332
 20
103.8183813955
 10
98.1506269486
 20
103.8509808289
 10
98.1620805098
 20
103.8850700731
 10
98.172033911
 20
103.9204702391
 10
98.1804792662
 20
103.957188218
 10
98.1874244614
 20
103.9952171187
 10
98.1928330506
 20
104.0343573779
 10
98.196692885
 20
104.0745424747
 10
98.1990161134
 20
104.11583893
 10
98.1998027358
 20
104.1582467439
  0
LINE
  5
2D9
100
AcDbEntity
  8
RACCORDO
100
AcDbLine
 62
7
  6
CONTINUOUS
 10
100.4625444356
 20
107.5875560532
 11
100.144346384
 21
107.4038324862
  0
LINE
  5
2DA
100
AcDbEntity
  8
ASSI
100
AcDbLine
 62
250
  6
CONTINUOUS
 10
96.9623658687
 20
105.4851391722
 11
96.4320357828
 21
105.1789332273
  0
LINE
  5
2DB
100
AcDbEntity
  8
RACCORDO
100
AcDbLine
 62
7
  6
CONTINUOUS
 10
100.4271890965
 20
106.9139029742
 11
101.0282298605
 21
107.2609363786
  0
LINE
  5
2DC
100
AcDbEntity
  8
0
100
AcDbLine
 62
7
  6
CONTINUOUS
 10
101.0282298605
 20
107.138465837
 11
100.4271890965
 21
106.7914324327
  0
LINE
  5
2DD
100
AcDbEntity
  8
RACCORDO
100
AcDbLine
 62
7
  6
CONTINUOUS
 10
101.0282298605
 20
107.138465837
 11
101.1342958777
 21
107.199707026
  0
LINE
  5
2DE
100
AcDbEntity
  8
SMUSSO
100
AcDbLine
 62
7
  6
CONTINUOUS
 10
101.2226842254
 20
107.0261903239
 11
100.8337754957
 21
106.8016392976
  0
LINE
  5
2DF
100
AcDbEntity
  8
0
100
AcDbLine
 62
7
  6
CONTINUOUS
 10
97.5987619718
 20
104.9136336515
 11
97.1870225588
 21
104.6759004747
  0
LINE
  5
2E0
100
AcDbEntity
  8
RACCORDO
100
AcDbLine
 62
250
  6
CONTINUOUS
 10
100.8161234537
 20
106.771065064
 11
100.144346384
 21
106.3831894033
  0
LINE
  5
2E1
100
AcDbEntity
  8
0
100
AcDbLine
 62
7
  6
CONTINUOUS
 10
97.2213383097
 20
104.614086659
 11
97.2452085812
 21
104.6278690546
  0
LINE
  5
2E2
100
AcDbEntity
  8
SMUSSO
100
AcDbLine
 62
7
  6
CONTINUOUS
 10
101.3287502425
 20
106.9649491349
 11
100.9398415129
 21
106.7403981086
  0
LINE
  5
2E3
100
AcDbEntity
  8
RACCORDO
100
AcDbLine
 62
250
  6
CONTINUOUS
 10
100.6746952635
 20
106.5261042531
 11
100.1797017231
 21
106.2403011867
  0
LINE
  5
2E4
100
AcDbEntity
  8
0
100
AcDbLine
 62
7
  6
CONTINUOUS
 10
97.6755093321
 20
104.5497785504
 11
97.6694726499
 21
104.5462930458
  0
LINE
  5
2E5
100
AcDbEntity
  8
RACCORDO
100
AcDbLine
 62
7
  6
CONTINUOUS
 10
100.2327347317
 20
105.3523710196
 11
100.3034454098
 21
105.3931984789
  0
LINE
  5
2E6
100
AcDbEntity
  8
RACCORDO
100
AcDbLine
 62
7
  6
CONTINUOUS
 10
100.409511427
 20
105.3319572899
 11
100.3388007489
 21
105.2911298306
  0
LINE
  5
2E7
100
AcDbEntity
  8
RACCORDO
100
AcDbLine
 62
7
  6
CONTINUOUS
 10
100.409511427
 20
103.6990167363
 11
100.3388007489
 21
103.658189277
  0
LINE
  5
2E8
100
AcDbEntity
  8
RACCORDO
100
AcDbLine
 62
250
  6
CONTINUOUS
 10
100.3034454098
 20
103.2908092164
 11
100.1797017231
 21
103.2193611625
  0
LINE
  5
2E9
100
AcDbEntity
  8
RACCORDO
100
AcDbLine
 62
7
  6
CONTINUOUS
 10
100.315035147
 20
103.2636839902
 11
100.158993461
 21
103.1735874764
  0
LINE
  5
2EA
100
AcDbEntity
  8
0
100
AcDbLine
 62
7
  6
CONTINUOUS
 10
100.6392920863
 20
103.0764877398
 11
100.4271890965
 21
102.9540221318
  0
LINE
  5
2EB
100
AcDbEntity
  8
RACCORDO
100
AcDbLine
 62
7
  6
CONTINUOUS
 10
100.7453581035
 20
103.0152583873
 11
100.4271890965
 21
102.8315515903
  0
LWPOLYLINE
  5
2EC
100
AcDbEntity
  8
RACCORDO
100
AcDbPolyline
 62
7
  6
CONTINUOUS
 90
7
 70
0
 10
100.4625444356
 20
107.5875560532
 10
100.4767609397
 20
107.5945709531
 10
100.4902908423
 20
107.5992754443
 10
100.5031341431
 20
107.6016695268
 10
100.5154848665
 20
107.6017155339
 10
100.5271489883
 20
107.5994511323
 10
100.5375480596
 20
107.5949872299
  0
LWPOLYLINE
  5
2ED
100
AcDbEntity
  8
RACCORDO
100
AcDbPolyline
 62
7
  6
CONTINUOUS
 90
7
 70
0
 10
100.2327347317
 20
105.3523710196
 10
100.2185623666
 20
105.3457292919
 10
100.2036194421
 20
105.3407479961
 10
100.1879059581
 20
105.3374271323
 10
100.1709082082
 20
105.3357667003
 10
100.1531398989
 20
105.3357667003
 10
100.144346384
 20
105.3366256983
  0
LWPOLYLINE
  5
2EE
100
AcDbEntity
  8
ASSI
100
AcDbPolyline
 62
7
  6
CONTINUOUS
 90
28
 70
0
 10
97.2278158397
 20
104.6027104321
 10
97.2548346992
 20
104.5578135035
 10
97.2828408131
 20
104.5137245051
 10
97.3118393712
 20
104.470447684
 10
97.3418251837
 20
104.4279787932
 10
97.3726408948
 20
104.3865406953
 10
97.4042908673
 20
104.3461388091
 10
97.4367707385
 20
104.3067677158
 10
97.4699100647
 20
104.268634022
 10
97.5037123127
 20
104.2317442325
 10
97.5381740156
 20
104.1960918424
 10
97.5731143299
 20
104.1618639438
 10
97.6085357716
 20
104.1290680251
 10
97.6444358246
 20
104.0976965977
 10
97.6806260974
 20
104.0679142887
 10
97.7171081156
 20
104.0397294519
 10
97.7538803535
 20
104.0131337334
 10
97.7907498425
 20
103.9882666989
 10
97.8277170939
 20
103.9651374357
 10
97.8647815965
 20
103.9437368564
 10
97.9017488479
 20
103.9241772643
 10
97.9386183369
 20
103.9064683371
 10
97.9753905748
 20
103.890600397
 10
98.011872593
 20
103.8766567137
 10
98.0480628657
 20
103.8646474028
 10
98.0839629188
 20
103.8545623488
 10
98.1193843605
 20
103.8464544746
 10
98.1469284348
 20
103.8416297322
  0
LINE
  5
2EF
100
AcDbEntity
  8
ASSI
100
AcDbLine
 62
7
  6
CONTINUOUS
 10
97.2019260205
 20
104.6481796867
 11
97.2278158397
 21
104.6027104321
  0
LWPOLYLINE
  5
2F0
100
AcDbEntity
  8
RACCORDO
100
AcDbPolyline
 62
7
  6
CONTINUOUS
 90
7
 70
0
 10
101.3726842254
 20
107.0261903239
 10
101.3713511695
 20
107.0374250361
 10
101.3674807647
 20
107.0486597483
 10
101.3612661552
 20
107.0593338165
 10
101.3527717224
 20
107.0692603594
 10
101.3419330848
 20
107.0786262581
 10
101.3287502425
 20
107.0874315129
  0
LWPOLYLINE
  5
2F1
100
AcDbEntity
  8
ASSI
100
AcDbPolyline
 62
7
  6
CONTINUOUS
 90
51
 70
0
 10
116.0542489607
 20
16.6928721055
 10
116.0548609478
 20
16.6632726753
 10
116.0566602796
 20
16.6331848048
 10
116.0596469563
 20
16.6026084939
 10
116.0638331048
 20
16.5714723725
 10
116.0692065981
 20
16.5398478107
 10
116.0757310555
 20
16.5079489192
 10
116.0834142873
 20
16.4757738365
 10
116.0922484832
 20
16.4433244241
 10
116.1021738324
 20
16.4108203772
 10
116.113197739
 20
16.3782613252
 10
116.1253127989
 20
16.3456476387
 10
116.1384369883
 20
16.3132001251
 10
116.1525771549
 20
16.2809199121
 10
116.167726451
 20
16.248805872
 10
116.18378231
 20
16.2170754296
 10
116.2007508834
 20
16.1857311876
 10
116.2186260198
 20
16.1547705433
 10
116.2372866974
 20
16.1244031122
 10
116.2567382465
 20
16.0946329198
 10
116.2769753369
 20
16.0654559406
 10
116.2978609555
 20
16.0370697143
 10
116.3193995029
 20
16.0094796066
 10
116.3415865785
 20
15.9826802517
 10
116.3642719671
 20
15.9568530918
 10
116.3874590501
 20
15.9320047239
 10
116.411144446
 20
15.908128551
 10
116.4351677956
 20
15.885386224
 10
116.4595313919
 20
15.8637854369
 10
116.4842329419
 20
15.8433184959
 10
116.5091052062
 20
15.8241239701
 10
116.5341493434
 20
15.8062104936
 10
116.559364195
 20
15.7895694324
 10
116.5845790466
 20
15.7743134529
 10
116.6097938982
 20
15.7604519538
 10
116.6350087498
 20
15.7479755364
 10
116.660052887
 20
15.736968671
 10
116.6849251514
 20
15.7274413294
 10
116.7096267013
 20
15.7193835397
 10
116.7339902977
 20
15.7128498564
 10
116.7580136472
 20
15.7078506215
 10
116.7816990432
 20
15.7043754929
 10
116.8048861262
 20
15.7024479986
 10
116.8275715147
 20
15.7020786404
 10
116.8497585903
 20
15.7032569165
 10
116.8712971378
 20
15.7059748495
 10
116.8921827563
 20
15.710242887
 10
116.9124198467
 20
15.7160505815
 10
116.9318713959
 20
15.7233586125
 10
116.9505320735
 20
15.7321771609
 10
116.9595935181
 20
15.7371638889
  0
LWPOLYLINE
  5
2F2
100
AcDbEntity
  8
ASSI
100
AcDbPolyline
 62
7
  6
CONTINUOUS
 90
33
 70
0
 10
116.5845790466
 20
16.9990780505
 10
116.5851910337
 20
16.9694786203
 10
116.5869903655
 20
16.9393907498
 10
116.5899770422
 20
16.9088144389
 10
116.5941631907
 20
16.8776783175
 10
116.5995366839
 20
16.8460537557
 10
116.6060611414
 20
16.8141548642
 10
116.6137443732
 20
16.7819797815
 10
116.6225785691
 20
16.7495303691
 10
116.6325039183
 20
16.7170263222
 10
116.6435278249
 20
16.6844672702
 10
116.6556428848
 20
16.6518535836
 10
116.6687670742
 20
16.6194060701
 10
116.6829072408
 20
16.5871258571
 10
116.6980565369
 20
16.555011817
 10
116.7141123958
 20
16.5232813746
 10
116.7310809693
 20
16.4919371326
 10
116.7489561057
 20
16.4609764883
 10
116.7676167832
 20
16.4306090572
 10
116.7870683324
 20
16.4008388648
 10
116.8073054228
 20
16.3716618856
 10
116.8281910414
 20
16.3432756593
 10
116.8497295888
 20
16.3156855516
 10
116.8719166644
 20
16.2888861967
 10
116.894602053
 20
16.2630590368
 10
116.917789136
 20
16.2382106689
 10
116.9414745319
 20
16.2143344959
 10
116.9654978815
 20
16.191592169
 10
116.9898614778
 20
16.1699913819
 10
117.0145630278
 20
16.1495244409
 10
117.0394352921
 20
16.1303299151
 10
117.0644794293
 20
16.1124164386
 10
117.0896942809
 20
16.0957753774
  0
LWPOLYLINE
  5
2F3
100
AcDbEntity
  8
ASSI
100
AcDbPolyline
 62
7
  6
CONTINUOUS
 90
51
 70
0
 10
117.1149091325
 20
16.0804602155
 10
117.1142971455
 20
16.1100596457
 10
117.1124978136
 20
16.1401475162
 10
117.1095111369
 20
16.170723827
 10
117.1053249885
 20
16.2018599485
 10
117.0999514952
 20
16.2334845103
 10
117.0934270377
 20
16.2653834018
 10
117.085743806
 20
16.2975584845
 10
117.07690961
 20
16.3300078969
 10
117.0669842609
 20
16.3625119437
 10
117.0559603542
 20
16.3950709958
 10
117.0438452943
 20
16.4276846823
 10
117.030721105
 20
16.4601321959
 10
117.0165809384
 20
16.4924124089
 10
117.0014316423
 20
16.524526449
 10
116.9853757833
 20
16.5562568914
 10
116.9684072098
 20
16.5876011333
 10
116.9505320735
 20
16.6185617777
 10
116.9318713959
 20
16.6489292087
 10
116.9124198467
 20
16.6786994012
 10
116.8921827563
 20
16.7078763803
 10
116.8712971378
 20
16.7362626067
 10
116.8497585903
 20
16.7638527144
 10
116.8275715147
 20
16.7906520692
 10
116.8048861262
 20
16.8164792291
 10
116.7816990432
 20
16.8413275971
 10
116.7580136472
 20
16.86520377
 10
116.7339902977
 20
16.887946097
 10
116.7096267013
 20
16.909546884
 10
116.6849251514
 20
16.9300138251
 10
116.660052887
 20
16.9492083509
 10
116.6350087498
 20
16.9671218273
 10
116.6097938982
 20
16.9837628886
 10
116.5845790466
 20
16.9990188681
 10
116.559364195
 20
17.0128803672
 10
116.5341493434
 20
17.0253567845
 10
116.5091052062
 20
17.03636365
 10
116.4842329419
 20
17.0458909916
 10
116.4595313919
 20
17.0539487813
 10
116.4351677956
 20
17.0604824646
 10
116.411144446
 20
17.0654816995
 10
116.3874590501
 20
17.0689568281
 10
116.3642719671
 20
17.0708843224
 10
116.3415865785
 20
17.0712536806
 10
116.3193995029
 20
17.0700754045
 10
116.2978609555
 20
17.0673574715
 10
116.2769753369
 20
17.0630894339
 10
116.2567382465
 20
17.0572817395
 10
116.2372866974
 20
17.0499737085
 10
116.2186260198
 20
17.0411551601
 10
116.2095645752
 20
17.0361684321
  0
LINE
  5
2F4
100
AcDbEntity
  8
0
100
AcDbLine
 62
250
  6
CONTINUOUS
 10
109.3367345395
 20
36.2907825014
 11
109.3367345395
 21
59.1518910692
  0
LINE
  5
2F5
100
AcDbEntity
  8
0
100
AcDbLine
 62
250
  6
CONTINUOUS
 10
109.5135112348
 20
171.9236423381
 11
109.5135112348
 21
59.2539597176
  0
LINE
  5
2F6
100
AcDbEntity
  8
0
100
AcDbLine
 62
7
  6
CONTINUOUS
 10
109.8670646254
 20
59.0498618758
 11
109.8670646254
 21
36.8010468332
  0
LINE
  5
2F7
100
AcDbEntity
  8
0
100
AcDbLine
 62
250
  6
CONTINUOUS
 10
110.0438413207
 20
59.1519305242
 11
110.0438413207
 21
59.3198307948
  0
LINE
  5
2F8
100
AcDbEntity
  8
0
100
AcDbLine
 62
250
  6
CONTINUOUS
 10
110.220618016
 20
171.5153677448
 11
110.220618016
 21
59.2539597176
  0
LINE
  5
2F9
100
AcDbEntity
  8
0
100
AcDbLine
 62
7
  6
CONTINUOUS
 10
110.220618016
 20
59.2539597176
 11
110.220618016
 21
58.8457245792
  0
LWPOLYLINE
  5
2FA
100
AcDbEntity
  8
0
100
AcDbPolyline
 62
7
  6
CONTINUOUS
 90
34
 70
0
 10
109.8670646254
 20
36.8010468332
 10
109.866656634
 20
36.7813138798
 10
109.8654570794
 20
36.7612552995
 10
109.8634659616
 20
36.7408710922
 10
109.860675196
 20
36.7201136779
 10
109.8570928671
 20
36.6990306367
 10
109.8527432288
 20
36.677764709
 10
109.8476210743
 20
36.6563146539
 10
109.8417316104
 20
36.6346817123
 10
109.8351147109
 20
36.6130123477
 10
109.8277654398
 20
36.591306313
 10
109.8196887332
 20
36.5695638554
 10
109.8109392736
 20
36.5479321796
 10
109.8015124959
 20
36.5264120376
 10
109.7914129652
 20
36.5050026776
 10
109.7807090592
 20
36.4838490493
 10
109.7693966769
 20
36.462952888
 10
109.7574799193
 20
36.4423124585
 10
109.7450394676
 20
36.4220675044
 10
109.7320717682
 20
36.4022207095
 10
109.7185803746
 20
36.38276939
 10
109.7046566289
 20
36.3638452391
 10
109.6902975972
 20
36.345451834
 10
109.6755062135
 20
36.3275855974
 10
109.6603826211
 20
36.3103674908
 10
109.6449245658
 20
36.2938019122
 10
109.6291343018
 20
36.2778844636
 10
109.6131187355
 20
36.2627229122
 10
109.5968763379
 20
36.2483223875
 10
109.5804086379
 20
36.2346777602
 10
109.5638271284
 20
36.2218814096
 10
109.5471689734
 20
36.209964129
 10
109.5303970089
 20
36.1988951252
 10
109.5135112348
 20
36.1886743982
  0
LINE
  5
2FB
100
AcDbEntity
  8
SMUSSO
100
AcDbLine
 62
7
  6
CONTINUOUS
 10
100.9398415129
 20
102.9029878076
 11
101.3287502425
 21
103.127538834
  0
LWPOLYLINE
  5
2FC
100
AcDbEntity
  8
RACCORDO
100
AcDbPolyline
 62
7
  6
CONTINUOUS
 90
8
 70
0
 10
100.3388007489
 20
103.658189277
 10
100.3133838055
 20
103.6455032638
 10
100.2863485264
 20
103.6350731079
 10
100.2576949117
 20
103.6268988095
 10
100.2268835161
 20
103.6209184135
 10
100.1944537848
 20
103.6171938748
 10
100.1620240536
 20
103.6159110585
 10
100.144346384
 20
103.6166103305
  0
LINE
  5
2FD
100
AcDbEntity
  8
0
100
AcDbLine
 62
7
  6
CONTINUOUS
 10
136.7342277651
 20
81.8274042914
 11
135.7825281558
 21
82.3769037182
  0
LINE
  5
2FE
100
AcDbEntity
  8
0
100
AcDbLine
 62
7
  6
CONTINUOUS
 10
98.1969081904
 20
104.0783696278
 11
97.2452085812
 21
104.6278690546
  0
LINE
  5
2FF
100
AcDbEntity
  8
0
100
AcDbLine
 62
7
  6
CONTINUOUS
 10
97.6694726499
 20
104.4238225043
 11
98.1990570727
 21
104.1180470958
  0
LINE
  5
300
100
AcDbEntity
  8
0
100
AcDbLine
 62
7
  6
CONTINUOUS
 10
100.144346384
 20
102.9948614276
 11
100.4271890965
 21
102.8315515903
  0
LINE
  5
301
100
AcDbEntity
  8
0
100
AcDbLine
 62
7
  6
CONTINUOUS
 10
136.2067922246
 20
82.1728571679
 11
136.7363766473
 21
81.8670817594
  0
LINE
  5
302
100
AcDbEntity
  8
0
100
AcDbLine
 62
7
  6
CONTINUOUS
 10
97.6694726499
 20
104.5462930458
 11
98.1968922819
 21
104.2417675604
  0
LINE
  5
303
100
AcDbEntity
  8
0
100
AcDbLine
 62
7
  6
CONTINUOUS
 10
100.144346384
 20
103.1173319691
 11
100.4271890965
 21
102.9540221318
  0
LINE
  5
304
100
AcDbEntity
  8
0
100
AcDbLine
 62
7
  6
CONTINUOUS
 10
136.2067922246
 20
82.2953277094
 11
136.7342118566
 21
81.990802224
  0
LINE
  5
305
100
AcDbEntity
  8
RACCORDO
100
AcDbLine
 62
7
  6
CONTINUOUS
 10
97.4426935386
 20
104.6842034717
 11
98.1963915232
 21
104.2490277014
  0
LINE
  5
306
100
AcDbEntity
  8
RACCORDO
100
AcDbLine
 62
7
  6
CONTINUOUS
 10
135.9800131132
 20
82.4332381354
 11
136.7337110979
 21
81.9980623651
  0
LINE
  5
307
100
AcDbEntity
  8
RACCORDO
100
AcDbLine
 62
250
  6
CONTINUOUS
 10
97.4219852765
 20
104.7299771578
 11
98.1933140282
 21
104.2846216036
  0
LINE
  5
308
100
AcDbEntity
  8
RACCORDO
100
AcDbLine
 62
250
  6
CONTINUOUS
 10
135.9593048511
 20
82.4790118215
 11
136.7306336029
 21
82.0336562672
  0
LINE
  5
309
100
AcDbEntity
  8
SMUSSO
100
AcDbLine
 62
7
  6
CONTINUOUS
 10
100.3034454098
 20
103.2703757592
 11
100.9398415129
 21
102.9029878076
  0
LWPOLYLINE
  5
30A
100
AcDbEntity
  8
RACCORDO
100
AcDbPolyline
 62
250
  6
CONTINUOUS
 90
6
 70
0
 10
97.4219852765
 20
104.7299771578
 10
97.4106513326
 20
104.7377940067
 10
97.4018773116
 20
104.7466371469
 10
97.3959341507
 20
104.7562302629
 10
97.3929989422
 20
104.7663133841
 10
97.3926959546
 20
104.7708032221
  0
LINE
  5
30B
100
AcDbEntity
  8
0
100
AcDbLine
 62
7
  6
CONTINUOUS
 10
99.2604629076
 20
138.4499391868
 11
97.4926959546
 21
143.5529770541
  0
LINE
  5
30C
100
AcDbEntity
  8
0
100
AcDbLine
 62
7
  6
CONTINUOUS
 10
99.7907929934
 20
138.7561451318
 11
98.0230260405
 21
143.8591829991
  0
LWPOLYLINE
  5
30D
100
AcDbEntity
  8
CURVE
100
AcDbPolyline
 62
250
  6
CONTINUOUS
 90
17
 70
0
 10
128.0750642409
 20
8.1192634653
 10
128.0918976644
 20
7.9113108394
 10
128.141756755
 20
7.691840249
 10
128.2227423955
 20
7.4692112605
 10
128.3339477174
 20
7.2481228039
 10
128.4672472148
 20
7.0447292819
 10
128.6192754316
 20
6.8628256175
 10
128.7842416602
 20
6.7093404649
 10
128.9589477174
 20
6.5883323777
 10
129.130628251
 20
6.5086431262
 10
129.2957695264
 20
6.4708630875
 10
129.4480813638
 20
6.4764312916
 10
129.5839477174
 20
6.5263884701
 10
129.693441159
 20
6.6170843719
 10
129.7749579736
 20
6.7455589932
 10
129.8253932111
 20
6.9069187754
 10
129.8428311939
 20
7.0985770712
  0
LWPOLYLINE
  5
30E
100
AcDbEntity
  8
CURVE
100
AcDbPolyline
 62
250
  6
CONTINUOUS
 90
17
 70
0
 10
129.8428311939
 20
7.098576982
 10
129.8259977704
 20
7.3065296079
 10
129.7761386798
 20
7.5260001984
 10
129.6951530393
 20
7.7486291869
 10
129.5839477174
 20
7.9697176435
 10
129.45064822
 20
8.1731111655
 10
129.2986200032
 20
8.3550148298
 10
129.1336537746
 20
8.5084999824
 10
128.9589477174
 20
8.6295080697
 10
128.7872671838
 20
8.7091973211
 10
128.6221259084
 20
8.7469773598
 10
128.469814071
 20
8.7414091558
 10
128.3339477174
 20
8.6914519773
 10
128.2244542758
 20
8.6007560754
 10
128.1429374612
 20
8.4722814542
 10
128.0925022237
 20
8.3109216719
 10
128.0750642409
 20
8.1192633761
  0
LWPOLYLINE
  5
30F
100
AcDbEntity
  8
ASSI
100
AcDbPolyline
 62
7
  6
CONTINUOUS
 90
58
 70
0
 10
121.6227148626
 20
63.2846454985
 10
121.6235801472
 20
63.2369976942
 10
121.6261356984
 20
63.1886205068
 10
121.6303815163
 20
63.1395139363
 10
121.6363309644
 20
63.0895893776
 10
121.6439706792
 20
63.0389354358
 10
121.6532605698
 20
62.9878179261
 10
121.6642093112
 20
62.9362344114
 10
121.6768082285
 20
62.8841873289
 10
121.6909912067
 20
62.8319498044
 10
121.7067665732
 20
62.7795208367
 10
121.7241260006
 20
62.726901427
 10
121.7429783924
 20
62.6743677046
 10
121.763331597
 20
62.62192012
 10
121.7851777659
 20
62.5695582227
 10
121.8084022578
 20
62.5175567907
 10
121.8330123183
 20
62.4659177189
 10
121.8590007017
 20
62.4146391123
 10
121.8862310296
 20
62.3639900643
 10
121.9147098307
 20
62.3139738843
 10
121.9444305762
 20
62.2645872628
 10
121.9752373015
 20
62.2160893646
 10
122.0071357154
 20
62.1684848614
 10
122.0401201091
 20
62.1217690815
 10
122.0740173913
 20
62.0761871738
 10
122.1088323611
 20
62.031745099
 10
122.1445602194
 20
61.9884368964
 10
122.1810134782
 20
61.9464898332
 10
122.2181959509
 20
61.9059110647
 10
122.2561038242
 20
61.8666934357
 10
122.2945381699
 20
61.8290427472
 10
122.3335017558
 20
61.7929672366
 10
122.3729918141
 20
61.7584586665
 10
122.4128011142
 20
61.7256981266
 10
122.4529313341
 20
61.6946948061
 10
122.4933807958
 20
61.6654395158
 10
122.5339372338
 20
61.6380857778
 10
122.5746012103
 20
61.6126435883
 10
122.6153721631
 20
61.5891029511
 10
122.6560361397
 20
61.5675873997
 10
122.6965925776
 20
61.5481075798
 10
122.7370420393
 20
61.5306528457
 10
122.7771722593
 20
61.5153147941
 10
122.8169815593
 20
61.5021045521
 10
122.8564716177
 20
61.4910109926
 10
122.8954352035
 20
61.482092331
 10
122.9338695493
 20
61.4753600004
 10
122.9717774225
 20
61.4708025677
 10
123.0089598952
 20
61.4684439487
 10
123.045413154
 20
61.4682957023
 10
123.0811410123
 20
61.4703462697
 10
123.1159559821
 20
61.4745848901
 10
123.1498532643
 20
61.4810230659
 10
123.1828376581
 20
61.4896492948
 10
123.214736072
 20
61.5004183091
 10
123.2455427973
 20
61.5133413732
 10
123.2752635428
 20
61.5284072227
 10
123.2825176523
 20
61.5325060883
  0
LWPOLYLINE
  5
310
100
AcDbEntity
  8
ASSI
100
AcDbPolyline
 62
7
  6
CONTINUOUS
 90
52
 70
0
 10
121.9762682532
 20
63.4887827951
 10
121.9771335378
 20
63.4411349909
 10
121.979689089
 20
63.3927578035
 10
121.9839349069
 20
63.343651233
 10
121.989884355
 20
63.2937266743
 10
121.9975240697
 20
63.2430727325
 10
122.0068139604
 20
63.1919552227
 10
122.0177627018
 20
63.1403717081
 10
122.0303616191
 20
63.0883246256
 10
122.0445445973
 20
63.036087101
 10
122.0603199638
 20
62.9836581333
 10
122.0776793912
 20
62.9310387236
 10
122.096531783
 20
62.8785050013
 10
122.1168849876
 20
62.8260574167
 10
122.1387311565
 20
62.7736955193
 10
122.1619556484
 20
62.7216940873
 10
122.1865657089
 20
62.6700550155
 10
122.2125540923
 20
62.618776409
 10
122.2397844202
 20
62.568127361
 10
122.2682632212
 20
62.518111181
 10
122.2979839668
 20
62.4687245595
 10
122.3287906921
 20
62.4202266613
 10
122.360689106
 20
62.3726221581
 10
122.3936734997
 20
62.3259063782
 10
122.4275707819
 20
62.2803244705
 10
122.4623857517
 20
62.2358823957
 10
122.49811361
 20
62.1925741931
 10
122.5345668688
 20
62.1506271299
 10
122.5717493415
 20
62.1100483614
 10
122.6096572148
 20
62.0708307324
 10
122.6480915605
 20
62.0331800439
 10
122.6870551463
 20
61.9971045332
 10
122.7265452047
 20
61.9625959632
 10
122.7663545048
 20
61.9298354233
 10
122.8064847247
 20
61.8988321028
 10
122.8469341864
 20
61.8695768124
 10
122.8874906243
 20
61.8422230744
 10
122.9281546009
 20
61.8167808849
 10
122.9689255537
 20
61.7932402478
 10
123.0095895303
 20
61.7717246964
 10
123.0501459682
 20
61.7522448765
 10
123.0905954299
 20
61.7347901424
 10
123.1307256498
 20
61.7194520907
 10
123.1705349499
 20
61.7062418488
 10
123.2100250083
 20
61.6951482893
 10
123.2489885941
 20
61.6862296277
 10
123.2874229399
 20
61.6794972971
 10
123.3253308131
 20
61.6749398643
 10
123.3625132858
 20
61.6725812453
 10
123.3989665446
 20
61.6724329989
 10
123.4346944029
 20
61.6744835663
 10
123.4358373949
 20
61.6746227222
  0
LWPOLYLINE
  5
311
100
AcDbEntity
  8
ASSI
100
AcDbPolyline
 62
7
  6
CONTINUOUS
 90
58
 70
0
 10
123.5672585108
 20
65.427771474
 10
123.5663932262
 20
65.4754192783
 10
123.563837675
 20
65.5237964656
 10
123.5595918571
 20
65.5729030361
 10
123.553642409
 20
65.6228275948
 10
123.5460026943
 20
65.6734815367
 10
123.5367128036
 20
65.7245990464
 10
123.5257640622
 20
65.776182561
 10
123.513165145
 20
65.8282296436
 10
123.4989821667
 20
65.8804671681
 10
123.4832068003
 20
65.9328961358
 10
123.4658473728
 20
65.9855155455
 10
123.446994981
 20
66.0380492679
 10
123.4266417765
 20
66.0904968525
 10
123.4047956075
 20
66.1428587498
 10
123.3815711156
 20
66.1948601818
 10
123.3569610551
 20
66.2464992536
 10
123.3309726717
 20
66.2977778601
 10
123.3037423438
 20
66.3484269081
 10
123.2752635428
 20
66.3984430881
 10
123.2455427973
 20
66.4478297096
 10
123.214736072
 20
66.4963276079
 10
123.1828376581
 20
66.543932111
 10
123.1498532643
 20
66.5906478909
 10
123.1159559821
 20
66.6362297986
 10
123.0811410123
 20
66.6806718735
 10
123.045413154
 20
66.7239800761
 10
123.0089598952
 20
66.7659271393
 10
122.9717774225
 20
66.8065059077
 10
122.9338695493
 20
66.8457235368
 10
122.8954352035
 20
66.8833742252
 10
122.8564716177
 20
66.9194497359
 10
122.8169815593
 20
66.953958306
 10
122.7771722593
 20
66.9867188459
 10
122.7370420393
 20
67.0177221664
 10
122.6965925776
 20
67.0469774567
 10
122.6560361397
 20
67.0743311947
 10
122.6153721631
 20
67.0997733842
 10
122.5746012103
 20
67.1233140214
 10
122.5339372338
 20
67.1448295727
 10
122.4933807958
 20
67.1643093927
 10
122.4529313341
 20
67.1817641268
 10
122.4128011142
 20
67.1971021784
 10
122.3729918141
 20
67.2103124204
 10
122.3335017558
 20
67.2214059798
 10
122.2945381699
 20
67.2303246414
 10
122.2561038242
 20
67.2370569721
 10
122.2181959509
 20
67.2416144048
 10
122.1810134782
 20
67.2439730238
 10
122.1445602194
 20
67.2441212702
 10
122.1088323611
 20
67.2420707028
 10
122.0740173913
 20
67.2378320824
 10
122.0401201091
 20
67.2313939066
 10
122.0071357154
 20
67.2227676777
 10
121.9752373015
 20
67.2119986634
 10
121.9444305762
 20
67.1990755993
 10
121.9147098307
 20
67.1840097498
 10
121.9074557211
 20
67.1799108841
  0
LINE
  5
312
100
AcDbEntity
  8
ASSI
100
AcDbLine
 62
7
  6
CONTINUOUS
 10
121.6227148626
 20
63.2846454985
 11
121.6227148626
 21
66.5505266056
  0
LINE
  5
313
100
AcDbEntity
  8
ASSI
100
AcDbLine
 62
7
  6
CONTINUOUS
 10
121.9762682532
 20
63.4887827951
 11
121.9762682532
 21
66.7546639023
  0
LINE
  5
314
100
AcDbEntity
  8
ASSI
100
AcDbLine
 62
7
  6
CONTINUOUS
 10
123.5672585108
 20
65.427771474
 11
123.5672585108
 21
62.1618903668
  0
LINE
  5
315
100
AcDbEntity
  8
0
100
AcDbLine
 62
7
  6
CONTINUOUS
 10
135.0591580826
 20
120.437015915
 11
133.9086951857
 21
118.4444841138
  0
LINE
  5
316
100
AcDbEntity
  8
0
100
AcDbLine
 62
7
  6
CONTINUOUS
 10
100.144346384
 20
92.6266595036
 11
101.0282298605
 21
93.1370027453
  0
LINE
  5
317
100
AcDbEntity
  8
0
100
AcDbLine
 62
7
  6
CONTINUOUS
 10
100.6746764699
 20
85.176437274
 11
100.144346384
 21
84.870231329
  0
LWPOLYLINE
  5
318
100
AcDbEntity
  8
RACCORDO
100
AcDbPolyline
 62
7
  6
CONTINUOUS
 90
7
 70
0
 10
101.1032334845
 20
107.2683675552
 10
101.0928344132
 20
107.2728314577
 10
101.0811702915
 20
107.2750958592
 10
101.068819568
 20
107.2750498521
 10
101.0559762672
 20
107.2726557696
 10
101.0424463647
 20
107.2679512784
 10
101.0282298605
 20
107.2609363786
  0
LINE
  5
319
100
AcDbEntity
  8
0
100
AcDbLine
 62
7
  6
CONTINUOUS
 10
100.3034454098
 20
105.3931984789
 11
100.409511427
 21
105.3319572899
  0
LINE
  5
31A
100
AcDbEntity
  8
SMUSSO
100
AcDbLine
 62
7
  6
CONTINUOUS
 10
100.409511427
 20
105.821839456
 11
100.3034454098
 21
105.883080645
  0
LINE
  5
31B
100
AcDbEntity
  8
0
100
AcDbLine
 62
7
  6
CONTINUOUS
 10
100.4271890965
 20
106.7914324327
 11
100.144346384
 21
106.95474227
  0
LINE
  5
31C
100
AcDbEntity
  8
0
100
AcDbLine
 62
7
  6
CONTINUOUS
 10
100.4271890965
 20
106.9139029742
 11
100.144346384
 21
107.0772128116
  0
LINE
  5
31D
100
AcDbEntity
  8
SMUSSO
100
AcDbLine
 62
7
  6
CONTINUOUS
 10
100.9398415129
 20
106.7403981086
 11
100.8337754957
 21
106.8016392976
  0
LINE
  5
31E
100
AcDbEntity
  8
RACCORDO
100
AcDbLine
 62
7
  6
CONTINUOUS
 10
100.7454144815
 20
106.9751717817
 11
100.9398688463
 21
106.8628962685
  0
LINE
  5
31F
100
AcDbEntity
  8
0
100
AcDbLine
 62
7
  6
CONTINUOUS
 10
101.2226842254
 20
107.0261903239
 11
101.0282298605
 21
107.138465837
  0
LINE
  5
320
100
AcDbEntity
  8
0
100
AcDbLine
 62
7
  6
CONTINUOUS
 10
100.144346384
 20
107.6488090787
 11
100.3564886684
 21
107.5263207825
  0
LINE
  5
321
100
AcDbEntity
  8
RACCORDO
100
AcDbLine
 62
250
  6
CONTINUOUS
 10
100.4625444356
 20
107.5875560532
 11
101.0282298605
 21
107.2609363786
  0
LINE
  5
322
100
AcDbEntity
  8
RACCORDO
100
AcDbLine
 62
7
  6
CONTINUOUS
 10
101.3287502425
 20
107.0874315129
 11
101.1342958777
 21
107.199707026
  0
LINE
  5
323
100
AcDbEntity
  8
RACCORDO
100
AcDbLine
 62
7
  6
CONTINUOUS
 10
100.144346384
 20
107.7712914567
 11
100.4625495611
 21
107.5875649303
  0
LINE
  5
324
100
AcDbEntity
  8
RACCORDO
100
AcDbLine
 62
7
  6
CONTINUOUS
 10
100.5375480596
 20
107.5949872299
 11
101.1032334845
 21
107.2683675552
  0
LINE
  5
325
100
AcDbEntity
  8
ASSI
100
AcDbLine
 62
7
  6
CONTINUOUS
 10
97.9978111889
 20
110.3991576301
 11
98.0230248013
 21
110.3839024003
  0
LINE
  5
326
100
AcDbEntity
  8
ASSI
100
AcDbLine
 62
7
  6
CONTINUOUS
 10
136.1815773729
 20
88.3523295904
 11
136.2067909854
 21
88.3370743606
  0
LWPOLYLINE
  5
327
100
AcDbEntity
  8
RACCORDO
100
AcDbPolyline
 62
250
  6
CONTINUOUS
 90
6
 70
0
 10
135.9593048511
 20
82.4790118215
 10
135.9479709072
 20
82.4868286704
 10
135.9391968863
 20
82.4956718106
 10
135.9332537253
 20
82.5052649266
 10
135.9303185169
 20
82.5153480478
 10
135.9300155293
 20
82.5198378858
  0
LWPOLYLINE
  5
328
100
AcDbEntity
  8
RACCORDO
100
AcDbPolyline
 62
250
  6
CONTINUOUS
 90
6
 70
0
 10
135.9593048511
 20
7.1596287873
 10
135.9604043614
 20
7.1459213682
 10
135.9636687626
 20
7.1339097577
 10
135.968996626
 20
7.1239675973
 10
135.9762537963
 20
7.1163798113
 10
135.9800131132
 20
7.1138551012
  0
LWPOLYLINE
  5
329
100
AcDbEntity
  8
RACCORDO
100
AcDbPolyline
 62
250
  6
CONTINUOUS
 90
35
 70
0
 10
127.8031560337
 20
49.0550248221
 10
127.8075946486
 20
48.9056953387
 10
127.8208889778
 20
48.7519667959
 10
127.8429744152
 20
48.5945880503
 10
127.8737435983
 20
48.4343254227
 10
127.9130467419
 20
48.2719599823
 10
127.9606921877
 20
48.10828378
 10
128.0164477046
 20
47.9440945093
 10
128.0800417193
 20
47.7801918255
 10
128.1511642901
 20
47.6173744895
 10
128.2294687545
 20
47.4564359627
 10
128.3145736844
 20
47.298160069
 10
128.4060647035
 20
47.1433174426
 10
128.5034962609
 20
46.9926622363
 10
128.6063935572
 20
46.846928698
 10
128.7142550982
 20
46.7068271056
 10
128.8265552758
 20
46.5730401332
 10
128.9427470633
 20
46.4462194336
 10
129.0622644906
 20
46.3269827449
 10
129.1845253388
 20
46.2159109353
 10
129.308933912
 20
46.1135452006
 10
129.4348840474
 20
46.0203843054
 10
129.5617620941
 20
45.936882137
 10
129.6889499446
 20
45.8634454816
 10
129.8158279902
 20
45.8004320936
 10
129.9417781246
 20
45.7481489614
 10
130.0661866956
 20
45.7068508269
 10
130.1884475371
 20
45.6767389079
 10
130.3079649493
 20
45.6579599031
 10
130.424156718
 20
45.6506052736
 10
130.5364568811
 20
45.6547108497
 10
130.6443184195
 20
45.670256674
 10
130.7472157157
 20
45.6971670333
 10
130.8446472605
 20
45.7353107577
 10
130.9120853302
 20
45.7715695655
  0
LWPOLYLINE
  5
32A
100
AcDbEntity
  8
RACCORDO
100
AcDbPolyline
 62
250
  6
CONTINUOUS
 90
35
 70
0
 10
127.9078803199
 20
49.0415561367
 10
127.912116116
 20
48.8978324966
 10
127.9247348678
 20
48.7508780904
 10
127.9457365754
 20
48.6006929184
 10
127.9753146062
 20
48.4463490678
 10
128.0132755928
 20
48.2887744513
 10
128.0590394328
 20
48.1307528064
 10
128.1127002883
 20
47.9724746793
 10
128.1741639973
 20
47.8137495238
 10
128.2425679717
 20
47.6567894389
 10
128.3180292526
 20
47.5015748087
 10
128.400430799
 20
47.348125249
 10
128.4885588989
 20
47.1987117065
 10
128.5824899436
 20
47.0534101164
 10
128.6821475419
 20
46.9121445436
 10
128.7860888086
 20
46.7769581296
 10
128.8943784332
 20
46.6479358596
 10
129.0069517262
 20
46.5249927484
 10
129.122171734
 20
46.4099169822
 10
129.2400765733
 20
46.3028241541
 10
129.3606281273
 20
46.2035986709
 10
129.4820750918
 20
46.1136819388
 10
129.6044306431
 20
46.0332097584
 10
129.7276816049
 20
45.9620463291
 10
129.8500371444
 20
45.9012256548
 10
129.9714840907
 20
45.8508987522
 10
130.0920356148
 20
45.8109146047
 10
130.2099403967
 20
45.7818541662
 10
130.3251603008
 20
45.7638770453
 10
130.4377334626
 20
45.7568236333
 10
130.5460229697
 20
45.7607960587
 10
130.6499641707
 20
45.775954022
 10
130.7496217168
 20
45.8021378225
 10
130.8435526492
 20
45.8389704865
 10
130.9228200748
 20
45.8818257943
  0
LWPOLYLINE
  5
32B
100
AcDbEntity
  8
RACCORDO
100
AcDbPolyline
 62
250
  6
CONTINUOUS
 90
49
 70
0
 10
125.8587691505
 20
48.9182085459
 10
125.8646515634
 20
48.7116792002
 10
125.8817448734
 20
48.5011462921
 10
125.9100490807
 20
48.2866098215
 10
125.949780667
 20
48.0670856817
 10
126.0007231505
 20
47.8435579794
 10
126.0622270856
 20
47.6189790355
 10
126.1344279984
 20
47.3933685951
 10
126.2171903628
 20
47.166706913
 10
126.309458154
 20
46.9418870741
 10
126.4113532592
 20
46.7189327855
 10
126.5227537912
 20
46.4978203401
 10
126.6422380633
 20
46.2813717015
 10
126.7699095782
 20
46.0696468479
 10
126.9056648333
 20
45.8625858011
 10
127.0477716339
 20
45.66283059
 10
127.1963114153
 20
45.4704747705
 10
127.3512027422
 20
45.2854247867
 10
127.5104691151
 20
45.1100419995
 10
127.6741665887
 20
44.9444503125
 10
127.8422391082
 20
44.7885258221
 10
128.0125420097
 20
44.6442581779
 10
128.1851038727
 20
44.5117967628
 10
128.3598961177
 20
44.390992194
 10
128.534688342
 20
44.2833859733
 10
128.7094805479
 20
44.1891472343
 10
128.8842727331
 20
44.1081068434
 10
129.0568344889
 20
44.0412989023
 10
129.2271372274
 20
43.9889057979
 10
129.3952095365
 20
43.9507451433
 10
129.5589067706
 20
43.9273038787
 10
129.7181728785
 20
43.918770634
 10
129.8730639115
 20
43.9249567793
 10
130.0216033779
 20
43.9457833653
 10
130.1637098501
 20
43.981437991
 10
130.2994647557
 20
44.0317330574
 10
130.4271358851
 20
44.0960268172
 10
130.5466197245
 20
44.1744987641
 10
130.6580197878
 20
44.2669694045
 10
130.7599144066
 20
44.3722585102
 10
130.8521817096
 20
44.490530587
 10
130.9349435682
 20
44.6216211291
 10
131.0071439283
 20
44.7638563917
 10
131.0686472299
 20
44.9174129062
 10
131.119589033
 20
45.0821141411
 10
131.1593199637
 20
45.2557567577
 10
131.1876235639
 20
45.4376063094
 10
131.2047162916
 20
45.6283972427
 10
131.2105981468
 20
45.8281295576
  0
LWPOLYLINE
  5
32C
100
AcDbEntity
  8
RACCORDO
100
AcDbPolyline
 62
250
  6
CONTINUOUS
 90
49
 70
0
 10
131.2105981468
 20
45.8281295576
 10
131.204715734
 20
46.0346589033
 10
131.1876224239
 20
46.2451918114
 10
131.1593182167
 20
46.4597282819
 10
131.1195866304
 20
46.6792524218
 10
131.0686441468
 20
46.9027801241
 10
131.0071402118
 20
47.127359068
 10
130.9349392989
 20
47.3529695084
 10
130.8521769345
 20
47.5796311905
 10
130.7599091434
 20
47.8044510294
 10
130.6580140382
 20
48.027405318
 10
130.5466135062
 20
48.2485177634
 10
130.427129234
 20
48.464966402
 10
130.2994577191
 20
48.6766912556
 10
130.1637024641
 20
48.8837523024
 10
130.0215956634
 20
49.0835075135
 10
129.8730558821
 20
49.275863333
 10
129.7181645551
 20
49.4609133168
 10
129.5588981822
 20
49.636296104
 10
129.3952007086
 20
49.801887791
 10
129.2271281891
 20
49.9578122814
 10
129.0568252876
 20
50.1020799255
 10
128.8842634247
 20
50.2345413407
 10
128.7094711797
 20
50.3553459095
 10
128.5346789553
 20
50.4629521302
 10
128.3598867495
 20
50.5571908692
 10
128.1850945642
 20
50.6382312601
 10
128.0125328084
 20
50.7050392012
 10
127.8422300699
 20
50.7574323056
 10
127.6741577609
 20
50.7955929602
 10
127.5104605268
 20
50.8190342248
 10
127.3511944188
 20
50.8275674695
 10
127.1963033858
 20
50.8213813241
 10
127.0477639195
 20
50.8005547382
 10
126.9056574473
 20
50.7649001125
 10
126.7699025417
 20
50.7146050461
 10
126.6422314123
 20
50.6503112863
 10
126.5227475728
 20
50.5718393394
 10
126.4113475096
 20
50.479368699
 10
126.3094528907
 20
50.3740795932
 10
126.2171855877
 20
50.2558075165
 10
126.1344237292
 20
50.1247169744
 10
126.0622233691
 20
49.9824817118
 10
126.0007200675
 20
49.8289251973
 10
125.9497782643
 20
49.6642239623
 10
125.9100473337
 20
49.4905813458
 10
125.8817437335
 20
49.3087317941
 10
125.8646510058
 20
49.1179408608
 10
125.8587691505
 20
48.9182085459
  0
LWPOLYLINE
  5
32D
100
AcDbEntity
  8
0
100
AcDbPolyline
 62
7
  6
CONTINUOUS
 90
40
 70
0
 10
132.6005476405
 20
45.8421393268
 10
132.5939768922
 20
46.0861707858
 10
132.5749138175
 20
46.3347187641
 10
132.5433584163
 20
46.5877832615
 10
132.4990967549
 20
46.8463559912
 10
132.4423427671
 20
47.10944524
 10
132.3737382541
 20
47.374075869
 10
132.2931486974
 20
47.6402653747
 10
132.2007086155
 20
47.9079962605
 10
132.0974633651
 20
48.1742408975
 10
131.9832902938
 20
48.4389824149
 10
131.858312054
 20
48.7022376834
 10
131.7239419593
 20
48.9610296867
 10
131.5800734004
 20
49.2153077609
 10
131.4268129867
 20
49.4651225698
 10
131.2658938602
 20
49.707649088
 10
131.0972290849
 20
49.9428045842
 10
130.9209055968
 20
50.1706717897
 10
130.7389173464
 20
50.3886738731
 10
130.5512000313
 20
50.5966988529
 10
130.3578179539
 20
50.7948587107
 10
130.1609579711
 20
50.9809125599
 10
129.9605806043
 20
51.1547229821
 10
129.7567253321
 20
51.3164273958
 10
129.5516974475
 20
51.4641971701
 10
129.3454836399
 20
51.5978741293
 10
129.1380972198
 20
51.7176164491
 10
128.9318834122
 20
51.822070026
 10
128.7268555276
 20
51.9110613136
 10
128.5230002555
 20
51.9847638584
 10
128.3226228887
 20
52.0423441967
 10
128.1257629059
 20
52.0836193212
 10
127.9323808284
 20
52.1087722392
 10
127.7446635133
 20
52.1175185095
 10
127.5626752629
 20
52.109671896
 10
127.3863517749
 20
52.0854186348
 10
127.2176869996
 20
52.0450329934
 10
127.0567678731
 20
51.9883318488
 10
126.9035074593
 20
51.9154983241
 10
126.8667120956
 20
51.8949349282
  0
LWPOLYLINE
  5
32E
100
AcDbEntity
  8
RACCORDO
100
AcDbPolyline
 62
250
  6
CONTINUOUS
 90
49
 70
0
 10
131.4934408593
 20
45.7604844081
 10
131.4879865443
 20
45.9680532235
 10
131.4716441047
 20
46.1811350329
 10
131.4444752555
 20
46.3989217111
 10
131.4065826745
 20
46.6205878092
 10
131.358109885
 20
46.8452920286
 10
131.2992409762
 20
47.0721803449
 10
131.2301993748
 20
47.3003916451
 10
131.1512468486
 20
47.52906068
 10
131.0626830211
 20
47.7573196443
 10
130.9648439545
 20
47.9843024769
 10
130.8581007363
 20
48.209148346
 10
130.7428581955
 20
48.4310045294
 10
130.6195534386
 20
48.6490295224
 10
130.488654241
 20
48.8623961944
 10
130.3506571755
 20
49.0702951245
 10
130.2060857272
 20
49.2719376612
 10
130.0554882984
 20
49.4665589178
 10
129.899436155
 20
49.6534206316
 10
129.7385212571
 20
49.8318139705
 10
129.5733540156
 20
50.0010622206
 10
129.4045609715
 20
50.1605233599
 10
129.2327824187
 20
50.3095924937
 10
129.0586699754
 20
50.4477041491
 10
128.8828841137
 20
50.5743344181
 10
128.7060916534
 20
50.6890029459
 10
128.5289632328
 20
50.791274753
 10
128.3521707644
 20
50.8807618852
 10
128.1763848869
 20
50.9571248852
 10
128.0022724199
 20
51.0200740803
 10
127.8304938347
 20
51.0693706816
 10
127.661700749
 20
51.1048276891
 10
127.4965334578
 20
51.126310601
 10
127.3356185034
 20
51.1337379246
 10
127.1795662978
 20
51.1270814864
 10
127.0289688003
 20
51.1063665373
 10
126.8843972756
 20
51.0716716556
 10
126.7464001254
 20
51.0231284456
 10
126.6155008362
 20
50.9609210506
 10
126.4921959818
 20
50.8852854613
 10
126.3769533367
 20
50.7965086308
 10
126.2702100095
 20
50.6949273045
 10
126.1723708341
 20
50.5809267237
 10
126.0838068932
 20
50.4549391925
 10
126.0048542529
 20
50.3174427019
 10
125.9358125483
 20
50.1689590903
 10
125.8769435828
 20
50.010051462
 10
125.8284707162
 20
49.8413228122
 10
125.7905779581
 20
49.6634141857
  0
LINE
  5
32F
100
AcDbEntity
  8
RACCORDO
100
AcDbLine
 62
250
  6
CONTINUOUS
 10
132.5699131502
 20
46.0705546594
 11
132.5762835718
 21
45.8281295576
  0
LINE
  5
330
100
AcDbEntity
  8
RACCORDO
100
AcDbLine
 62
7
  6
CONTINUOUS
 10
125.741611863
 20
49.0815183832
 11
125.741611863
 21
49.5434283569
  0
LINE
  5
331
100
AcDbEntity
  8
RACCORDO
100
AcDbLine
 62
250
  6
CONTINUOUS
 10
125.746946299
 20
49.7596791771
 11
125.7478251774
 21
49.7726994736
  0
LWPOLYLINE
  5
332
100
AcDbEntity
  8
RACCORDO
100
AcDbPolyline
 62
250
  6
CONTINUOUS
 90
49
 70
0
 10
126.0214388172
 20
48.8242851191
 10
126.0267648794
 20
49.0105829471
 10
126.0426498562
 20
49.1888898449
 10
126.0690937476
 20
49.3592058124
 10
126.1063105884
 20
49.5223754071
 10
126.1540863437
 20
49.6775540716
 10
126.2117789096
 20
49.8222081334
 10
126.2794936676
 20
49.9559941932
 10
126.3571252362
 20
50.0792556503
 10
126.4437153656
 20
50.1904890306
 10
126.5393964672
 20
50.2895732492
 10
126.6440361298
 20
50.376629391
 10
126.7562788693
 20
50.4505172364
 10
126.876214205
 20
50.5110569462
 10
127.0037526176
 20
50.5584283597
 10
127.1372700658
 20
50.5920307746
 10
127.2768456993
 20
50.6116892309
 10
127.4224003684
 20
50.6175786886
 10
127.5720725821
 20
50.6096233258
 10
127.7259145687
 20
50.5876452731
 10
127.8838741
 20
50.5518223999
 10
128.0439330003
 20
50.5026124931
 10
128.2061183433
 20
50.4398437549
 10
128.3704030554
 20
50.363687983
 10
128.5346877398
 20
50.2751183577
 10
128.6989723763
 20
50.1739755691
 10
128.8632569853
 20
50.0604189271
 10
129.0254422308
 20
49.9358995407
 10
129.1855010986
 20
49.8002768178
 10
129.343460603
 20
49.6536913506
 10
129.4973024508
 20
49.498016025
 10
129.6469742929
 20
49.3331334376
 10
129.7925284784
 20
49.1591609917
 10
129.9321037609
 20
48.9783237831
 10
130.0656212172
 20
48.7905378869
 10
130.1931597706
 20
48.595887228
 10
130.3130949446
 20
48.3968486767
 10
130.425336876
 20
48.1933464436
 10
130.5299754281
 20
47.985456318
 10
130.6256557132
 20
47.7758825383
 10
130.7122456463
 20
47.5646563406
 10
130.7898773125
 20
47.3517464888
 10
130.8575920797
 20
47.1397635135
 10
130.9152844803
 20
46.9284849303
 10
130.9630599819
 20
46.7181332236
 10
131.0002763556
 20
46.5119863773
 10
131.0267195251
 20
46.3111370526
 10
131.0426035666
 20
46.1144925883
 10
131.0479284801
 20
45.9220529844
  0
LWPOLYLINE
  5
333
100
AcDbEntity
  8
RACCORDO
100
AcDbPolyline
 62
250
  6
CONTINUOUS
 90
19
 70
0
 10
126.4403359624
 20
48.7704103776
 10
126.4451684931
 20
48.9380731094
 10
126.4596455113
 20
49.0994383987
 10
126.4837052031
 20
49.2538151496
 10
126.5172448053
 20
49.4005424941
 10
126.5601208257
 20
49.5389916163
 10
126.6121494462
 20
49.6685686393
 10
126.6731077221
 20
49.788718475
 10
126.7427346961
 20
49.8989269033
 10
126.8207321275
 20
49.9987219318
 10
126.9067658781
 20
50.0876761715
 10
127.0004675889
 20
50.1654088765
 10
127.1014362567
 20
50.2315873925
 10
127.2092397037
 20
50.2859283629
 10
127.3234161788
 20
50.3281989448
 10
127.4434765669
 20
50.3582180449
 10
127.5689066305
 20
50.3758571277
 10
127.6991693475
 20
50.3810407117
 10
127.7205457987
 20
50.3807091593
  0
LWPOLYLINE
  5
334
100
AcDbEntity
  8
RACCORDO
100
AcDbPolyline
 62
250
  6
CONTINUOUS
 90
51
 70
0
 10
125.7478251774
 20
49.7726994736
 10
125.7664415578
 20
49.9939259633
 10
125.7973903951
 20
50.2062686339
 10
125.8405543037
 20
50.4089220093
 10
125.8957695551
 20
50.6011173299
 10
125.9628266885
 20
50.7821254783
 10
126.0414713288
 20
50.9512598224
 10
126.1314051525
 20
51.1078787876
 10
126.2322869955
 20
51.2513882481
 10
126.3437342068
 20
51.3812438644
 10
126.465323998
 20
51.4969530145
 10
126.5965950021
 20
51.5980766904
 10
126.7370488879
 20
51.6842311588
 10
126.8861531434
 20
51.7550899193
 10
127.0433431408
 20
51.8103845288
 10
127.208023458
 20
51.8499051359
 10
127.379568837
 20
51.8735013069
 10
127.557327385
 20
51.8810832911
 10
127.7406242298
 20
51.872622461
 10
127.9287645204
 20
51.8481510432
 10
128.1210348551
 20
51.807761877
 10
128.3167059794
 20
51.7516081512
 10
128.5150355378
 20
51.6799029053
 10
128.7152711988
 20
51.5929181504
 10
128.9166535445
 20
51.4909837779
 10
129.1184185038
 20
51.3744865316
 10
129.319800259
 20
51.243868643
 10
129.520034462
 20
51.0996260253
 10
129.7183620146
 20
50.9423056615
 10
129.9140314674
 20
50.7725036365
 10
130.106301085
 20
50.5908634797
 10
130.2944409581
 20
50.3980745966
 10
130.4777366856
 20
50.1948690376
 10
130.6554925414
 20
49.9820182464
 10
130.8270347473
 20
49.7603291793
 10
130.9917132485
 20
49.5306419158
 10
131.148903761
 20
49.2938270003
 10
131.2980094731
 20
49.0507833658
 10
131.4384640742
 20
48.802434123
 10
131.5697343776
 20
48.5497223227
 10
131.6913230413
 20
48.2936057101
 10
131.8027695886
 20
48.0350542116
 10
131.9036515033
 20
47.77504763
 10
131.9935855646
 20
47.5145731917
 10
132.0722301605
 20
47.2546201824
 10
132.1392870622
 20
46.9961744337
 10
132.1945018459
 20
46.7402165976
 10
132.2376648114
 20
46.487719557
 10
132.2686124853
 20
46.2396416449
 10
132.2872279291
 20
45.9969230896
 10
132.2934408593
 20
45.7604844081
  0
LINE
  5
335
100
AcDbEntity
  8
0
100
AcDbLine
 62
7
  6
CONTINUOUS
 10
101.0282298605
 20
84.9722999774
 11
100.144346384
 21
84.4619567357
  0
LWPOLYLINE
  5
336
100
AcDbEntity
  8
RACCORDO
100
AcDbPolyline
 62
7
  6
CONTINUOUS
 90
8
 70
0
 10
100.144346384
 20
105.2495508841
 10
100.1620240536
 20
105.2488516121
 10
100.1944537848
 20
105.2501344284
 10
100.2268835161
 20
105.253858967
 10
100.2576949117
 20
105.2598393631
 10
100.2863485264
 20
105.2680136615
 10
100.3133838055
 20
105.2784438173
 10
100.3388007489
 20
105.2911298306
  0
LWPOLYLINE
  5
337
100
AcDbEntity
  8
ASSI
100
AcDbPolyline
 62
7
  6
CONTINUOUS
 90
28
 70
0
 10
135.7651354143
 20
82.3517450958
 10
135.7921542739
 20
82.3068481671
 10
135.8201603878
 20
82.2627591687
 10
135.8491589459
 20
82.2194823477
 10
135.8791447584
 20
82.1770134568
 10
135.9099604695
 20
82.1355753589
 10
135.941610442
 20
82.0951734727
 10
135.9740903132
 20
82.0558023795
 10
136.0072296394
 20
82.0176686856
 10
136.0410318873
 20
81.9807788961
 10
136.0754935903
 20
81.9451265061
 10
136.1104339046
 20
81.9108986075
 10
136.1458553463
 20
81.8781026887
 10
136.1817553993
 20
81.8467312614
 10
136.2179456721
 20
81.8169489524
 10
136.2544276902
 20
81.7887641155
 10
136.2911999281
 20
81.7621683971
 10
136.3280694172
 20
81.7373013625
 10
136.3650366686
 20
81.7141720993
 10
136.4021011711
 20
81.6927715201
 10
136.4390684225
 20
81.6732119279
 10
136.4759379116
 20
81.6555030007
 10
136.5127101495
 20
81.6396350606
 10
136.5491921676
 20
81.6256913773
 10
136.5853824404
 20
81.6136820665
 10
136.6212824935
 20
81.6035970124
 10
136.6567039351
 20
81.5954891382
 10
136.6842480094
 20
81.5906643959
  0
LINE
  5
338
100
AcDbEntity
  8
ASSI
100
AcDbLine
 62
7
  6
CONTINUOUS
 10
135.7392455952
 20
82.3972143503
 11
135.7651354143
 21
82.3517450958
  0
LWPOLYLINE
  5
339
100
AcDbEntity
  8
CURVE
100
AcDbPolyline
 62
250
  6
CONTINUOUS
 90
17
 70
0
 10
135.853238834
 20
55.8823406535
 10
135.8700722575
 20
55.6743880276
 10
135.9199313481
 20
55.4549174371
 10
136.0009169886
 20
55.2322884486
 10
136.1121223104
 20
55.011199992
 10
136.2454218079
 20
54.80780647
 10
136.3974500247
 20
54.6259028056
 10
136.5624162533
 20
54.472417653
 10
136.7371223104
 20
54.3514095658
 10
136.9088028441
 20
54.2717203143
 10
137.0739441195
 20
54.2339402757
 10
137.2262559568
 20
54.2395084797
 10
137.3621223104
 20
54.2894656582
 10
137.4716157521
 20
54.38016156
 10
137.5531325667
 20
54.5086361813
 10
137.6035678042
 20
54.6699959636
 10
137.6210057869
 20
54.8616542594
  0
LWPOLYLINE
  5
33A
100
AcDbEntity
  8
CURVE
100
AcDbPolyline
 62
250
  6
CONTINUOUS
 90
17
 70
0
 10
137.6210057869
 20
54.8616541701
 10
137.6041723634
 20
55.069606796
 10
137.5543132728
 20
55.2890773865
 10
137.4733276323
 20
55.511706375
 10
137.3621223104
 20
55.7327948316
 10
137.228822813
 20
55.9361883536
 10
137.0767945962
 20
56.118092018
 10
136.9118283676
 20
56.2715771706
 10
136.7371223104
 20
56.3925852578
 10
136.5654417768
 20
56.4722745093
 10
136.4003005014
 20
56.5100545479
 10
136.247988664
 20
56.5044863439
 10
136.1121223104
 20
56.4545291654
 10
136.0026288688
 20
56.3638332636
 10
135.9211120542
 20
56.2353586423
 10
135.8706768167
 20
56.07399886
 10
135.853238834
 20
55.8823405642
  0
LWPOLYLINE
  5
33B
100
AcDbEntity
  8
RACCORDO
100
AcDbPolyline
 62
250
  6
CONTINUOUS
 90
6
 70
0
 10
135.9593048511
 20
82.4790118215
 10
135.9604043614
 20
82.4653044023
 10
135.9636687626
 20
82.4532927919
 10
135.968996626
 20
82.4433506315
 10
135.9762537963
 20
82.4357628455
 10
135.9800131132
 20
82.4332381354
  0
LWPOLYLINE
  5
33C
100
AcDbEntity
  8
ASSI
100
AcDbPolyline
 62
7
  6
CONTINUOUS
 90
9
 70
0
 10
141.3317502566
 20
15.4178080396
 10
134.9705928678
 20
121.9201596303
 10
134.970302891
 20
121.9260217833
 10
134.9700515588
 20
121.9319082307
 10
134.9698388616
 20
121.9378192972
 10
134.9696648089
 20
121.9437546581
 10
134.9695294292
 20
121.9497133394
 10
134.9694327322
 20
121.9556950164
 10
134.9693747083
 20
121.9617000137
  0
LWPOLYLINE
  5
33D
100
AcDbEntity
  8
ASSI
100
AcDbPolyline
 62
7
  6
CONTINUOUS
 90
10
 70
0
 10
141.3317502566
 20
15.4178080396
 10
141.3320788778
 20
15.411970181
 10
141.3323688546
 20
15.4061080281
 10
141.3326201868
 20
15.4002215806
 10
141.3328328841
 20
15.3943105141
 10
141.3330069368
 20
15.3883751532
 10
141.3331423164
 20
15.382416472
 10
141.3332390134
 20
15.376434795
 10
141.3332970373
 20
15.3704297976
 10
141.3333163882
 20
15.3644014799
  0
LWPOLYLINE
  5
33E
100
AcDbEntity
  8
ASSI
100
AcDbPolyline
 62
7
  6
CONTINUOUS
 90
9
 70
0
 10
141.8620803424
 20
15.1116020946
 10
135.5009229537
 20
121.6139536853
 10
135.5006329769
 20
121.6198158383
 10
135.5003816447
 20
121.6257022857
 10
135.5001689474
 20
121.6316133522
 10
135.4999948947
 20
121.6375487131
 10
135.4998595151
 20
121.6435073944
 10
135.4997628181
 20
121.6494890714
 10
135.4997047942
 20
121.6554940688
  0
LWPOLYLINE
  5
33F
100
AcDbEntity
  8
ASSI
100
AcDbPolyline
 62
7
  6
CONTINUOUS
 90
10
 70
0
 10
141.8620803424
 20
15.1116020946
 10
141.8624089637
 20
15.105764236
 10
141.8626989405
 20
15.0999020831
 10
141.8629502727
 20
15.0940156356
 10
141.86316297
 20
15.0881045692
 10
141.8633370227
 20
15.0821692082
 10
141.8634724023
 20
15.076210527
 10
141.8635690993
 20
15.07022885
 10
141.8636271232
 20
15.0642238526
 10
141.863646474
 20
15.0581955349
  0
LWPOLYLINE
  5
340
100
AcDbEntity
  8
ASSI
100
AcDbPolyline
 62
7
  6
CONTINUOUS
 90
51
 70
0
 10
135.1461320528
 20
88.9494263185
 10
135.1467440398
 20
88.9198268883
 10
135.1485433717
 20
88.8897390178
 10
135.1515300484
 20
88.8591627069
 10
135.1557161968
 20
88.8280265855
 10
135.1610896901
 20
88.7964020237
 10
135.1676141476
 20
88.7645031322
 10
135.1752973793
 20
88.7323280495
 10
135.1841315753
 20
88.6998786371
 10
135.1940569244
 20
88.6673745903
 10
135.2050808311
 20
88.6348155382
 10
135.217195891
 20
88.6022018517
 10
135.2303200803
 20
88.5697543381
 10
135.2444602469
 20
88.5374741251
 10
135.259609543
 20
88.505360085
 10
135.275665402
 20
88.4736296426
 10
135.2926339755
 20
88.4422854007
 10
135.3105091118
 20
88.4113247563
 10
135.3291697894
 20
88.3809573253
 10
135.3486213386
 20
88.3511871328
 10
135.368858429
 20
88.3220101537
 10
135.3897440475
 20
88.2936239273
 10
135.4112825949
 20
88.2660338196
 10
135.4334696706
 20
88.2392344648
 10
135.4561550591
 20
88.2134073049
 10
135.4793421421
 20
88.1885589369
 10
135.5030275381
 20
88.164682764
 10
135.5270508876
 20
88.141940437
 10
135.551414484
 20
88.12033965
 10
135.5761160339
 20
88.0998727089
 10
135.6009882983
 20
88.0806781831
 10
135.6260324355
 20
88.0627647067
 10
135.6512472871
 20
88.0461236454
 10
135.6764621387
 20
88.0308676659
 10
135.7016769903
 20
88.0170061668
 10
135.7268918419
 20
88.0045297495
 10
135.7519359791
 20
87.993522884
 10
135.7768082434
 20
87.9839955424
 10
135.8015097934
 20
87.9759377527
 10
135.8258733897
 20
87.9694040694
 10
135.8498967393
 20
87.9644048345
 10
135.8735821352
 20
87.9609297059
 10
135.8967692182
 20
87.9590022116
 10
135.9194546068
 20
87.9586328534
 10
135.9416416824
 20
87.9598111295
 10
135.9631802298
 20
87.9625290625
 10
135.9840658484
 20
87.9667971
 10
136.0043029388
 20
87.9726047945
 10
136.0237544879
 20
87.9799128255
 10
136.0424151655
 20
87.9887313739
 10
136.0514766101
 20
87.9937181019
  0
LWPOLYLINE
  5
341
100
AcDbEntity
  8
ASSI
100
AcDbPolyline
 62
7
  6
CONTINUOUS
 90
33
 70
0
 10
135.6764621387
 20
89.2556322635
 10
135.6770741257
 20
89.2260328333
 10
135.6788734576
 20
89.1959449628
 10
135.6818601343
 20
89.1653686519
 10
135.6860462827
 20
89.1342325305
 10
135.691419776
 20
89.1026079687
 10
135.6979442334
 20
89.0707090772
 10
135.7056274652
 20
89.0385339945
 10
135.7144616612
 20
89.0060845821
 10
135.7243870103
 20
88.9735805353
 10
135.735410917
 20
88.9410214832
 10
135.7475259768
 20
88.9084077967
 10
135.7606501662
 20
88.8759602831
 10
135.7747903328
 20
88.8436800701
 10
135.7899396289
 20
88.81156603
 10
135.8059954879
 20
88.7798355876
 10
135.8229640614
 20
88.7484913457
 10
135.8408391977
 20
88.7175307013
 10
135.8594998753
 20
88.6871632703
 10
135.8789514245
 20
88.6573930778
 10
135.8991885149
 20
88.6282160987
 10
135.9200741334
 20
88.5998298723
 10
135.9416126808
 20
88.5722397646
 10
135.9637997564
 20
88.5454404098
 10
135.986485145
 20
88.5196132499
 10
136.009672228
 20
88.4947648819
 10
136.033357624
 20
88.470888709
 10
136.0573809735
 20
88.448146382
 10
136.0817445699
 20
88.426545595
 10
136.1064461198
 20
88.4060786539
 10
136.1313183842
 20
88.3868841281
 10
136.1563625213
 20
88.3689706517
 10
136.1815773729
 20
88.3523295904
  0
LWPOLYLINE
  5
342
100
AcDbEntity
  8
ASSI
100
AcDbPolyline
 62
7
  6
CONTINUOUS
 90
51
 70
0
 10
136.2067922246
 20
88.3370144285
 10
136.2061802375
 20
88.3666138587
 10
136.2043809057
 20
88.3967017292
 10
136.201394229
 20
88.4272780401
 10
136.1972080805
 20
88.4584141615
 10
136.1918345872
 20
88.4900387233
 10
136.1853101298
 20
88.5219376148
 10
136.177626898
 20
88.5541126975
 10
136.1687927021
 20
88.5865621099
 10
136.1588673529
 20
88.6190661568
 10
136.1478434462
 20
88.6516252088
 10
136.1357283864
 20
88.6842388953
 10
136.122604197
 20
88.7166864089
 10
136.1084640304
 20
88.7489666219
 10
136.0933147343
 20
88.781080662
 10
136.0772588753
 20
88.8128111044
 10
136.0602903019
 20
88.8441553464
 10
136.0424151655
 20
88.8751159907
 10
136.0237544879
 20
88.9054834217
 10
136.0043029388
 20
88.9352536142
 10
135.9840658484
 20
88.9644305934
 10
135.9631802298
 20
88.9928168197
 10
135.9416416824
 20
89.0204069274
 10
135.9194546068
 20
89.0472062823
 10
135.8967692182
 20
89.0730334422
 10
135.8735821352
 20
89.0978818101
 10
135.8498967393
 20
89.121757983
 10
135.8258733897
 20
89.14450031
 10
135.8015097934
 20
89.166101097
 10
135.7768082434
 20
89.1865680381
 10
135.7519359791
 20
89.2057625639
 10
135.7268918419
 20
89.2236760404
 10
135.7016769903
 20
89.2403171016
 10
135.6764621387
 20
89.2555730811
 10
135.6512472871
 20
89.2694345802
 10
135.6260324355
 20
89.2819109976
 10
135.6009882983
 20
89.292917863
 10
135.5761160339
 20
89.3024452046
 10
135.551414484
 20
89.3105029943
 10
135.5270508876
 20
89.3170366776
 10
135.5030275381
 20
89.3220359125
 10
135.4793421421
 20
89.3255110411
 10
135.4561550591
 20
89.3274385354
 10
135.4334696706
 20
89.3278078936
 10
135.4112825949
 20
89.3266296175
 10
135.3897440475
 20
89.3239116845
 10
135.368858429
 20
89.319643647
 10
135.3486213386
 20
89.3138359525
 10
135.3291697894
 20
89.3065279215
 10
135.3105091118
 20
89.2977093731
 10
135.3014476672
 20
89.2927226451
  0
LWPOLYLINE
  5
343
100
AcDbEntity
  8
ASSI
100
AcDbPolyline
 62
7
  6
CONTINUOUS
 90
58
 70
0
 10
134.9693553575
 20
7.6085848568
 10
134.9701419798
 20
7.5652686711
 10
134.9724652083
 20
7.5212894098
 10
134.9763250427
 20
7.476647073
 10
134.9817336319
 20
7.4312611105
 10
134.9886788271
 20
7.3852120725
 10
134.9971241822
 20
7.3387416091
 10
135.0070775835
 20
7.2918475049
 10
135.0185311447
 20
7.2445319753
 10
135.0314247613
 20
7.1970433166
 10
135.0457660035
 20
7.1493806187
 10
135.0615473011
 20
7.1015447918
 10
135.0786858391
 20
7.0537868623
 10
135.0971887524
 20
7.0061072399
 10
135.117048906
 20
6.9585055151
 10
135.1381620804
 20
6.911231486
 10
135.1605348627
 20
6.8642868753
 10
135.1841606658
 20
6.8176699603
 10
135.2089155093
 20
6.7716253712
 10
135.2348053285
 20
6.7261561166
 10
135.261824188
 20
6.681259188
 10
135.2898303019
 20
6.6371701896
 10
135.31882886
 20
6.5938933685
 10
135.3488146725
 20
6.5514244777
 10
135.3796303836
 20
6.5099863798
 10
135.4112803561
 20
6.4695844936
 10
135.4437602273
 20
6.4302134003
 10
135.4768995535
 20
6.3920797065
 10
135.5107018014
 20
6.355189917
 10
135.5451635044
 20
6.3195375269
 10
135.5801038187
 20
6.2853096283
 10
135.6155252604
 20
6.2525137096
 10
135.6514253134
 20
6.2211422822
 10
135.6876155862
 20
6.1913599732
 10
135.7240976044
 20
6.1631751364
 10
135.7608698422
 20
6.1365794179
 10
135.7977393313
 20
6.1117123834
 10
135.8347065827
 20
6.0885831202
 10
135.8717710852
 20
6.0671825409
 10
135.9087383367
 20
6.0476229488
 10
135.9456078257
 20
6.0299140216
 10
135.9823800636
 20
6.0140460815
 10
136.0188620817
 20
6.0001023982
 10
136.0550523545
 20
5.9880930873
 10
136.0909524076
 20
5.9780080333
 10
136.1263738492
 20
5.9699001591
 10
136.1613141636
 20
5.9637798585
 10
136.1957758665
 20
5.9596367378
 10
136.2295781144
 20
5.9574925387
 10
136.2627174406
 20
5.9573577693
 10
136.2951973118
 20
5.9592219215
 10
136.3268472843
 20
5.9630752128
 10
136.3576629954
 20
5.9689280999
 10
136.3876488079
 20
5.9767701261
 10
136.416647366
 20
5.9865601391
 10
136.4446534799
 20
5.9983083792
 10
136.4716723395
 20
6.012004606
 10
136.4782669845
 20
6.0157308475
  0
LWPOLYLINE
  5
344
100
AcDbEntity
  8
ASSI
100
AcDbPolyline
 62
7
  6
CONTINUOUS
 90
19
 70
0
 10
135.4996854434
 20
7.9147908017
 10
135.5004720657
 20
7.8714746161
 10
135.5027952941
 20
7.8274953548
 10
135.5066551286
 20
7.782853018
 10
135.5120637178
 20
7.7374670555
 10
135.519008913
 20
7.6914180175
 10
135.5274542681
 20
7.6449475541
 10
135.5374076694
 20
7.5980534499
 10
135.5488612305
 20
7.5507379203
 10
135.5617548472
 20
7.5032492616
 10
135.5760960894
 20
7.4555865637
 10
135.591877387
 20
7.4077507368
 10
135.609015925
 20
7.3599928073
 10
135.6275188383
 20
7.3123131849
 10
135.6473789919
 20
7.2647114601
 10
135.6684921663
 20
7.217437431
 10
135.6908649486
 20
7.1704928203
 10
135.7144907517
 20
7.1238759053
 10
135.7392455952
 20
7.0778313162
  0
LWPOLYLINE
  5
345
100
AcDbEntity
  8
ASSI
100
AcDbPolyline
 62
7
  6
CONTINUOUS
 90
58
 70
0
 10
134.9693553575
 20
82.9279678909
 10
134.9701419798
 20
82.8846517052
 10
134.9724652083
 20
82.8406724439
 10
134.9763250427
 20
82.7960301071
 10
134.9817336319
 20
82.7506441447
 10
134.9886788271
 20
82.7045951067
 10
134.9971241822
 20
82.6581246432
 10
135.0070775835
 20
82.611230539
 10
135.0185311447
 20
82.5639150095
 10
135.0314247613
 20
82.5164263508
 10
135.0457660035
 20
82.4687636529
 10
135.0615473011
 20
82.4209278259
 10
135.0786858391
 20
82.3731698965
 10
135.0971887524
 20
82.3254902741
 10
135.117048906
 20
82.2778885493
 10
135.1381620804
 20
82.2306145202
 10
135.1605348627
 20
82.1836699094
 10
135.1841606658
 20
82.1370529944
 10
135.2089155093
 20
82.0910084053
 10
135.2348053285
 20
82.0455391508
 10
135.261824188
 20
82.0006422221
 10
135.2898303019
 20
81.9565532237
 10
135.31882886
 20
81.9132764027
 10
135.3488146725
 20
81.8708075118
 10
135.3796303836
 20
81.8293694139
 10
135.4112803561
 20
81.7889675277
 10
135.4437602273
 20
81.7495964345
 10
135.4768995535
 20
81.7114627406
 10
135.5107018014
 20
81.6745729511
 10
135.5451635044
 20
81.6389205611
 10
135.5801038187
 20
81.6046926625
 10
135.6155252604
 20
81.5718967437
 10
135.6514253134
 20
81.5405253164
 10
135.6876155862
 20
81.5107430074
 10
135.7240976044
 20
81.4825581705
 10
135.7608698422
 20
81.4559624521
 10
135.7977393313
 20
81.4310954175
 10
135.8347065827
 20
81.4079661543
 10
135.8717710852
 20
81.3865655751
 10
135.9087383367
 20
81.3670059829
 10
135.9456078257
 20
81.3492970557
 10
135.9823800636
 20
81.3334291156
 10
136.0188620817
 20
81.3194854324
 10
136.0550523545
 20
81.3074761215
 10
136.0909524076
 20
81.2973910674
 10
136.1263738492
 20
81.2892831932
 10
136.1613141636
 20
81.2831628927
 10
136.1957758665
 20
81.279019772
 10
136.2295781144
 20
81.2768755729
 10
136.2627174406
 20
81.2767408034
 10
136.2951973118
 20
81.2786049556
 10
136.3268472843
 20
81.2824582469
 10
136.3576629954
 20
81.288311134
 10
136.3876488079
 20
81.2961531602
 10
136.416647366
 20
81.3059431732
 10
136.4446534799
 20
81.3176914133
 10
136.4716723395
 20
81.3313876402
 10
136.4782669845
 20
81.3351138817
  0
LWPOLYLINE
  5
346
100
AcDbEntity
  8
ASSI
100
AcDbPolyline
 62
7
  6
CONTINUOUS
 90
58
 70
0
 10
136.7371223104
 20
6.5878983734
 10
136.7363356881
 20
6.6312145591
 10
136.7340124597
 20
6.6751938204
 10
136.7301526252
 20
6.7198361572
 10
136.7247440361
 20
6.7652221196
 10
136.7177988408
 20
6.8112711577
 10
136.7093534857
 20
6.8577416211
 10
136.6994000844
 20
6.9046357253
 10
136.6879465233
 20
6.9519512549
 10
136.6750529067
 20
6.9994399135
 10
136.6607116644
 20
7.0471026114
 10
136.6449303668
 20
7.0949384384
 10
136.6277918288
 20
7.1426963679
 10
136.6092889156
 20
7.1903759902
 10
136.5894287619
 20
7.2379777151
 10
136.5683155875
 20
7.2852517442
 10
136.5459428052
 20
7.3321963549
 10
136.5223170021
 20
7.3788132699
 10
136.4975621586
 20
7.424857859
 10
136.4716723395
 20
7.4703271136
 10
136.4446534799
 20
7.5152240422
 10
136.416647366
 20
7.5593130406
 10
136.3876488079
 20
7.6025898616
 10
136.3576629954
 20
7.6450587525
 10
136.3268472843
 20
7.6864968504
 10
136.2951973118
 20
7.7268987366
 10
136.2627174406
 20
7.7662698299
 10
136.2295781144
 20
7.8044035237
 10
136.1957758665
 20
7.8412933132
 10
136.1613141636
 20
7.8769457032
 10
136.1263738492
 20
7.9111736018
 10
136.0909524076
 20
7.9439695206
 10
136.0550523545
 20
7.975340948
 10
136.0188620817
 20
8.0051232569
 10
135.9823800636
 20
8.0333080938
 10
135.9456078257
 20
8.0599038123
 10
135.9087383367
 20
8.0847708468
 10
135.8717710852
 20
8.10790011
 10
135.8347065827
 20
8.1293006892
 10
135.7977393313
 20
8.1488602814
 10
135.7608698422
 20
8.1665692086
 10
135.7240976044
 20
8.1824371487
 10
135.6876155862
 20
8.196380832
 10
135.6514253134
 20
8.2083901429
 10
135.6155252604
 20
8.2184751969
 10
135.5801038187
 20
8.2265830711
 10
135.5451635044
 20
8.2327033717
 10
135.5107018014
 20
8.2368464924
 10
135.4768995535
 20
8.2389906915
 10
135.4437602273
 20
8.2391254609
 10
135.4112803561
 20
8.2372613087
 10
135.3796303836
 20
8.2334080174
 10
135.3488146725
 20
8.2275551303
 10
135.31882886
 20
8.2197131041
 10
135.2898303019
 20
8.2099230911
 10
135.261824188
 20
8.198174851
 10
135.2348053285
 20
8.1844786241
 10
135.2282106834
 20
8.1807523826
  0
LWPOLYLINE
  5
347
100
AcDbEntity
  8
ASSI
100
AcDbPolyline
 62
7
  6
CONTINUOUS
 90
19
 70
0
 10
135.4996854434
 20
83.2341738359
 10
135.5004720657
 20
83.1908576502
 10
135.5027952941
 20
83.1468783889
 10
135.5066551286
 20
83.1022360521
 10
135.5120637178
 20
83.0568500897
 10
135.519008913
 20
83.0108010516
 10
135.5274542681
 20
82.9643305882
 10
135.5374076694
 20
82.917436484
 10
135.5488612305
 20
82.8701209545
 10
135.5617548472
 20
82.8226322958
 10
135.5760960894
 20
82.7749695979
 10
135.591877387
 20
82.7271337709
 10
135.609015925
 20
82.6793758415
 10
135.6275188383
 20
82.6316962191
 10
135.6473789919
 20
82.5840944943
 10
135.6684921663
 20
82.5368204651
 10
135.6908649486
 20
82.4898758544
 10
135.7144907517
 20
82.4432589394
 10
135.7392455952
 20
82.3972143503
  0
LWPOLYLINE
  5
348
100
AcDbEntity
  8
ASSI
100
AcDbPolyline
 62
7
  6
CONTINUOUS
 90
58
 70
0
 10
136.7371223104
 20
81.9072814076
 10
136.7363356881
 20
81.9505975933
 10
136.7340124597
 20
81.9945768545
 10
136.7301526252
 20
82.0392191913
 10
136.7247440361
 20
82.0846051538
 10
136.7177988408
 20
82.1306541918
 10
136.7093534857
 20
82.1771246552
 10
136.6994000844
 20
82.2240187594
 10
136.6879465233
 20
82.271334289
 10
136.6750529067
 20
82.3188229477
 10
136.6607116644
 20
82.3664856456
 10
136.6449303668
 20
82.4143214726
 10
136.6277918288
 20
82.462079402
 10
136.6092889156
 20
82.5097590244
 10
136.5894287619
 20
82.5573607492
 10
136.5683155875
 20
82.6046347783
 10
136.5459428052
 20
82.651579389
 10
136.5223170021
 20
82.6981963041
 10
136.4975621586
 20
82.7442408932
 10
136.4716723395
 20
82.7897101477
 10
136.4446534799
 20
82.8346070763
 10
136.416647366
 20
82.8786960747
 10
136.3876488079
 20
82.9219728958
 10
136.3576629954
 20
82.9644417866
 10
136.3268472843
 20
83.0058798845
 10
136.2951973118
 20
83.0462817707
 10
136.2627174406
 20
83.085652864
 10
136.2295781144
 20
83.1237865578
 10
136.1957758665
 20
83.1606763473
 10
136.1613141636
 20
83.1963287374
 10
136.1263738492
 20
83.230556636
 10
136.0909524076
 20
83.2633525548
 10
136.0550523545
 20
83.2947239821
 10
136.0188620817
 20
83.3245062911
 10
135.9823800636
 20
83.3526911279
 10
135.9456078257
 20
83.3792868464
 10
135.9087383367
 20
83.404153881
 10
135.8717710852
 20
83.4272831441
 10
135.8347065827
 20
83.4486837234
 10
135.7977393313
 20
83.4682433155
 10
135.7608698422
 20
83.4859522427
 10
135.7240976044
 20
83.5018201828
 10
135.6876155862
 20
83.5157638661
 10
135.6514253134
 20
83.527773177
 10
135.6155252604
 20
83.5378582311
 10
135.5801038187
 20
83.5459661052
 10
135.5451635044
 20
83.5520864058
 10
135.5107018014
 20
83.5562295265
 10
135.4768995535
 20
83.5583737256
 10
135.4437602273
 20
83.558508495
 10
135.4112803561
 20
83.5566443429
 10
135.3796303836
 20
83.5527910515
 10
135.3488146725
 20
83.5469381645
 10
135.31882886
 20
83.5390961382
 10
135.2898303019
 20
83.5293061252
 10
135.261824188
 20
83.5175578851
 10
135.2348053285
 20
83.5038616583
 10
135.2282106834
 20
83.5001354168
  0
LWPOLYLINE
  5
349
100
AcDbEntity
  8
ASSI
100
AcDbPolyline
 62
7
  6
CONTINUOUS
 90
58
 70
0
 10
132.6712583186
 20
46.2912413794
 10
132.6697326486
 20
46.4024022994
 10
132.6651967168
 20
46.5149694044
 10
132.657650523
 20
46.6289426945
 10
132.6470804161
 20
46.744439684
 10
132.6335000472
 20
46.8613428587
 10
132.6169503706
 20
46.9792996754
 10
132.5974224227
 20
47.0983133149
 10
132.574925167
 20
47.2183805964
 10
132.5495264482
 20
47.3391394351
 10
132.5212175075
 20
47.4605919185
 10
132.4900071036
 20
47.5827359591
 10
132.4559893573
 20
47.7052032089
 10
132.4191557939
 20
47.8279946438
 10
132.3795148881
 20
47.9511092881
 10
132.3371861843
 20
48.0741758668
 10
132.2921615687
 20
48.1971942349
 10
132.2444491551
 20
48.3201645375
 10
132.1941928291
 20
48.442715935
 10
132.1413849112
 20
48.564847163
 10
132.0860330809
 20
48.6865594858
 10
132.0283042617
 20
48.8074858578
 10
131.9681912782
 20
48.9276239062
 10
131.9057013058
 20
49.0469760037
 10
131.8410227946
 20
49.1651822221
 10
131.7741491379
 20
49.2822391023
 10
131.7050869424
 20
49.3981501034
 10
131.6340444778
 20
49.5125656744
 10
131.5610157662
 20
49.6254813011
 10
131.4860067855
 20
49.7369014978
 10
131.4092437391
 20
49.8464902563
 10
131.3307213318
 20
49.9542420481
 10
131.2504448589
 20
50.0601624018
 10
131.1686564086
 20
50.1639318951
 10
131.0853514168
 20
50.2655440351
 10
131.0005344478
 20
50.3650053147
 10
130.9144612826
 20
50.4620157901
 10
130.8271281291
 20
50.556568063
 10
130.7385387796
 20
50.6486695317
 10
130.6489603914
 20
50.7380424474
 10
130.5583899788
 20
50.8246785732
 10
130.4668305277
 20
50.9085861459
 10
130.3745581522
 20
50.9895121269
 10
130.2815707003
 20
51.0674475154
 10
130.187870324
 20
51.1424013122
 10
130.0937395942
 20
51.2141474802
 10
129.9991772117
 20
51.2826763365
 10
129.9041844755
 20
51.3479975641
 10
129.8090478538
 20
51.4099141747
 10
129.7137669122
 20
51.4684158909
 10
129.618342085
 20
51.5235129902
 10
129.5230611434
 20
51.5750393171
 10
129.4279245217
 20
51.6229840925
 10
129.3329317855
 20
51.6673580955
 10
129.238369403
 20
51.7080275083
 10
129.1442386731
 20
51.7449811476
 10
129.0505382969
 20
51.7782301967
 10
128.9648937794
 20
51.8053492692
  0
LINE
  5
34A
100
AcDbEntity
  8
0
100
AcDbLine
 62
7
  6
CONTINUOUS
 10
133.9086951857
 20
157.4309398306
 11
133.9086951857
 21
155.797999277
  0
LINE
  5
34B
100
AcDbEntity
  8
0
100
AcDbLine
 62
7
  6
CONTINUOUS
 10
133.9086951857
 20
118.4444841138
 11
133.9086951857
 21
9.6498197311
  0
LINE
  5
34C
100
AcDbEntity
  8
0
100
AcDbLine
 62
250
  6
CONTINUOUS
 10
134.2622485763
 20
158.2463842792
 11
134.2622485763
 21
157.6340315716
  0
LINE
  5
34D
100
AcDbEntity
  8
ASSI
100
AcDbLine
 62
7
  6
CONTINUOUS
 10
134.9693553575
 20
156.4092867015
 11
134.9693747083
 21
121.9617000137
  0
LINE
  5
34E
100
AcDbEntity
  8
ASSI
100
AcDbLine
 62
7
  6
CONTINUOUS
 10
135.4996854434
 20
156.1030807565
 11
135.4997047942
 21
121.6554940688
  0
LINE
  5
34F
100
AcDbEntity
  8
0
100
AcDbLine
 62
250
  6
CONTINUOUS
 10
135.7118174777
 20
83.5065137334
 11
135.7118174777
 21
82.4485336716
  0
LINE
  5
350
100
AcDbEntity
  8
0
100
AcDbLine
 62
250
  6
CONTINUOUS
 10
135.7118174777
 20
8.1871306992
 11
135.7118174777
 21
7.1291506375
  0
LINE
  5
351
100
AcDbEntity
  8
0
100
AcDbLine
 62
7
  6
CONTINUOUS
 10
135.7825281558
 20
7.0575206841
 11
135.7825281558
 21
7.1391479843
  0
LINE
  5
352
100
AcDbEntity
  8
0
100
AcDbLine
 62
7
  6
CONTINUOUS
 10
135.7825281558
 20
82.3769037182
 11
135.7825281558
 21
82.4585310184
  0
LINE
  5
353
100
AcDbEntity
  8
RACCORDO
100
AcDbLine
 62
7
  6
CONTINUOUS
 10
135.9300155293
 20
82.5436883794
 11
135.9300155293
 21
82.5198392808
  0
LINE
  5
354
100
AcDbEntity
  8
RACCORDO
100
AcDbLine
 62
7
  6
CONTINUOUS
 10
135.9300155293
 20
7.2243053452
 11
135.9300155293
 21
7.2004562467
  0
LINE
  5
355
100
AcDbEntity
  8
RACCORDO
100
AcDbLine
 62
250
  6
CONTINUOUS
 10
135.9593048511
 20
82.5605996668
 11
135.9593048511
 21
82.4790118215
  0
LINE
  5
356
100
AcDbEntity
  8
RACCORDO
100
AcDbLine
 62
250
  6
CONTINUOUS
 10
135.9593048511
 20
7.2412166326
 11
135.9593048511
 21
7.1596287873
  0
LINE
  5
357
100
AcDbEntity
  8
0
100
AcDbLine
 62
250
  6
CONTINUOUS
 10
136.1360815464
 20
83.2210468739
 11
136.1360815464
 21
82.6626683151
  0
LINE
  5
358
100
AcDbEntity
  8
0
100
AcDbLine
 62
250
  6
CONTINUOUS
 10
136.1360815464
 20
7.9016638398
 11
136.1360815464
 21
7.343285281
  0
LINE
  5
359
100
AcDbEntity
  8
0
100
AcDbLine
 62
7
  6
CONTINUOUS
 10
136.2067922246
 20
6.8534741338
 11
136.2067922246
 21
6.9759446753
  0
LINE
  5
35A
100
AcDbEntity
  8
0
100
AcDbLine
 62
7
  6
CONTINUOUS
 10
136.2067922246
 20
82.1728571679
 11
136.2067922246
 21
82.2953277094
  0
LINE
  5
35B
100
AcDbEntity
  8
0
100
AcDbLine
 62
7
  6
CONTINUOUS
 10
136.2239495121
 20
83.129929284
 11
136.2239495121
 21
82.7851506931
  0
LINE
  5
35C
100
AcDbEntity
  8
0
100
AcDbLine
 62
7
  6
CONTINUOUS
 10
136.2239495121
 20
7.8105462499
 11
136.2239495121
 21
7.4657676589
  0
LWPOLYLINE
  5
35D
100
AcDbEntity
  8
0
100
AcDbPolyline
 62
7
  6
CONTINUOUS
 90
21
 70
0
 10
133.9086951857
 20
9.6498197311
 10
133.9078233882
 20
9.6008766033
 10
133.9052455859
 20
9.5531576857
 10
133.9009617788
 20
9.5066629783
 10
133.8949594978
 20
9.4613211152
 10
133.887251212
 20
9.4172034623
 10
133.8778743288
 20
9.3745241176
 10
133.8668207376
 20
9.3332900725
 10
133.8540985491
 20
9.2934943357
 10
133.8397695025
 20
9.2553300314
 10
133.8238257874
 20
9.2188050895
 10
133.8062752143
 20
9.1839115801
 10
133.7872029542
 20
9.1508188376
 10
133.7666016105
 20
9.1195356149
 10
133.7444785797
 20
9.090053159
 10
133.7209412225
 20
9.0625145449
 10
133.6959826641
 20
9.0369292212
 10
133.6696097793
 20
9.0132877393
 10
133.6419505527
 20
8.9917048287
 10
133.6129987316
 20
8.9721904956
 10
133.5980675116
 20
8.9632209213
  0
LWPOLYLINE
  5
35E
100
AcDbEntity
  8
RACCORDO
100
AcDbPolyline
 62
7
  6
CONTINUOUS
 90
10
 70
0
 10
130.9307711926
 20
46.0853628219
 10
130.9281706407
 20
45.9632265312
 10
130.9204263007
 20
45.845408154
 10
130.9076467794
 20
45.7322772165
 10
130.8900137427
 20
45.6244077974
 10
130.867665838
 20
45.5218459162
 10
130.8406023308
 20
45.4242617508
 10
130.8088876231
 20
45.3318469188
 10
130.7727397276
 20
45.2451514265
 10
130.7323441002
 20
45.1644575547
  0
LWPOLYLINE
  5
35F
100
AcDbEntity
  8
RACCORDO
100
AcDbPolyline
 62
250
  6
CONTINUOUS
 90
6
 70
0
 10
132.2934408593
 20
45.7604844081
 10
132.2872275449
 20
45.5312132914
 10
132.2686111646
 20
45.3099868017
 10
132.2376623272
 20
45.097644131
 10
132.1944984187
 20
44.8949907556
 10
132.1392831672
 20
44.7027954351
  0
LWPOLYLINE
  5
360
100
AcDbEntity
  8
RACCORDO
100
AcDbPolyline
 62
250
  6
CONTINUOUS
 90
13
 70
0
 10
132.5762835718
 20
45.8281295576
 10
132.5699131282
 20
45.5930604588
 10
132.5508259637
 20
45.3662394936
 10
132.5190944838
 20
45.1485270683
 10
132.474839058
 20
44.9407490366
 10
132.4182275636
 20
44.7436935694
 10
132.3494747492
 20
44.5581081646
 10
132.2688414161
 20
44.3846968014
 10
132.1766334374
 20
44.2241172914
 10
132.0732006033
 20
44.0769787805
 10
131.9589352447
 20
43.9438393748
 10
131.8342708378
 20
43.8252041474
 10
131.6996804022
 20
43.7215231965
  0
LWPOLYLINE
  5
361
100
AcDbEntity
  8
RACCORDO
100
AcDbPolyline
 62
250
  6
CONTINUOUS
 90
49
 70
0
 10
131.0479284801
 20
45.9220529844
 10
131.042602418
 20
45.7357551564
 10
131.0267174412
 20
45.5574482586
 10
131.0002735498
 20
45.3871322911
 10
130.963056709
 20
45.2239626963
 10
130.9152809536
 20
45.0687840319
 10
130.8575883878
 20
44.9241299701
 10
130.7898736297
 20
44.7903439103
 10
130.7122420612
 20
44.6670824532
 10
130.6256519318
 20
44.5558490729
 10
130.5299708301
 20
44.4567648543
 10
130.4253311676
 20
44.3697087125
 10
130.3130884281
 20
44.2958208671
 10
130.1931530924
 20
44.2352811573
 10
130.0656146798
 20
44.1879097438
 10
129.9320972316
 20
44.1543073289
 10
129.792521598
 20
44.1346488726
 10
129.646966929
 20
44.1287594149
 10
129.4972947152
 20
44.1367147776
 10
129.3434527286
 20
44.1586928304
 10
129.1854931974
 20
44.1945157036
 10
129.0254342971
 20
44.2437256104
 10
128.863248954
 20
44.3064943486
 10
128.698964242
 20
44.3826501205
 10
128.5346795576
 20
44.4712197458
 10
128.370394921
 20
44.5723625344
 10
128.2061103121
 20
44.6859191764
 10
128.0439250666
 20
44.8104385628
 10
127.8838661987
 20
44.9460612857
 10
127.7259066943
 20
45.0926467529
 10
127.5720648466
 20
45.2483220785
 10
127.4223930045
 20
45.4132046659
 10
127.276838819
 20
45.5871771118
 10
127.1372635365
 20
45.7680143204
 10
127.0037460801
 20
45.9558002166
 10
126.8762075267
 20
46.1504508755
 10
126.7562723528
 20
46.3494894268
 10
126.6440304213
 20
46.5529916599
 10
126.5393918693
 20
46.7608817855
 10
126.4437115842
 20
46.9704555651
 10
126.3571216511
 20
47.1816817629
 10
126.2794899849
 20
47.3945916147
 10
126.2117752176
 20
47.60657459
 10
126.154082817
 20
47.8178531732
 10
126.1063073154
 20
48.0282048799
 10
126.0690909417
 20
48.2343517262
 10
126.0426477723
 20
48.4352010509
 10
126.0267637308
 20
48.6318455151
 10
126.0214388172
 20
48.8242851191
  0
LWPOLYLINE
  5
362
100
AcDbEntity
  8
0
100
AcDbPolyline
 62
7
  6
CONTINUOUS
 90
6
 70
0
 10
136.2234329742
 20
82.7851506931
 10
136.2223545615
 20
82.7697618944
 10
136.21372726
 20
82.7403190312
 10
136.196472657
 20
82.713100725
 10
136.1705907525
 20
82.687217153
 10
136.1360815464
 20
82.6626683151
  0
LWPOLYLINE
  5
363
100
AcDbEntity
  8
RACCORDO
100
AcDbPolyline
 62
250
  6
CONTINUOUS
 90
4
 70
0
 10
125.7905779581
 20
49.6634141857
 10
125.7634088794
 20
49.4770009519
 10
125.7470662542
 20
49.2827900761
 10
125.741611863
 20
49.0815183832
  0
LINE
  5
364
100
AcDbEntity
  8
SMUSSO
100
AcDbLine
 62
7
  6
CONTINUOUS
 10
100.3034454098
 20
30.5636976108
 11
100.8337754957
 21
31.4822562634
  0
LINE
  5
365
100
AcDbEntity
  8
SMUSSO
100
AcDbLine
 62
7
  6
CONTINUOUS
 10
100.9398415129
 20
31.4210150744
 11
100.409511427
 21
30.5024564218
  0
LWPOLYLINE
  5
366
100
AcDbEntity
  8
ASSI
100
AcDbPolyline
 62
7
  6
CONTINUOUS
 90
18
 70
0
 10
135.3014476672
 20
89.2927226451
 10
135.2926339755
 20
89.2873904882
 10
135.275665402
 20
89.2756411296
 10
135.259609543
 20
89.2624515906
 10
135.2444602469
 20
89.247831578
 10
135.2303200803
 20
89.2318800749
 10
135.217195891
 20
89.2145880463
 10
135.2050808311
 20
89.1959645272
 10
135.1940569244
 20
89.1761356062
 10
135.1841315753
 20
89.1550931038
 10
135.1752973793
 20
89.1328451995
 10
135.1676141476
 20
89.1095425202
 10
135.1610896901
 20
89.0851779087
 10
135.1557161968
 20
89.0597585222
 10
135.1515300484
 20
89.03345646
 10
135.1485433717
 20
89.0063290886
 10
135.1467440398
 20
88.9783190414
 10
135.1461320528
 20
88.9494263185
  0
LWPOLYLINE
  5
367
100
AcDbEntity
  8
ASSI
100
AcDbPolyline
 62
7
  6
CONTINUOUS
 90
18
 70
0
 10
136.0514766101
 20
87.9937181019
 10
136.0602903019
 20
87.9990502588
 10
136.0772588753
 20
88.0107996174
 10
136.0933147343
 20
88.0239891564
 10
136.1084640304
 20
88.038609169
 10
136.122604197
 20
88.0545606721
 10
136.1357283864
 20
88.0718527007
 10
136.1478434462
 20
88.0904762198
 10
136.1588673529
 20
88.1103051408
 10
136.1687927021
 20
88.1313476432
 10
136.177626898
 20
88.1535955476
 10
136.1853101298
 20
88.1768982268
 10
136.1918345872
 20
88.2012628384
 10
136.1972080805
 20
88.2266822248
 10
136.201394229
 20
88.252984287
 10
136.2043809057
 20
88.2801116584
 10
136.2061802375
 20
88.3081217056
 10
136.2067922246
 20
88.3370144285
  0
LINE
  5
368
100
AcDbEntity
  8
0
100
AcDbLine
 62
250
  6
CONTINUOUS
 10
100.144346384
 20
69.7644264703
 11
99.7907929934
 21
69.5602891736
  0
LINE
  5
369
100
AcDbEntity
  8
0
100
AcDbLine
 62
7
  6
CONTINUOUS
 10
99.937263763
 20
69.3066896092
 11
99.7907929934
 21
69.2221192225
  0
LINE
  5
36A
100
AcDbEntity
  8
ASSI
100
AcDbLine
 62
250
  6
CONTINUOUS
 10
135.6764621387
 20
89.2556322635
 11
135.1461320528
 21
88.9494263185
  0
LWPOLYLINE
  5
36B
100
AcDbEntity
  8
RACCORDO
100
AcDbPolyline
 62
250
  6
CONTINUOUS
 90
4
 70
0
 10
100.144346384
 20
106.2273480556
 10
100.1522117975
 20
106.2290613356
 10
100.1668679796
 20
106.234043201
 10
100.1797017231
 20
106.2403011867
  0
LWPOLYLINE
  5
36C
100
AcDbEntity
  8
RACCORDO
100
AcDbPolyline
 62
250
  6
CONTINUOUS
 90
4
 70
0
 10
100.144346384
 20
103.2064082508
 10
100.1521804251
 20
103.2081126335
 10
100.1668518694
 20
103.2130965765
 10
100.1797017231
 20
103.2193611625
  0
LWPOLYLINE
  5
36D
100
AcDbEntity
  8
0
100
AcDbPolyline
 62
7
  6
CONTINUOUS
 90
18
 70
0
 10
141.863646474
 20
-8.2112073537
 10
141.8642584611
 20
-8.2401000766
 10
141.8660577929
 20
-8.2681101237
 10
141.8690444697
 20
-8.2952374952
 10
141.8732306181
 20
-8.3215395574
 10
141.8786041114
 20
-8.3469589438
 10
141.8851285688
 20
-8.3713235554
 10
141.8928118006
 20
-8.3946262346
 10
141.9016459965
 20
-8.416874139
 10
141.9115713457
 20
-8.4379166414
 10
141.9225952524
 20
-8.4577455624
 10
141.9347103122
 20
-8.4763690815
 10
141.9478345016
 20
-8.4936611101
 10
141.9619746682
 20
-8.5096126132
 10
141.9771239643
 20
-8.5242326258
 10
141.9931798233
 20
-8.5374221648
 10
142.0101483968
 20
-8.5491715234
 10
142.0189620885
 20
-8.5545036803
  0
LINE
  5
36E
100
AcDbEntity
  8
0
100
AcDbLine
 62
7
  6
CONTINUOUS
 10
141.3333163882
 20
-7.9050014087
 11
141.3333163882
 21
15.3644014799
  0
LINE
  5
36F
100
AcDbEntity
  8
0
100
AcDbLine
 62
7
  6
CONTINUOUS
 10
141.863646474
 20
-8.2112073537
 11
141.863646474
 21
15.0581955349
  0
LWPOLYLINE
  5
370
100
AcDbEntity
  8
0
100
AcDbPolyline
 62
7
  6
CONTINUOUS
 90
6
 70
0
 10
136.2234329742
 20
7.4657676589
 10
136.2223545615
 20
7.4503788603
 10
136.21372726
 20
7.4209359971
 10
136.196472657
 20
7.3937176909
 10
136.1705907525
 20
7.3678341188
 10
136.1360815464
 20
7.343285281
  0
LWPOLYLINE
  5
371
100
AcDbEntity
  8
ASSI
100
AcDbPolyline
 62
7
  6
CONTINUOUS
 90
9
 70
0
 10
132.5873971233
 20
45.5275054822
 10
132.5974224227
 20
45.5694332858
 10
132.6169503706
 20
45.6658965405
 10
132.6335000472
 20
45.7647422055
 10
132.6470804161
 20
45.8659631106
 10
132.657650523
 20
45.9692540056
 10
132.6651967168
 20
46.0745131403
 10
132.6697326486
 20
46.181842265
 10
132.6712583186
 20
46.2912413794
  0
LWPOLYLINE
  5
372
100
AcDbEntity
  8
ASSI
100
AcDbPolyline
 62
7
  6
CONTINUOUS
 90
14
 70
0
 10
122.1076893691
 20
67.2419315469
 10
122.096531783
 20
67.2260643864
 10
122.0776793912
 20
67.1953009336
 10
122.0603199638
 20
67.1627277556
 10
122.0445445973
 20
67.1285157856
 10
122.0303616191
 20
67.0926564088
 10
122.0177627018
 20
67.0551582402
 10
122.0068139604
 20
67.0162180577
 10
121.9975240697
 20
66.9758282808
 10
121.989884355
 20
66.9339964901
 10
121.9839349069
 20
66.8909422049
 10
121.979689089
 20
66.8467385985
 10
121.9771335378
 20
66.8013124976
 10
121.9762682532
 20
66.7546639023
  0
LWPOLYLINE
  5
373
100
AcDbEntity
  8
ASSI
100
AcDbPolyline
 62
7
  6
CONTINUOUS
 90
20
 70
0
 10
135.2282106834
 20
83.5001354168
 10
135.2089155093
 20
83.4882893179
 10
135.1841606658
 20
83.4708310016
 10
135.1605348627
 20
83.4514965718
 10
135.1381620804
 20
83.4303874892
 10
135.117048906
 20
83.4074944248
 10
135.0971887524
 20
83.3828267075
 10
135.0786858391
 20
83.3565137856
 10
135.0615473011
 20
83.3285470102
 10
135.0457660035
 20
83.2989350302
 10
135.0314247613
 20
83.2678332393
 10
135.0185311447
 20
83.2352338059
 10
135.0070775835
 20
83.2011445617
 10
134.9971241822
 20
83.1657443958
 10
134.9886788271
 20
83.1290264168
 10
134.9817336319
 20
83.0909975161
 10
134.9763250427
 20
83.0518572569
 10
134.9724652083
 20
83.0116721601
 10
134.9701419798
 20
82.9703757048
 10
134.9693553575
 20
82.9279678909
  0
LWPOLYLINE
  5
374
100
AcDbEntity
  8
ASSI
100
AcDbPolyline
 62
7
  6
CONTINUOUS
 90
20
 70
0
 10
136.4782669845
 20
81.3351138817
 10
136.4975621586
 20
81.3469599805
 10
136.5223170021
 20
81.3644182968
 10
136.5459428052
 20
81.3837527266
 10
136.5683155875
 20
81.4048618092
 10
136.5894287619
 20
81.4277548737
 10
136.6092889156
 20
81.4524225909
 10
136.6277918288
 20
81.4787355129
 10
136.6449303668
 20
81.5067022882
 10
136.6607116644
 20
81.5363142683
 10
136.6750529067
 20
81.5674160591
 10
136.6879465233
 20
81.6000154925
 10
136.6994000844
 20
81.6341047368
 10
136.7093534857
 20
81.6695049027
 10
136.7177988408
 20
81.7062228817
 10
136.7247440361
 20
81.7442517823
 10
136.7301526252
 20
81.7833920416
 10
136.7340124597
 20
81.8235771383
 10
136.7363356881
 20
81.8648735937
 10
136.7371223104
 20
81.9072814076
  0
LINE
  5
375
100
AcDbEntity
  8
ASSI
100
AcDbLine
 62
250
  6
CONTINUOUS
 10
135.4996854434
 20
83.2341738359
 11
134.9693553575
 21
82.9279678909
  0
LINE
  5
376
100
AcDbEntity
  8
0
100
AcDbLine
 62
7
  6
CONTINUOUS
 10
136.1360815464
 20
82.6626683151
 11
135.7243421335
 21
82.4249351384
  0
LINE
  5
377
100
AcDbEntity
  8
0
100
AcDbLine
 62
7
  6
CONTINUOUS
 10
135.7586578844
 20
82.3631213227
 11
135.7825281558
 21
82.3769037182
  0
LINE
  5
378
100
AcDbEntity
  8
0
100
AcDbLine
 62
7
  6
CONTINUOUS
 10
136.2128289068
 20
82.2988132141
 11
136.2067922246
 21
82.2953277094
  0
LINE
  5
379
100
AcDbEntity
  8
0
100
AcDbLine
 62
7
  6
CONTINUOUS
 10
100.6746764699
 20
138.2470052656
 11
101.0282298605
 21
138.0428679689
  0
LWPOLYLINE
  5
37A
100
AcDbEntity
  8
0
100
AcDbPolyline
 62
7
  6
CONTINUOUS
 90
35
 70
0
 10
99.5285834401
 20
139.5130691582
 10
99.5295355585
 20
139.5123990466
 10
99.5600074301
 20
139.4893855345
 10
99.590303834
 20
139.464934389
 10
99.6202523047
 20
139.4391848006
 10
99.649850858
 20
139.4121293638
 10
99.6791014781
 20
139.3837754842
 10
99.7078376529
 20
139.3542845691
 10
99.7360564484
 20
139.3236501336
 10
99.7637607985
 20
139.2918786627
 10
99.7907929934
 20
139.2591510187
 10
99.8171491997
 20
139.2254617482
 10
99.8428332507
 20
139.1908163046
 10
99.8676989374
 20
139.1554119107
 10
99.8917415924
 20
139.1192442379
 10
99.9149658831
 20
139.0823176148
 10
99.9372396029
 20
139.0448422501
 10
99.9585573301
 20
139.0068150139
 10
99.9789244864
 20
138.9682390361
 10
99.9982251297
 20
138.9293339143
 10
100.016453177
 20
138.8900977713
 10
100.0336147112
 20
138.8505324844
 10
100.0496120386
 20
138.8108632831
 10
100.064438519
 20
138.7710895746
 10
100.0781007926
 20
138.7312119517
 10
100.0905210853
 20
138.6914574218
 10
100.1016923137
 20
138.6518266869
 10
100.1116215613
 20
138.6123190451
 10
100.1202523047
 20
138.5731593977
 10
100.1275771382
 20
138.5343497294
 10
100.1336034677
 20
138.4958880555
 10
100.1382969875
 20
138.4579933229
 10
100.1416462626
 20
138.4207385142
 10
100.1436627281
 20
138.3840506468
 10
100.144346384
 20
138.3479297209
  0
LWPOLYLINE
  5
37B
100
AcDbEntity
  8
RACCORDO
100
AcDbPolyline
 62
250
  6
CONTINUOUS
 90
19
 70
0
 10
132.1392831672
 20
44.7027954351
 10
132.0722260338
 20
44.5217872867
 10
131.9935813935
 20
44.3526529426
 10
131.9036475698
 20
44.1960339774
 10
131.8027657268
 20
44.0525245168
 10
131.6913185155
 20
43.9226689006
 10
131.5697287244
 20
43.8069597505
 10
131.4384577202
 20
43.7058360746
 10
131.2980038344
 20
43.6196816061
 10
131.1488995789
 20
43.5488228457
 10
130.9917095816
 20
43.4935282362
 10
130.8270292644
 20
43.454007629
 10
130.6554838853
 20
43.4304114581
 10
130.4777253373
 20
43.4228294738
 10
130.2944284925
 20
43.431290304
 10
130.1062882019
 20
43.4557617218
 10
129.9140178672
 20
43.496150888
 10
129.7183467429
 20
43.5523046138
 10
129.5200171845
 20
43.6240098597
  0
LWPOLYLINE
  5
37C
100
AcDbEntity
  8
RACCORDO
100
AcDbPolyline
 62
250
  6
CONTINUOUS
 90
4
 70
0
 10
100.0800584838
 20
31.0192073505
 10
100.0854895117
 20
31.0251816738
 10
100.097141177
 20
31.0353960274
 10
100.108991045
 20
31.0433926395
  0
LWPOLYLINE
  5
37D
100
AcDbEntity
  8
ASSI
100
AcDbPolyline
 62
7
  6
CONTINUOUS
 90
20
 70
0
 10
121.9074557211
 20
67.1799108841
 10
121.8862310296
 20
67.1668801754
 10
121.8590007017
 20
67.1476760275
 10
121.8330123183
 20
67.1264081547
 10
121.8084022578
 20
67.1031881638
 10
121.7851777659
 20
67.0780057929
 10
121.763331597
 20
67.050871304
 10
121.7429783924
 20
67.0219270898
 10
121.7241260006
 20
66.9911636369
 10
121.7067665732
 20
66.9585904589
 10
121.6909912067
 20
66.9243784889
 10
121.6768082285
 20
66.8885191122
 10
121.6642093112
 20
66.8510209435
 10
121.6532605698
 20
66.812080761
 10
121.6439706792
 20
66.7716909841
 10
121.6363309644
 20
66.7298591934
 10
121.6303815163
 20
66.6868049082
 10
121.6261356984
 20
66.6426013018
 10
121.6235801472
 20
66.5971752009
 10
121.6227148626
 20
66.5505266056
  0
LINE
  5
37E
100
AcDbEntity
  8
ASSI
100
AcDbLine
 62
250
  6
CONTINUOUS
 10
121.9762682532
 20
66.7546639023
 11
121.6227148626
 21
66.5505266056
  0
LINE
  5
37F
100
AcDbEntity
  8
0
100
AcDbLine
 62
7
  6
CONTINUOUS
 10
109.5135112348
 20
59.2539597176
 11
99.7907929934
 21
53.6401840593
  0
LINE
  5
380
100
AcDbEntity
  8
0
100
AcDbLine
 62
7
  6
CONTINUOUS
 10
109.8670646254
 20
59.0498618758
 11
110.220618016
 21
59.2539991725
  0
LINE
  5
381
100
AcDbEntity
  8
ASSI
100
AcDbLine
 62
250
  6
CONTINUOUS
 10
121.9762682532
 20
63.4887827951
 11
121.6227148626
 21
63.2846454985
  0
LWPOLYLINE
  5
382
100
AcDbEntity
  8
0
100
AcDbPolyline
 62
7
  6
CONTINUOUS
 90
31
 70
0
 10
109.5135112348
 20
59.2539597176
 10
109.5325918378
 20
59.2644046537
 10
109.5524771034
 20
59.2742109057
 10
109.5731670316
 20
59.2833784736
 10
109.5947231512
 20
59.2919291149
 10
109.6170839334
 20
59.2998410721
 10
109.6400647914
 20
59.3070490724
 10
109.6636698267
 20
59.3135470296
 10
109.6878949378
 20
59.3193410299
 10
109.7125432332
 20
59.3243840581
 10
109.7376186474
 20
59.3286701326
 10
109.7631172459
 20
59.3322052349
 10
109.788830333
 20
59.3349602952
 10
109.8147598935
 20
59.3369288879
 10
109.8409039425
 20
59.3381174385
 10
109.8670478304
 20
59.3385161543
 10
109.8931911604
 20
59.3381185447
 10
109.9193343293
 20
59.3369311003
 10
109.9452638773
 20
59.3349634996
 10
109.9709781197
 20
59.3322093911
 10
109.9964787412
 20
59.3286751263
 10
110.0215573359
 20
59.3243894389
 10
110.0462108242
 20
59.3193460644
 10
110.0704422856
 20
59.3135512674
 10
110.0940525531
 20
59.3070525751
 10
110.1170364497
 20
59.2998441244
 10
110.1393991523
 20
59.2919317783
 10
110.1609570239
 20
59.283380653
 10
110.1816488522
 20
59.2742124538
 10
110.2015358496
 20
59.2644054753
 10
110.220618016
 20
59.2539597176
  0
LINE
  5
383
100
AcDbEntity
  8
ASSI
100
AcDbLine
 62
250
  6
CONTINUOUS
 10
135.501251575
 20
121.6081158268
 11
134.9709214891
 21
121.9143217718
  0
LINE
  5
384
100
AcDbEntity
  8
ASSI
100
AcDbLine
 62
250
  6
CONTINUOUS
 10
79.6398158612
 20
153.8618086997
 11
80.1701459471
 21
153.5556027547
  0
LINE
  5
385
100
AcDbEntity
  8
ASSI
100
AcDbLine
 62
250
  6
CONTINUOUS
 10
135.4996854434
 20
121.6615223865
 11
134.9693553575
 21
121.9677283315
  0
LINE
  5
386
100
AcDbEntity
  8
ASSI
100
AcDbLine
 62
250
  6
CONTINUOUS
 10
79.6382497296
 20
153.9152152594
 11
80.1685798155
 21
153.6090093144
  0
LINE
  5
387
100
AcDbEntity
  8
0
100
AcDbLine
 62
7
  6
CONTINUOUS
 10
133.9086951857
 20
155.797999277
 11
134.9693553575
 21
152.7361765567
  0
LWPOLYLINE
  5
388
100
AcDbEntity
  8
0
100
AcDbPolyline
 62
7
  6
CONTINUOUS
 90
10
 70
0
 10
133.8481184919
 20
157.8731450921
 10
133.8540985491
 20
157.8503120536
 10
133.8668207376
 20
157.7958250523
 10
133.8778743288
 20
157.7418265971
 10
133.887251212
 20
157.6883190628
 10
133.8949594978
 20
157.6353000747
 10
133.9009617788
 20
157.5830269279
 10
133.9052455859
 20
157.5315853874
 10
133.9078233882
 20
157.4808896884
 10
133.9086951857
 20
157.4309398306
  0
LWPOLYLINE
  5
389
100
AcDbEntity
  8
RACCORDO
100
AcDbPolyline
 62
250
  6
CONTINUOUS
 90
43
 70
0
 10
130.7323441002
 20
45.1644575547
 10
130.7218489425
 20
45.1456108486
 10
130.6522219686
 20
45.0354024203
 10
130.5742245372
 20
44.9356073918
 10
130.4881907865
 20
44.8466531521
 10
130.3944890758
 20
44.7689204471
 10
130.293520408
 20
44.7027419311
 10
130.185716961
 20
44.6484009607
 10
130.0715404858
 20
44.6061303788
 10
129.9514800978
 20
44.5761112786
 10
129.8260500342
 20
44.5584721959
 10
129.6957873172
 20
44.5532886119
 10
129.5612496507
 20
44.5605827132
 10
129.4230130925
 20
44.5803232831
 10
129.2816696409
 20
44.6124257975
 10
129.1378245938
 20
44.6567527814
 10
128.9920939372
 20
44.7131144094
 10
128.8451016978
 20
44.7812693336
 10
128.6974773129
 20
44.8609257056
 10
128.5498529387
 20
44.9517424203
 10
128.402860723
 20
45.0533305871
 10
128.2571300911
 20
45.1652552043
 10
128.1132850576
 20
45.2870370209
 10
127.9719416215
 20
45.4181545289
 10
127.8337051035
 20
45.5580461972
 10
127.6991675244
 20
45.7061128949
 10
127.568904915
 20
45.8617206427
 10
127.4434749313
 20
46.024203291
 10
127.3234145546
 20
46.1928652884
 10
127.2092380755
 20
46.3669842138
 10
127.1014346945
 20
46.5458140196
 10
127.0004662162
 20
46.7285885164
 10
126.9067647338
 20
46.9145253912
 10
126.8207311387
 20
47.1028291464
 10
126.7427337642
 20
47.2926937758
 10
126.6731068156
 20
47.4833059326
 10
126.6121485789
 20
47.6738491296
 10
126.5601199768
 20
47.8635079586
 10
126.517244017
 20
48.0514697094
 10
126.4837046121
 20
48.2369276659
 10
126.4596451926
 20
48.4190871522
 10
126.4451683995
 20
48.5971688637
 10
126.4403359624
 20
48.7704103776
  0
LWPOLYLINE
  5
38A
100
AcDbEntity
  8
ASSI
100
AcDbPolyline
 62
7
  6
CONTINUOUS
 90
20
 70
0
 10
123.2825176523
 20
61.5325060883
 10
123.3037423438
 20
61.5455367971
 10
123.3309726717
 20
61.564740945
 10
123.3569610551
 20
61.5860088178
 10
123.3815711156
 20
61.6092288086
 10
123.4047956075
 20
61.6344111796
 10
123.4266417765
 20
61.6615456685
 10
123.446994981
 20
61.6904898827
 10
123.4658473728
 20
61.7212533355
 10
123.4832068003
 20
61.7538265136
 10
123.4989821667
 20
61.7880384835
 10
123.513165145
 20
61.8238978603
 10
123.5257640622
 20
61.8613960289
 10
123.5367128036
 20
61.9003362115
 10
123.5460026943
 20
61.9407259883
 10
123.553642409
 20
61.9825577791
 10
123.5595918571
 20
62.0256120642
 10
123.563837675
 20
62.0698156707
 10
123.5663932262
 20
62.1152417715
 10
123.5672585108
 20
62.1618903668
  0
LWPOLYLINE
  5
38B
100
AcDbEntity
  8
0
100
AcDbPolyline
 62
7
  6
CONTINUOUS
 90
21
 70
0
 10
165.4810129657
 20
171.9852386215
 10
165.4795988383
 20
172.0788491934
 10
165.475402433
 20
172.1737285606
 10
165.4684237496
 20
172.2698767229
 10
165.4586475187
 20
172.3674138161
 10
165.4460890098
 20
172.4662197045
 10
165.4307940316
 20
172.5659339808
 10
165.4127525905
 20
172.6665599625
 10
165.3919746802
 20
172.7680943321
 10
165.3685360907
 20
172.8701667299
 10
165.3424271052
 20
172.9727791208
 10
165.3136574405
 20
173.0759295399
 10
165.2823320379
 20
173.1792417327
 10
165.2484415635
 20
173.2827162899
 10
165.211995351
 20
173.3863526209
 10
165.1731263428
 20
173.4897726986
 10
165.1318256907
 20
173.5929757333
 10
165.0881022427
 20
173.6959625147
 10
165.042115486
 20
173.7983573854
 10
164.9938571546
 20
173.9001581835
 10
164.9587042846
 20
173.9705791527
  0
LINE
  5
38C
100
AcDbEntity
  8
0
100
AcDbLine
 62
250
  6
CONTINUOUS
 10
164.6678401673
 20
172.9444077313
 11
164.6678401673
 21
4.3432955735
  0
LINE
  5
38D
100
AcDbEntity
  8
0
100
AcDbLine
 62
7
  6
CONTINUOUS
 10
165.0339566908
 20
173.4547509729
 11
165.0339566908
 21
4.8536388152
  0
LINE
  5
38E
100
AcDbEntity
  8
0
100
AcDbLine
 62
7
  6
CONTINUOUS
 10
165.4810129657
 20
7.2623602785
 11
165.4810129657
 21
171.9852386215
  0
LWPOLYLINE
  5
38F
100
AcDbEntity
  8
RACCORDO
100
AcDbPolyline
 62
7
  6
CONTINUOUS
 90
7
 70
0
 10
101.3287502425
 20
31.6455661007
 10
101.3419330848
 20
31.6543713555
 10
101.3527717224
 20
31.6637372543
 10
101.3612661552
 20
31.6736637971
 10
101.3674807647
 20
31.6843378653
 10
101.3713511695
 20
31.6955725775
 10
101.3726842254
 20
31.7068072897
  0
LWPOLYLINE
  5
390
100
AcDbEntity
  8
RACCORDO
100
AcDbPolyline
 62
7
  6
CONTINUOUS
 90
16
 70
0
 10
126.8424116005
 20
51.8809882846
 10
126.7126197024
 20
51.7986825128
 10
126.5887950319
 20
51.7049096247
 10
126.4715198378
 20
51.5997789233
 10
126.361412226
 20
51.4835180718
 10
126.2589211536
 20
51.3562634247
 10
126.1643518029
 20
51.2179603286
 10
126.0780148456
 20
51.0684523654
 10
126.000576889
 20
50.9082105034
 10
125.9327280753
 20
50.7381574535
 10
125.8747142485
 20
50.5584873283
 10
125.8268427665
 20
50.3696191222
 10
125.789552278
 20
50.1730667534
 10
125.7629355316
 20
49.9697196898
 10
125.746946299
 20
49.7596791771
 10
125.741611863
 20
49.5434283569
  0
LWPOLYLINE
  5
391
100
AcDbEntity
  8
ASSI
100
AcDbPolyline
 62
7
  6
CONTINUOUS
 90
20
 70
0
 10
96.6908911088
 20
30.431717719
 10
96.6715959346
 20
30.4198716202
 10
96.6468410911
 20
30.4024133038
 10
96.623215288
 20
30.383078874
 10
96.6008425058
 20
30.3619697915
 10
96.5797293313
 20
30.339076727
 10
96.5598691777
 20
30.3144090098
 10
96.5413662645
 20
30.2880960878
 10
96.5242277265
 20
30.2601293125
 10
96.5084464288
 20
30.2305173324
 10
96.4941051866
 20
30.1994155416
 10
96.48121157
 20
30.1668161081
 10
96.4697580088
 20
30.1327268639
 10
96.4598046076
 20
30.097326698
 10
96.4513592524
 20
30.060608719
 10
96.4444140572
 20
30.0225798183
 10
96.439005468
 20
29.9834395591
 10
96.4351456336
 20
29.9432544623
 10
96.4328224052
 20
29.901958007
 10
96.4320357828
 20
29.8595501931
  0
LWPOLYLINE
  5
392
100
AcDbEntity
  8
ASSI
100
AcDbPolyline
 62
7
  6
CONTINUOUS
 90
20
 70
0
 10
97.9409474098
 20
28.2666961839
 10
97.9602425839
 20
28.2785422827
 10
97.9849974275
 20
28.2960005991
 10
98.0086232306
 20
28.3153350289
 10
98.0309960128
 20
28.3364441114
 10
98.0521091873
 20
28.3593371759
 10
98.0719693409
 20
28.3840048932
 10
98.0904722541
 20
28.4103178151
 10
98.1076107921
 20
28.4382845904
 10
98.1233920898
 20
28.4678965705
 10
98.137733332
 20
28.4989983613
 10
98.1506269486
 20
28.5315977948
 10
98.1620805098
 20
28.565687039
 10
98.172033911
 20
28.6010872049
 10
98.1804792662
 20
28.6378051839
 10
98.1874244614
 20
28.6758340846
 10
98.1928330506
 20
28.7149743438
 10
98.196692885
 20
28.7551594406
 10
98.1990161134
 20
28.7964558959
 10
98.1998027358
 20
28.8388637098
  0
LINE
  5
393
100
AcDbEntity
  8
0
100
AcDbLine
 62
7
  6
CONTINUOUS
 10
126.8666756692
 20
51.8949980538
 11
126.8424116005
 21
51.8809882846
  0
LINE
  5
394
100
AcDbEntity
  8
RACCORDO
100
AcDbLine
 62
7
  6
CONTINUOUS
 10
100.4625444356
 20
32.2681730191
 11
99.8615036716
 21
31.9211396148
  0
LINE
  5
395
100
AcDbEntity
  8
ASSI
100
AcDbLine
 62
250
  6
CONTINUOUS
 10
96.9623658687
 20
30.1657561381
 11
96.4320357828
 21
29.8595501931
  0
LINE
  5
396
100
AcDbEntity
  8
RACCORDO
100
AcDbLine
 62
7
  6
CONTINUOUS
 10
100.4271890965
 20
31.5945199401
 11
101.0282298605
 21
31.9415533444
  0
LINE
  5
397
100
AcDbEntity
  8
0
100
AcDbLine
 62
7
  6
CONTINUOUS
 10
101.0282298605
 20
31.8190828029
 11
100.4271890965
 21
31.4720493986
  0
LINE
  5
398
100
AcDbEntity
  8
RACCORDO
100
AcDbLine
 62
7
  6
CONTINUOUS
 10
101.0282298605
 20
31.8190828029
 11
101.1342958777
 21
31.8803239919
  0
LINE
  5
399
100
AcDbEntity
  8
RACCORDO
100
AcDbLine
 62
250
  6
CONTINUOUS
 10
126.8424116005
 20
51.8809882846
 11
126.8793778856
 21
51.9016778064
  0
LWPOLYLINE
  5
39A
100
AcDbEntity
  8
RACCORDO
100
AcDbPolyline
 62
250
  6
CONTINUOUS
 90
13
 70
0
 10
128.4382350098
 20
50.1866404815
 10
128.4004284806
 20
50.16620068
 10
128.318027227
 20
50.107906181
 10
128.2425661928
 20
50.0398321172
 10
128.1741623597
 20
49.9618629074
 10
128.1126987459
 20
49.8741141328
 10
128.0590380118
 20
49.7778018357
 10
128.0132743437
 20
49.6726265498
 10
127.9753135553
 20
49.5588877415
 10
127.9457357486
 20
49.4386998518
 10
127.9247342907
 20
49.3127676947
 10
127.9121158145
 20
49.1803864563
 10
127.9078803199
 20
49.0415561367
  0
LWPOLYLINE
  5
39B
100
AcDbEntity
  8
RACCORDO
100
AcDbPolyline
 62
250
  6
CONTINUOUS
 90
13
 70
0
 10
128.3363653984
 20
50.2330338199
 10
128.3145734098
 20
50.2213171214
 10
128.2294685213
 20
50.161318251
 10
128.1511640872
 20
50.090803738
 10
128.0800415324
 20
50.0101169317
 10
128.0164475285
 20
49.9196509788
 10
127.960692022
 20
49.8198467281
 10
127.9130465787
 20
49.7111902027
 10
127.8737434447
 20
49.5942109414
 10
127.8429742992
 20
49.4694797614
 10
127.820888915
 20
49.3376048095
 10
127.8075946302
 20
49.1992284097
 10
127.8031560337
 20
49.0550248221
  0
LWPOLYLINE
  5
39C
100
AcDbEntity
  8
RACCORDO
100
AcDbPolyline
 62
250
  6
CONTINUOUS
 90
38
 70
0
 10
126.8793778856
 20
51.9016778064
 10
127.0322525793
 20
51.9743285742
 10
127.1934174116
 20
52.0310215984
 10
127.3622618093
 20
52.0715417264
 10
127.5381447748
 20
52.0957347744
 10
127.7203981045
 20
52.1035087436
 10
127.9083299822
 20
52.0948342467
 10
128.1012278936
 20
52.0697442898
 10
128.2983602552
 20
52.0283340704
 10
128.4989792923
 20
51.9707606864
 10
128.702323952
 20
51.8972425613
 10
128.9076229617
 20
51.8080585549
 10
129.1140977431
 20
51.7035468689
 10
129.3209648659
 20
51.5841040332
 10
129.5274391106
 20
51.4501834782
 10
129.732736799
 20
51.3022936585
 10
129.9360796411
 20
51.1409953854
 10
130.1366971593
 20
50.9668998402
 10
130.3338288241
 20
50.7806668679
 10
130.5267263138
 20
50.5830032745
 10
130.7146572552
 20
50.3746595205
 10
130.8969084156
 20
50.1564264313
 10
131.0727888756
 20
49.9291314609
 10
131.2416319636
 20
49.6936361706
 10
131.4027974624
 20
49.4508333863
 10
131.5556736656
 20
49.201644542
 10
131.6996802497
 20
48.9470155672
 10
131.8342707391
 20
48.6879128725
 10
131.9589349083
 20
48.4253188571
 10
132.0732002338
 20
48.160228839
 10
132.1766334175
 20
47.8936478355
 10
132.2688418019
 20
47.6265876177
 10
132.3494753157
 20
47.3600620781
 10
132.418228046
 20
47.0950826329
 10
132.4748393737
 20
46.8326540289
 10
132.5190946599
 20
46.5737713828
 10
132.5508260469
 20
46.3194166048
 10
132.5699131502
 20
46.0705546594
  0
LINE
  5
39D
100
AcDbEntity
  8
RACCORDO
100
AcDbLine
 62
250
  6
CONTINUOUS
 10
131.6996804022
 20
43.7215231965
 11
131.5926411218
 21
43.6538794672
  0
LWPOLYLINE
  5
39E
100
AcDbEntity
  8
0
100
AcDbPolyline
 62
7
  6
CONTINUOUS
 90
14
 70
0
 10
131.6168687641
 20
43.6679523619
 10
131.7239419593
 20
43.7355312346
 10
131.858312054
 20
43.8391560206
 10
131.9832902938
 20
43.9580895505
 10
132.0974633651
 20
44.090986867
 10
132.2007086155
 20
44.2380064767
 10
132.2931486974
 20
44.3989898731
 10
132.3737382541
 20
44.5721165788
 10
132.4423427671
 20
44.7575244357
 10
132.4990967549
 20
44.9550756021
 10
132.5433584163
 20
45.1625360746
 10
132.5749138175
 20
45.3791611858
 10
132.5939768922
 20
45.6056956031
 10
132.6005476405
 20
45.8421393268
  0
LINE
  5
39F
100
AcDbEntity
  8
SMUSSO
100
AcDbLine
 62
7
  6
CONTINUOUS
 10
101.2226842254
 20
31.7068072897
 11
100.8337754957
 21
31.4822562634
  0
LINE
  5
3A0
100
AcDbEntity
  8
0
100
AcDbLine
 62
7
  6
CONTINUOUS
 10
97.5987619718
 20
29.5942506173
 11
97.1870225588
 21
29.3565174406
  0
LINE
  5
3A1
100
AcDbEntity
  8
RACCORDO
100
AcDbLine
 62
250
  6
CONTINUOUS
 10
100.8161234537
 20
31.4516820299
 11
100.108991045
 21
31.0433926395
  0
LINE
  5
3A2
100
AcDbEntity
  8
0
100
AcDbLine
 62
7
  6
CONTINUOUS
 10
87.0628709321
 20
23.4301328116
 11
89.1841912757
 21
24.6549565916
  0
LINE
  5
3A3
100
AcDbEntity
  8
0
100
AcDbLine
 62
7
  6
CONTINUOUS
 10
101.3726842254
 20
31.6924396631
 11
109.3367345395
 21
36.2907825014
  0
LINE
  5
3A4
100
AcDbEntity
  8
0
100
AcDbLine
 62
7
  6
CONTINUOUS
 10
97.2213383097
 20
29.2947036249
 11
97.4060946273
 21
29.4021805422
  0
LINE
  5
3A5
100
AcDbEntity
  8
0
100
AcDbLine
 62
7
  6
CONTINUOUS
 10
99.7907929934
 20
30.777951026
 11
100.144346384
 21
30.9820883226
  0
LINE
  5
3A6
100
AcDbEntity
  8
SMUSSO
100
AcDbLine
 62
7
  6
CONTINUOUS
 10
101.3287502425
 20
31.6455661007
 11
100.9398415129
 21
31.4210150744
  0
LINE
  5
3A7
100
AcDbEntity
  8
RACCORDO
100
AcDbLine
 62
250
  6
CONTINUOUS
 10
100.6746952635
 20
31.206721219
 11
100.1797017231
 21
30.9209181525
  0
LINE
  5
3A8
100
AcDbEntity
  8
0
100
AcDbLine
 62
7
  6
CONTINUOUS
 10
109.5135112348
 20
36.1886743982
 11
101.3726842254
 21
31.4882629115
  0
LINE
  5
3A9
100
AcDbEntity
  8
0
100
AcDbLine
 62
7
  6
CONTINUOUS
 10
97.5688522298
 20
29.2919779904
 11
97.4213258578
 21
29.2067981122
  0
LINE
  5
3AA
100
AcDbEntity
  8
0
100
AcDbLine
 62
7
  6
CONTINUOUS
 10
97.6755093321
 20
29.2303955163
 11
97.6694726499
 21
29.2269100116
  0
LINE
  5
3AB
100
AcDbEntity
  8
0
100
AcDbLine
 62
250
  6
CONTINUOUS
 10
99.7907929934
 20
29.9614807492
 11
99.2604629076
 21
29.6552748042
  0
LINE
  5
3AC
100
AcDbEntity
  8
RACCORDO
100
AcDbLine
 62
7
  6
CONTINUOUS
 10
100.2327347317
 20
30.0329879854
 11
100.3034454098
 21
30.0738154447
  0
LINE
  5
3AD
100
AcDbEntity
  8
RACCORDO
100
AcDbLine
 62
7
  6
CONTINUOUS
 10
100.409511427
 20
30.0125742557
 11
100.3388007489
 21
29.9717467964
  0
LINE
  5
3AE
100
AcDbEntity
  8
0
100
AcDbLine
 62
7
  6
CONTINUOUS
 10
100.1015935099
 20
28.9162276569
 11
100.144346384
 21
28.9409126307
  0
LINE
  5
3AF
100
AcDbEntity
  8
0
100
AcDbLine
 62
250
  6
CONTINUOUS
 10
100.8514531652
 20
28.124363444
 11
100.3211230793
 21
27.818157499
  0
LINE
  5
3B0
100
AcDbEntity
  8
0
100
AcDbLine
 62
7
  6
CONTINUOUS
 10
131.6169051905
 20
43.6678892363
 11
131.5926411218
 21
43.6538794672
  0
LWPOLYLINE
  5
3B1
100
AcDbEntity
  8
0
100
AcDbPolyline
 62
7
  6
CONTINUOUS
 90
21
 70
0
 10
109.3367345395
 20
36.2907825014
 10
109.3525467606
 20
36.2995175454
 10
109.3689376526
 20
36.3078171591
 10
109.3859072156
 20
36.3156813426
 10
109.4034899113
 20
36.3231233912
 10
109.4216512779
 20
36.3301300096
 10
109.4402879301
 20
36.3366613119
 10
109.4594025784
 20
36.3427145872
 10
109.4789925123
 20
36.3482925464
 10
109.4989462139
 20
36.3533634364
 10
109.519265758
 20
36.3579243651
 10
109.5399490698
 20
36.3619782246
 10
109.5608784075
 20
36.3655019379
 10
109.5820551743
 20
36.3684924813
 10
109.6034779669
 20
36.3709528785
 10
109.625024834
 20
36.3728691234
 10
109.646696483
 20
36.3742381125
 10
109.6684922066
 20
36.3750629493
 10
109.6902879301
 20
36.3753389383
 10
109.7120836536
 20
36.3750629493
 10
109.7128878458
 20
36.3750325154
  0
LWPOLYLINE
  5
3B2
100
AcDbEntity
  8
RACCORDO
100
AcDbPolyline
 62
7
  6
CONTINUOUS
 90
7
 70
0
 10
100.4625444356
 20
32.2681730191
 10
100.4767609397
 20
32.275187919
 10
100.4902908423
 20
32.2798924101
 10
100.5031341431
 20
32.2822864926
 10
100.5154848665
 20
32.2823324997
 10
100.5271489883
 20
32.2800680982
 10
100.5375480596
 20
32.2756041957
  0
LWPOLYLINE
  5
3B3
100
AcDbEntity
  8
RACCORDO
100
AcDbPolyline
 62
7
  6
CONTINUOUS
 90
7
 70
0
 10
100.2327347317
 20
30.0329879854
 10
100.2185623666
 20
30.0263462577
 10
100.2036194421
 20
30.021364962
 10
100.1879059581
 20
30.0180440981
 10
100.1709082082
 20
30.0163836662
 10
100.1531398989
 20
30.0163836662
 10
100.144346384
 20
30.0172426642
  0
LWPOLYLINE
  5
3B4
100
AcDbEntity
  8
ASSI
100
AcDbPolyline
 62
7
  6
CONTINUOUS
 90
20
 70
0
 10
124.0092002491
 20
160.3934458841
 10
124.0500331033
 20
160.3708686183
 10
124.0906524272
 20
160.3503663311
 10
124.1310582207
 20
160.3319390226
 10
124.1713205382
 20
160.3155616746
 10
124.2113693253
 20
160.3012593054
 10
124.2509944193
 20
160.2891069689
 10
124.2901935928
 20
160.2791159677
 10
124.3289690732
 20
160.2712749992
 10
124.3671173794
 20
160.2656252103
 10
124.4046352146
 20
160.2621781198
 10
124.4415258757
 20
160.2609222088
 10
124.4775957726
 20
160.2618640681
 10
124.5128405907
 20
160.265015251
 10
124.5472646447
 20
160.270364204
 10
124.5806872885
 20
160.2778828577
 10
124.6131032578
 20
160.2875826179
 10
124.6445178169
 20
160.2994520788
 10
124.6747661125
 20
160.3134289533
 10
124.6967312048
 20
160.3253306861
  0
LWPOLYLINE
  5
3B5
100
AcDbEntity
  8
ASSI
100
AcDbPolyline
 62
7
  6
CONTINUOUS
 90
14
 70
0
 10
124.3627536397
 20
160.5975831808
 10
124.4035864939
 20
160.5750059149
 10
124.4442058178
 20
160.5545036277
 10
124.4846116113
 20
160.5360763192
 10
124.5248739288
 20
160.5196989713
 10
124.5649227159
 20
160.5053966021
 10
124.6045478099
 20
160.4932442656
 10
124.6437469834
 20
160.4832532643
 10
124.6825224638
 20
160.4754122959
 10
124.72067077
 20
160.469762507
 10
124.7581886052
 20
160.4663154165
 10
124.7950792663
 20
160.4650595055
 10
124.8311491632
 20
160.4660013648
 10
124.8505546571
 20
160.467736379
  0
LINE
  5
3B6
100
AcDbEntity
  8
ASSI
100
AcDbLine
 62
7
  6
CONTINUOUS
 10
124.0092002491
 20
160.3934458841
 11
121.1807731243
 21
162.0265442574
  0
LINE
  5
3B7
100
AcDbEntity
  8
ASSI
100
AcDbLine
 62
7
  6
CONTINUOUS
 10
124.3627536397
 20
160.5975831808
 11
121.5343265149
 21
162.2306815541
  0
LWPOLYLINE
  5
3B8
100
AcDbEntity
  8
0
100
AcDbPolyline
 62
7
  6
CONTINUOUS
 90
16
 70
0
 10
80.8756865967
 20
188.4587633679
 10
80.838512003
 20
188.4790831101
 10
80.801640046
 20
188.4970218146
 10
80.7650707257
 20
188.5125794815
 10
80.728705647
 20
188.5257856466
 10
80.6926432051
 20
188.536610774
 10
80.6571785845
 20
188.5449662559
 10
80.6223166921
 20
188.5508318221
 10
80.588052621
 20
188.5542277428
 10
80.5546668357
 20
188.5551262212
 10
80.522166545
 20
188.5535067587
 10
80.4905445401
 20
188.5493898539
 10
80.4600596589
 20
188.5428092052
 10
80.4307212349
 20
188.5337445907
 10
80.4025199347
 20
188.5222162323
 10
80.3756624366
 20
188.5083045455
  0
LWPOLYLINE
  5
3B9
100
AcDbEntity
  8
0
100
AcDbPolyline
 62
7
  6
CONTINUOUS
 90
16
 70
0
 10
80.8756865967
 20
189.0711160755
 10
80.8106310578
 20
189.1066756244
 10
80.746105133
 20
189.1380683573
 10
80.6821088224
 20
189.1652942743
 10
80.6184699348
 20
189.1884050632
 10
80.5553606613
 20
189.2073490361
 10
80.4932975753
 20
189.2219711295
 10
80.4322892636
 20
189.2322358703
 10
80.3723271393
 20
189.2381787316
 10
80.313902015
 20
189.2397510687
 10
80.2570265062
 20
189.2369170095
 10
80.2016879976
 20
189.2297124261
 10
80.1483394556
 20
189.2181962909
 10
80.0969972136
 20
189.2023332155
 10
80.0476449382
 20
189.1821585883
 10
80.0006443165
 20
189.1578131364
  0
LWPOLYLINE
  5
3BA
100
AcDbEntity
  8
ASSI
100
AcDbPolyline
 62
7
  6
CONTINUOUS
 90
20
 70
0
 10
121.1807731243
 20
164.2718375186
 10
121.1399402701
 20
164.2944147845
 10
121.0993209463
 20
164.3149170717
 10
121.0589151527
 20
164.3333443802
 10
121.0186528352
 20
164.3497217281
 10
120.9786040481
 20
164.3640240974
 10
120.9389789541
 20
164.3761764338
 10
120.8997797806
 20
164.3861674351
 10
120.8610043002
 20
164.3940084035
 10
120.822855994
 20
164.3996581924
 10
120.7853381588
 20
164.403105283
 10
120.7484474978
 20
164.4043611939
 10
120.7123776008
 20
164.4034193346
 10
120.6771327827
 20
164.4002681518
 10
120.6427087287
 20
164.3949191987
 10
120.6092860849
 20
164.387400545
 10
120.5768701156
 20
164.3777007848
 10
120.5454555565
 20
164.3658313239
 10
120.515207261
 20
164.3518544494
 10
120.4932421687
 20
164.3399527167
  0
LINE
  5
3BB
100
AcDbEntity
  8
ASSI
100
AcDbLine
 62
7
  6
CONTINUOUS
 10
121.1807731243
 20
164.2718375186
 11
124.0092002491
 21
162.6387391453
  0
LINE
  5
3BC
100
AcDbEntity
  8
0
100
AcDbLine
 62
250
  6
CONTINUOUS
 10
79.6382497296
 20
188.3567736294
 11
80.1685798155
 21
188.0505676844
  0
LINE
  5
3BD
100
AcDbEntity
  8
0
100
AcDbLine
 62
250
  6
CONTINUOUS
 10
135.4996854434
 20
156.1030807565
 11
134.9693553575
 21
156.4092867015
  0
LINE
  5
3BE
100
AcDbEntity
  8
0
100
AcDbLine
 62
7
  6
CONTINUOUS
 10
80.8756865967
 20
188.4587633679
 11
134.2622485763
 21
157.6340315716
  0
LINE
  5
3BF
100
AcDbEntity
  8
0
100
AcDbLine
 62
7
  6
CONTINUOUS
 10
80.8756865967
 20
189.0711160755
 11
134.2622485763
 21
158.2463842792
  0
LWPOLYLINE
  5
3C0
100
AcDbEntity
  8
0
100
AcDbPolyline
 62
7
  6
CONTINUOUS
 90
40
 70
0
 10
134.2622485763
 20
157.6340315716
 10
134.2907974419
 20
157.616876726
 10
134.3192082099
 20
157.5984883754
 10
134.3474808803
 20
157.5788665199
 10
134.3756608143
 20
157.55797537
 10
134.4037026506
 20
157.5358507151
 10
134.4314703054
 20
157.5125999237
 10
134.4589624459
 20
157.488217522
 10
134.4861804048
 20
157.4627089838
 10
134.5129920966
 20
157.4361980992
 10
134.5393955463
 20
157.4086799961
 10
134.5653927288
 20
157.3801595465
 10
134.5908574826
 20
157.3507751571
 10
134.6157872198
 20
157.3205226284
 10
134.6401845284
 20
157.2894061598
 10
134.6639310109
 20
157.2575767561
 10
134.6870235038
 20
157.2250309519
 10
134.7094651707
 20
157.1917722125
 10
134.7311471047
 20
157.1579619389
 10
134.7520656129
 20
157.1235974503
 10
134.7722243881
 20
157.0886814274
 10
134.7915256021
 20
157.0533833138
 10
134.8099650865
 20
157.0177012524
 10
134.8275470098
 20
156.9816371002
 10
134.8441860487
 20
156.9453658727
 10
134.8598776202
 20
156.9088865632
 10
134.8746263073
 20
156.8722001783
 10
134.8883605365
 20
156.8354847529
 10
134.9010753766
 20
156.7987401459
 10
134.9127757586
 20
156.7619664985
 10
134.923404902
 20
156.7253422689
 10
134.9329575997
 20
156.6888681834
 10
134.9414390587
 20
156.6525435159
 10
134.9488081195
 20
156.6165445458
 10
134.955059375
 20
156.5808728563
 10
134.9601982322
 20
156.5455268642
 10
134.9641997529
 20
156.5106780996
 10
134.9670556243
 20
156.4763837394
 10
134.9687741592
 20
156.4425866067
 10
134.9693553575
 20
156.4092867015
  0
LWPOLYLINE
  5
3C1
100
AcDbEntity
  8
0
100
AcDbPolyline
 62
7
  6
CONTINUOUS
 90
40
 70
0
 10
134.2622485763
 20
158.2463842792
 10
134.3122090912
 20
158.2163632994
 10
134.3619279352
 20
158.1841836859
 10
134.4114051083
 20
158.1498454387
 10
134.4607199927
 20
158.1132859263
 10
134.5097932063
 20
158.0745677803
 10
134.5583866022
 20
158.0338788954
 10
134.606497848
 20
157.9912096924
 10
134.6541292762
 20
157.9465697506
 10
134.7010497368
 20
157.9001757026
 10
134.7472557738
 20
157.852019022
 10
134.7927508431
 20
157.8021082353
 10
134.8373141624
 20
157.7506855538
 10
134.8809412025
 20
157.6977436286
 10
134.9236364924
 20
157.6432898086
 10
134.9651928368
 20
157.5875883521
 10
135.0056046995
 20
157.5306331947
 10
135.0448776165
 20
157.4724304008
 10
135.082821001
 20
157.413262422
 10
135.1194283903
 20
157.3531245669
 10
135.1547062469
 20
157.2920215268
 10
135.1884833715
 20
157.2302498281
 10
135.2207524692
 20
157.1678062205
 10
135.2515208349
 20
157.1046939542
 10
135.280639153
 20
157.041219306
 10
135.3080994031
 20
156.9773805144
 10
135.3339096056
 20
156.9131793409
 10
135.3579445066
 20
156.8489273465
 10
135.3801954768
 20
156.7846242843
 10
135.4006711454
 20
156.7202704012
 10
135.4192721463
 20
156.6561779994
 10
135.4359893673
 20
156.5923483499
 10
135.4508319206
 20
156.5287801817
 10
135.463727777
 20
156.4657819841
 10
135.474667474
 20
156.4033565274
 10
135.4836604742
 20
156.3415010412
 10
135.4906631354
 20
156.2805157033
 10
135.4956609103
 20
156.2205005728
 10
135.4986683463
 20
156.1613555905
 10
135.4996854434
 20
156.1030807565
  0
LWPOLYLINE
  5
3C2
100
AcDbEntity
  8
ASSI
100
AcDbPolyline
 62
7
  6
CONTINUOUS
 90
18
 70
0
 10
116.2095645752
 20
17.0361684321
 10
116.2007508834
 20
17.0308362752
 10
116.18378231
 20
17.0190869166
 10
116.167726451
 20
17.0058973776
 10
116.1525771549
 20
16.991277365
 10
116.1384369883
 20
16.9753258619
 10
116.1253127989
 20
16.9580338333
 10
116.113197739
 20
16.9394103142
 10
116.1021738324
 20
16.9195813932
 10
116.0922484832
 20
16.8985388908
 10
116.0834142873
 20
16.8762909864
 10
116.0757310555
 20
16.8529883072
 10
116.0692065981
 20
16.8286236956
 10
116.0638331048
 20
16.8032043092
 10
116.0596469563
 20
16.776902247
 10
116.0566602796
 20
16.7497748756
 10
116.0548609478
 20
16.7217648284
 10
116.0542489607
 20
16.6928721055
  0
LWPOLYLINE
  5
3C3
100
AcDbEntity
  8
ASSI
100
AcDbPolyline
 62
7
  6
CONTINUOUS
 90
18
 70
0
 10
116.9595935181
 20
15.7371638889
 10
116.9684072098
 20
15.7424960458
 10
116.9853757833
 20
15.7542454044
 10
117.0014316423
 20
15.7674349434
 10
117.0165809384
 20
15.782054956
 10
117.030721105
 20
15.7980064591
 10
117.0438452943
 20
15.8152984877
 10
117.0559603542
 20
15.8339220068
 10
117.0669842609
 20
15.8537509278
 10
117.07690961
 20
15.8747934302
 10
117.085743806
 20
15.8970413345
 10
117.0934270377
 20
15.9203440138
 10
117.0999514952
 20
15.9447086253
 10
117.1053249885
 20
15.9701280118
 10
117.1095111369
 20
15.996430074
 10
117.1124978136
 20
16.0235574454
 10
117.1142971455
 20
16.0515674926
 10
117.1149091325
 20
16.0804602155
  0
LINE
  5
3C4
100
AcDbEntity
  8
ASSI
100
AcDbLine
 62
250
  6
CONTINUOUS
 10
116.5845790466
 20
16.9990780505
 11
116.0542489607
 21
16.6928721055
  0
LWPOLYLINE
  5
3C5
100
AcDbEntity
  8
ASSI
100
AcDbPolyline
 62
7
  6
CONTINUOUS
 90
20
 70
0
 10
135.2282106834
 20
8.1807523826
 10
135.2089155093
 20
8.1689062838
 10
135.1841606658
 20
8.1514479675
 10
135.1605348627
 20
8.1321135377
 10
135.1381620804
 20
8.1110044551
 10
135.117048906
 20
8.0881113906
 10
135.0971887524
 20
8.0634436734
 10
135.0786858391
 20
8.0371307514
 10
135.0615473011
 20
8.0091639761
 10
135.0457660035
 20
7.9795519961
 10
135.0314247613
 20
7.9484502052
 10
135.0185311447
 20
7.9158507718
 10
135.0070775835
 20
7.8817615276
 10
134.9971241822
 20
7.8463613616
 10
134.9886788271
 20
7.8096433826
 10
134.9817336319
 20
7.771614482
 10
134.9763250427
 20
7.7324742227
 10
134.9724652083
 20
7.692289126
 10
134.9701419798
 20
7.6509926706
 10
134.9693553575
 20
7.6085848568
  0
LINE
  5
3C6
100
AcDbEntity
  8
0
100
AcDbLine
 62
250
  6
CONTINUOUS
 10
133.3783650998
 20
9.3437321509
 11
132.8480350139
 21
9.0375262059
  0
LINE
  5
3C7
100
AcDbEntity
  8
ASSI
100
AcDbLine
 62
250
  6
CONTINUOUS
 10
135.4996854434
 20
7.9147908017
 11
134.9693553575
 21
7.6085848568
  0
LWPOLYLINE
  5
3C8
100
AcDbEntity
  8
0
100
AcDbPolyline
 62
7
  6
CONTINUOUS
 90
21
 70
0
 10
133.5980675116
 20
8.9632209213
 10
133.5827605688
 20
8.9547347338
 10
133.5513828065
 20
8.9394222541
 10
133.5188599056
 20
8.9262634745
 10
133.4851974052
 20
8.9152479771
 10
133.4505586658
 20
8.9064292188
 10
133.414938942
 20
8.8998178774
 10
133.3783429792
 20
8.8954032751
 10
133.3409483734
 20
8.8932068355
 10
133.3027512426
 20
8.8932393405
 10
133.2637554689
 20
8.8954900082
 10
133.2241502943
 20
8.8999479163
 10
133.1839327567
 20
8.9066237938
 10
133.1431058183
 20
8.9155069117
 10
133.1018676075
 20
8.9265541612
 10
133.0602161253
 20
8.9397760617
 10
133.0181533709
 20
8.955162094
 10
132.9758834699
 20
8.9726375911
 10
132.9334744644
 20
8.9921776644
 10
132.8908583124
 20
9.0138072027
 10
132.8480350139
 20
9.0375262059
  0
LWPOLYLINE
  5
3C9
100
AcDbEntity
  8
0
100
AcDbPolyline
 62
7
  6
CONTINUOUS
 90
16
 70
0
 10
164.3169966275
 20
174.9649287981
 10
164.2618335286
 20
175.032081171
 10
164.1903038092
 20
175.1154646399
 10
164.1176362019
 20
175.1965540939
 10
164.043826551
 20
175.2753411553
 10
163.9688790123
 20
175.3518342018
 10
163.8930669666
 20
175.4257542153
 10
163.8163872565
 20
175.4970917988
 10
163.7388430394
 20
175.5658563492
 10
163.6607171678
 20
175.631797039
 10
163.5820075175
 20
175.6949035552
 10
163.5027162127
 20
175.7551862106
 10
163.4231324787
 20
175.8124251167
 10
163.343352724
 20
175.866546977
 10
163.26328054
 20
175.9176250879
 10
163.1829159268
 20
175.9656594494
  0
LWPOLYLINE
  5
3CA
100
AcDbEntity
  8
ASSI
100
AcDbPolyline
 62
7
  6
CONTINUOUS
 90
20
 70
0
 10
136.4782669845
 20
6.0157308475
 10
136.4975621586
 20
6.0275769464
 10
136.5223170021
 20
6.0450352627
 10
136.5459428052
 20
6.0643696925
 10
136.5683155875
 20
6.0854787751
 10
136.5894287619
 20
6.1083718395
 10
136.6092889156
 20
6.1330395568
 10
136.6277918288
 20
6.1593524788
 10
136.6449303668
 20
6.1873192541
 10
136.6607116644
 20
6.2169312341
 10
136.6750529067
 20
6.248033025
 10
136.6879465233
 20
6.2806324584
 10
136.6994000844
 20
6.3147217026
 10
136.7093534857
 20
6.3501218686
 10
136.7177988408
 20
6.3868398475
 10
136.7247440361
 20
6.4248687482
 10
136.7301526252
 20
6.4640090074
 10
136.7340124597
 20
6.5041941042
 10
136.7363356881
 20
6.5454905595
 10
136.7371223104
 20
6.5878983734
  0
LINE
  5
3CB
100
AcDbEntity
  8
0
100
AcDbLine
 62
7
  6
CONTINUOUS
 10
136.1360815464
 20
7.343285281
 11
135.7243421335
 21
7.1055521042
  0
LINE
  5
3CC
100
AcDbEntity
  8
0
100
AcDbLine
 62
7
  6
CONTINUOUS
 10
135.7586578844
 20
7.0437382885
 11
135.7825281558
 21
7.0575206841
  0
LINE
  5
3CD
100
AcDbEntity
  8
0
100
AcDbLine
 62
7
  6
CONTINUOUS
 10
136.2128289068
 20
6.9794301799
 11
136.2067922246
 21
6.9759446753
  0
LWPOLYLINE
  5
3CE
100
AcDbEntity
  8
0
100
AcDbPolyline
 62
7
  6
CONTINUOUS
 90
16
 70
0
 10
114.392548025
 20
204.136606389
 10
114.3121834118
 20
204.1813750684
 10
114.2321112278
 20
204.2227623085
 10
114.152331473
 20
204.2607681092
 10
114.072747739
 20
204.2954305043
 10
113.9934564342
 20
204.3267114601
 10
113.9147467839
 20
204.3544968752
 10
113.8366209124
 20
204.3787739837
 10
113.7590766953
 20
204.3995555514
 10
113.6823969852
 20
204.416765775
 10
113.6065849395
 20
204.4303916117
 10
113.5316374007
 20
204.4404461042
 10
113.4578277499
 20
204.4468925776
 10
113.3851601426
 20
204.449717855
 10
113.3136304232
 20
204.4489351131
 10
113.3111048786
 20
204.4487770965
  0
LINE
  5
3CF
100
AcDbEntity
  8
0
100
AcDbLine
 62
250
  6
CONTINUOUS
 10
110.0438413207
 20
205.9124430502
 11
163.4304033002
 21
175.087711254
  0
LINE
  5
3D0
100
AcDbEntity
  8
0
100
AcDbLine
 62
7
  6
CONTINUOUS
 10
110.6688715208
 20
205.9743695223
 11
164.0554335004
 21
175.1496377261
  0
LINE
  5
3D1
100
AcDbEntity
  8
0
100
AcDbLine
 62
250
  6
CONTINUOUS
 10
164.0554033002
 20
175.1496551616
 11
164.0554335004
 21
175.1496377261
  0
LINE
  5
3D2
100
AcDbEntity
  8
0
100
AcDbLine
 62
7
  6
CONTINUOUS
 10
163.1829159268
 20
175.9656594494
 11
114.392548025
 21
204.136606389
  0
LWPOLYLINE
  5
3D3
100
AcDbEntity
  8
0
100
AcDbPolyline
 62
250
  6
CONTINUOUS
 90
43
 70
0
 10
163.4304033002
 20
175.087711254
 10
163.4766725425
 20
175.0599968043
 10
163.5228770731
 20
175.0303227776
 10
163.5689522708
 20
174.9987306758
 10
163.6148336952
 20
174.9652646832
 10
163.660457177
 20
174.9299716051
 10
163.7057589076
 20
174.892900802
 10
163.7506755286
 20
174.8541041207
 10
163.7951442198
 20
174.8136358221
 10
163.8391027879
 20
174.7715525045
 10
163.8824897528
 20
174.7279130255
 10
163.925244434
 20
174.6827784186
 10
163.967307035
 20
174.6362118088
 10
164.0086187277
 20
174.5882783236
 10
164.0491217338
 20
174.5390450024
 10
164.0887594062
 20
174.4885807025
 10
164.1274763081
 20
174.4369560026
 10
164.1652182903
 20
174.3842431047
 10
164.2019325673
 20
174.3305157324
 10
164.2375677909
 20
174.2758490284
 10
164.2720741219
 20
174.220319449
 10
164.3054033002
 20
174.1640046573
 10
164.3375087119
 20
174.1069834147
 10
164.3683454547
 20
174.0493354705
 10
164.3978704005
 20
173.9911414505
 10
164.4260422561
 20
173.9324827445
 10
164.4528216206
 20
173.8734413919
 10
164.4781710406
 20
173.8140999673
 10
164.5020550627
 20
173.7545414651
 10
164.5244402829
 20
173.6948491833
 10
164.5452953935
 20
173.6351066068
 10
164.5645912266
 20
173.5753972912
 10
164.5823007954
 20
173.5158047453
 10
164.5983993314
 20
173.4564123146
 10
164.6128643193
 20
173.3973030649
 10
164.6256755286
 20
173.3385596657
 10
164.6368150415
 20
173.280264275
 10
164.6462672786
 20
173.2224984242
 10
164.6540190199
 20
173.1653429041
 10
164.660059424
 20
173.1088776518
 10
164.6643800429
 20
173.0531816391
 10
164.6669748336
 20
172.9983327619
 10
164.6678401673
 20
172.9444077313
  0
LWPOLYLINE
  5
3D4
100
AcDbEntity
  8
0
100
AcDbPolyline
 62
7
  6
CONTINUOUS
 90
31
 70
0
 10
164.0554335004
 20
175.1496377261
 10
164.1114230697
 20
175.1158851702
 10
164.1670888968
 20
175.0794045826
 10
164.2223639659
 20
175.0401327136
 10
164.2775972656
 20
174.9976668374
 10
164.3322535488
 20
174.9522513925
 10
164.3850682267
 20
174.9049130783
 10
164.4358583794
 20
174.8559197031
 10
164.4849271014
 20
174.8050621673
 10
164.5319127529
 20
174.7527970682
 10
164.5768351127
 20
174.699215261
 10
164.6198203418
 20
174.6442546063
 10
164.6607087334
 20
174.5882043289
 10
164.6995343456
 20
174.5311119812
 10
164.7363832654
 20
174.4729182443
 10
164.7711854554
 20
174.4137866815
 10
164.8039825444
 20
174.3536893348
 10
164.8347942171
 20
174.2926010004
 10
164.8635292292
 20
174.2307049064
 10
164.8902229914
 20
174.167910071
 10
164.9148455718
 20
174.1042301302
 10
164.937245003
 20
174.0400185027
 10
164.9574394976
 20
173.9751879557
 10
164.9753954509
 20
173.9097576087
 10
164.9909565828
 20
173.8442685418
 10
165.0041252643
 20
173.7787687479
 10
165.0149174681
 20
173.7131898062
 10
165.0232771268
 20
173.6479387922
 10
165.0292167613
 20
173.5831707516
 10
165.0327729206
 20
173.5187680125
 10
165.0339566908
 20
173.4547509729
  0
LINE
  5
3D5
100
AcDbEntity
  8
0
100
AcDbLine
 62
7
  6
CONTINUOUS
 10
165.0339566908
 20
7.0042355883
 11
165.4810129657
 21
7.2623602785
  0
LWPOLYLINE
  5
3D6
100
AcDbEntity
  8
0
100
AcDbPolyline
 62
7
  6
CONTINUOUS
 90
19
 70
0
 10
164.6678401673
 20
4.3432955735
 10
164.7056615802
 20
4.3661200193
 10
164.7415976465
 20
4.3897797583
 10
164.7756483662
 20
4.4142747908
 10
164.8078713059
 20
4.4396548612
 10
164.838208899
 20
4.4658702249
 10
164.8664884456
 20
4.4927716483
 10
164.8926982077
 20
4.5203630443
 10
164.9168499234
 20
4.5486405
 10
164.9388061065
 20
4.5774430431
 10
164.9585542348
 20
4.6067736683
 10
164.9761068306
 20
4.6366293809
 10
164.9913639737
 20
4.6668402241
 10
165.0043125723
 20
4.6974082234
 10
165.0149657183
 20
4.7283313534
 10
165.0232627675
 20
4.7594335808
 10
165.0291902823
 20
4.7907159273
 10
165.0327617002
 20
4.8221773712
 10
165.0339566908
 20
4.8536388152
  0
LINE
  5
3D7
100
AcDbEntity
  8
0
100
AcDbLine
 62
7
  6
CONTINUOUS
 10
164.6678401673
 20
4.3432955735
 11
142.3939765599
 21
-8.5173541163
  0
ARC
  5
3D8
100
AcDbEntity
  8
RACCORDO
100
AcDbCircle
 62
7
  6
CONTINUOUS
 10
97.4926959546
 20
29.451421583
 40
0.1
100
AcDbArc
 50
180.0007992544
 51
239.9992007423
  0
ARC
  5
3D9
100
AcDbEntity
  8
RACCORDO
100
AcDbCircle
 62
7
  6
CONTINUOUS
 10
136.0300155293
 20
7.2004562467
 40
0.1
100
AcDbArc
 50
180.0007992544
 51
239.9992007423
  0
ARC
  5
3DA
100
AcDbEntity
  8
RACCORDO
100
AcDbCircle
 62
7
  6
CONTINUOUS
 10
97.4926959546
 20
104.7708046172
 40
0.1
100
AcDbArc
 50
180.0007992544
 51
239.9992007423
  0
ARC
  5
3DB
100
AcDbEntity
  8
RACCORDO
100
AcDbCircle
 62
7
  6
CONTINUOUS
 10
100.108991045
 20
103.2601886219
 40
0.1
100
AcDbArc
 50
290.7266100652
 51
300.0015984348
  0
ARC
  5
3DC
100
AcDbEntity
  8
RACCORDO
100
AcDbCircle
 62
7
  6
CONTINUOUS
 10
136.0300155293
 20
82.5198392808
 40
0.1
100
AcDbArc
 50
180.0007992544
 51
239.9992007423
  0
ENDSEC
  0
SECTION
  2
OBJECTS
  0
DICTIONARY
  5
C
100
AcDbDictionary
280
0
281
1
  3
ACAD_GROUP
350
D
  3
ACAD_MLINESTYLE
350
17
  3
ACAD_LAYOUT
350
1A
  3
ACAD_PLOTSETTINGS
350
19
  3
ACAD_PLOTSTYLENAME
350
E
  0
DICTIONARY
  5
D
102
{ACAD_REACTORS
330
C
102
}
100
AcDbDictionary
280
0
281
1
  0
ACDBDICTIONARYWDFLT
  5
E
102
{ACAD_REACTORS
330
C
102
}
100
AcDbDictionary
281
1
  3
Normal
350
F
100
AcDbDictionaryWithDefault
340
F
  0
DICTIONARY
  5
17
102
{ACAD_REACTORS
330
C
102
}
100
AcDbDictionary
280
0
281
1
  3
Standard
350
18
  0
DICTIONARY
  5
19
102
{ACAD_REACTORS
330
C
102
}
100
AcDbDictionary
281
1
  0
DICTIONARY
  5
1A
102
{ACAD_REACTORS
330
C
102
}
100
AcDbDictionary
281
1
  3
Model
350
3DD
  3
Layout1
350
3DE
  0
ACDBPLACEHOLDER
  5
F
102
{ACAD_REACTORS
330
E
102
}
  0
MLINESTYLE
  5
18
102
{ACAD_REACTORS
330
17
102
}
100
AcDbMlineStyle
  2
STANDARD
 70
0
  3

 62
256
 51
90.0
 52
90.0
 71
2
 49
0.5
 62
256
  6
BYLAYER
 49
-0.5
 62
256
  6
BYLAYER
  0
LAYOUT
  5
3DD
102
{ACAD_REACTORS
330
1A
102
}
100
AcDbPlotSettings
  1

  2
none_device
  4
ISO_A4_(297.00_x_210.00_MM)
  6

 40
0.0
 41
0.0
 42
0.0
 43
0.0
 44
297.0
 45
210.0
 46
0.0
 47
0.0
 48
0.0
 49
0.0
140
0.0
141
0.0
142
1.0
143
1.0
 70
1024
 72
1
 73
0
 74
0
  7

 75
0
147
1.0
148
0.0
149
0.0
100
AcDbLayout
  1
Model
 70
0
 71
0
 10
0.0
 20
0.0
 11
297.0
 21
210.0
 12
0.0
 22
0.0
 32
0.0
 14
0.0
 24
0.0
 34
0.0
 15
0.0
 25
0.0
 35
0.0
146
0.0
 13
0.0
 23
0.0
 33
0.0
 16
1.0
 26
0.0
 36
0.0
 17
0.0
 27
1.0
 37
0.0
 76
0
330
20F
345
0
346
0
  0
LAYOUT
  5
3DE
102
{ACAD_REACTORS
330
1A
102
}
100
AcDbPlotSettings
  1

  2
none_device
  4
ISO_A4_(297.00_x_210.00_MM)
  6

 40
0.0
 41
0.0
 42
0.0
 43
0.0
 44
297.0
 45
210.0
 46
0.0
 47
0.0
 48
0.0
 49
0.0
140
0.0
141
0.0
142
1.0
143
1.0
 70
0
 72
1
 73
0
 74
0
  7

 75
0
147
1.0
148
0.0
149
0.0
100
AcDbLayout
  1
Layout1
 70
0
 71
1
 10
0.0
 20
0.0
 11
297.0
 21
210.0
 12
0.0
 22
0.0
 32
0.0
 14
0.0
 24
0.0
 34
0.0
 15
0.0
 25
0.0
 35
0.0
146
0.0
 13
0.0
 23
0.0
 33
0.0
 16
1.0
 26
0.0
 36
0.0
 17
0.0
 27
1.0
 37
0.0
 76
0
330
210
345
0
346
0
  0
ENDSEC
  0
EOF
