  0
SECTION
  2
HEADER
  9
$ACADVER
  1
AC1021
  9
$DWGCODEPAGE
  3
ANSI_1252
  9
$EXTMAX
 10
297.0
 20
210.0
 30
0.0
  9
$EXTMIN
 10
0.0
 20
0.0
 30
0.0
  9
$LIMMIN
 10
0.0
 20
0.0
  9
$LIMMAX
 10
297.0
 20
210.0
  9
$VIEWCTR
 10
148.5
 20
105.0
  9
$VIEWSIZE
 40
210.0
  9
$CLAYER
  8
0
  9
$LTSCALE
 40
16.335
  9
$CELTYPE
  6
BYLAYER
  9
$DIMSCALE
 40
1.0
  9
$DIMASZ
 40
3.0
  9
$DIMEXO
 40
0.5
  9
$DIMDLI
 40
11.286
  9
$DIMEXE
 40
1.5
  9
$DIMCEN
 40
2.673
  9
$DIMLFAC
 40
1.0
  9
$DIMBLK
  1
_FILLED
  9
$DIMALT
 70
0
  9
$DIMALTF
 40
0.0393700787
  9
$DIMTXT
 40
3.0
  9
$DIMTOL
 70
1
  9
$DIMLIM
 70
0
  9
$DIMTFAC
 40
1.0
  9
$DIMTP
 40
0.01
  9
$DIMTM
 40
0.01
  9
$DIMGAP
 40
0.625
  9
$DIMDSEP
 70
44
  9
$AUNITS
 70
0
  9
$PDMODE
 70
3
  9
$PDSIZE
 40
3.0
  9
$HANDSEED
  5
3E6
  9
$TILEMODE
 70
1
  9
$MEASUREMENT
 70
1
  9
$INSUNITS
 70
4
  0
ENDSEC
  0
SECTION
  2
CLASSES
  0
CLASS
  1
ACDBDICTIONARYWDFLT
  2
AcDbDictionaryWithDefault
  3
AutoCAD 2000
 90
0
 91
1
280
0
281
0
  0
CLASS
  1
ACDBPLACEHOLDER
  2
AcDbPlaceHolder
  3
AutoCAD 2000
 90
0
 91
1
280
0
281
0
  0
CLASS
  1
LAYOUT
  2
AcDbLayout
  3
AutoCAD 2000
 90
0
 91
0
280
0
281
0
  0
ENDSEC
  0
SECTION
  2
TABLES
  0
TABLE
  2
VPORT
  5
8
100
AcDbSymbolTable
 70
2
  0
VPORT
  5
1F4
100
AcDbSymbolTableRecord
100
AcDbViewportTableRecord
  2
*ACTIVE
 70
0
 10
0.0
 20
0.0
 11
1.0
 21
1.0
 12
148.5
 22
105.0
 13
0.0
 23
0.0
 14
1.0
 24
1.0
 15
0.0
 25
0.0
 16
0.0
 26
0.0
 36
1.0
 17
0.0
 27
0.0
 37
0.0
 40
210.0
 41
1.4142857143
 42
50.0
 43
0.0
 44
0.0
 50
0.0
 51
0.0
 71
0
 72
100
 73
1
 74
1
 75
0
 76
0
 77
0
 78
0
  0
ENDTAB
  0
TABLE
  2
LTYPE
  5
5
100
AcDbSymbolTable
 70
6
  0
LTYPE
  5
14
100
AcDbSymbolTableRecord
100
AcDbLinetypeTableRecord
  2
BYBLOCK
 70
0
  3

 72
65
 73
0
 40
0.0
  0
LTYPE
  5
15
100
AcDbSymbolTableRecord
100
AcDbLinetypeTableRecord
  2
BYLAYER
 70
0
  3

 72
65
 73
0
 40
0.0
  0
LTYPE
  5
16
100
AcDbSymbolTableRecord
100
AcDbLinetypeTableRecord
  2
CONTINUOUS
 70
64
  3
Solid line
 72
65
 73
0
 40
0.0
  0
LTYPE
  5
1F5
100
AcDbSymbolTableRecord
100
AcDbLinetypeTableRecord
  2
CENTER
 70
64
  3
____ _ ____ _ ____ _ ____ _ ____ _ ____ _ ____
 72
65
 73
4
 40
0.6
 49
0.375
 74
0
 49
-0.075
 74
0
 49
0.075
 74
0
 49
-0.075
 74
0
  0
LTYPE
  5
1F6
100
AcDbSymbolTableRecord
100
AcDbLinetypeTableRecord
  2
HIDDEN
 70
64
  3
- - - - - - - - - - - - - - - - - - - -
 72
65
 73
2
 40
0.2
 49
0.1
 74
0
 49
-0.1
 74
0
  0
LTYPE
  5
1F7
100
AcDbSymbolTableRecord
100
AcDbLinetypeTableRecord
  2
PHANTOM
 70
64
  3
_____ _ _ _____ _ _ _____ _ _ _____
 72
65
 73
6
 40
0.8
 49
0.45
 74
0
 49
-0.05
 74
0
 49
0.1
 74
0
 49
-0.05
 74
0
 49
0.1
 74
0
 49
-0.05
 74
0
  0
LTYPE
  5
1F8
100
AcDbSymbolTableRecord
100
AcDbLinetypeTableRecord
  2
DOT
 70
64
  3
. . . . . . . . . . . . . . . . . . . .
 72
65
 73
2
 40
0.2
 49
0.1
 74
0
 49
-0.1
 74
0
  0
LTYPE
  5
1F9
100
AcDbSymbolTableRecord
100
AcDbLinetypeTableRecord
  2
DASHED
 70
64
  3
- - - - - - - - - - - - - - - - - - - -
 72
65
 73
2
 40
0.2
 49
0.1
 74
0
 49
-0.1
 74
0
  0
ENDTAB
  0
TABLE
  2
LAYER
  5
2
100
AcDbSymbolTable
 70
36
  0
LAYER
  5
10
100
AcDbSymbolTableRecord
100
AcDbLayerTableRecord
  2
0
 70
0
 62
7
  6
CONTINUOUS
370
-3
390
F
  0
LAYER
  5
1FA
100
AcDbSymbolTableRecord
100
AcDbLayerTableRecord
  2
DEFAULT_1
 70
0
 62
7
  6
CENTER
370
-3
390
F
  0
LAYER
  5
1FB
100
AcDbSymbolTableRecord
100
AcDbLayerTableRecord
  2
DEFAULT_2
 70
0
 62
7
  6
HIDDEN
370
-3
390
F
  0
LAYER
  5
1FC
100
AcDbSymbolTableRecord
100
AcDbLayerTableRecord
  2
DEFAULT_3
 70
0
 62
7
  6
PHANTOM
370
-3
390
F
  0
LAYER
  5
1FD
100
AcDbSymbolTableRecord
100
AcDbLayerTableRecord
  2
ASSI
 70
0
 62
7
  6
CONTINUOUS
370
-3
390
F
  0
LAYER
  5
1FE
100
AcDbSymbolTableRecord
100
AcDbLayerTableRecord
  2
COORDINATE
 70
0
 62
7
  6
CONTINUOUS
370
-3
390
F
  0
LAYER
  5
1FF
100
AcDbSymbolTableRecord
100
AcDbLayerTableRecord
  2
COPY_PUBLISH
 70
0
 62
7
  6
CONTINUOUS
370
-3
390
F
  0
LAYER
  5
200
100
AcDbSymbolTableRecord
100
AcDbLayerTableRecord
  2
COSMETICI
 70
0
 62
7
  6
CONTINUOUS
370
-3
390
F
  0
LAYER
  5
201
100
AcDbSymbolTableRecord
100
AcDbLayerTableRecord
  2
CURVE
 70
0
 62
7
  6
CONTINUOUS
370
-3
390
F
  0
LAYER
  5
202
100
AcDbSymbolTableRecord
100
AcDbLayerTableRecord
  2
DRAFT
 70
0
 62
7
  6
CONTINUOUS
370
-3
390
F
  0
LAYER
  5
203
100
AcDbSymbolTableRecord
100
AcDbLayerTableRecord
  2
IMPORT_IGES
 70
0
 62
7
  6
CONTINUOUS
370
-3
390
F
  0
LAYER
  5
204
100
AcDbSymbolTableRecord
100
AcDbLayerTableRecord
  2
NOTE
 70
0
 62
7
  6
CONTINUOUS
370
-3
390
F
  0
LAYER
  5
205
100
AcDbSymbolTableRecord
100
AcDbLayerTableRecord
  2
PIANI
 70
0
 62
7
  6
CONTINUOUS
370
-3
390
F
  0
LAYER
  5
206
100
AcDbSymbolTableRecord
100
AcDbLayerTableRecord
  2
PUNTI
 70
0
 62
7
  6
CONTINUOUS
370
-3
390
F
  0
LAYER
  5
207
100
AcDbSymbolTableRecord
100
AcDbLayerTableRecord
  2
RACCORDO
 70
0
 62
7
  6
CONTINUOUS
370
-3
390
F
  0
LAYER
  5
208
100
AcDbSymbolTableRecord
100
AcDbLayerTableRecord
  2
SIMBOLI
 70
0
 62
7
  6
CONTINUOUS
370
-3
390
F
  0
LAYER
  5
209
100
AcDbSymbolTableRecord
100
AcDbLayerTableRecord
  2
SMUSSO
 70
0
 62
7
  6
CONTINUOUS
370
-3
390
F
  0
LAYER
  5
20A
100
AcDbSymbolTableRecord
100
AcDbLayerTableRecord
  2
SNAPLINE
 70
0
 62
7
  6
CONTINUOUS
370
-3
390
F
  0
LAYER
  5
20B
100
AcDbSymbolTableRecord
100
AcDbLayerTableRecord
  2
SUPERFICI
 70
0
 62
7
  6
CONTINUOUS
370
-3
390
F
  0
LAYER
  5
20C
100
AcDbSymbolTableRecord
100
AcDbLayerTableRecord
  2
TRASH
 70
0
 62
7
  6
CONTINUOUS
370
-3
390
F
  0
ENDTAB
  0
TABLE
  2
STYLE
  5
3
100
AcDbSymbolTable
 70
1
  0
STYLE
  5
11
100
AcDbSymbolTableRecord
100
AcDbTextStyleTableRecord
  2
STANDARD
 70
0
 40
0.0
 41
0.8
 50
0.0
 71
0
 42
0.2
  3
txt
  4

  0
STYLE
  5
20D
100
AcDbSymbolTableRecord
100
AcDbTextStyleTableRecord
  2
TEXTSTYLE_1
 70
0
 40
0.0
 41
0.8
 50
0.0
 71
0
 42
0.2
  3
gdt
  4

  0
ENDTAB
  0
TABLE
  2
VIEW
  5
6
100
AcDbSymbolTable
 70
0
  0
ENDTAB
  0
TABLE
  2
UCS
  5
7
100
AcDbSymbolTable
 70
0
  0
ENDTAB
  0
TABLE
  2
APPID
  5
9
100
AcDbSymbolTable
 70
1
  0
APPID
  5
20E
100
AcDbSymbolTableRecord
100
AcDbRegAppTableRecord
  2
ACAD
 70
0
  0
ENDTAB
  0
TABLE
  2
BLOCK_RECORD
  5
1
100
AcDbSymbolTable
 70
0
  0
BLOCK_RECORD
  5
20F
100
AcDbSymbolTableRecord
100
AcDbBlockTableRecord
  2
*Model_Space
  0
BLOCK_RECORD
  5
210
100
AcDbSymbolTableRecord
100
AcDbBlockTableRecord
  2
*Paper_Space
  0
BLOCK_RECORD
  5
211
100
AcDbSymbolTableRecord
100
AcDbBlockTableRecord
  2
_FILLED
  0
ENDTAB
  0
TABLE
  2
DIMSTYLE
  5
A
100
AcDbSymbolTable
 70
1
100
AcDbDimStyleTable
 71
0
  0
DIMSTYLE
105
212
100
AcDbSymbolTableRecord
100
AcDbDimStyleTableRecord
  2
STANDARD
 70
0
  3

  4

 40
1.0
 41
3.0
 42
0.5
 43
0.38
 44
1.5
 45
0.0
 46
0.0
 47
0.01
 48
0.01
140
3.0
141
0.09
142
0.0
143
25.4
144
1.0
145
0.0
146
1.0
147
0.625
 71
1.0
 72
0.0
 73
0
 74
0
 75
0
 76
0
 77
1
 78
8
 79
2
170
0
171
1
172
0
173
0
174
0
175
0
176
0
177
0
178
0
270
2
179
2
271
2
272
2
273
2
274
2
275
0
280
0
281
0
282
0
283
1
284
8
285
0
286
0
287
3
288
0
340
11
278
44
341
211
342
211
343
211
344
211
  0
ENDTAB
  0
ENDSEC
  0
SECTION
  2
BLOCKS
  0
BLOCK
  5
20
100
AcDbEntity
  8
0
100
AcDbBlockBegin
  2
*Model_Space
 70
0
 10
0.0
 20
0.0
 30
0.0
  3
*Model_Space
  1

  0
ENDBLK
  5
21
100
AcDbEntity
  8
0
100
AcDbBlockEnd
  0
BLOCK
  5
1C
100
AcDbEntity
  8
0
100
AcDbBlockBegin
  2
*Paper_Space
 70
0
 10
0.0
 20
0.0
 30
0.0
  3
*Paper_Space
  1

  0
ENDBLK
  5
1D
100
AcDbEntity
  8
0
100
AcDbBlockEnd
  0
BLOCK
  5
213
100
AcDbEntity
  8
0
100
AcDbBlockBegin
  2
_FILLED
 70
64
 10
0.0
 20
0.0
  3
_FILLED
  1

  0
SOLID
  5
214
100
AcDbEntity
  8
0
  6
BYBLOCK
 62
0
100
AcDbTrace
 10
0.0
 20
0.0
 11
-1.0
 21
0.3166666667
 12
-1.0
 22
-0.3166666667
 13
-1.0
 23
-0.3166666667
  0
ENDBLK
  5
215
100
AcDbEntity
  8
0
  6
BYBLOCK
 62
0
100
AcDbBlockEnd
  0
ENDSEC
  0
SECTION
  2
ENTITIES
  0
LWPOLYLINE
  5
216
100
AcDbEntity
  8
0
100
AcDbPolyline
 62
7
  6
CONTINUOUS
 90
16
 70
0
 10
80.0495205067
 20
198.8139898304
 10
80.005018028
 20
198.7855127503
 10
79.9628672029
 20
198.7528648455
 10
79.923455332
 20
198.7163377612
 10
79.886804896
 20
198.675899658
 10
79.8528934143
 20
198.6315823753
 10
79.8219984651
 20
198.5837486669
 10
79.7941448074
 20
198.5323696708
 10
79.7693076823
 20
198.4774742489
 10
79.747690391
 20
198.419511741
 10
79.7293193611
 20
198.3584569733
 10
79.7141681651
 20
198.2943351196
 10
79.7023608211
 20
198.2276710416
 10
79.6939386686
 20
198.1586396932
 10
79.6888603682
 20
198.0870661205
 10
79.6871259198
 20
198.0129503235
  0
LINE
  5
217
100
AcDbEntity
  8
0
100
AcDbLine
 62
7
  6
CONTINUOUS
 10
80.0495205067
 20
198.8139898305
 11
109.2176752306
 21
215.6553168052
  0
LINE
  5
218
100
AcDbEntity
  8
0
100
AcDbLine
 62
250
  6
CONTINUOUS
 10
80.9245627869
 20
198.7272927695
 11
110.0927175109
 21
215.5686197443
  0
LWPOLYLINE
  5
219
100
AcDbEntity
  8
0
100
AcDbPolyline
 62
7
  6
CONTINUOUS
 90
28
 70
0
 10
109.2176752306
 20
215.6553168052
 10
109.2653483698
 20
215.6816341835
 10
109.3141883162
 20
215.7061917196
 10
109.3641241734
 20
215.7289282338
 10
109.4150642255
 20
215.7497800489
 10
109.4669460973
 20
215.768702139
 10
109.5197403753
 20
215.7856621479
 10
109.5733656749
 20
215.8006112345
 10
109.6277344552
 20
215.8135046959
 10
109.682809499
 20
215.8243127495
 10
109.7384709957
 20
215.8329920185
 10
109.7946572126
 20
215.8395153947
 10
109.8514221811
 20
215.8438635513
 10
109.9087026149
 20
215.8459980079
 10
109.9663720596
 20
215.8458829361
 10
110.0243959366
 20
215.8434879396
 10
110.0827074405
 20
215.8387822988
 10
110.1411776891
 20
215.8317453935
 10
110.1996910978
 20
215.8223654588
 10
110.258096129
 20
215.8106479588
 10
110.3163607743
 20
215.7965824834
 10
110.3745639551
 20
215.7801210171
 10
110.432691867
 20
215.7612247155
 10
110.4905789891
 20
215.7399058556
 10
110.5481002184
 20
215.7161775639
 10
110.6051754333
 20
215.6900433576
 10
110.6617481059
 20
215.6614985308
 10
110.717747711
 20
215.6305462164
  0
LWPOLYLINE
  5
21A
100
AcDbEntity
  8
0
100
AcDbPolyline
 62
250
  6
CONTINUOUS
 90
19
 70
0
 10
110.0927175109
 20
215.5686197443
 10
110.1312719666
 20
215.5899092304
 10
110.1697530318
 20
215.6092154437
 10
110.2080874554
 20
215.6265016339
 10
110.2462022658
 20
215.6417348956
 10
110.2840249093
 20
215.6548862315
 10
110.3214833882
 20
215.6659306072
 10
110.3585063983
 20
215.6748469993
 10
110.3950234642
 20
215.6816184347
 10
110.4309650735
 20
215.6862320238
 10
110.4662628093
 20
215.6886789842
 10
110.5008494804
 20
215.688954658
 10
110.5346592491
 20
215.6870585206
 10
110.5676277566
 20
215.6829941812
 10
110.5996922455
 20
215.6767693766
 10
110.6307916791
 20
215.6683959561
 10
110.660866858
 20
215.6578898589
 10
110.6898605322
 20
215.645271084
 10
110.7177175109
 20
215.6305636519
  0
LWPOLYLINE
  5
21B
100
AcDbEntity
  8
0
100
AcDbPolyline
 62
250
  6
CONTINUOUS
 90
22
 70
0
 10
109.2176752306
 20
215.6553168052
 10
109.2510466892
 20
215.673168307
 10
109.2855530202
 20
215.6888508402
 10
109.3211882438
 20
215.7023668813
 10
109.3579025208
 20
215.7136975267
 10
109.3956445031
 20
215.7228269296
 10
109.4343614049
 20
215.7297423216
 10
109.4739990773
 20
215.7344340311
 10
109.5145020834
 20
215.7368954961
 10
109.5558137761
 20
215.7371232741
 10
109.5978763771
 20
215.7351170465
 10
109.6406310583
 20
215.7308796193
 10
109.6840180232
 20
215.7244169188
 10
109.7279765913
 20
215.7157379838
 10
109.7724452826
 20
215.7048549524
 10
109.8173619035
 20
215.6917830456
 10
109.8626636341
 20
215.6765405457
 10
109.9082871159
 20
215.6591487707
 10
109.9541685403
 20
215.6396320444
 10
110.000243738
 20
215.6180176629
 10
110.0464482686
 20
215.5943358559
 10
110.0927175109
 20
215.5686197443
  0
LWPOLYLINE
  5
21C
100
AcDbEntity
  8
0
100
AcDbPolyline
 62
7
  6
CONTINUOUS
 90
16
 70
0
 10
80.4245386268
 20
198.1644812396
 10
80.399108639
 20
198.1482086224
 10
80.3750224532
 20
198.1295526768
 10
80.3525013841
 20
198.1086800572
 10
80.3315582778
 20
198.0855725696
 10
80.3121802883
 20
198.0602484081
 10
80.2945260316
 20
198.0329148605
 10
80.2786096558
 20
198.0035554341
 10
80.2644170129
 20
197.9721866216
 10
80.252064275
 20
197.9390651885
 10
80.2415665436
 20
197.9041767498
 10
80.2329087173
 20
197.8675356906
 10
80.2261616636
 20
197.8294419317
 10
80.221349005
 20
197.7899954469
 10
80.2184471191
 20
197.7490962625
 10
80.2174560057
 20
197.7067443785
  0
LINE
  5
21D
100
AcDbEntity
  8
0
100
AcDbLine
 62
250
  6
CONTINUOUS
 10
80.2174560057
 20
197.7067443785
 11
80.9245286168
 21
198.1149992424
  0
LINE
  5
21E
100
AcDbEntity
  8
0
100
AcDbLine
 62
250
  6
CONTINUOUS
 10
114.1710500714
 20
213.6366527136
 11
114.6182009105
 21
213.8948320039
  0
LWPOLYLINE
  5
21F
100
AcDbEntity
  8
0
100
AcDbPolyline
 62
7
  6
CONTINUOUS
 90
18
 70
0
 10
142.0678382787
 20
-21.351259598
 10
142.0768997233
 20
-21.356246326
 10
142.0955604009
 20
-21.3650648744
 10
142.1150119501
 20
-21.3723729054
 10
142.1352490404
 20
-21.3781805999
 10
142.156134659
 20
-21.3824486374
 10
142.1776732064
 20
-21.3851665704
 10
142.199860282
 20
-21.3863448465
 10
142.2225456706
 20
-21.3859754883
 10
142.2457327536
 20
-21.384047994
 10
142.2694181495
 20
-21.3805728654
 10
142.2934414991
 20
-21.3755736305
 10
142.3178050954
 20
-21.3690399472
 10
142.3425066454
 20
-21.3609821575
 10
142.3673789097
 20
-21.3514548159
 10
142.3923661421
 20
-21.3404761072
 10
142.4175240889
 20
-21.3280278466
 10
142.4428527501
 20
-21.314110034
  0
LWPOLYLINE
  5
220
100
AcDbEntity
  8
0
100
AcDbPolyline
 62
7
  6
CONTINUOUS
 90
18
 70
0
 10
86.7367326509
 20
10.5962273299
 10
86.7457940955
 20
10.5912406019
 10
86.764454773
 20
10.5824220535
 10
86.7839063222
 20
10.5751140225
 10
86.8041434126
 20
10.569306328
 10
86.8250290311
 20
10.5650382905
 10
86.8465675786
 20
10.5623203575
 10
86.8687546542
 20
10.5611420814
 10
86.8914400428
 20
10.5615114396
 10
86.9146271257
 20
10.5634389339
 10
86.9383125217
 20
10.5669140625
 10
86.9623358712
 20
10.5719132974
 10
86.9866994676
 20
10.5784469807
 10
87.0114010175
 20
10.5865047704
 10
87.0362732819
 20
10.596032112
 10
87.0612605143
 20
10.6070108207
 10
87.0864184611
 20
10.6194590813
 10
87.1117471223
 20
10.6333768939
  0
LINE
  5
221
100
AcDbEntity
  8
0
100
AcDbLine
 62
7
  6
CONTINUOUS
 10
86.7367290022
 20
10.5962210106
 11
86.2063989163
 21
10.9024269556
  0
LINE
  5
222
100
AcDbEntity
  8
0
100
AcDbLine
 62
7
  6
CONTINUOUS
 10
141.5375045442
 20
-21.0450599723
 11
142.06783463
 21
-21.3512659173
  0
LINE
  5
223
100
AcDbEntity
  8
0
100
AcDbLine
 62
250
  6
CONTINUOUS
 10
86.5814170364
 20
10.9395236565
 11
86.0510869505
 21
11.2457296015
  0
LINE
  5
224
100
AcDbEntity
  8
0
100
AcDbLine
 62
250
  6
CONTINUOUS
 10
141.3821925784
 20
-20.7017573264
 11
141.9125226643
 21
-21.0079632714
  0
LWPOLYLINE
  5
225
100
AcDbEntity
  8
0
100
AcDbPolyline
 62
7
  6
CONTINUOUS
 90
18
 70
0
 10
86.206402565
 20
10.9024332749
 10
86.1975888732
 20
10.9077654318
 10
86.1806202997
 20
10.9195147904
 10
86.1645644408
 20
10.9327043294
 10
86.1494151447
 20
10.947324342
 10
86.1352749781
 20
10.9632758451
 10
86.1221507887
 20
10.9805678737
 10
86.1100357288
 20
10.9991913928
 10
86.0990118222
 20
11.0190203138
 10
86.089086473
 20
11.0400628162
 10
86.0802522771
 20
11.0623107205
 10
86.0725690453
 20
11.0856133998
 10
86.0660445878
 20
11.1099780113
 10
86.0606710946
 20
11.1353973978
 10
86.0564849461
 20
11.16169946
 10
86.0534982694
 20
11.1888268314
 10
86.0516989375
 20
11.2168368786
 10
86.0510869505
 20
11.2457296015
  0
LINE
  5
226
100
AcDbEntity
  8
0
100
AcDbLine
 62
250
  6
CONTINUOUS
 10
99.6619870689
 20
187.2961861166
 11
99.3093390978
 21
187.0925715978
  0
LINE
  5
227
100
AcDbEntity
  8
0
100
AcDbLine
 62
7
  6
CONTINUOUS
 10
99.8396691837
 20
186.582307266
 11
100.1932225743
 21
186.7864445626
  0
LINE
  5
228
100
AcDbEntity
  8
0
100
AcDbLine
 62
7
  6
CONTINUOUS
 10
99.8396691837
 20
185.7658369892
 11
99.3093390978
 21
185.4596310442
  0
LINE
  5
229
100
AcDbEntity
  8
0
100
AcDbLine
 62
7
  6
CONTINUOUS
 10
98.0719022307
 20
182.7041720885
 11
97.5415721448
 21
182.3979661435
  0
LINE
  5
22A
100
AcDbEntity
  8
0
100
AcDbLine
 62
7
  6
CONTINUOUS
 10
89.2330674659
 20
11.8582006739
 11
141.3821925784
 21
-18.252050584
  0
LWPOLYLINE
  5
22B
100
AcDbEntity
  8
0
100
AcDbPolyline
 62
7
  6
CONTINUOUS
 90
18
 70
0
 10
141.5375081928
 20
-21.045053653
 10
141.5286945011
 20
-21.0397214961
 10
141.5117259276
 20
-21.0279721375
 10
141.4956700686
 20
-21.0147825985
 10
141.4805207725
 20
-21.0001625859
 10
141.4663806059
 20
-20.9842110828
 10
141.4532564165
 20
-20.9669190542
 10
141.4411413567
 20
-20.9482955351
 10
141.43011745
 20
-20.9284666141
 10
141.4201921009
 20
-20.9074241117
 10
141.4113579049
 20
-20.8851762074
 10
141.4036746731
 20
-20.8618735281
 10
141.3971502157
 20
-20.8375089166
 10
141.3917767224
 20
-20.8120895301
 10
141.387590574
 20
-20.7857874679
 10
141.3846038973
 20
-20.7586600965
 10
141.3828045654
 20
-20.7306500493
 10
141.3821925784
 20
-20.7017573264
  0
LINE
  5
22C
100
AcDbEntity
  8
ASSI
100
AcDbLine
 62
7
  6
CONTINUOUS
 10
117.1385704711
 20
3.0949018905
 11
117.1637840836
 21
3.0796466607
  0
LINE
  5
22D
100
AcDbEntity
  8
0
100
AcDbLine
 62
7
  6
CONTINUOUS
 10
98.0719022307
 20
173.9280240764
 11
109.2088340344
 21
180.3583489213
  0
LINE
  5
22E
100
AcDbEntity
  8
0
100
AcDbLine
 62
7
  6
CONTINUOUS
 10
98.0719022307
 20
173.5197494831
 11
109.562387425
 21
180.1542116247
  0
LWPOLYLINE
  5
22F
100
AcDbEntity
  8
0
100
AcDbPolyline
 62
7
  6
CONTINUOUS
 90
28
 70
0
 10
109.2088340344
 20
180.3583489213
 10
109.2404550499
 20
180.3758172875
 10
109.2732336649
 20
180.3924151109
 10
109.3071698793
 20
180.4081423915
 10
109.3423326203
 20
180.4230257613
 10
109.3786529608
 20
180.4370385884
 10
109.4159241193
 20
180.4501009764
 10
109.4541515448
 20
180.4622074936
 10
109.4933297885
 20
180.4733635717
 10
109.5332357219
 20
180.4835056104
 10
109.5738735112
 20
180.4926278107
 10
109.6152389904
 20
180.5007359715
 10
109.6570965322
 20
180.5077838894
 10
109.6994489507
 20
180.5137655
 10
109.7422934318
 20
180.5186868678
 10
109.7853859068
 20
180.5225199821
 10
109.828727273
 20
180.5252586575
 10
109.8723166329
 20
180.5269090796
 10
109.9159072256
 20
180.5274617948
 10
109.9594998958
 20
180.5269105551
 10
110.0030937988
 20
180.5252616086
 10
110.046439639
 20
180.5225242455
 10
110.0895356666
 20
180.518692221
 10
110.1323836315
 20
180.5137717798
 10
110.174739488
 20
180.507790946
 10
110.2166003928
 20
180.5007436707
 10
110.2579691893
 20
180.4926360027
 10
110.2694942062
 20
180.4900492185
  0
LWPOLYLINE
  5
230
100
AcDbEntity
  8
RACCORDO
100
AcDbPolyline
 62
7
  6
CONTINUOUS
 90
8
 70
0
 10
100.1932225743
 20
17.1334119322
 10
100.2109002438
 20
17.1327126603
 10
100.243329975
 20
17.1339954765
 10
100.2757597063
 20
17.1377200152
 10
100.3065711019
 20
17.1437004112
 10
100.3352247166
 20
17.1518747097
 10
100.3622599957
 20
17.1623048655
 10
100.3876769391
 20
17.1749908787
  0
LWPOLYLINE
  5
231
100
AcDbEntity
  8
RACCORDO
100
AcDbPolyline
 62
7
  6
CONTINUOUS
 90
7
 70
0
 10
101.1521096747
 20
19.1522286033
 10
101.1417106034
 20
19.1566925058
 10
101.1300464817
 20
19.1589569074
 10
101.1176957582
 20
19.1589109002
 10
101.1048524574
 20
19.1565168177
 10
101.0913225549
 20
19.1518123266
 10
101.0771060507
 20
19.1447974267
  0
LWPOLYLINE
  5
232
100
AcDbEntity
  8
0
100
AcDbPolyline
 62
7
  6
CONTINUOUS
 90
12
 70
0
 10
133.42724129
 20
-3.4530237668
 10
133.4700645885
 20
-3.47674277
 10
133.5126807405
 20
-3.4983723083
 10
133.555089746
 20
-3.5179123816
 10
133.597359647
 20
-3.5353878788
 10
133.6394224014
 20
-3.550773911
 10
133.6810738836
 20
-3.5639958115
 10
133.7223120944
 20
-3.5750430611
 10
133.7631390328
 20
-3.5839261789
 10
133.8033565704
 20
-3.5906020564
 10
133.842961745
 20
-3.5950599645
 10
133.8635002801
 20
-3.5962453601
  0
LINE
  5
233
100
AcDbEntity
  8
0
100
AcDbLine
 62
7
  6
CONTINUOUS
 10
136.7831039553
 20
-6.2887346604
 11
135.8314043461
 21
-5.7392352336
  0
LINE
  5
234
100
AcDbEntity
  8
0
100
AcDbLine
 62
7
  6
CONTINUOUS
 10
98.2457843806
 20
15.9622306759
 11
97.2940847714
 21
16.5117301027
  0
LINE
  5
235
100
AcDbEntity
  8
0
100
AcDbLine
 62
7
  6
CONTINUOUS
 10
97.7183488401
 20
16.3076835524
 11
98.2479332629
 21
16.0019081439
  0
LINE
  5
236
100
AcDbEntity
  8
0
100
AcDbLine
 62
7
  6
CONTINUOUS
 10
136.2556684148
 20
-5.943281784
 11
136.7852528375
 21
-6.2490571924
  0
LINE
  5
237
100
AcDbEntity
  8
0
100
AcDbLine
 62
7
  6
CONTINUOUS
 10
97.7183488401
 20
16.4301540939
 11
98.2457684721
 21
16.1256286085
  0
LINE
  5
238
100
AcDbEntity
  8
0
100
AcDbLine
 62
7
  6
CONTINUOUS
 10
136.2556684148
 20
-5.8208112424
 11
136.7830880468
 21
-6.1253367279
  0
LINE
  5
239
100
AcDbEntity
  8
RACCORDO
100
AcDbLine
 62
7
  6
CONTINUOUS
 10
97.4915697288
 20
16.5680645199
 11
98.2452677134
 21
16.1328887496
  0
LINE
  5
23A
100
AcDbEntity
  8
RACCORDO
100
AcDbLine
 62
7
  6
CONTINUOUS
 10
136.0288893035
 20
-5.6829008165
 11
136.7825872881
 21
-6.1180765868
  0
LINE
  5
23B
100
AcDbEntity
  8
RACCORDO
100
AcDbLine
 62
250
  6
CONTINUOUS
 10
97.4708614667
 20
16.613838206
 11
98.2421902184
 21
16.1684826517
  0
LINE
  5
23C
100
AcDbEntity
  8
RACCORDO
100
AcDbLine
 62
250
  6
CONTINUOUS
 10
136.0081810413
 20
-5.6371271304
 11
136.7795097931
 21
-6.0824826846
  0
LINE
  5
23D
100
AcDbEntity
  8
0
100
AcDbLine
 62
7
  6
CONTINUOUS
 10
132.8969112041
 20
-3.7592297118
 11
100.3699992695
 21
15.0214015813
  0
LINE
  5
23E
100
AcDbEntity
  8
0
100
AcDbLine
 62
7
  6
CONTINUOUS
 10
133.42724129
 20
-3.4530237668
 11
100.9003293554
 21
15.3276075263
  0
LINE
  5
23F
100
AcDbEntity
  8
0
100
AcDbLine
 62
7
  6
CONTINUOUS
 10
133.942631157
 20
-3.3423288233
 11
100.1932225743
 21
16.1441567129
  0
LINE
  5
240
100
AcDbEntity
  8
0
100
AcDbLine
 62
7
  6
CONTINUOUS
 10
100.3523216
 20
17.277059527
 11
100.4583876172
 21
17.215818338
  0
LINE
  5
241
100
AcDbEntity
  8
SMUSSO
100
AcDbLine
 62
7
  6
CONTINUOUS
 10
100.4583876172
 20
17.7057005041
 11
100.3523216
 21
17.7669416931
  0
LINE
  5
242
100
AcDbEntity
  8
0
100
AcDbLine
 62
7
  6
CONTINUOUS
 10
100.1932225743
 20
18.1853324049
 11
99.8396691837
 21
18.3894697016
  0
LINE
  5
243
100
AcDbEntity
  8
RACCORDO
100
AcDbLine
 62
250
  6
CONTINUOUS
 10
100.1578672352
 20
18.2466367218
 11
99.8396691837
 21
18.4303602888
  0
LINE
  5
244
100
AcDbEntity
  8
0
100
AcDbLine
 62
7
  6
CONTINUOUS
 10
100.4760652867
 20
18.6752934809
 11
99.9103798618
 21
19.0019131555
  0
LINE
  5
245
100
AcDbEntity
  8
0
100
AcDbLine
 62
7
  6
CONTINUOUS
 10
100.4760652867
 20
18.7977640224
 11
99.9103798618
 21
19.124383697
  0
LINE
  5
246
100
AcDbEntity
  8
SMUSSO
100
AcDbLine
 62
7
  6
CONTINUOUS
 10
100.9887177031
 20
18.6242591567
 11
100.8826516859
 21
18.6855003457
  0
LINE
  5
247
100
AcDbEntity
  8
RACCORDO
100
AcDbLine
 62
7
  6
CONTINUOUS
 10
99.8396691837
 20
19.4102193128
 11
100.1225494796
 21
19.2468877753
  0
LINE
  5
248
100
AcDbEntity
  8
RACCORDO
100
AcDbLine
 62
7
  6
CONTINUOUS
 10
100.7942906717
 20
18.8590328298
 11
100.9887450365
 21
18.7467573167
  0
LINE
  5
249
100
AcDbEntity
  8
0
100
AcDbLine
 62
7
  6
CONTINUOUS
 10
101.2715604156
 20
18.910051372
 11
101.0771060507
 21
19.0223268852
  0
LINE
  5
24A
100
AcDbEntity
  8
0
100
AcDbLine
 62
7
  6
CONTINUOUS
 10
99.8396691837
 20
19.7368074235
 11
100.4053648586
 21
19.4101818306
  0
LINE
  5
24B
100
AcDbEntity
  8
RACCORDO
100
AcDbLine
 62
250
  6
CONTINUOUS
 10
100.5114206258
 20
19.4714171014
 11
101.0771060507
 21
19.1447974267
  0
LINE
  5
24C
100
AcDbEntity
  8
RACCORDO
100
AcDbLine
 62
7
  6
CONTINUOUS
 10
101.3776264327
 20
18.971292561
 11
101.1831720679
 21
19.0835680742
  0
LINE
  5
24D
100
AcDbEntity
  8
RACCORDO
100
AcDbLine
 62
7
  6
CONTINUOUS
 10
99.8396691837
 20
19.8592898015
 11
100.5114257513
 21
19.4714259784
  0
LINE
  5
24E
100
AcDbEntity
  8
RACCORDO
100
AcDbLine
 62
7
  6
CONTINUOUS
 10
100.5864242498
 20
19.478848278
 11
101.1521096748
 21
19.1522286034
  0
LWPOLYLINE
  5
24F
100
AcDbEntity
  8
0
100
AcDbPolyline
 62
7
  6
CONTINUOUS
 90
40
 70
0
 10
100.3699992695
 20
15.0214015813
 10
100.3271759711
 20
15.0471338497
 10
100.2845598191
 20
15.0747163756
 10
100.2421508136
 20
15.1041491588
 10
100.1998809126
 20
15.1354858837
 10
100.1578181581
 20
15.1686728661
 10
100.116166676
 20
15.2035490531
 10
100.0749284652
 20
15.2401226557
 10
100.0341015267
 20
15.278385463
 10
99.9938839891
 20
15.3181517898
 10
99.9542788146
 20
15.3594289446
 10
99.9152830408
 20
15.4022096189
 10
99.8770859101
 20
15.4462862031
 10
99.8396913043
 20
15.4916649961
 10
99.8030953414
 20
15.5383396989
 10
99.7674756177
 20
15.5860838045
 10
99.7328368783
 20
15.6349025108
 10
99.6991743779
 20
15.6847906199
 10
99.6666514769
 20
15.7355060303
 10
99.6352737147
 20
15.7870527633
 10
99.6050355518
 20
15.8394267976
 10
99.5760837308
 20
15.892373968
 10
99.5484245042
 20
15.9458970602
 10
99.5220516193
 20
15.9999932884
 10
99.497093061
 20
16.0544001297
 10
99.4735557038
 20
16.1091190939
 10
99.451432673
 20
16.1641486713
 10
99.4308313293
 20
16.2192218093
 10
99.4117590691
 20
16.2743387198
 10
99.3942084961
 20
16.329499191
 10
99.378264781
 20
16.3844355354
 10
99.3639357344
 20
16.4391466635
 10
99.3512135459
 20
16.4936336648
 10
99.3401599547
 20
16.54763212
 10
99.3307830715
 20
16.6011396543
 10
99.3230747857
 20
16.6541586424
 10
99.3170725046
 20
16.7064317892
 10
99.3127886975
 20
16.7578733297
 10
99.3102108952
 20
16.8085690287
 10
99.3093390978
 20
16.8585188865
  0
LWPOLYLINE
  5
250
100
AcDbEntity
  8
RACCORDO
100
AcDbPolyline
 62
250
  6
CONTINUOUS
 90
6
 70
0
 10
97.4708614667
 20
16.613838206
 10
97.4595275228
 20
16.6216550549
 10
97.4507535018
 20
16.6304981951
 10
97.4448103409
 20
16.6400913111
 10
97.4418751324
 20
16.6501744323
 10
97.4415721448
 20
16.6546642703
  0
LWPOLYLINE
  5
251
100
AcDbEntity
  8
RACCORDO
100
AcDbPolyline
 62
250
  6
CONTINUOUS
 90
6
 70
0
 10
136.0081810413
 20
-5.6371271304
 10
135.9968470974
 20
-5.6293102815
 10
135.9880730765
 20
-5.6204671413
 10
135.9821299155
 20
-5.6108740253
 10
135.9791947071
 20
-5.6007909041
 10
135.9788917195
 20
-5.5963010661
  0
LWPOLYLINE
  5
252
100
AcDbEntity
  8
RACCORDO
100
AcDbPolyline
 62
250
  6
CONTINUOUS
 90
4
 70
0
 10
100.1932225743
 20
18.1112091037
 10
100.2010879878
 20
18.1129223837
 10
100.2157441698
 20
18.1179042491
 10
100.2285779133
 20
18.1241622348
  0
LINE
  5
253
100
AcDbEntity
  8
0
100
AcDbLine
 62
250
  6
CONTINUOUS
 10
109.562387425
 20
23.3919184805
 11
133.9575713759
 21
9.3064450107
  0
LINE
  5
254
100
AcDbEntity
  8
0
100
AcDbLine
 62
250
  6
CONTINUOUS
 10
109.9159408156
 20
24.0042909155
 11
133.9575713759
 21
10.1229547424
  0
LWPOLYLINE
  5
255
100
AcDbEntity
  8
RACCORDO
100
AcDbPolyline
 62
250
  6
CONTINUOUS
 90
3
 70
0
 10
100.1820516745
 20
18.2277490269
 10
100.1701459968
 20
18.2383067207
 10
100.1578672352
 20
18.2466367218
  0
LINE
  5
256
100
AcDbEntity
  8
0
100
AcDbLine
 62
7
  6
CONTINUOUS
 10
97.5415721448
 20
182.3979661435
 11
99.3093390978
 21
185.4596310442
  0
LINE
  5
257
100
AcDbEntity
  8
0
100
AcDbLine
 62
7
  6
CONTINUOUS
 10
98.0719022307
 20
182.7041720885
 11
99.8396691837
 21
185.7658369892
  0
LWPOLYLINE
  5
258
100
AcDbEntity
  8
ASSI
100
AcDbPolyline
 62
7
  6
CONTINUOUS
 90
60
 70
0
 10
120.5421195251
 20
166.8520124683
 10
120.5284325733
 20
166.8437903586
 10
120.501893404
 20
166.8259022199
 10
120.476539113
 20
166.8061178852
 10
120.4523639685
 20
166.7844465268
 10
120.42948529
 20
166.7609933134
 10
120.4079093792
 20
166.7357495838
 10
120.3876299344
 20
166.7087239992
 10
120.3687453693
 20
166.6800477118
 10
120.3512624642
 20
166.6497126977
 10
120.3351744388
 20
166.6177269808
 10
120.3205593667
 20
166.5842457841
 10
120.3074244073
 20
166.5492618385
 10
120.2957624012
 20
166.512782413
 10
120.2856299426
 20
166.4749845384
 10
120.2770344663
 20
166.4358618058
 10
120.2699685376
 20
166.395420624
 10
120.2644664467
 20
166.3538572494
 10
120.2605357949
 20
166.3111662275
 10
120.2581689809
 20
166.2673530128
 10
120.2573774904
 20
166.222630226
 10
120.2581689809
 20
166.1769934459
 10
120.2605357949
 20
166.1304470937
 10
120.2644664467
 20
166.0832170535
 10
120.2699685376
 20
166.0353000023
 10
120.2770344663
 20
165.9866992631
 10
120.2856299426
 20
165.93765069
 10
120.2957624012
 20
165.8881521062
 10
120.3074244073
 20
165.8382056883
 10
120.3205593667
 20
165.7880538209
 10
120.3351744388
 20
165.7376955052
 10
120.3512624642
 20
165.6871317399
 10
120.3687453693
 20
165.6366079053
 10
120.3876299344
 20
165.5861241954
 10
120.4079093792
 20
165.5356804162
 10
120.42948529
 20
165.4855213657
 10
120.4523639685
 20
165.4356484278
 10
120.476539113
 20
165.3860602186
 10
120.501893404
 20
165.336997384
 10
120.5284325733
 20
165.2884624779
 10
120.5561508893
 20
165.2404529464
 10
120.584913838
 20
165.1932017745
 10
120.6147264972
 20
165.1467126483
 10
120.6455837892
 20
165.1009818817
 10
120.677335967
 20
165.0562314009
 10
120.7099873805
 20
165.0124659708
 10
120.7435336797
 20
164.9696808265
 10
120.7778120684
 20
164.9280835995
 10
120.8128261049
 20
164.8876800641
 10
120.8485722308
 20
164.8484644459
 10
120.8848769742
 20
164.8106270541
 10
120.9217430503
 20
164.7741745878
 10
120.9591677439
 20
164.7391003478
 10
120.9969694371
 20
164.7055745454
 10
121.0351499624
 20
164.6736047073
 10
121.0737074873
 20
164.6431833068
 10
121.1124548966
 20
164.6144579757
 10
121.1513298183
 20
164.5874779243
 10
121.1903946243
 20
164.5621939423
 10
121.2296493146
 20
164.5386060296
  0
LINE
  5
259
100
AcDbEntity
  8
0
100
AcDbLine
 62
7
  6
CONTINUOUS
 10
98.0719022307
 20
153.5153596932
 11
97.5415721448
 21
153.2091537482
  0
LINE
  5
25A
100
AcDbEntity
  8
ASSI
100
AcDbLine
 62
250
  6
CONTINUOUS
 10
121.5832027051
 20
164.7427433263
 11
121.2296493146
 21
164.5386060296
  0
LWPOLYLINE
  5
25B
100
AcDbEntity
  8
RACCORDO
100
AcDbPolyline
 62
250
  6
CONTINUOUS
 90
3
 70
0
 10
100.2033191127
 20
18.2012916696
 10
100.1932225216
 20
18.2152844301
 10
100.1820516745
 20
18.2277490269
  0
LWPOLYLINE
  5
25C
100
AcDbEntity
  8
ASSI
100
AcDbPolyline
 62
7
  6
CONTINUOUS
 90
28
 70
0
 10
97.2766920299
 20
16.4865714803
 10
97.3037108894
 20
16.4416745516
 10
97.3317170033
 20
16.3975855532
 10
97.3607155615
 20
16.3543087322
 10
97.3907013739
 20
16.3118398413
 10
97.4215170851
 20
16.2704017435
 10
97.4531670576
 20
16.2299998572
 10
97.4856469287
 20
16.190628764
 10
97.518786255
 20
16.1524950701
 10
97.5525885029
 20
16.1156052806
 10
97.5870502058
 20
16.0799528906
 10
97.6219905201
 20
16.045724992
 10
97.6574119618
 20
16.0129290732
 10
97.6933120148
 20
15.9815576459
 10
97.7295022876
 20
15.9517753369
 10
97.7659843058
 20
15.9235905
 10
97.8027565437
 20
15.8969947816
 10
97.8396260327
 20
15.872127747
 10
97.8765932841
 20
15.8489984838
 10
97.9136577867
 20
15.8275979046
 10
97.9506250381
 20
15.8080383124
 10
97.9874945271
 20
15.7903293852
 10
98.024266765
 20
15.7744614451
 10
98.0607487832
 20
15.7605177619
 10
98.0969390559
 20
15.748508451
 10
98.132839109
 20
15.7384233969
 10
98.1682605507
 20
15.7303155227
 10
98.195804625
 20
15.7254907804
  0
LINE
  5
25D
100
AcDbEntity
  8
ASSI
100
AcDbLine
 62
7
  6
CONTINUOUS
 10
97.2508022107
 20
16.5320407348
 11
97.2766920299
 21
16.4865714803
  0
LWPOLYLINE
  5
25E
100
AcDbEntity
  8
0
100
AcDbPolyline
 62
250
  6
CONTINUOUS
 90
19
 70
0
 10
164.7167163575
 20
182.6005844254
 10
164.7544295521
 20
182.6233310186
 10
164.7903884349
 20
182.6470057797
 10
164.8245245564
 20
182.6715636426
 10
164.8567729364
 20
182.6969578598
 10
164.8870721883
 20
182.7231400921
 10
164.9153646358
 20
182.7500605001
 10
164.9415964225
 20
182.7776678392
 10
164.9657176148
 20
182.8059095574
 10
164.9876822967
 20
182.8347318949
 10
165.007448657
 20
182.8640799867
 10
165.0249790695
 20
182.8938979671
 10
165.0402401639
 20
182.9241290759
 10
165.0532028899
 20
182.9547157664
 10
165.0638425723
 20
182.9855998152
 10
165.0721389578
 20
183.0167224326
 10
165.0780762537
 20
183.0480243751
 10
165.081643158
 20
183.0794460575
 10
165.082832881
 20
183.110927667
  0
LWPOLYLINE
  5
25F
100
AcDbEntity
  8
ASSI
100
AcDbPolyline
 62
7
  6
CONTINUOUS
 90
60
 70
0
 10
124.7456062288
 20
162.8373944787
 10
124.7592931805
 20
162.8456165884
 10
124.7858323498
 20
162.8635047271
 10
124.8111866409
 20
162.8832890618
 10
124.8353617853
 20
162.9049604202
 10
124.8582404638
 20
162.9284136336
 10
124.8798163746
 20
162.9536573632
 10
124.9000958195
 20
162.9806829478
 10
124.9189803845
 20
163.0093592353
 10
124.9364632897
 20
163.0396942493
 10
124.952551315
 20
163.0716799662
 10
124.9671663872
 20
163.1051611629
 10
124.9803013465
 20
163.1401451086
 10
124.9919633527
 20
163.176624534
 10
125.0020958113
 20
163.2144224087
 10
125.0106912875
 20
163.2535451413
 10
125.0177572162
 20
163.2939863231
 10
125.0232593071
 20
163.3355496976
 10
125.0271899589
 20
163.3782407196
 10
125.029556773
 20
163.4220539342
 10
125.0303482634
 20
163.466776721
 10
125.029556773
 20
163.5124135012
 10
125.0271899589
 20
163.5589598534
 10
125.0232593071
 20
163.6061898935
 10
125.0177572162
 20
163.6541069448
 10
125.0106912875
 20
163.7027076839
 10
125.0020958113
 20
163.751756257
 10
124.9919633527
 20
163.8012548409
 10
124.9803013465
 20
163.8512012587
 10
124.9671663872
 20
163.9013531262
 10
124.952551315
 20
163.9517114419
 10
124.9364632897
 20
164.0022752072
 10
124.9189803845
 20
164.0527990418
 10
124.9000958195
 20
164.1032827517
 10
124.8798163746
 20
164.1537265309
 10
124.8582404638
 20
164.2038855814
 10
124.8353617853
 20
164.2537585193
 10
124.8111866409
 20
164.3033467285
 10
124.7858323498
 20
164.352409563
 10
124.7592931805
 20
164.4009444691
 10
124.7315748646
 20
164.4489540006
 10
124.7028119158
 20
164.4962051725
 10
124.6729992566
 20
164.5426942987
 10
124.6421419646
 20
164.5884250654
 10
124.6103897868
 20
164.6331755462
 10
124.5777383734
 20
164.6769409763
 10
124.5441920741
 20
164.7197261205
 10
124.5099136855
 20
164.7613233475
 10
124.474899649
 20
164.801726883
 10
124.439153523
 20
164.8409425011
 10
124.4028487797
 20
164.8787798929
 10
124.3659827035
 20
164.9152323593
 10
124.32855801
 20
164.9503065993
 10
124.2907563168
 20
164.9838324016
 10
124.2525757914
 20
165.0158022397
 10
124.2140182665
 20
165.0462236402
 10
124.1752708573
 20
165.0749489714
 10
124.1363959356
 20
165.1019290227
 10
124.0973311296
 20
165.1272130047
 10
124.0580764393
 20
165.1508009175
  0
LINE
  5
260
100
AcDbEntity
  8
0
100
AcDbLine
 62
250
  6
CONTINUOUS
 10
162.6078645827
 20
185.6698430706
 11
163.0550154217
 21
185.928022361
  0
LINE
  5
261
100
AcDbEntity
  8
ASSI
100
AcDbLine
 62
250
  6
CONTINUOUS
 10
124.4116298299
 20
163.1096449529
 11
124.0580764393
 21
162.9055076563
  0
LINE
  5
262
100
AcDbEntity
  8
0
100
AcDbLine
 62
7
  6
CONTINUOUS
 10
99.8396691837
 20
148.4123218259
 11
99.3093390978
 21
148.1061158809
  0
LINE
  5
263
100
AcDbEntity
  8
0
100
AcDbLine
 62
250
  6
CONTINUOUS
 10
163.4792794904
 20
184.7438879481
 11
134.3111247665
 21
167.9025609733
  0
LINE
  5
264
100
AcDbEntity
  8
0
100
AcDbLine
 62
7
  6
CONTINUOUS
 10
99.8396691837
 20
145.9639762787
 11
101.0771060507
 21
146.678456817
  0
LINE
  5
265
100
AcDbEntity
  8
0
100
AcDbLine
 62
250
  6
CONTINUOUS
 10
164.7167163575
 20
182.6005844254
 11
135.5485616336
 21
165.7592574506
  0
LINE
  5
266
100
AcDbEntity
  8
0
100
AcDbLine
 62
250
  6
CONTINUOUS
 10
165.082832881
 20
181.7915454912
 11
165.3531124606
 21
181.9476015331
  0
LINE
  5
267
100
AcDbEntity
  8
0
100
AcDbLine
 62
250
  6
CONTINUOUS
 10
100.1932225743
 20
142.4929320466
 11
99.8396691837
 21
142.28879475
  0
LWPOLYLINE
  5
268
100
AcDbEntity
  8
0
100
AcDbPolyline
 62
250
  6
CONTINUOUS
 90
19
 70
0
 10
163.4792794904
 20
184.7438879481
 10
163.5178339462
 20
184.7651774341
 10
163.5563150113
 20
184.7844836475
 10
163.594649435
 20
184.8017698376
 10
163.6327642454
 20
184.8170030993
 10
163.6705868889
 20
184.8301544352
 10
163.7080453678
 20
184.841198811
 10
163.7450683779
 20
184.850115203
 10
163.7815854438
 20
184.8568866385
 10
163.817527053
 20
184.8615002275
 10
163.8528247889
 20
184.8639471879
 10
163.88741146
 20
184.8642228618
 10
163.9212212287
 20
184.8623267243
 10
163.9541897362
 20
184.8582623849
 10
163.986254225
 20
184.8520375804
 10
164.0173536587
 20
184.8436641598
 10
164.0474288375
 20
184.8331580626
 10
164.0764225118
 20
184.8205392877
 10
164.1042794904
 20
184.8058318557
  0
LWPOLYLINE
  5
269
100
AcDbEntity
  8
RACCORDO
100
AcDbPolyline
 62
7
  6
CONTINUOUS
 90
34
 70
0
 10
127.7694219889
 20
44.7280681635
 10
127.8821511214
 20
44.7203691487
 10
127.9995348235
 20
44.7022874606
 10
128.1209190365
 20
44.6738081245
 10
128.2452013744
 20
44.6351496006
 10
128.3719577022
 20
44.586442556
 10
128.5016431766
 20
44.52738135
 10
128.6339400066
 20
44.4578478582
 10
128.7678341154
 20
44.3781365072
 10
128.902920177
 20
44.2882804154
 10
129.0386489907
 20
44.1884157467
 10
129.1742463838
 20
44.0788987442
 10
129.3090481216
 20
43.9600798758
 10
129.4424476813
 20
43.8323170074
 10
129.5737699995
 20
43.696091104
 10
129.7023082423
 20
43.5519952752
 10
129.8274713782
 20
43.4005714312
 10
129.9486672824
 20
43.2424248224
 10
130.0652502234
 20
43.0783108437
 10
130.1766951627
 20
42.9089048224
 10
130.282500949
 20
42.7349156139
 10
130.3821273882
 20
42.557205467
 10
130.4751491534
 20
42.3765368076
 10
130.5611767316
 20
42.1936866661
 10
130.6398018875
 20
42.0095814596
 10
130.7107239601
 20
41.8250308857
 10
130.773689624
 20
41.6408339393
 10
130.8284485161
 20
41.4579303473
 10
130.8748436019
 20
41.277148645
 10
130.9127812385
 20
41.0992502097
 10
130.9421950012
 20
40.9250975763
 10
130.9630893041
 20
40.7554931991
 10
130.9755340661
 20
40.5911383489
 10
130.9796473828
 20
40.4327218258
  0
LWPOLYLINE
  5
26A
100
AcDbEntity
  8
RACCORDO
100
AcDbPolyline
 62
250
  6
CONTINUOUS
 90
24
 70
0
 10
129.1075440256
 20
38.2322369104
 10
129.2816564927
 20
38.1692877152
 10
129.4534350778
 20
38.119991114
 10
129.6222281635
 20
38.0845341065
 10
129.7873954547
 20
38.0630511946
 10
129.9483104091
 20
38.0556238709
 10
130.1043626147
 20
38.0622803092
 10
130.2549601122
 20
38.0829952582
 10
130.399531637
 20
38.1176901399
 10
130.5375287871
 20
38.1662333499
 10
130.6684280763
 20
38.228440745
 10
130.7917329307
 20
38.3040763343
 10
130.9069755758
 20
38.3928531648
 10
131.013718903
 20
38.4944344911
 10
131.1115580784
 20
38.6084350718
 10
131.2001220194
 20
38.734422603
 10
131.2790746596
 20
38.8719190936
 10
131.3481163642
 20
39.0204027052
 10
131.4069853298
 20
39.1793103335
 10
131.4554581963
 20
39.3480389833
 10
131.4933509544
 20
39.5259476099
 10
131.5205200331
 20
39.7123608436
 10
131.5368626583
 20
39.9065717195
 10
131.5423170495
 20
40.1078434123
  0
LINE
  5
26B
100
AcDbEntity
  8
RACCORDO
100
AcDbLine
 62
250
  6
CONTINUOUS
 10
129.5688933747
 20
37.9713688639
 11
129.3686577137
 21
38.0583536188
  0
LINE
  5
26C
100
AcDbEntity
  8
RACCORDO
100
AcDbLine
 62
250
  6
CONTINUOUS
 10
128.9317581481
 20
38.3085999103
 11
129.1075440256
 21
38.2322369104
  0
LINE
  5
26D
100
AcDbEntity
  8
RACCORDO
100
AcDbLine
 62
250
  6
CONTINUOUS
 10
129.3686577137
 20
38.0583536188
 11
129.167275368
 21
38.1602879912
  0
LINE
  5
26E
100
AcDbEntity
  8
ASSI
100
AcDbLine
 62
250
  6
CONTINUOUS
 10
141.9125226643
 20
24.714372229
 11
141.3821925784
 21
25.020578174
  0
LINE
  5
26F
100
AcDbEntity
  8
ASSI
100
AcDbLine
 62
250
  6
CONTINUOUS
 10
86.0510869505
 20
56.9680651019
 11
86.5814170364
 21
56.6618591569
  0
LINE
  5
270
100
AcDbEntity
  8
ASSI
100
AcDbLine
 62
250
  6
CONTINUOUS
 10
141.9109565327
 20
24.7677787887
 11
141.3806264468
 21
25.0739847337
  0
LINE
  5
271
100
AcDbEntity
  8
ASSI
100
AcDbLine
 62
250
  6
CONTINUOUS
 10
86.0495208189
 20
57.0214716616
 11
86.5798509048
 21
56.7152657166
  0
LINE
  5
272
100
AcDbEntity
  8
ASSI
100
AcDbLine
 62
7
  6
CONTINUOUS
 10
79.6871259198
 20
198.0129503235
 11
79.6871452707
 21
163.5653636357
  0
LINE
  5
273
100
AcDbEntity
  8
ASSI
100
AcDbLine
 62
7
  6
CONTINUOUS
 10
80.2174560057
 20
197.7067443785
 11
80.2174753566
 21
163.2591576907
  0
LINE
  5
274
100
AcDbEntity
  8
0
100
AcDbLine
 62
250
  6
CONTINUOUS
 10
80.9245627869
 20
198.7272927695
 11
80.9245627869
 21
198.1149400619
  0
LWPOLYLINE
  5
275
100
AcDbEntity
  8
ASSI
100
AcDbPolyline
 62
7
  6
CONTINUOUS
 90
54
 70
0
 10
120.7420362943
 20
166.9139980132
 10
120.741183325
 20
166.9128612959
 10
120.7222987599
 20
166.8841850084
 10
120.7048158548
 20
166.8538499944
 10
120.6887278294
 20
166.8218642775
 10
120.6741127573
 20
166.7883830808
 10
120.6609777979
 20
166.7533991351
 10
120.6493157918
 20
166.7169197097
 10
120.6391833332
 20
166.679121835
 10
120.6305878569
 20
166.6399991025
 10
120.6235219282
 20
166.5995579206
 10
120.6180198373
 20
166.5579945461
 10
120.6140891855
 20
166.5153035241
 10
120.6117223714
 20
166.4714903095
 10
120.610930881
 20
166.4267675227
 10
120.6117223714
 20
166.3811307426
 10
120.6140891855
 20
166.3345843903
 10
120.6180198373
 20
166.2873543502
 10
120.6235219282
 20
166.239437299
 10
120.6305878569
 20
166.1908365598
 10
120.6391833332
 20
166.1417879867
 10
120.6493157918
 20
166.0922894028
 10
120.6609777979
 20
166.042342985
 10
120.6741127573
 20
165.9921911175
 10
120.6887278294
 20
165.9418328018
 10
120.7048158548
 20
165.8912690365
 10
120.7222987599
 20
165.8407452019
 10
120.741183325
 20
165.790261492
 10
120.7614627698
 20
165.7398177128
 10
120.7830386806
 20
165.6896586623
 10
120.8059173591
 20
165.6397857244
 10
120.8300925036
 20
165.5901975152
 10
120.8554467946
 20
165.5411346807
 10
120.8819859639
 20
165.4925997746
 10
120.9097042799
 20
165.4445902431
 10
120.9384672286
 20
165.3973390712
 10
120.9682798878
 20
165.350849945
 10
120.9991371798
 20
165.3051191783
 10
121.0308893576
 20
165.2603686975
 10
121.0635407711
 20
165.2166032674
 10
121.0970870703
 20
165.1738181232
 10
121.1313654589
 20
165.1322208962
 10
121.1663794955
 20
165.0918173607
 10
121.2021256214
 20
165.0526017426
 10
121.2384303648
 20
165.0147643508
 10
121.2752964409
 20
164.9783118844
 10
121.3127211345
 20
164.9432376444
 10
121.3505228277
 20
164.9097118421
 10
121.388703353
 20
164.877742004
 10
121.4272608779
 20
164.8473206035
 10
121.4660082872
 20
164.8185952723
 10
121.5048832089
 20
164.791615221
 10
121.5439480149
 20
164.766331239
 10
121.5832027051
 20
164.7427433263
  0
LINE
  5
276
100
AcDbEntity
  8
0
100
AcDbLine
 62
7
  6
CONTINUOUS
 10
100.7235526601
 20
138.7178913457
 11
100.1932225743
 21
138.4116854007
  0
LINE
  5
277
100
AcDbEntity
  8
0
100
AcDbLine
 62
7
  6
CONTINUOUS
 10
101.0771060507
 20
138.5137540491
 11
100.1932225743
 21
138.0034108074
  0
LWPOLYLINE
  5
278
100
AcDbEntity
  8
RACCORDO
100
AcDbPolyline
 62
7
  6
CONTINUOUS
 90
15
 70
0
 10
129.0665220586
 20
38.2166680155
 10
129.194463774
 20
38.1455972846
 10
129.4032295008
 20
38.0416177408
 10
129.6119789073
 20
37.9525629764
 10
129.8198886101
 20
37.8788875211
 10
130.0251102024
 20
37.8212077659
 10
130.2268681637
 20
37.7795572783
 10
130.4248571011
 20
37.7538317149
 10
130.6179877952
 20
37.7439811924
 10
130.8055521503
 20
37.7497728799
 10
130.9871655671
 20
37.7709270832
 10
131.1621690556
 20
37.8071046773
 10
131.3299284531
 20
37.8578826832
 10
131.4898948015
 20
37.9227801735
 10
131.641517312
 20
38.0012384714
  0
LWPOLYLINE
  5
279
100
AcDbEntity
  8
RACCORDO
100
AcDbPolyline
 62
250
  6
CONTINUOUS
 90
3
 70
0
 10
128.6666804881
 20
38.4474869019
 10
128.7549656798
 20
38.3980870425
 10
128.9317581481
 20
38.3085999103
  0
LINE
  5
27A
100
AcDbEntity
  8
0
100
AcDbLine
 62
7
  6
CONTINUOUS
 10
128.6666804881
 20
38.4474869019
 11
129.0667191452
 21
38.2165542353
  0
LWPOLYLINE
  5
27B
100
AcDbEntity
  8
RACCORDO
100
AcDbPolyline
 62
7
  6
CONTINUOUS
 90
25
 70
0
 10
128.6666804881
 20
38.4474869019
 10
128.4724702905
 20
38.5669481821
 10
128.2805927257
 20
38.6995865298
 10
128.0916859807
 20
38.8447517854
 10
127.9063277074
 20
39.0018151179
 10
127.7251577933
 20
39.1700708923
 10
127.5489081849
 20
39.3486754993
 10
127.3782538317
 20
39.5367701808
 10
127.2136826345
 20
39.7336569142
 10
127.0556657182
 20
39.9386510032
 10
126.9047595166
 20
40.1509368116
 10
126.7614950967
 20
40.3696872233
 10
126.6263143997
 20
40.594176411
 10
126.4997180369
 20
40.8235533239
 10
126.3821840907
 20
41.0569506097
 10
126.2741109196
 20
41.2936141308
 10
126.1759334234
 20
41.5326755715
 10
126.0880681096
 20
41.7732408035
 10
126.01086456
 20
42.0145386687
 10
125.9446805009
 20
42.2557385433
 10
125.8898793432
 20
42.4959016859
 10
125.8467786843
 20
42.7341517344
 10
125.8156685619
 20
42.9696430231
 10
125.7968217177
 20
43.2015095704
 10
125.7904880532
 20
43.4288773875
  0
LWPOLYLINE
  5
27C
100
AcDbEntity
  8
ASSI
100
AcDbPolyline
 62
7
  6
CONTINUOUS
 90
28
 70
0
 10
135.8140116046
 20
-5.7643938561
 10
135.8410304641
 20
-5.8092907847
 10
135.869036578
 20
-5.8533797831
 10
135.8980351361
 20
-5.8966566042
 10
135.9280209486
 20
-5.939125495
 10
135.9588366597
 20
-5.9805635929
 10
135.9904866322
 20
-6.0209654791
 10
136.0229665034
 20
-6.0603365724
 10
136.0561058296
 20
-6.0984702662
 10
136.0899080775
 20
-6.1353600557
 10
136.1243697805
 20
-6.1710124458
 10
136.1593100948
 20
-6.2052403444
 10
136.1947315365
 20
-6.2380362632
 10
136.2306315895
 20
-6.2694076905
 10
136.2668218623
 20
-6.2991899995
 10
136.3033038805
 20
-6.3273748363
 10
136.3400761183
 20
-6.3539705548
 10
136.3769456074
 20
-6.3788375894
 10
136.4139128588
 20
-6.4019668525
 10
136.4509773613
 20
-6.4233674318
 10
136.4879446128
 20
-6.4429270239
 10
136.5248141018
 20
-6.4606359511
 10
136.5615863397
 20
-6.4765038912
 10
136.5980683578
 20
-6.4904475745
 10
136.6342586306
 20
-6.5024568854
 10
136.6701586837
 20
-6.5125419395
 10
136.7055801253
 20
-6.5206498136
 10
136.7331241997
 20
-6.525474556
  0
LWPOLYLINE
  5
27D
100
AcDbEntity
  8
ASSI
100
AcDbPolyline
 62
7
  6
CONTINUOUS
 90
9
 70
0
 10
86.0495208189
 20
57.0214716616
 10
79.6883634302
 20
163.5238232523
 10
79.6880734534
 20
163.5296854053
 10
79.6878221212
 20
163.5355718527
 10
79.6876094239
 20
163.5414829192
 10
79.6874353712
 20
163.5474182801
 10
79.6872999916
 20
163.5533769614
 10
79.6872032946
 20
163.5593586384
 10
79.6871452707
 20
163.5653636357
  0
LWPOLYLINE
  5
27E
100
AcDbEntity
  8
ASSI
100
AcDbPolyline
 62
7
  6
CONTINUOUS
 90
10
 70
0
 10
86.0495208189
 20
57.0214716616
 10
86.0498494402
 20
57.015633803
 10
86.050139417
 20
57.00977165
 10
86.0503907492
 20
57.0038852026
 10
86.0506034464
 20
56.9979741361
 10
86.0507774991
 20
56.9920387752
 10
86.0509128788
 20
56.9860800939
 10
86.0510095758
 20
56.980098417
 10
86.0510675997
 20
56.9740934196
 10
86.0510869505
 20
56.9680651019
  0
LWPOLYLINE
  5
27F
100
AcDbEntity
  8
ASSI
100
AcDbPolyline
 62
7
  6
CONTINUOUS
 90
9
 70
0
 10
86.5798509048
 20
56.7152657166
 10
80.218693516
 20
163.2176173073
 10
80.2184035393
 20
163.2234794603
 10
80.218152207
 20
163.2293659077
 10
80.2179395098
 20
163.2352769742
 10
80.2177654571
 20
163.2412123351
 10
80.2176300775
 20
163.2471710164
 10
80.2175333805
 20
163.2531526934
 10
80.2174753566
 20
163.2591576907
  0
LWPOLYLINE
  5
280
100
AcDbEntity
  8
ASSI
100
AcDbPolyline
 62
7
  6
CONTINUOUS
 90
10
 70
0
 10
86.5798509048
 20
56.7152657166
 10
86.5801795261
 20
56.709427858
 10
86.5804695029
 20
56.703565705
 10
86.5807208351
 20
56.6976792576
 10
86.5809335323
 20
56.6917681911
 10
86.581107585
 20
56.6858328302
 10
86.5812429647
 20
56.6798741489
 10
86.5813396617
 20
56.673892472
 10
86.5813976856
 20
56.6678874746
 10
86.5814170364
 20
56.6618591569
  0
LWPOLYLINE
  5
281
100
AcDbEntity
  8
0
100
AcDbPolyline
 62
7
  6
CONTINUOUS
 90
18
 70
0
 10
86.5814170364
 20
10.9395236565
 10
86.5820290234
 20
10.9106309336
 10
86.5838283553
 20
10.8826208864
 10
86.586815032
 20
10.855493515
 10
86.5910011804
 20
10.8291914528
 10
86.5963746737
 20
10.8037720663
 10
86.6028991312
 20
10.7794074548
 10
86.610582363
 20
10.7561047755
 10
86.6194165589
 20
10.7338568712
 10
86.6293419081
 20
10.7128143688
 10
86.6403658147
 20
10.6929854478
 10
86.6524808746
 20
10.6743619287
 10
86.665605064
 20
10.6570699001
 10
86.6797452306
 20
10.641118397
 10
86.6948945267
 20
10.6264983844
 10
86.7109503856
 20
10.6133088454
 10
86.7279189591
 20
10.6015594868
 10
86.7367326509
 20
10.5962273299
  0
LINE
  5
282
100
AcDbEntity
  8
0
100
AcDbLine
 62
7
  6
CONTINUOUS
 10
86.0510869505
 20
11.2457296015
 11
86.0510869505
 21
56.9680651019
  0
LINE
  5
283
100
AcDbEntity
  8
0
100
AcDbLine
 62
7
  6
CONTINUOUS
 10
86.5814170364
 20
10.9395236565
 11
86.5814170364
 21
56.6618591569
  0
LINE
  5
284
100
AcDbEntity
  8
0
100
AcDbLine
 62
7
  6
CONTINUOUS
 10
109.9159408156
 20
57.479572264
 11
110.2694942062
 21
57.2754349674
  0
LINE
  5
285
100
AcDbEntity
  8
ASSI
100
AcDbLine
 62
7
  6
CONTINUOUS
 10
135.7881217854
 20
-5.7189246016
 11
135.8140116046
 21
-5.7643938561
  0
LWPOLYLINE
  5
286
100
AcDbEntity
  8
CURVE
100
AcDbPolyline
 62
250
  6
CONTINUOUS
 90
17
 70
0
 10
94.5363683248
 20
76.1549390593
 10
94.5532017483
 20
75.9469864335
 10
94.6030608389
 20
75.727515843
 10
94.6840464794
 20
75.5048868545
 10
94.7952518012
 20
75.2837983979
 10
94.9285512987
 20
75.0804048759
 10
95.0805795155
 20
74.8985012115
 10
95.2455457441
 20
74.7450160589
 10
95.4202518012
 20
74.6240079717
 10
95.5919323349
 20
74.5443187202
 10
95.7570736103
 20
74.5065386815
 10
95.9093854476
 20
74.5121068856
 10
96.0452518012
 20
74.5620640641
 10
96.1547452428
 20
74.6527599659
 10
96.2362620575
 20
74.7812345872
 10
96.286697295
 20
74.9425943695
 10
96.3041352777
 20
75.1342526652
  0
LWPOLYLINE
  5
287
100
AcDbEntity
  8
CURVE
100
AcDbPolyline
 62
250
  6
CONTINUOUS
 90
17
 70
0
 10
96.3041352777
 20
75.134252576
 10
96.2873018542
 20
75.3422052019
 10
96.2374427636
 20
75.5616757924
 10
96.1564571231
 20
75.7843047809
 10
96.0452518012
 20
76.0053932375
 10
95.9119523038
 20
76.2087867595
 10
95.759924087
 20
76.3906904238
 10
95.5949578584
 20
76.5441755764
 10
95.4202518012
 20
76.6651836637
 10
95.2485712676
 20
76.7448729151
 10
95.0834299922
 20
76.7826529538
 10
94.9311181548
 20
76.7770847498
 10
94.7952518012
 20
76.7271275713
 10
94.6857583596
 20
76.6364316695
 10
94.604241545
 20
76.5079570482
 10
94.5538063075
 20
76.3465972659
 10
94.5363683248
 20
76.1549389701
  0
LWPOLYLINE
  5
288
100
AcDbEntity
  8
CURVE
100
AcDbPolyline
 62
250
  6
CONTINUOUS
 90
17
 70
0
 10
103.3752030896
 20
10.6327061601
 10
103.3920365131
 20
10.4247535342
 10
103.4418956037
 20
10.2052829437
 10
103.5228812442
 20
9.9826539552
 10
103.6340865661
 20
9.7615654986
 10
103.7673860635
 20
9.5581719766
 10
103.9194142803
 20
9.3762683123
 10
104.0843805089
 20
9.2227831596
 10
104.2590865661
 20
9.1017750724
 10
104.4307670997
 20
9.022085821
 10
104.5959083751
 20
8.9843057823
 10
104.7482202125
 20
8.9898739863
 10
104.8840865661
 20
9.0398311648
 10
104.9935800077
 20
9.1305270666
 10
105.0750968223
 20
9.2590016879
 10
105.1255320598
 20
9.4203614702
 10
105.1429700426
 20
9.612019766
  0
LWPOLYLINE
  5
289
100
AcDbEntity
  8
CURVE
100
AcDbPolyline
 62
250
  6
CONTINUOUS
 90
17
 70
0
 10
94.5363683248
 20
133.3078584348
 10
94.5532017483
 20
133.0999058089
 10
94.6030608389
 20
132.8804352185
 10
94.6840464794
 20
132.65780623
 10
94.7952518012
 20
132.4367177734
 10
94.9285512987
 20
132.2333242514
 10
95.0805795155
 20
132.051420587
 10
95.2455457441
 20
131.8979354344
 10
95.4202518012
 20
131.7769273472
 10
95.5919323349
 20
131.6972380957
 10
95.7570736103
 20
131.659458057
 10
95.9093854476
 20
131.6650262611
 10
96.0452518012
 20
131.7149834396
 10
96.1547452428
 20
131.8056793414
 10
96.2362620575
 20
131.9341539627
 10
96.286697295
 20
132.095513745
 10
96.3041352777
 20
132.2871720407
  0
LWPOLYLINE
  5
28A
100
AcDbEntity
  8
CURVE
100
AcDbPolyline
 62
250
  6
CONTINUOUS
 90
17
 70
0
 10
105.1429700426
 20
9.6120196768
 10
105.1261366191
 20
9.8199723026
 10
105.0762775284
 20
10.0394428931
 10
104.9952918879
 20
10.2620718816
 10
104.8840865661
 20
10.4831603382
 10
104.7507870687
 20
10.6865538602
 10
104.5987588519
 20
10.8684575246
 10
104.4337926232
 20
11.0219426772
 10
104.2590865661
 20
11.1429507644
 10
104.0874060325
 20
11.2226400159
 10
103.922264757
 20
11.2604200545
 10
103.7699529197
 20
11.2548518505
 10
103.6340865661
 20
11.204894672
 10
103.5245931245
 20
11.1141987702
 10
103.4430763098
 20
10.9857241489
 10
103.3926410724
 20
10.8243643666
 10
103.3752030896
 20
10.6327060708
  0
LWPOLYLINE
  5
28B
100
AcDbEntity
  8
RACCORDO
100
AcDbPolyline
 62
250
  6
CONTINUOUS
 90
6
 70
0
 10
97.4708614667
 20
16.613838206
 10
97.471960977
 20
16.6001307868
 10
97.4752253782
 20
16.5881191764
 10
97.4805532415
 20
16.578177016
 10
97.4878104118
 20
16.57058923
 10
97.4915697288
 20
16.5680645199
  0
LWPOLYLINE
  5
28C
100
AcDbEntity
  8
RACCORDO
100
AcDbPolyline
 62
250
  6
CONTINUOUS
 90
6
 70
0
 10
97.4708614667
 20
103.159687546
 10
97.471960977
 20
103.1459801269
 10
97.4752253782
 20
103.1339685164
 10
97.4805532415
 20
103.124026356
 10
97.4878104118
 20
103.11643857
 10
97.4915697288
 20
103.1139138599
  0
LWPOLYLINE
  5
28D
100
AcDbEntity
  8
RACCORDO
100
AcDbPolyline
 62
250
  6
CONTINUOUS
 90
6
 70
0
 10
100.2285779133
 20
18.1241622348
 10
100.2275036476
 20
18.1389604363
 10
100.2243134995
 20
18.1545495029
 10
100.2191044123
 20
18.1704557624
 10
100.2120346777
 20
18.1861958989
 10
100.2033191127
 20
18.2012916696
  0
LWPOLYLINE
  5
28E
100
AcDbEntity
  8
RACCORDO
100
AcDbPolyline
 62
7
  6
CONTINUOUS
 90
7
 70
0
 10
101.1831720679
 20
19.0835680742
 10
101.182138406
 20
19.099386527
 10
101.1794471411
 20
19.1134551067
 10
101.1750982731
 20
19.1257738134
 10
101.1689621592
 20
19.1364918257
 10
101.1611684422
 20
19.145459965
 10
101.1521096747
 20
19.1522286033
  0
LWPOLYLINE
  5
28F
100
AcDbEntity
  8
ASSI
100
AcDbPolyline
 62
7
  6
CONTINUOUS
 90
51
 70
0
 10
97.0112420589
 20
109.4259647464
 10
97.0118540459
 20
109.3963653162
 10
97.0136533778
 20
109.3662774457
 10
97.0166400545
 20
109.3357011348
 10
97.0208262029
 20
109.3045650134
 10
97.0261996962
 20
109.2729404516
 10
97.0327241537
 20
109.2410415601
 10
97.0404073855
 20
109.2088664774
 10
97.0492415814
 20
109.176417065
 10
97.0591669306
 20
109.1439130181
 10
97.0701908372
 20
109.1113539661
 10
97.0823058971
 20
109.0787402796
 10
97.0954300865
 20
109.046292766
 10
97.1095702531
 20
109.014012553
 10
97.1247195492
 20
108.9818985129
 10
97.1407754081
 20
108.9501680705
 10
97.1577439816
 20
108.9188238285
 10
97.175619118
 20
108.8878631842
 10
97.1942797955
 20
108.8574957531
 10
97.2137313447
 20
108.8277255607
 10
97.2339684351
 20
108.7985485815
 10
97.2548540536
 20
108.7701623552
 10
97.2763926011
 20
108.7425722475
 10
97.2985796767
 20
108.7157728926
 10
97.3212650653
 20
108.6899457327
 10
97.3444521482
 20
108.6650973648
 10
97.3681375442
 20
108.6412211919
 10
97.3921608937
 20
108.6184788649
 10
97.4165244901
 20
108.5968780778
 10
97.44122604
 20
108.5764111368
 10
97.4660983044
 20
108.557216611
 10
97.4911424416
 20
108.5393031345
 10
97.5163572932
 20
108.5226620733
 10
97.5415721448
 20
108.5074060938
 10
97.5667869964
 20
108.4935445947
 10
97.592001848
 20
108.4810681773
 10
97.6170459852
 20
108.4700613119
 10
97.6419182496
 20
108.4605339703
 10
97.6666197995
 20
108.4524761806
 10
97.6909833959
 20
108.4459424973
 10
97.7150067454
 20
108.4409432624
 10
97.7386921414
 20
108.4374681338
 10
97.7618792243
 20
108.4355406395
 10
97.7845646129
 20
108.4351712813
 10
97.8067516885
 20
108.4363495574
 10
97.828290236
 20
108.4390674904
 10
97.8491758545
 20
108.4433355279
 10
97.8694129449
 20
108.4491432224
 10
97.8888644941
 20
108.4564512534
 10
97.9075251716
 20
108.4652698018
 10
97.9165866162
 20
108.4702565298
  0
LWPOLYLINE
  5
290
100
AcDbEntity
  8
ASSI
100
AcDbPolyline
 62
7
  6
CONTINUOUS
 90
33
 70
0
 10
97.5415721448
 20
109.7321706914
 10
97.5421841318
 20
109.7025712612
 10
97.5439834637
 20
109.6724833907
 10
97.5469701404
 20
109.6419070798
 10
97.5511562888
 20
109.6107709584
 10
97.5565297821
 20
109.5791463966
 10
97.5630542396
 20
109.5472475051
 10
97.5707374713
 20
109.5150724224
 10
97.5795716673
 20
109.48262301
 10
97.5894970165
 20
109.4501189631
 10
97.6005209231
 20
109.4175599111
 10
97.612635983
 20
109.3849462245
 10
97.6257601724
 20
109.352498711
 10
97.6399003389
 20
109.320218498
 10
97.655049635
 20
109.2881044579
 10
97.671105494
 20
109.2563740155
 10
97.6880740675
 20
109.2250297735
 10
97.7059492039
 20
109.1940691292
 10
97.7246098814
 20
109.1637016981
 10
97.7440614306
 20
109.1339315057
 10
97.764298521
 20
109.1047545265
 10
97.7851841395
 20
109.0763683002
 10
97.806722687
 20
109.0487781925
 10
97.8289097626
 20
109.0219788376
 10
97.8515951512
 20
108.9961516777
 10
97.8747822341
 20
108.9713033098
 10
97.8984676301
 20
108.9474271368
 10
97.9224909796
 20
108.9246848099
 10
97.946854576
 20
108.9030840228
 10
97.9715561259
 20
108.8826170818
 10
97.9964283903
 20
108.863422556
 10
98.0214725275
 20
108.8455090795
 10
98.0466873791
 20
108.8288680183
  0
LWPOLYLINE
  5
291
100
AcDbEntity
  8
ASSI
100
AcDbPolyline
 62
7
  6
CONTINUOUS
 90
51
 70
0
 10
98.0719022307
 20
108.8135528564
 10
98.0712902437
 20
108.8431522866
 10
98.0694909118
 20
108.8732401571
 10
98.0665042351
 20
108.9038164679
 10
98.0623180867
 20
108.9349525894
 10
98.0569445934
 20
108.9665771512
 10
98.0504201359
 20
108.9984760427
 10
98.0427369041
 20
109.0306511254
 10
98.0339027082
 20
109.0631005378
 10
98.023977359
 20
109.0956045846
 10
98.0129534524
 20
109.1281636367
 10
98.0008383925
 20
109.1607773232
 10
97.9877142031
 20
109.1932248368
 10
97.9735740365
 20
109.2255050498
 10
97.9584247404
 20
109.2576190899
 10
97.9423688815
 20
109.2893495323
 10
97.925400308
 20
109.3206937742
 10
97.9075251716
 20
109.3516544186
 10
97.8888644941
 20
109.3820218496
 10
97.8694129449
 20
109.4117920421
 10
97.8491758545
 20
109.4409690212
 10
97.828290236
 20
109.4693552476
 10
97.8067516885
 20
109.4969453553
 10
97.7845646129
 20
109.5237447101
 10
97.7618792243
 20
109.54957187
 10
97.7386921414
 20
109.574420238
 10
97.7150067454
 20
109.5982964109
 10
97.6909833959
 20
109.6210387379
 10
97.6666197995
 20
109.6426395249
 10
97.6419182496
 20
109.663106466
 10
97.6170459852
 20
109.6823009918
 10
97.592001848
 20
109.7002144682
 10
97.5667869964
 20
109.7168555295
 10
97.5415721448
 20
109.732111509
 10
97.5163572932
 20
109.7459730081
 10
97.4911424416
 20
109.7584494254
 10
97.4660983044
 20
109.7694562909
 10
97.44122604
 20
109.7789836325
 10
97.4165244901
 20
109.7870414222
 10
97.3921608937
 20
109.7935751055
 10
97.3681375442
 20
109.7985743404
 10
97.3444521482
 20
109.802049469
 10
97.3212650653
 20
109.8039769633
 10
97.2985796767
 20
109.8043463215
 10
97.2763926011
 20
109.8031680454
 10
97.2548540536
 20
109.8004501124
 10
97.2339684351
 20
109.7961820748
 10
97.2137313447
 20
109.7903743804
 10
97.1942797955
 20
109.7830663494
 10
97.175619118
 20
109.774247801
 10
97.1665576734
 20
109.769261073
  0
LWPOLYLINE
  5
292
100
AcDbEntity
  8
ASSI
100
AcDbPolyline
 62
7
  6
CONTINUOUS
 90
58
 70
0
 10
96.480911973
 20
17.0627942754
 10
96.4816985954
 20
17.0194780897
 10
96.4840218238
 20
16.9754988285
 10
96.4878816582
 20
16.9308564916
 10
96.4932902474
 20
16.8854705292
 10
96.5002354426
 20
16.8394214912
 10
96.5086807978
 20
16.7929510277
 10
96.518634199
 20
16.7460569236
 10
96.5300877602
 20
16.698741394
 10
96.5429813768
 20
16.6512527353
 10
96.557322619
 20
16.6035900374
 10
96.5731039167
 20
16.5557542104
 10
96.5902424547
 20
16.507996281
 10
96.6087453679
 20
16.4603166586
 10
96.6286055215
 20
16.4127149338
 10
96.649718696
 20
16.3654409047
 10
96.6720914782
 20
16.3184962939
 10
96.6957172813
 20
16.2718793789
 10
96.7204721249
 20
16.2258347898
 10
96.746361944
 20
16.1803655353
 10
96.7733808035
 20
16.1354686066
 10
96.8013869175
 20
16.0913796082
 10
96.8303854756
 20
16.0481027872
 10
96.860371288
 20
16.0056338963
 10
96.8911869992
 20
15.9641957985
 10
96.9228369717
 20
15.9237939122
 10
96.9553168428
 20
15.884422819
 10
96.9884561691
 20
15.8462891252
 10
97.022258417
 20
15.8093993356
 10
97.0567201199
 20
15.7737469456
 10
97.0916604342
 20
15.739519047
 10
97.1270818759
 20
15.7067231282
 10
97.162981929
 20
15.6753517009
 10
97.1991722017
 20
15.6455693919
 10
97.2356542199
 20
15.617384555
 10
97.2724264578
 20
15.5907888366
 10
97.3092959468
 20
15.565921802
 10
97.3462631982
 20
15.5427925388
 10
97.3833277008
 20
15.5213919596
 10
97.4202949522
 20
15.5018323674
 10
97.4571644412
 20
15.4841234402
 10
97.4939366791
 20
15.4682555001
 10
97.5304186973
 20
15.4543118169
 10
97.5666089701
 20
15.442302506
 10
97.6025090231
 20
15.4322174519
 10
97.6379304648
 20
15.4241095777
 10
97.6728707791
 20
15.4179892772
 10
97.707332482
 20
15.4138461565
 10
97.7411347299
 20
15.4117019574
 10
97.7742740562
 20
15.4115671879
 10
97.8067539273
 20
15.4134313401
 10
97.8384038998
 20
15.4172846314
 10
97.869219611
 20
15.4231375185
 10
97.8992054234
 20
15.4309795447
 10
97.9282039816
 20
15.4407695577
 10
97.9562100955
 20
15.4525177978
 10
97.983228955
 20
15.4662140247
 10
97.9898236
 20
15.4699402662
  0
LWPOLYLINE
  5
293
100
AcDbEntity
  8
ASSI
100
AcDbPolyline
 62
7
  6
CONTINUOUS
 90
19
 70
0
 10
97.0112420589
 20
17.3690002204
 10
97.0120286813
 20
17.3256840347
 10
97.0143519097
 20
17.2817047734
 10
97.0182117441
 20
17.2370624366
 10
97.0236203333
 20
17.1916764742
 10
97.0305655285
 20
17.1456274362
 10
97.0390108837
 20
17.0991569727
 10
97.0489642849
 20
17.0522628685
 10
97.0604178461
 20
17.004947339
 10
97.0733114627
 20
16.9574586803
 10
97.0876527049
 20
16.9097959824
 10
97.1034340026
 20
16.8619601554
 10
97.1205725406
 20
16.814202226
 10
97.1390754538
 20
16.7665226036
 10
97.1589356074
 20
16.7189208788
 10
97.1800487819
 20
16.6716468497
 10
97.2024215641
 20
16.6247022389
 10
97.2260473672
 20
16.5780853239
 10
97.2508022107
 20
16.5320407348
  0
LWPOLYLINE
  5
294
100
AcDbEntity
  8
ASSI
100
AcDbPolyline
 62
7
  6
CONTINUOUS
 90
58
 70
0
 10
96.480911973
 20
103.6086436154
 10
96.4816985954
 20
103.5653274297
 10
96.4840218238
 20
103.5213481685
 10
96.4878816582
 20
103.4767058317
 10
96.4932902474
 20
103.4313198692
 10
96.5002354426
 20
103.3852708312
 10
96.5086807978
 20
103.3388003678
 10
96.518634199
 20
103.2919062636
 10
96.5300877602
 20
103.244590734
 10
96.5429813768
 20
103.1971020753
 10
96.557322619
 20
103.1494393774
 10
96.5731039167
 20
103.1016035504
 10
96.5902424547
 20
103.053845621
 10
96.6087453679
 20
103.0061659986
 10
96.6286055215
 20
102.9585642738
 10
96.649718696
 20
102.9112902447
 10
96.6720914782
 20
102.864345634
 10
96.6957172813
 20
102.8177287189
 10
96.7204721249
 20
102.7716841298
 10
96.746361944
 20
102.7262148753
 10
96.7733808035
 20
102.6813179467
 10
96.8013869175
 20
102.6372289483
 10
96.8303854756
 20
102.5939521272
 10
96.860371288
 20
102.5514832364
 10
96.8911869992
 20
102.5100451385
 10
96.9228369717
 20
102.4696432523
 10
96.9553168428
 20
102.430272159
 10
96.9884561691
 20
102.3921384652
 10
97.022258417
 20
102.3552486757
 10
97.0567201199
 20
102.3195962856
 10
97.0916604342
 20
102.285368387
 10
97.1270818759
 20
102.2525724682
 10
97.162981929
 20
102.2212010409
 10
97.1991722017
 20
102.1914187319
 10
97.2356542199
 20
102.1632338951
 10
97.2724264578
 20
102.1366381766
 10
97.3092959468
 20
102.111771142
 10
97.3462631982
 20
102.0886418789
 10
97.3833277008
 20
102.0672412996
 10
97.4202949522
 20
102.0476817075
 10
97.4571644412
 20
102.0299727803
 10
97.4939366791
 20
102.0141048402
 10
97.5304186973
 20
102.0001611569
 10
97.5666089701
 20
101.988151846
 10
97.6025090231
 20
101.9780667919
 10
97.6379304648
 20
101.9699589178
 10
97.6728707791
 20
101.9638386172
 10
97.707332482
 20
101.9596954965
 10
97.7411347299
 20
101.9575512974
 10
97.7742740562
 20
101.957416528
 10
97.8067539273
 20
101.9592806801
 10
97.8384038998
 20
101.9631339715
 10
97.869219611
 20
101.9689868585
 10
97.8992054234
 20
101.9768288848
 10
97.9282039816
 20
101.9866188978
 10
97.9562100955
 20
101.9983671379
 10
97.983228955
 20
102.0120633647
 10
97.9898236
 20
102.0157896062
  0
LWPOLYLINE
  5
295
100
AcDbEntity
  8
ASSI
100
AcDbPolyline
 62
7
  6
CONTINUOUS
 90
58
 70
0
 10
98.248678926
 20
16.0421077921
 10
98.2478923036
 20
16.0854239778
 10
98.2455690752
 20
16.129403239
 10
98.2417092408
 20
16.1740455758
 10
98.2363006516
 20
16.2194315383
 10
98.2293554564
 20
16.2654805763
 10
98.2209101012
 20
16.3119510397
 10
98.2109567
 20
16.3588451439
 10
98.1995031388
 20
16.4061606735
 10
98.1866095222
 20
16.4536493322
 10
98.17226828
 20
16.5013120301
 10
98.1564869823
 20
16.5491478571
 10
98.1393484443
 20
16.5969057865
 10
98.1208455311
 20
16.6445854089
 10
98.1009853775
 20
16.6921871337
 10
98.079872203
 20
16.7394611628
 10
98.0574994208
 20
16.7864057735
 10
98.0338736177
 20
16.8330226886
 10
98.0091187742
 20
16.8790672777
 10
97.983228955
 20
16.9245365322
 10
97.9562100955
 20
16.9694334608
 10
97.9282039816
 20
17.0135224592
 10
97.8992054234
 20
17.0567992803
 10
97.869219611
 20
17.0992681711
 10
97.8384038998
 20
17.140706269
 10
97.8067539273
 20
17.1811081552
 10
97.7742740562
 20
17.2204792485
 10
97.7411347299
 20
17.2586129423
 10
97.707332482
 20
17.2955027318
 10
97.6728707791
 20
17.3311551219
 10
97.6379304648
 20
17.3653830205
 10
97.6025090231
 20
17.3981789393
 10
97.5666089701
 20
17.4295503666
 10
97.5304186973
 20
17.4593326756
 10
97.4939366791
 20
17.4875175124
 10
97.4571644412
 20
17.5141132309
 10
97.4202949522
 20
17.5389802655
 10
97.3833277008
 20
17.5621095286
 10
97.3462631982
 20
17.5835101079
 10
97.3092959468
 20
17.6030697
 10
97.2724264578
 20
17.6207786272
 10
97.2356542199
 20
17.6366465673
 10
97.1991722017
 20
17.6505902506
 10
97.162981929
 20
17.6625995615
 10
97.1270818759
 20
17.6726846156
 10
97.0916604342
 20
17.6807924898
 10
97.0567201199
 20
17.6869127903
 10
97.022258417
 20
17.691055911
 10
96.9884561691
 20
17.6932001101
 10
96.9553168428
 20
17.6933348795
 10
96.9228369717
 20
17.6914707274
 10
96.8911869992
 20
17.6876174361
 10
96.860371288
 20
17.681764549
 10
96.8303854756
 20
17.6739225227
 10
96.8013869175
 20
17.6641325097
 10
96.7733808035
 20
17.6523842696
 10
96.746361944
 20
17.6386880428
 10
96.739767299
 20
17.6349618013
  0
LWPOLYLINE
  5
296
100
AcDbEntity
  8
ASSI
100
AcDbPolyline
 62
7
  6
CONTINUOUS
 90
19
 70
0
 10
97.0112420589
 20
103.9148495604
 10
97.0120286813
 20
103.8715333747
 10
97.0143519097
 20
103.8275541135
 10
97.0182117441
 20
103.7829117767
 10
97.0236203333
 20
103.7375258142
 10
97.0305655285
 20
103.6914767762
 10
97.0390108837
 20
103.6450063128
 10
97.0489642849
 20
103.5981122086
 10
97.0604178461
 20
103.550796679
 10
97.0733114627
 20
103.5033080203
 10
97.0876527049
 20
103.4556453224
 10
97.1034340026
 20
103.4078094954
 10
97.1205725406
 20
103.360051566
 10
97.1390754538
 20
103.3123719436
 10
97.1589356074
 20
103.2647702188
 10
97.1800487819
 20
103.2174961897
 10
97.2024215641
 20
103.170551579
 10
97.2260473672
 20
103.1239346639
 10
97.2508022107
 20
103.0778900748
  0
LWPOLYLINE
  5
297
100
AcDbEntity
  8
ASSI
100
AcDbPolyline
 62
7
  6
CONTINUOUS
 90
58
 70
0
 10
98.248678926
 20
102.5879571321
 10
98.2478923036
 20
102.6312733178
 10
98.2455690752
 20
102.6752525791
 10
98.2417092408
 20
102.7198949159
 10
98.2363006516
 20
102.7652808783
 10
98.2293554564
 20
102.8113299164
 10
98.2209101012
 20
102.8578003798
 10
98.2109567
 20
102.904694484
 10
98.1995031388
 20
102.9520100135
 10
98.1866095222
 20
102.9994986722
 10
98.17226828
 20
103.0471613701
 10
98.1564869823
 20
103.0949971971
 10
98.1393484443
 20
103.1427551265
 10
98.1208455311
 20
103.1904347489
 10
98.1009853775
 20
103.2380364737
 10
98.079872203
 20
103.2853105028
 10
98.0574994208
 20
103.3322551136
 10
98.0338736177
 20
103.3788720286
 10
98.0091187742
 20
103.4249166177
 10
97.983228955
 20
103.4703858722
 10
97.9562100955
 20
103.5152828009
 10
97.9282039816
 20
103.5593717993
 10
97.8992054234
 20
103.6026486203
 10
97.869219611
 20
103.6451175112
 10
97.8384038998
 20
103.6865556091
 10
97.8067539273
 20
103.7269574953
 10
97.7742740562
 20
103.7663285885
 10
97.7411347299
 20
103.8044622824
 10
97.707332482
 20
103.8413520719
 10
97.6728707791
 20
103.8770044619
 10
97.6379304648
 20
103.9112323605
 10
97.6025090231
 20
103.9440282793
 10
97.5666089701
 20
103.9753997066
 10
97.5304186973
 20
104.0051820156
 10
97.4939366791
 20
104.0333668525
 10
97.4571644412
 20
104.0599625709
 10
97.4202949522
 20
104.0848296055
 10
97.3833277008
 20
104.1079588687
 10
97.3462631982
 20
104.1293594479
 10
97.3092959468
 20
104.1489190401
 10
97.2724264578
 20
104.1666279673
 10
97.2356542199
 20
104.1824959074
 10
97.1991722017
 20
104.1964395907
 10
97.162981929
 20
104.2084489015
 10
97.1270818759
 20
104.2185339556
 10
97.0916604342
 20
104.2266418298
 10
97.0567201199
 20
104.2327621304
 10
97.022258417
 20
104.236905251
 10
96.9884561691
 20
104.2390494501
 10
96.9553168428
 20
104.2391842196
 10
96.9228369717
 20
104.2373200674
 10
96.8911869992
 20
104.2334667761
 10
96.860371288
 20
104.227613889
 10
96.8303854756
 20
104.2197718628
 10
96.8013869175
 20
104.2099818498
 10
96.7733808035
 20
104.1982336097
 10
96.746361944
 20
104.1845373828
 10
96.739767299
 20
104.1808111413
  0
LINE
  5
298
100
AcDbEntity
  8
0
100
AcDbLine
 62
250
  6
CONTINUOUS
 10
97.2233740933
 20
104.1871894579
 11
97.2233740933
 21
103.1292093962
  0
LINE
  5
299
100
AcDbEntity
  8
0
100
AcDbLine
 62
250
  6
CONTINUOUS
 10
97.2233740933
 20
17.6413401179
 11
97.2233740933
 21
16.5833600561
  0
LINE
  5
29A
100
AcDbEntity
  8
0
100
AcDbLine
 62
7
  6
CONTINUOUS
 10
97.2940847714
 20
16.5117301027
 11
97.2940847714
 21
16.5933574029
  0
LINE
  5
29B
100
AcDbEntity
  8
0
100
AcDbLine
 62
7
  6
CONTINUOUS
 10
97.2940847714
 20
103.0575794428
 11
97.2940847714
 21
103.139206743
  0
LINE
  5
29C
100
AcDbEntity
  8
RACCORDO
100
AcDbLine
 62
7
  6
CONTINUOUS
 10
97.4415721448
 20
103.2243641039
 11
97.4415721448
 21
103.2005150054
  0
LINE
  5
29D
100
AcDbEntity
  8
RACCORDO
100
AcDbLine
 62
7
  6
CONTINUOUS
 10
97.4415721448
 20
16.6785147639
 11
97.4415721448
 21
16.6546656653
  0
LINE
  5
29E
100
AcDbEntity
  8
RACCORDO
100
AcDbLine
 62
250
  6
CONTINUOUS
 10
97.4708614667
 20
103.2412753913
 11
97.4708614667
 21
103.159687546
  0
LINE
  5
29F
100
AcDbEntity
  8
RACCORDO
100
AcDbLine
 62
250
  6
CONTINUOUS
 10
97.4708614667
 20
16.6954260513
 11
97.4708614667
 21
16.613838206
  0
LINE
  5
2A0
100
AcDbEntity
  8
0
100
AcDbLine
 62
7
  6
CONTINUOUS
 10
97.5415721448
 20
153.2091537482
 11
97.5415721448
 21
182.3979661435
  0
LINE
  5
2A1
100
AcDbEntity
  8
0
100
AcDbLine
 62
250
  6
CONTINUOUS
 10
97.647638162
 20
103.9017225985
 11
97.647638162
 21
103.3433440396
  0
LINE
  5
2A2
100
AcDbEntity
  8
0
100
AcDbLine
 62
250
  6
CONTINUOUS
 10
97.647638162
 20
17.3558732584
 11
97.647638162
 21
16.7974946996
  0
LINE
  5
2A3
100
AcDbEntity
  8
0
100
AcDbLine
 62
7
  6
CONTINUOUS
 10
97.7183488401
 20
16.3076835524
 11
97.7183488401
 21
16.4301540939
  0
LINE
  5
2A4
100
AcDbEntity
  8
0
100
AcDbLine
 62
7
  6
CONTINUOUS
 10
97.7183488401
 20
102.8535328924
 11
97.7183488401
 21
102.976003434
  0
LINE
  5
2A5
100
AcDbEntity
  8
0
100
AcDbLine
 62
7
  6
CONTINUOUS
 10
97.7355061276
 20
103.8106050086
 11
97.7355061276
 21
103.4658264176
  0
LINE
  5
2A6
100
AcDbEntity
  8
0
100
AcDbLine
 62
7
  6
CONTINUOUS
 10
97.7355061276
 20
17.2647556686
 11
97.7355061276
 21
16.9199770776
  0
LINE
  5
2A7
100
AcDbEntity
  8
0
100
AcDbLine
 62
7
  6
CONTINUOUS
 10
98.0719022307
 20
153.5153596932
 11
98.0719022307
 21
182.7041720885
  0
LWPOLYLINE
  5
2A8
100
AcDbEntity
  8
0
100
AcDbPolyline
 62
7
  6
CONTINUOUS
 90
10
 70
0
 10
99.3093390978
 20
187.0925715978
 10
99.3102108952
 20
187.1415147256
 10
99.3127886975
 20
187.1892336432
 10
99.3170725046
 20
187.2357283506
 10
99.3230747857
 20
187.2810702137
 10
99.3307830715
 20
187.3251878666
 10
99.3401599547
 20
187.3678672113
 10
99.3512135459
 20
187.4091012564
 10
99.3639357344
 20
187.4488969932
 10
99.3699157915
 20
187.4648244116
  0
LWPOLYLINE
  5
2A9
100
AcDbEntity
  8
0
100
AcDbPolyline
 62
7
  6
CONTINUOUS
 90
6
 70
0
 10
97.7349895897
 20
103.4658264176
 10
97.733911177
 20
103.450437619
 10
97.7252838755
 20
103.4209947558
 10
97.7080292725
 20
103.3937764495
 10
97.682147368
 20
103.3678928775
 10
97.647638162
 20
103.3433440396
  0
LINE
  5
2AA
100
AcDbEntity
  8
0
100
AcDbLine
 62
7
  6
CONTINUOUS
 10
100.7235526601
 20
81.5649719702
 11
101.0771060507
 21
81.3608346736
  0
LWPOLYLINE
  5
2AB
100
AcDbEntity
  8
RACCORDO
100
AcDbPolyline
 62
7
  6
CONTINUOUS
 90
7
 70
0
 10
101.4215604156
 20
18.910051372
 10
101.4202273597
 20
18.9212860843
 10
101.4163569549
 20
18.9325207965
 10
101.4101423454
 20
18.9431948647
 10
101.4016479126
 20
18.9531214075
 10
101.390809275
 20
18.9624873063
 10
101.3776264327
 20
18.971292561
  0
LWPOLYLINE
  5
2AC
100
AcDbEntity
  8
CURVE
100
AcDbPolyline
 62
250
  6
CONTINUOUS
 90
17
 70
0
 10
96.3041352777
 20
132.2871719515
 10
96.2873018542
 20
132.4951245774
 10
96.2374427636
 20
132.7145951679
 10
96.1564571231
 20
132.9372241564
 10
96.0452518012
 20
133.158312613
 10
95.9119523038
 20
133.361706135
 10
95.759924087
 20
133.5436097993
 10
95.5949578584
 20
133.6970949519
 10
95.4202518012
 20
133.8181030392
 10
95.2485712676
 20
133.8977922906
 10
95.0834299922
 20
133.9355723293
 10
94.9311181548
 20
133.9300041253
 10
94.7952518012
 20
133.8800469468
 10
94.6857583596
 20
133.789351045
 10
94.604241545
 20
133.6608764237
 10
94.5538063075
 20
133.4995166414
 10
94.5363683248
 20
133.3078583456
  0
LWPOLYLINE
  5
2AD
100
AcDbEntity
  8
RACCORDO
100
AcDbPolyline
 62
250
  6
CONTINUOUS
 90
7
 70
0
 10
100.2285779133
 20
104.6700115748
 10
100.2275036476
 20
104.6848097763
 10
100.2243134995
 20
104.700398843
 10
100.2191044123
 20
104.7163051025
 10
100.2120346777
 20
104.7320452389
 10
100.2033191127
 20
104.7471410096
 10
100.1932225743
 20
104.7611336971
  0
LWPOLYLINE
  5
2AE
100
AcDbEntity
  8
RACCORDO
100
AcDbPolyline
 62
7
  6
CONTINUOUS
 90
7
 70
0
 10
101.1831720679
 20
105.6294174142
 10
101.182138406
 20
105.645235867
 10
101.1794471411
 20
105.6593044467
 10
101.1750982731
 20
105.6716231535
 10
101.1689621592
 20
105.6823411658
 10
101.1611684422
 20
105.691309305
 10
101.1521096747
 20
105.6980779434
  0
LWPOLYLINE
  5
2AF
100
AcDbEntity
  8
0
100
AcDbPolyline
 62
7
  6
CONTINUOUS
 90
40
 70
0
 10
99.8396691837
 20
17.1647248315
 10
99.8405409811
 20
17.1147749737
 10
99.8431187834
 20
17.0640792747
 10
99.8474025905
 20
17.0126377342
 10
99.8534048715
 20
16.9603645874
 10
99.8611131574
 20
16.9073455993
 10
99.8704900406
 20
16.853838065
 10
99.8815436318
 20
16.7998396098
 10
99.8942658203
 20
16.7453526085
 10
99.9085948669
 20
16.6906414804
 10
99.9245385819
 20
16.635705136
 10
99.942089155
 20
16.5805446648
 10
99.9611614152
 20
16.5254277543
 10
99.9817627589
 20
16.4703546162
 10
100.0038857896
 20
16.4153250389
 10
100.0274231469
 20
16.3606060747
 10
100.0523817052
 20
16.3061992334
 10
100.0787545901
 20
16.2521030052
 10
100.1064138167
 20
16.198579913
 10
100.1353656377
 20
16.1456327426
 10
100.1656038006
 20
16.0932587083
 10
100.1969815628
 20
16.0417119753
 10
100.2295044638
 20
15.9909965649
 10
100.2631669642
 20
15.9411084558
 10
100.2978057036
 20
15.8922897495
 10
100.3334254273
 20
15.8445456439
 10
100.3700213902
 20
15.7978709411
 10
100.4074159959
 20
15.7524921481
 10
100.4456131267
 20
15.7084155639
 10
100.4846089004
 20
15.6656348896
 10
100.524214075
 20
15.6243577348
 10
100.5644316126
 20
15.584591408
 10
100.6052585511
 20
15.5463286007
 10
100.6464967618
 20
15.5097549981
 10
100.688148244
 20
15.4748788111
 10
100.7302109985
 20
15.4416918287
 10
100.7724808995
 20
15.4103551038
 10
100.814889905
 20
15.3809223206
 10
100.857506057
 20
15.3533397947
 10
100.9003293554
 20
15.3276075263
  0
LINE
  5
2B0
100
AcDbEntity
  8
0
100
AcDbLine
 62
7
  6
CONTINUOUS
 10
99.3093390978
 20
16.8585188865
 11
99.3093390978
 21
148.1061158809
  0
LINE
  5
2B1
100
AcDbEntity
  8
0
100
AcDbLine
 62
7
  6
CONTINUOUS
 10
99.3093390978
 20
185.4596310442
 11
99.3093390978
 21
187.0925715978
  0
LINE
  5
2B2
100
AcDbEntity
  8
0
100
AcDbLine
 62
7
  6
CONTINUOUS
 10
99.8396691837
 20
17.1647248315
 11
99.8396691837
 21
148.4123218259
  0
LINE
  5
2B3
100
AcDbEntity
  8
0
100
AcDbLine
 62
7
  6
CONTINUOUS
 10
99.8396691837
 20
185.7658369892
 11
99.8396691837
 21
187.1935946904
  0
LINE
  5
2B4
100
AcDbEntity
  8
0
100
AcDbLine
 62
7
  6
CONTINUOUS
 10
99.9103798618
 20
19.0019131555
 11
99.9103798618
 21
19.124383697
  0
LINE
  5
2B5
100
AcDbEntity
  8
0
100
AcDbLine
 62
7
  6
CONTINUOUS
 10
100.1932225743
 20
142.4929320466
 11
100.1932225743
 21
62.4788449209
  0
LINE
  5
2B6
100
AcDbEntity
  8
0
100
AcDbLine
 62
7
  6
CONTINUOUS
 10
100.1932225743
 20
18.1853324049
 11
100.1932225743
 21
16.1441567129
  0
LINE
  5
2B7
100
AcDbEntity
  8
0
100
AcDbLine
 62
7
  6
CONTINUOUS
 10
100.1932225743
 20
186.7864445626
 11
100.1932225743
 21
186.9894573938
  0
LINE
  5
2B8
100
AcDbEntity
  8
RACCORDO
100
AcDbLine
 62
250
  6
CONTINUOUS
 10
100.2285779133
 20
17.2204867465
 11
100.2285779133
 21
18.1241622348
  0
LINE
  5
2B9
100
AcDbEntity
  8
RACCORDO
100
AcDbLine
 62
250
  6
CONTINUOUS
 10
100.2285779133
 20
101.6490715507
 11
100.2285779133
 21
102.0463207187
  0
LINE
  5
2BA
100
AcDbEntity
  8
RACCORDO
100
AcDbLine
 62
250
  6
CONTINUOUS
 10
100.2285779133
 20
103.7663360865
 11
100.2285779133
 21
104.6700115748
  0
LINE
  5
2BB
100
AcDbEntity
  8
SMUSSO
100
AcDbLine
 62
7
  6
CONTINUOUS
 10
100.3523216
 20
17.277059527
 11
100.3523216
 21
17.7669416931
  0
LINE
  5
2BC
100
AcDbEntity
  8
SMUSSO
100
AcDbLine
 62
7
  6
CONTINUOUS
 10
100.3523216
 20
101.7000861474
 11
100.3523216
 21
102.0713794391
  0
LINE
  5
2BD
100
AcDbEntity
  8
SMUSSO
100
AcDbLine
 62
7
  6
CONTINUOUS
 10
100.3523216
 20
103.8229088671
 11
100.3523216
 21
104.3127910331
  0
LINE
  5
2BE
100
AcDbEntity
  8
RACCORDO
100
AcDbLine
 62
250
  6
CONTINUOUS
 10
100.3876769391
 20
16.0318811998
 11
100.3876769391
 21
17.1749908787
  0
LINE
  5
2BF
100
AcDbEntity
  8
RACCORDO
100
AcDbLine
 62
250
  6
CONTINUOUS
 10
100.3876769391
 20
102.0878996652
 11
100.3876769391
 21
103.7208402187
  0
LINE
  5
2C0
100
AcDbEntity
  8
SMUSSO
100
AcDbLine
 62
7
  6
CONTINUOUS
 10
100.4583876172
 20
17.215818338
 11
100.4583876172
 21
17.7057005041
  0
LINE
  5
2C1
100
AcDbEntity
  8
SMUSSO
100
AcDbLine
 62
7
  6
CONTINUOUS
 10
100.4583876172
 20
101.6388449584
 11
100.4583876172
 21
102.1287271245
  0
LINE
  5
2C2
100
AcDbEntity
  8
SMUSSO
100
AcDbLine
 62
7
  6
CONTINUOUS
 10
100.4583876172
 20
103.7616676781
 11
100.4583876172
 21
104.2515498441
  0
LINE
  5
2C3
100
AcDbEntity
  8
0
100
AcDbLine
 62
7
  6
CONTINUOUS
 10
100.4760652867
 20
105.3436133624
 11
100.4760652867
 21
105.2211428209
  0
LINE
  5
2C4
100
AcDbEntity
  8
0
100
AcDbLine
 62
7
  6
CONTINUOUS
 10
100.4760652867
 20
101.38373252
 11
100.4760652867
 21
101.2612619785
  0
LINE
  5
2C5
100
AcDbEntity
  8
0
100
AcDbLine
 62
7
  6
CONTINUOUS
 10
100.4760652867
 20
18.7977640224
 11
100.4760652867
 21
18.6752934809
  0
LINE
  5
2C6
100
AcDbEntity
  8
0
100
AcDbLine
 62
7
  6
CONTINUOUS
 10
100.7235526601
 20
146.4743195203
 11
100.7235526601
 21
138.7178913457
  0
LINE
  5
2C7
100
AcDbEntity
  8
0
100
AcDbLine
 62
7
  6
CONTINUOUS
 10
100.7235526601
 20
89.3214001448
 11
100.7235526601
 21
81.5649719702
  0
LINE
  5
2C8
100
AcDbEntity
  8
0
100
AcDbLine
 62
7
  6
CONTINUOUS
 10
101.0771060507
 20
146.678456817
 11
101.0771060507
 21
138.5137540491
  0
LINE
  5
2C9
100
AcDbEntity
  8
0
100
AcDbLine
 62
7
  6
CONTINUOUS
 10
101.0771060507
 20
89.5255374415
 11
101.0771060507
 21
81.3608346736
  0
LINE
  5
2CA
100
AcDbEntity
  8
RACCORDO
100
AcDbLine
 62
250
  6
CONTINUOUS
 10
101.3776264327
 20
105.3946595231
 11
101.3776264327
 21
101.5572492221
  0
LINE
  5
2CB
100
AcDbEntity
  8
RACCORDO
100
AcDbLine
 62
250
  6
CONTINUOUS
 10
101.3776264327
 20
18.848810183
 11
101.3776264327
 21
15.4602967691
  0
LINE
  5
2CC
100
AcDbEntity
  8
RACCORDO
100
AcDbLine
 62
7
  6
CONTINUOUS
 10
101.4215604156
 20
105.4559007121
 11
101.4215604156
 21
101.6184904111
  0
LINE
  5
2CD
100
AcDbEntity
  8
RACCORDO
100
AcDbLine
 62
7
  6
CONTINUOUS
 10
101.4215604156
 20
18.910051372
 11
101.4215604156
 21
15.4349298381
  0
LWPOLYLINE
  5
2CE
100
AcDbEntity
  8
0
100
AcDbPolyline
 62
7
  6
CONTINUOUS
 90
19
 70
0
 10
100.1932225743
 20
62.4788449209
 10
100.1925389183
 20
62.4435134637
 10
100.1905224528
 20
62.4091541602
 10
100.1871731777
 20
62.3757670104
 10
100.1824796579
 20
62.3432922369
 10
100.1764533285
 20
62.3117896171
 10
100.169128495
 20
62.281438483
 10
100.1604977515
 20
62.2522454018
 10
100.1505685039
 20
62.2242038062
 10
100.1393972755
 20
62.1974733259
 10
100.1269769828
 20
62.1720614387
 10
100.1133147092
 20
62.1479606668
 10
100.0984882288
 20
62.1253082063
 10
100.0824909014
 20
62.1041123176
 10
100.0653293672
 20
62.0843647402
 10
100.0471013199
 20
62.0661778894
 10
100.0278006766
 20
62.0495606667
 10
100.0074335203
 20
62.0345041704
 10
99.9861399532
 20
62.0211080598
  0
LWPOLYLINE
  5
2CF
100
AcDbEntity
  8
0
100
AcDbPolyline
 62
7
  6
CONTINUOUS
 90
6
 70
0
 10
97.7349895897
 20
16.9199770776
 10
97.733911177
 20
16.9045882789
 10
97.7252838755
 20
16.8751454157
 10
97.7080292725
 20
16.8479271095
 10
97.682147368
 20
16.8220435375
 10
97.647638162
 20
16.7974946996
  0
LWPOLYLINE
  5
2D0
100
AcDbEntity
  8
RACCORDO
100
AcDbPolyline
 62
7
  6
CONTINUOUS
 90
7
 70
0
 10
101.4215604156
 20
101.6184904111
 10
101.4202273597
 20
101.6072556989
 10
101.4163569549
 20
101.5960209867
 10
101.4101423454
 20
101.5853469185
 10
101.4016479126
 20
101.5754203757
 10
101.390809275
 20
101.5660544769
 10
101.3776264327
 20
101.5572492221
  0
LINE
  5
2D1
100
AcDbEntity
  8
SMUSSO
100
AcDbLine
 62
7
  6
CONTINUOUS
 10
100.3523216
 20
104.3127910331
 11
100.8826516859
 21
105.2313496857
  0
LINE
  5
2D2
100
AcDbEntity
  8
SMUSSO
100
AcDbLine
 62
7
  6
CONTINUOUS
 10
100.9887177031
 20
105.1701084967
 11
100.4583876172
 21
104.2515498441
  0
LWPOLYLINE
  5
2D3
100
AcDbEntity
  8
RACCORDO
100
AcDbPolyline
 62
250
  6
CONTINUOUS
 90
6
 70
0
 10
100.2078696512
 20
101.6032978646
 10
100.2120348162
 20
101.606141711
 10
100.2191045092
 20
101.6137179225
 10
100.2243135511
 20
101.6236088546
 10
100.2275036625
 20
101.6355139737
 10
100.2285779133
 20
101.6490715507
  0
LWPOLYLINE
  5
2D4
100
AcDbEntity
  8
RACCORDO
100
AcDbPolyline
 62
7
  6
CONTINUOUS
 90
7
 70
0
 10
101.3776264327
 20
105.3946595231
 10
101.390809275
 20
105.4034647778
 10
101.4016479126
 20
105.4128306766
 10
101.4101423454
 20
105.4227572194
 10
101.4163569549
 20
105.4334312876
 10
101.4202273597
 20
105.4446659998
 10
101.4215604156
 20
105.4559007121
  0
LWPOLYLINE
  5
2D5
100
AcDbEntity
  8
ASSI
100
AcDbPolyline
 62
7
  6
CONTINUOUS
 90
20
 70
0
 10
96.739767299
 20
104.1808111413
 10
96.7204721249
 20
104.1689650425
 10
96.6957172813
 20
104.1515067262
 10
96.6720914782
 20
104.1321722964
 10
96.649718696
 20
104.1110632138
 10
96.6286055215
 20
104.0881701493
 10
96.6087453679
 20
104.0635024321
 10
96.5902424547
 20
104.0371895101
 10
96.5731039167
 20
104.0092227348
 10
96.557322619
 20
103.9796107547
 10
96.5429813768
 20
103.9485089639
 10
96.5300877602
 20
103.9159095305
 10
96.518634199
 20
103.8818202862
 10
96.5086807978
 20
103.8464201203
 10
96.5002354426
 20
103.8097021413
 10
96.4932902474
 20
103.7716732407
 10
96.4878816582
 20
103.7325329814
 10
96.4840218238
 20
103.6923478847
 10
96.4816985954
 20
103.6510514293
 10
96.480911973
 20
103.6086436154
  0
LWPOLYLINE
  5
2D6
100
AcDbEntity
  8
ASSI
100
AcDbPolyline
 62
7
  6
CONTINUOUS
 90
20
 70
0
 10
97.9898236
 20
102.0157896062
 10
98.0091187742
 20
102.0276357051
 10
98.0338736177
 20
102.0450940214
 10
98.0574994208
 20
102.0644284512
 10
98.079872203
 20
102.0855375338
 10
98.1009853775
 20
102.1084305982
 10
98.1208455311
 20
102.1330983155
 10
98.1393484443
 20
102.1594112374
 10
98.1564869823
 20
102.1873780128
 10
98.17226828
 20
102.2169899928
 10
98.1866095222
 20
102.2480917837
 10
98.1995031388
 20
102.2806912171
 10
98.2109567
 20
102.3147804613
 10
98.2209101012
 20
102.3501806272
 10
98.2293554564
 20
102.3868986062
 10
98.2363006516
 20
102.4249275069
 10
98.2417092408
 20
102.4640677661
 10
98.2455690752
 20
102.5042528629
 10
98.2478923036
 20
102.5455493182
 10
98.248678926
 20
102.5879571321
  0
LWPOLYLINE
  5
2D7
100
AcDbEntity
  8
ASSI
100
AcDbPolyline
 62
7
  6
CONTINUOUS
 90
18
 70
0
 10
97.1665576734
 20
109.769261073
 10
97.1577439816
 20
109.7639289161
 10
97.1407754081
 20
109.7521795575
 10
97.1247195492
 20
109.7389900185
 10
97.1095702531
 20
109.7243700059
 10
97.0954300865
 20
109.7084185028
 10
97.0823058971
 20
109.6911264742
 10
97.0701908372
 20
109.6725029551
 10
97.0591669306
 20
109.6526740341
 10
97.0492415814
 20
109.6316315317
 10
97.0404073855
 20
109.6093836273
 10
97.0327241537
 20
109.5860809481
 10
97.0261996962
 20
109.5617163365
 10
97.0208262029
 20
109.5362969501
 10
97.0166400545
 20
109.5099948879
 10
97.0136533778
 20
109.4828675165
 10
97.0118540459
 20
109.4548574693
 10
97.0112420589
 20
109.4259647464
  0
LWPOLYLINE
  5
2D8
100
AcDbEntity
  8
ASSI
100
AcDbPolyline
 62
7
  6
CONTINUOUS
 90
18
 70
0
 10
97.9165866162
 20
108.4702565298
 10
97.925400308
 20
108.4755886867
 10
97.9423688815
 20
108.4873380453
 10
97.9584247404
 20
108.5005275843
 10
97.9735740365
 20
108.5151475969
 10
97.9877142031
 20
108.5310991
 10
98.0008383925
 20
108.5483911286
 10
98.0129534524
 20
108.5670146477
 10
98.023977359
 20
108.5868435687
 10
98.0339027082
 20
108.6078860711
 10
98.0427369041
 20
108.6301339754
 10
98.0504201359
 20
108.6534366547
 10
98.0569445934
 20
108.6778012662
 10
98.0623180867
 20
108.7032206527
 10
98.0665042351
 20
108.7295227149
 10
98.0694909118
 20
108.7566500863
 10
98.0712902437
 20
108.7846601335
 10
98.0719022307
 20
108.8135528564
  0
LINE
  5
2D9
100
AcDbEntity
  8
ASSI
100
AcDbLine
 62
250
  6
CONTINUOUS
 10
97.5415721448
 20
109.7321706914
 11
97.0112420589
 21
109.4259647464
  0
LINE
  5
2DA
100
AcDbEntity
  8
RACCORDO
100
AcDbLine
 62
7
  6
CONTINUOUS
 10
100.5114206258
 20
106.0172664414
 11
100.1932225743
 21
105.8335428744
  0
LINE
  5
2DB
100
AcDbEntity
  8
ASSI
100
AcDbLine
 62
250
  6
CONTINUOUS
 10
97.0112420589
 20
103.9148495604
 11
96.480911973
 21
103.6086436154
  0
LINE
  5
2DC
100
AcDbEntity
  8
RACCORDO
100
AcDbLine
 62
7
  6
CONTINUOUS
 10
100.4760652867
 20
105.3436133624
 11
101.0771060507
 21
105.6906467667
  0
LINE
  5
2DD
100
AcDbEntity
  8
0
100
AcDbLine
 62
7
  6
CONTINUOUS
 10
101.0771060507
 20
105.5681762252
 11
100.4760652867
 21
105.2211428209
  0
LINE
  5
2DE
100
AcDbEntity
  8
RACCORDO
100
AcDbLine
 62
7
  6
CONTINUOUS
 10
101.0771060507
 20
105.5681762252
 11
101.1831720679
 21
105.6294174142
  0
LINE
  5
2DF
100
AcDbEntity
  8
SMUSSO
100
AcDbLine
 62
7
  6
CONTINUOUS
 10
101.2715604156
 20
105.4559007121
 11
100.8826516859
 21
105.2313496857
  0
LINE
  5
2E0
100
AcDbEntity
  8
0
100
AcDbLine
 62
7
  6
CONTINUOUS
 10
97.647638162
 20
103.3433440396
 11
97.235898749
 21
103.1056108629
  0
LINE
  5
2E1
100
AcDbEntity
  8
RACCORDO
100
AcDbLine
 62
250
  6
CONTINUOUS
 10
100.8649996439
 20
105.2007754522
 11
100.1932225743
 21
104.8128997915
  0
LINE
  5
2E2
100
AcDbEntity
  8
0
100
AcDbLine
 62
7
  6
CONTINUOUS
 10
97.2702145
 20
103.0437970472
 11
97.2940847714
 21
103.0575794428
  0
LINE
  5
2E3
100
AcDbEntity
  8
SMUSSO
100
AcDbLine
 62
7
  6
CONTINUOUS
 10
101.3776264327
 20
105.3946595231
 11
100.9887177031
 21
105.1701084967
  0
LINE
  5
2E4
100
AcDbEntity
  8
RACCORDO
100
AcDbLine
 62
250
  6
CONTINUOUS
 10
100.7235714537
 20
104.9558146413
 11
100.2285779133
 21
104.6700115748
  0
LINE
  5
2E5
100
AcDbEntity
  8
0
100
AcDbLine
 62
7
  6
CONTINUOUS
 10
97.7243855223
 20
102.9794889386
 11
97.7183488401
 21
102.976003434
  0
LINE
  5
2E6
100
AcDbEntity
  8
RACCORDO
100
AcDbLine
 62
7
  6
CONTINUOUS
 10
100.2816109219
 20
103.7820814077
 11
100.3523216
 21
103.8229088671
  0
LINE
  5
2E7
100
AcDbEntity
  8
RACCORDO
100
AcDbLine
 62
7
  6
CONTINUOUS
 10
100.4583876172
 20
103.7616676781
 11
100.3876769391
 21
103.7208402187
  0
LWPOLYLINE
  5
2E8
100
AcDbEntity
  8
RACCORDO
100
AcDbPolyline
 62
7
  6
CONTINUOUS
 90
7
 70
0
 10
100.5114206258
 20
106.0172664414
 10
100.52563713
 20
106.0242813413
 10
100.5391670325
 20
106.0289858325
 10
100.5520103333
 20
106.0313799149
 10
100.5643610567
 20
106.0314259221
 10
100.5760251785
 20
106.0291615205
 10
100.5864242498
 20
106.024697618
  0
LWPOLYLINE
  5
2E9
100
AcDbEntity
  8
ASSI
100
AcDbPolyline
 62
7
  6
CONTINUOUS
 90
28
 70
0
 10
97.2766920299
 20
103.0324208203
 10
97.3037108894
 20
102.9875238917
 10
97.3317170033
 20
102.9434348933
 10
97.3607155615
 20
102.9001580722
 10
97.3907013739
 20
102.8576891814
 10
97.4215170851
 20
102.8162510835
 10
97.4531670576
 20
102.7758491973
 10
97.4856469287
 20
102.736478104
 10
97.518786255
 20
102.6983444102
 10
97.5525885029
 20
102.6614546207
 10
97.5870502058
 20
102.6258022306
 10
97.6219905201
 20
102.591574332
 10
97.6574119618
 20
102.5587784132
 10
97.6933120148
 20
102.5274069859
 10
97.7295022876
 20
102.4976246769
 10
97.7659843058
 20
102.4694398401
 10
97.8027565437
 20
102.4428441216
 10
97.8396260327
 20
102.417977087
 10
97.8765932841
 20
102.3948478239
 10
97.9136577867
 20
102.3734472446
 10
97.9506250381
 20
102.3538876525
 10
97.9874945271
 20
102.3361787253
 10
98.024266765
 20
102.3203107852
 10
98.0607487832
 20
102.3063671019
 10
98.0969390559
 20
102.294357791
 10
98.132839109
 20
102.2842727369
 10
98.1682605507
 20
102.2761648628
 10
98.195804625
 20
102.2713401204
  0
LINE
  5
2EA
100
AcDbEntity
  8
ASSI
100
AcDbLine
 62
7
  6
CONTINUOUS
 10
97.2508022107
 20
103.0778900748
 11
97.2766920299
 21
103.0324208203
  0
LWPOLYLINE
  5
2EB
100
AcDbEntity
  8
RACCORDO
100
AcDbPolyline
 62
7
  6
CONTINUOUS
 90
7
 70
0
 10
101.4215604156
 20
105.4559007121
 10
101.4202273597
 20
105.4671354243
 10
101.4163569549
 20
105.4783701365
 10
101.4101423454
 20
105.4890442047
 10
101.4016479126
 20
105.4989707475
 10
101.390809275
 20
105.5083366463
 10
101.3776264327
 20
105.5171419011
  0
LWPOLYLINE
  5
2EC
100
AcDbEntity
  8
ASSI
100
AcDbPolyline
 62
7
  6
CONTINUOUS
 90
51
 70
0
 10
116.1031251509
 20
3.6919986186
 10
116.103737138
 20
3.6623991884
 10
116.1055364698
 20
3.6323113179
 10
116.1085231465
 20
3.601735007
 10
116.112709295
 20
3.5705988856
 10
116.1180827883
 20
3.5389743238
 10
116.1246072457
 20
3.5070754323
 10
116.1322904775
 20
3.4749003496
 10
116.1411246734
 20
3.4424509372
 10
116.1510500226
 20
3.4099468903
 10
116.1620739293
 20
3.3773878383
 10
116.1741889891
 20
3.3447741517
 10
116.1873131785
 20
3.3123266382
 10
116.2014533451
 20
3.2800464252
 10
116.2166026412
 20
3.2479323851
 10
116.2326585002
 20
3.2162019426
 10
116.2496270737
 20
3.1848577007
 10
116.26750221
 20
3.1538970564
 10
116.2861628876
 20
3.1235296253
 10
116.3056144367
 20
3.0937594329
 10
116.3258515271
 20
3.0645824537
 10
116.3467371457
 20
3.0361962274
 10
116.3682756931
 20
3.0086061197
 10
116.3904627687
 20
2.9818067648
 10
116.4131481573
 20
2.9559796049
 10
116.4363352403
 20
2.931131237
 10
116.4600206362
 20
2.907255064
 10
116.4840439858
 20
2.8845127371
 10
116.5084075821
 20
2.86291195
 10
116.5331091321
 20
2.842445009
 10
116.5579813964
 20
2.8232504831
 10
116.5830255336
 20
2.8053370067
 10
116.6082403852
 20
2.7886959455
 10
116.6334552368
 20
2.773439966
 10
116.6586700884
 20
2.7595784669
 10
116.6838849401
 20
2.7471020495
 10
116.7089290772
 20
2.7360951841
 10
116.7338013416
 20
2.7265678425
 10
116.7585028915
 20
2.7185100528
 10
116.7828664879
 20
2.7119763695
 10
116.8068898374
 20
2.7069771346
 10
116.8305752334
 20
2.703502006
 10
116.8537623164
 20
2.7015745117
 10
116.876447705
 20
2.7012051535
 10
116.8986347806
 20
2.7023834296
 10
116.920173328
 20
2.7051013626
 10
116.9410589465
 20
2.7093694001
 10
116.9612960369
 20
2.7151770946
 10
116.9807475861
 20
2.7224851256
 10
116.9994082637
 20
2.731303674
 10
117.0084697083
 20
2.736290402
  0
LWPOLYLINE
  5
2ED
100
AcDbEntity
  8
ASSI
100
AcDbPolyline
 62
7
  6
CONTINUOUS
 90
33
 70
0
 10
116.6334552368
 20
3.9982045636
 10
116.6340672239
 20
3.9686051334
 10
116.6358665557
 20
3.9385172629
 10
116.6388532324
 20
3.907940952
 10
116.6430393809
 20
3.8768048306
 10
116.6484128742
 20
3.8451802688
 10
116.6549373316
 20
3.8132813773
 10
116.6626205634
 20
3.7811062946
 10
116.6714547593
 20
3.7486568822
 10
116.6813801085
 20
3.7161528353
 10
116.6924040151
 20
3.6835937833
 10
116.704519075
 20
3.6509800967
 10
116.7176432644
 20
3.6185325832
 10
116.731783431
 20
3.5862523702
 10
116.7469327271
 20
3.5541383301
 10
116.762988586
 20
3.5224078876
 10
116.7799571595
 20
3.4910636457
 10
116.7978322959
 20
3.4601030014
 10
116.8164929734
 20
3.4297355703
 10
116.8359445226
 20
3.3999653779
 10
116.856181613
 20
3.3707883987
 10
116.8770672316
 20
3.3424021724
 10
116.898605779
 20
3.3148120647
 10
116.9207928546
 20
3.2880127098
 10
116.9434782432
 20
3.2621855499
 10
116.9666653262
 20
3.237337182
 10
116.9903507221
 20
3.213461009
 10
117.0143740717
 20
3.1907186821
 10
117.038737668
 20
3.169117895
 10
117.063439218
 20
3.148650954
 10
117.0883114823
 20
3.1294564281
 10
117.1133556195
 20
3.1115429517
 10
117.1385704711
 20
3.0949018905
  0
LWPOLYLINE
  5
2EE
100
AcDbEntity
  8
ASSI
100
AcDbPolyline
 62
7
  6
CONTINUOUS
 90
51
 70
0
 10
117.1637853227
 20
3.0795867286
 10
117.1631733357
 20
3.1091861587
 10
117.1613740038
 20
3.1392740293
 10
117.1583873271
 20
3.1698503401
 10
117.1542011787
 20
3.2009864616
 10
117.1488276854
 20
3.2326110234
 10
117.1423032279
 20
3.2645099149
 10
117.1346199962
 20
3.2966849976
 10
117.1257858002
 20
3.32913441
 10
117.1158604511
 20
3.3616384568
 10
117.1048365444
 20
3.3941975089
 10
117.0927214846
 20
3.4268111954
 10
117.0795972952
 20
3.459258709
 10
117.0654571286
 20
3.491538922
 10
117.0503078325
 20
3.523652962
 10
117.0342519735
 20
3.5553834045
 10
117.0172834
 20
3.5867276464
 10
116.9994082637
 20
3.6176882907
 10
116.9807475861
 20
3.6480557218
 10
116.9612960369
 20
3.6778259142
 10
116.9410589465
 20
3.7070028934
 10
116.920173328
 20
3.7353891198
 10
116.8986347806
 20
3.7629792275
 10
116.876447705
 20
3.7897785823
 10
116.8537623164
 20
3.8156057422
 10
116.8305752334
 20
3.8404541101
 10
116.8068898374
 20
3.8643302831
 10
116.7828664879
 20
3.8870726101
 10
116.7585028915
 20
3.9086733971
 10
116.7338013416
 20
3.9291403382
 10
116.7089290772
 20
3.948334864
 10
116.6838849401
 20
3.9662483404
 10
116.6586700884
 20
3.9828894016
 10
116.6334552368
 20
3.9981453812
 10
116.6082403852
 20
4.0120068802
 10
116.5830255336
 20
4.0244832976
 10
116.5579813964
 20
4.0354901631
 10
116.5331091321
 20
4.0450175047
 10
116.5084075821
 20
4.0530752943
 10
116.4840439858
 20
4.0596089777
 10
116.4600206362
 20
4.0646082126
 10
116.4363352403
 20
4.0680833412
 10
116.4131481573
 20
4.0700108355
 10
116.3904627687
 20
4.0703801937
 10
116.3682756931
 20
4.0692019176
 10
116.3467371457
 20
4.0664839846
 10
116.3258515271
 20
4.062215947
 10
116.3056144367
 20
4.0564082526
 10
116.2861628876
 20
4.0491002216
 10
116.26750221
 20
4.0402816732
 10
116.2584407654
 20
4.0352949452
  0
LINE
  5
2EF
100
AcDbEntity
  8
0
100
AcDbLine
 62
250
  6
CONTINUOUS
 10
109.3856107297
 20
23.4940265837
 11
109.3856107297
 21
57.5816014574
  0
LINE
  5
2F0
100
AcDbEntity
  8
0
100
AcDbLine
 62
250
  6
CONTINUOUS
 10
109.3856107297
 20
180.4394770711
 11
109.3856107297
 21
181.6818876805
  0
LINE
  5
2F1
100
AcDbEntity
  8
0
100
AcDbLine
 62
250
  6
CONTINUOUS
 10
109.562387425
 20
180.1542116247
 11
109.562387425
 21
57.6836701058
  0
LINE
  5
2F2
100
AcDbEntity
  8
0
100
AcDbLine
 62
7
  6
CONTINUOUS
 10
109.9159408156
 20
181.3756817355
 11
109.9159408156
 21
180.7665840597
  0
LINE
  5
2F3
100
AcDbEntity
  8
0
100
AcDbLine
 62
7
  6
CONTINUOUS
 10
109.9159408156
 20
57.479572264
 11
109.9159408156
 21
24.0042909155
  0
LINE
  5
2F4
100
AcDbEntity
  8
0
100
AcDbLine
 62
250
  6
CONTINUOUS
 10
110.0927175109
 20
57.5816409124
 11
110.0927175109
 21
57.749541183
  0
LINE
  5
2F5
100
AcDbEntity
  8
0
100
AcDbLine
 62
250
  6
CONTINUOUS
 10
110.0927175109
 20
180.5183268343
 11
110.0927175109
 21
180.6645154114
  0
LINE
  5
2F6
100
AcDbEntity
  8
0
100
AcDbLine
 62
250
  6
CONTINUOUS
 10
110.2694942062
 20
180.1542116247
 11
110.2694942062
 21
57.6836701058
  0
LINE
  5
2F7
100
AcDbEntity
  8
0
100
AcDbLine
 62
7
  6
CONTINUOUS
 10
110.2694942062
 20
57.6836701058
 11
110.2694942062
 21
57.2754349674
  0
LINE
  5
2F8
100
AcDbEntity
  8
0
100
AcDbLine
 62
7
  6
CONTINUOUS
 10
110.2694942062
 20
180.1542116247
 11
110.2694942062
 21
180.5624467631
  0
LWPOLYLINE
  5
2F9
100
AcDbEntity
  8
0
100
AcDbPolyline
 62
7
  6
CONTINUOUS
 90
34
 70
0
 10
109.9159408156
 20
24.0042909155
 10
109.9155328242
 20
23.9845579621
 10
109.9143332696
 20
23.9644993817
 10
109.9123421518
 20
23.9441151745
 10
109.9095513862
 20
23.9233577602
 10
109.9059690574
 20
23.902274719
 10
109.901619419
 20
23.8810087913
 10
109.8964972645
 20
23.8595587362
 10
109.8906078006
 20
23.8379257946
 10
109.8839909011
 20
23.81625643
 10
109.87664163
 20
23.7945503953
 10
109.8685649234
 20
23.7728079376
 10
109.8598154639
 20
23.7511762619
 10
109.8503886861
 20
23.7296561199
 10
109.8402891554
 20
23.7082467599
 10
109.8295852494
 20
23.6870931316
 10
109.8182728671
 20
23.6661969703
 10
109.8063561095
 20
23.6455565407
 10
109.7939156578
 20
23.6253115867
 10
109.7809479584
 20
23.6054647917
 10
109.7674565648
 20
23.5860134723
 10
109.7535328191
 20
23.5670893214
 10
109.7391737875
 20
23.5486959163
 10
109.7243824037
 20
23.5308296797
 10
109.7092588113
 20
23.5136115731
 10
109.693800756
 20
23.4970459945
 10
109.678010492
 20
23.4811285458
 10
109.6619949257
 20
23.4659669945
 10
109.6457525281
 20
23.4515664698
 10
109.6292848281
 20
23.4379218425
 10
109.6127033186
 20
23.4251254919
 10
109.5960451637
 20
23.4132082113
 10
109.5792731991
 20
23.4021392075
 10
109.562387425
 20
23.3919184805
  0
LINE
  5
2FA
100
AcDbEntity
  8
RACCORDO
100
AcDbLine
 62
7
  6
CONTINUOUS
 10
100.4583876172
 20
102.1287271245
 11
100.3876769391
 21
102.0878996652
  0
LINE
  5
2FB
100
AcDbEntity
  8
RACCORDO
100
AcDbLine
 62
250
  6
CONTINUOUS
 10
100.3523216
 20
101.7205196045
 11
100.2285779133
 21
101.6490715507
  0
LINE
  5
2FC
100
AcDbEntity
  8
RACCORDO
100
AcDbLine
 62
7
  6
CONTINUOUS
 10
100.3639113372
 20
101.6933943784
 11
100.2078696512
 21
101.6032978646
  0
LINE
  5
2FD
100
AcDbEntity
  8
0
100
AcDbLine
 62
7
  6
CONTINUOUS
 10
100.6881682765
 20
101.506198128
 11
100.4760652867
 21
101.38373252
  0
LINE
  5
2FE
100
AcDbEntity
  8
RACCORDO
100
AcDbLine
 62
7
  6
CONTINUOUS
 10
100.7942342937
 20
101.4449687755
 11
100.4760652867
 21
101.2612619785
  0
LINE
  5
2FF
100
AcDbEntity
  8
SMUSSO
100
AcDbLine
 62
7
  6
CONTINUOUS
 10
100.9887177031
 20
101.3326981958
 11
101.3776264327
 21
101.5572492221
  0
LWPOLYLINE
  5
300
100
AcDbEntity
  8
RACCORDO
100
AcDbPolyline
 62
7
  6
CONTINUOUS
 90
8
 70
0
 10
100.3876769391
 20
102.0878996652
 10
100.3622599957
 20
102.0752136519
 10
100.3352247166
 20
102.0647834961
 10
100.3065711019
 20
102.0566091977
 10
100.2757597063
 20
102.0506288016
 10
100.243329975
 20
102.046904263
 10
100.2109002438
 20
102.0456214467
 10
100.1932225743
 20
102.0463207187
  0
LWPOLYLINE
  5
301
100
AcDbEntity
  8
RACCORDO
100
AcDbPolyline
 62
7
  6
CONTINUOUS
 90
7
 70
0
 10
100.2816109219
 20
103.7820814077
 10
100.2674385569
 20
103.7754396801
 10
100.2524956323
 20
103.7704583843
 10
100.2367821483
 20
103.7671375204
 10
100.2197843984
 20
103.7654770885
 10
100.2020160891
 20
103.7654770885
 10
100.1932225743
 20
103.7663360865
  0
LINE
  5
302
100
AcDbEntity
  8
0
100
AcDbLine
 62
7
  6
CONTINUOUS
 10
136.7831039553
 20
80.2571146796
 11
135.8314043461
 21
80.8066141064
  0
LINE
  5
303
100
AcDbEntity
  8
0
100
AcDbLine
 62
7
  6
CONTINUOUS
 10
98.2457843806
 20
102.508080016
 11
97.2940847714
 21
103.0575794428
  0
LINE
  5
304
100
AcDbEntity
  8
0
100
AcDbLine
 62
7
  6
CONTINUOUS
 10
97.7183488401
 20
102.8535328924
 11
98.2479332629
 21
102.547757484
  0
LINE
  5
305
100
AcDbEntity
  8
0
100
AcDbLine
 62
7
  6
CONTINUOUS
 10
100.1932225743
 20
101.4245718158
 11
100.4760652867
 21
101.2612619785
  0
LINE
  5
306
100
AcDbEntity
  8
0
100
AcDbLine
 62
7
  6
CONTINUOUS
 10
136.2556684148
 20
80.6025675561
 11
136.7852528375
 21
80.2967921476
  0
LINE
  5
307
100
AcDbEntity
  8
0
100
AcDbLine
 62
7
  6
CONTINUOUS
 10
97.7183488401
 20
102.976003434
 11
98.2457684721
 21
102.6714779485
  0
LINE
  5
308
100
AcDbEntity
  8
0
100
AcDbLine
 62
7
  6
CONTINUOUS
 10
100.1932225743
 20
101.5470423573
 11
100.4760652867
 21
101.38373252
  0
LINE
  5
309
100
AcDbEntity
  8
0
100
AcDbLine
 62
7
  6
CONTINUOUS
 10
136.2556684148
 20
80.7250380976
 11
136.7830880468
 21
80.4205126122
  0
LINE
  5
30A
100
AcDbEntity
  8
RACCORDO
100
AcDbLine
 62
7
  6
CONTINUOUS
 10
97.4915697288
 20
103.1139138599
 11
98.2452677134
 21
102.6787380896
  0
LINE
  5
30B
100
AcDbEntity
  8
RACCORDO
100
AcDbLine
 62
7
  6
CONTINUOUS
 10
136.0288893035
 20
80.8629485235
 11
136.7825872881
 21
80.4277727533
  0
LINE
  5
30C
100
AcDbEntity
  8
RACCORDO
100
AcDbLine
 62
250
  6
CONTINUOUS
 10
97.4708614667
 20
103.159687546
 11
98.2421902184
 21
102.7143319918
  0
LINE
  5
30D
100
AcDbEntity
  8
RACCORDO
100
AcDbLine
 62
250
  6
CONTINUOUS
 10
136.0081810413
 20
80.9087222097
 11
136.7795097931
 21
80.4633666554
  0
LWPOLYLINE
  5
30E
100
AcDbEntity
  8
RACCORDO
100
AcDbPolyline
 62
250
  6
CONTINUOUS
 90
6
 70
0
 10
97.4708614667
 20
103.159687546
 10
97.4595275228
 20
103.1675043949
 10
97.4507535018
 20
103.1763475351
 10
97.4448103409
 20
103.1859406511
 10
97.4418751324
 20
103.1960237723
 10
97.4415721448
 20
103.2005136103
  0
LWPOLYLINE
  5
30F
100
AcDbEntity
  8
CURVE
100
AcDbPolyline
 62
250
  6
CONTINUOUS
 90
17
 70
0
 10
128.1239404311
 20
-3.6569046064
 10
128.1407738546
 20
-3.8648572323
 10
128.1906329452
 20
-4.0843278228
 10
128.2716185857
 20
-4.3069568113
 10
128.3828239076
 20
-4.5280452678
 10
128.516123405
 20
-4.7314387899
 10
128.6681516218
 20
-4.9133424542
 10
128.8331178504
 20
-5.0668276068
 10
129.0078239076
 20
-5.1878356941
 10
129.1795044412
 20
-5.2675249455
 10
129.3446457166
 20
-5.3053049842
 10
129.496957554
 20
-5.2997367801
 10
129.6328239076
 20
-5.2497796017
 10
129.7423173492
 20
-5.1590836998
 10
129.8238341638
 20
-5.0306090786
 10
129.8742694013
 20
-4.8692492963
 10
129.8917073841
 20
-4.6775910005
  0
LWPOLYLINE
  5
310
100
AcDbEntity
  8
CURVE
100
AcDbPolyline
 62
250
  6
CONTINUOUS
 90
17
 70
0
 10
129.8917073841
 20
-4.6775910897
 10
129.8748739606
 20
-4.4696384638
 10
129.82501487
 20
-4.2501678733
 10
129.7440292295
 20
-4.0275388849
 10
129.6328239076
 20
-3.8064504283
 10
129.4995244102
 20
-3.6030569062
 10
129.3474961934
 20
-3.4211532419
 10
129.1825299648
 20
-3.2676680893
 10
129.0078239076
 20
-3.1466600021
 10
128.836143374
 20
-3.0669707506
 10
128.6710020986
 20
-3.0291907119
 10
128.5186902612
 20
-3.034758916
 10
128.3828239076
 20
-3.0847160945
 10
128.273330466
 20
-3.1754119963
 10
128.1918136514
 20
-3.3038866175
 10
128.1413784139
 20
-3.4652463998
 10
128.1239404311
 20
-3.6569046956
  0
LWPOLYLINE
  5
311
100
AcDbEntity
  8
ASSI
100
AcDbPolyline
 62
7
  6
CONTINUOUS
 90
60
 70
0
 10
121.6715910528
 20
57.6320045027
 10
121.6723902005
 20
57.5862171331
 10
121.6747531859
 20
57.5397460756
 10
121.6786800091
 20
57.4925913302
 10
121.6841821
 20
57.444674279
 10
121.6912480287
 20
57.3960735398
 10
121.699843505
 20
57.3470249667
 10
121.7099759636
 20
57.2975263829
 10
121.7216379697
 20
57.247579965
 10
121.7347729291
 20
57.1974280976
 10
121.7493880012
 20
57.1470697819
 10
121.7654760266
 20
57.0965060166
 10
121.7829589317
 20
57.0459821819
 10
121.8018434967
 20
56.9954984721
 10
121.8221229416
 20
56.9450546929
 10
121.8436988524
 20
56.8948956423
 10
121.8665775309
 20
56.8450227045
 10
121.8907526753
 20
56.7954344953
 10
121.9161069664
 20
56.7463716607
 10
121.9426461357
 20
56.6978367546
 10
121.9703644516
 20
56.6498272231
 10
121.9991274004
 20
56.6025760512
 10
122.0289400596
 20
56.556086925
 10
122.0597973516
 20
56.5103561584
 10
122.0915495294
 20
56.4656056775
 10
122.1242009428
 20
56.4218402475
 10
122.1577472421
 20
56.3790551032
 10
122.1920256307
 20
56.3374578762
 10
122.2270396673
 20
56.2970543408
 10
122.2627857932
 20
56.2578387226
 10
122.2990905366
 20
56.2200013308
 10
122.3359566127
 20
56.1835488645
 10
122.3733813063
 20
56.1484746245
 10
122.4111829995
 20
56.1149488221
 10
122.4493635248
 20
56.082978984
 10
122.4879210497
 20
56.0525575835
 10
122.5266684589
 20
56.0238322524
 10
122.5656066754
 20
55.9968112347
 10
122.6047347762
 20
55.9714862863
 10
122.6438628769
 20
55.9479803063
 10
122.6829909777
 20
55.9263021363
 10
122.7221190784
 20
55.9064429347
 10
122.7610572949
 20
55.8884990761
 10
122.7998047041
 20
55.8724798703
 10
122.8383622291
 20
55.8583760074
 10
122.8765427544
 20
55.846255932
 10
122.9143444476
 20
55.8361292865
 10
122.9517691412
 20
55.8279864285
 10
122.9886352173
 20
55.8218668742
 10
123.0249399607
 20
55.8177804584
 10
123.0606860866
 20
55.8157173463
 10
123.0957001231
 20
55.81568755
 10
123.1299785118
 20
55.817700953
 10
123.163524811
 20
55.8217476718
 10
123.1961762245
 20
55.827808068
 10
123.2279284023
 20
55.8358919298
 10
123.2587856943
 20
55.8459894691
 10
123.2885983535
 20
55.8580516837
 10
123.3173613022
 20
55.8720881234
 10
123.3313926664
 20
55.8798671287
  0
LWPOLYLINE
  5
312
100
AcDbEntity
  8
ASSI
100
AcDbPolyline
 62
7
  6
CONTINUOUS
 90
54
 70
0
 10
122.0251444434
 20
57.8361417994
 10
122.0259435911
 20
57.7903544298
 10
122.0283065765
 20
57.7438833723
 10
122.0322333997
 20
57.6967286269
 10
122.0377354906
 20
57.6488115756
 10
122.0448014193
 20
57.6002108365
 10
122.0533968956
 20
57.5511622634
 10
122.0635293542
 20
57.5016636795
 10
122.0751913603
 20
57.4517172617
 10
122.0883263196
 20
57.4015653942
 10
122.1029413918
 20
57.3512070785
 10
122.1190294171
 20
57.3006433132
 10
122.1365123223
 20
57.2501194786
 10
122.1553968873
 20
57.1996357687
 10
122.1756763322
 20
57.1491919895
 10
122.197252243
 20
57.099032939
 10
122.2201309215
 20
57.0491600011
 10
122.2443060659
 20
56.9995717919
 10
122.269660357
 20
56.9505089574
 10
122.2961995263
 20
56.9019740513
 10
122.3239178422
 20
56.8539645198
 10
122.352680791
 20
56.8067133479
 10
122.3824934502
 20
56.7602242217
 10
122.4133507422
 20
56.714493455
 10
122.44510292
 20
56.6697429742
 10
122.4777543334
 20
56.6259775441
 10
122.5113006327
 20
56.5831923999
 10
122.5455790213
 20
56.5415951729
 10
122.5805930579
 20
56.5011916374
 10
122.6163391838
 20
56.4619760193
 10
122.6526439271
 20
56.4241386275
 10
122.6895100033
 20
56.3876861611
 10
122.7269346969
 20
56.3526119211
 10
122.7647363901
 20
56.3190861188
 10
122.8029169154
 20
56.2871162807
 10
122.8414744403
 20
56.2566948802
 10
122.8802218495
 20
56.227969549
 10
122.919160066
 20
56.2009485313
 10
122.9582881668
 20
56.1756235829
 10
122.9974162675
 20
56.1521176029
 10
123.0365443683
 20
56.1304394329
 10
123.075672469
 20
56.1105802314
 10
123.1146106855
 20
56.0926363727
 10
123.1533580947
 20
56.076617167
 10
123.1919156197
 20
56.0625133041
 10
123.230096145
 20
56.0503932286
 10
123.2678978382
 20
56.0402665832
 10
123.3053225318
 20
56.0321237251
 10
123.3421886079
 20
56.0260041708
 10
123.3784933513
 20
56.021917755
 10
123.4142394772
 20
56.019854643
 10
123.4492535137
 20
56.0198248467
 10
123.4835319024
 20
56.0218382497
 10
123.4850292878
 20
56.0220188805
  0
LWPOLYLINE
  5
313
100
AcDbEntity
  8
ASSI
100
AcDbPolyline
 62
7
  6
CONTINUOUS
 90
60
 70
0
 10
123.6161347011
 20
59.7751304782
 10
123.6153355534
 20
59.8209178478
 10
123.6129725679
 20
59.8673889053
 10
123.6090457448
 20
59.9145436507
 10
123.6035436538
 20
59.9624607019
 10
123.5964777251
 20
60.0110614411
 10
123.5878822489
 20
60.0601100142
 10
123.5777497903
 20
60.1096085981
 10
123.5660877841
 20
60.1595550159
 10
123.5529528248
 20
60.2097068833
 10
123.5383377526
 20
60.260065199
 10
123.5222497273
 20
60.3106289643
 10
123.5047668222
 20
60.361152799
 10
123.4858822571
 20
60.4116365088
 10
123.4656028122
 20
60.462080288
 10
123.4440269014
 20
60.5122393386
 10
123.4211482229
 20
60.5621122764
 10
123.3969730785
 20
60.6117004856
 10
123.3716187874
 20
60.6607633202
 10
123.3450796181
 20
60.7092982263
 10
123.3173613022
 20
60.7573077578
 10
123.2885983535
 20
60.8045589297
 10
123.2587856943
 20
60.8510480559
 10
123.2279284023
 20
60.8967788225
 10
123.1961762245
 20
60.9415293034
 10
123.163524811
 20
60.9852947335
 10
123.1299785118
 20
61.0280798777
 10
123.0957001231
 20
61.0696771047
 10
123.0606860866
 20
61.1100806401
 10
123.0249399607
 20
61.1492962583
 10
122.9886352173
 20
61.1871336501
 10
122.9517691412
 20
61.2235861164
 10
122.9143444476
 20
61.2586603564
 10
122.8765427544
 20
61.2921861588
 10
122.8383622291
 20
61.3241559969
 10
122.7998047041
 20
61.3545773974
 10
122.7610572949
 20
61.3833027285
 10
122.7221190784
 20
61.4103237463
 10
122.6829909777
 20
61.4356486947
 10
122.6438628769
 20
61.4591546746
 10
122.6047347762
 20
61.4808328446
 10
122.5656066754
 20
61.5006920462
 10
122.5266684589
 20
61.5186359049
 10
122.4879210497
 20
61.5346551106
 10
122.4493635248
 20
61.5487589735
 10
122.4111829995
 20
61.560879049
 10
122.3733813063
 20
61.5710056944
 10
122.3359566127
 20
61.5791485524
 10
122.2990905366
 20
61.5852681068
 10
122.2627857932
 20
61.5893545226
 10
122.2270396673
 20
61.5914176346
 10
122.1920256307
 20
61.5914474309
 10
122.1577472421
 20
61.5894340279
 10
122.1242009428
 20
61.5853873092
 10
122.0915495294
 20
61.5793269129
 10
122.0597973516
 20
61.5712430511
 10
122.0289400596
 20
61.5611455118
 10
121.9991274004
 20
61.5490832972
 10
121.9703644516
 20
61.5350468575
 10
121.9563330874
 20
61.5272678522
  0
LINE
  5
314
100
AcDbEntity
  8
ASSI
100
AcDbLine
 62
7
  6
CONTINUOUS
 10
121.6715910528
 20
57.6320045027
 11
121.6715910528
 21
60.8978856099
  0
LINE
  5
315
100
AcDbEntity
  8
ASSI
100
AcDbLine
 62
7
  6
CONTINUOUS
 10
122.0251444434
 20
57.8361417994
 11
122.0251444434
 21
61.1020229065
  0
LINE
  5
316
100
AcDbEntity
  8
ASSI
100
AcDbLine
 62
7
  6
CONTINUOUS
 10
123.6161347011
 20
59.7751304782
 11
123.6161347011
 21
56.509249371
  0
LINE
  5
317
100
AcDbEntity
  8
0
100
AcDbLine
 62
7
  6
CONTINUOUS
 10
135.1080342728
 20
130.0931926091
 11
133.9575713759
 21
128.1006608079
  0
LINE
  5
318
100
AcDbEntity
  8
0
100
AcDbLine
 62
7
  6
CONTINUOUS
 10
100.1932225743
 20
89.0151941998
 11
101.0771060507
 21
89.5255374415
  0
LWPOLYLINE
  5
319
100
AcDbEntity
  8
RACCORDO
100
AcDbPolyline
 62
7
  6
CONTINUOUS
 90
7
 70
0
 10
101.1521096747
 20
105.6980779434
 10
101.1417106034
 20
105.7025418458
 10
101.1300464817
 20
105.7048062474
 10
101.1176957582
 20
105.7047602403
 10
101.1048524574
 20
105.7023661578
 10
101.0913225549
 20
105.6976616666
 10
101.0771060507
 20
105.6906467667
  0
LINE
  5
31A
100
AcDbEntity
  8
SMUSSO
100
AcDbLine
 62
7
  6
CONTINUOUS
 10
100.3523216
 20
101.7000861474
 11
100.9887177031
 21
101.3326981958
  0
LINE
  5
31B
100
AcDbEntity
  8
0
100
AcDbLine
 62
7
  6
CONTINUOUS
 10
100.3523216
 20
103.8229088671
 11
100.4583876172
 21
103.7616676781
  0
LINE
  5
31C
100
AcDbEntity
  8
SMUSSO
100
AcDbLine
 62
7
  6
CONTINUOUS
 10
100.4583876172
 20
104.2515498441
 11
100.3523216
 21
104.3127910331
  0
LINE
  5
31D
100
AcDbEntity
  8
0
100
AcDbLine
 62
7
  6
CONTINUOUS
 10
100.4760652867
 20
105.2211428209
 11
100.1932225743
 21
105.3844526582
  0
LINE
  5
31E
100
AcDbEntity
  8
0
100
AcDbLine
 62
7
  6
CONTINUOUS
 10
100.4760652867
 20
105.3436133624
 11
100.1932225743
 21
105.5069231998
  0
LINE
  5
31F
100
AcDbEntity
  8
SMUSSO
100
AcDbLine
 62
7
  6
CONTINUOUS
 10
100.9887177031
 20
105.1701084967
 11
100.8826516859
 21
105.2313496857
  0
LINE
  5
320
100
AcDbEntity
  8
RACCORDO
100
AcDbLine
 62
7
  6
CONTINUOUS
 10
100.7942906717
 20
105.4048821699
 11
100.9887450365
 21
105.2926066567
  0
LINE
  5
321
100
AcDbEntity
  8
0
100
AcDbLine
 62
7
  6
CONTINUOUS
 10
101.2715604156
 20
105.4559007121
 11
101.0771060507
 21
105.5681762252
  0
LINE
  5
322
100
AcDbEntity
  8
0
100
AcDbLine
 62
7
  6
CONTINUOUS
 10
100.1932225743
 20
106.0785194669
 11
100.4053648586
 21
105.9560311707
  0
LINE
  5
323
100
AcDbEntity
  8
RACCORDO
100
AcDbLine
 62
250
  6
CONTINUOUS
 10
100.5114206258
 20
106.0172664414
 11
101.0771060507
 21
105.6906467667
  0
LINE
  5
324
100
AcDbEntity
  8
RACCORDO
100
AcDbLine
 62
7
  6
CONTINUOUS
 10
101.3776264327
 20
105.5171419011
 11
101.1831720679
 21
105.6294174142
  0
LINE
  5
325
100
AcDbEntity
  8
RACCORDO
100
AcDbLine
 62
7
  6
CONTINUOUS
 10
100.1932225743
 20
106.2010018449
 11
100.5114257513
 21
106.0172753185
  0
LINE
  5
326
100
AcDbEntity
  8
RACCORDO
100
AcDbLine
 62
7
  6
CONTINUOUS
 10
100.5864242498
 20
106.0246976181
 11
101.1521096748
 21
105.6980779434
  0
LINE
  5
327
100
AcDbEntity
  8
ASSI
100
AcDbLine
 62
7
  6
CONTINUOUS
 10
98.0466873791
 20
108.8288680183
 11
98.0719009916
 21
108.8136127885
  0
LINE
  5
328
100
AcDbEntity
  8
ASSI
100
AcDbLine
 62
7
  6
CONTINUOUS
 10
136.2304535632
 20
86.7820399786
 11
136.2556671756
 21
86.7667847488
  0
LWPOLYLINE
  5
329
100
AcDbEntity
  8
RACCORDO
100
AcDbPolyline
 62
250
  6
CONTINUOUS
 90
6
 70
0
 10
136.0081810413
 20
80.9087222097
 10
135.9968470974
 20
80.9165390586
 10
135.9880730765
 20
80.9253821988
 10
135.9821299155
 20
80.9349753147
 10
135.9791947071
 20
80.945058436
 10
135.9788917195
 20
80.949548274
  0
LINE
  5
32A
100
AcDbEntity
  8
0
100
AcDbLine
 62
7
  6
CONTINUOUS
 10
99.3093390978
 20
148.1061158809
 11
97.5415721448
 21
153.2091537482
  0
LINE
  5
32B
100
AcDbEntity
  8
0
100
AcDbLine
 62
7
  6
CONTINUOUS
 10
99.8396691837
 20
148.4123218259
 11
98.0719022307
 21
153.5153596932
  0
LWPOLYLINE
  5
32C
100
AcDbEntity
  8
RACCORDO
100
AcDbPolyline
 62
250
  6
CONTINUOUS
 90
6
 70
0
 10
136.0081810413
 20
-5.6371271304
 10
136.0092805516
 20
-5.6508345495
 10
136.0125449529
 20
-5.66284616
 10
136.0178728162
 20
-5.6727883204
 10
136.0251299865
 20
-5.6803761064
 10
136.0288893035
 20
-5.6829008165
  0
LWPOLYLINE
  5
32D
100
AcDbEntity
  8
RACCORDO
100
AcDbPolyline
 62
250
  6
CONTINUOUS
 90
35
 70
0
 10
127.8520322239
 20
43.4023838263
 10
127.8564708388
 20
43.2530543429
 10
127.869765168
 20
43.0993258001
 10
127.8918506054
 20
42.9419470545
 10
127.9226197885
 20
42.7816844269
 10
127.9619229322
 20
42.6193189866
 10
128.0095683779
 20
42.4556427843
 10
128.0653238948
 20
42.2914535135
 10
128.1289179095
 20
42.1275508297
 10
128.2000404803
 20
41.9647334937
 10
128.2783449447
 20
41.8037949669
 10
128.3634498746
 20
41.6455190733
 10
128.4549408937
 20
41.4906764469
 10
128.5523724511
 20
41.3400212405
 10
128.6552697474
 20
41.1942877022
 10
128.7631312884
 20
41.0541861098
 10
128.875431466
 20
40.9203991374
 10
128.9916232535
 20
40.7935784378
 10
129.1111406808
 20
40.6743417491
 10
129.233401529
 20
40.5632699395
 10
129.3578101022
 20
40.4609042049
 10
129.4837602376
 20
40.3677433096
 10
129.6106382843
 20
40.2842411412
 10
129.7378261348
 20
40.2108044858
 10
129.8647041804
 20
40.1477910978
 10
129.9906543148
 20
40.0955079656
 10
130.1150628858
 20
40.0542098311
 10
130.2373237273
 20
40.0240979122
 10
130.3568411396
 20
40.0053189073
 10
130.4730329082
 20
39.9979642779
 10
130.5853330713
 20
40.0020698539
 10
130.6931946097
 20
40.0176156782
 10
130.7960919059
 20
40.0445260376
 10
130.8935234507
 20
40.082669762
 10
130.9609615204
 20
40.1189285697
  0
LWPOLYLINE
  5
32E
100
AcDbEntity
  8
RACCORDO
100
AcDbPolyline
 62
250
  6
CONTINUOUS
 90
35
 70
0
 10
127.9567565101
 20
43.3889151409
 10
127.9609923062
 20
43.2451915008
 10
127.973611058
 20
43.0982370947
 10
127.9946127656
 20
42.9480519226
 10
128.0241907964
 20
42.793708072
 10
128.062151783
 20
42.6361334555
 10
128.1079156231
 20
42.4781118106
 10
128.1615764786
 20
42.3198336835
 10
128.2230401875
 20
42.1611085281
 10
128.2914441619
 20
42.0041484431
 10
128.3669054428
 20
41.8489338129
 10
128.4493069892
 20
41.6954842532
 10
128.5374350891
 20
41.5460707107
 10
128.6313661338
 20
41.4007691207
 10
128.7310237321
 20
41.2595035479
 10
128.8349649988
 20
41.1243171339
 10
128.9432546234
 20
40.9952948639
 10
129.0558279164
 20
40.8723517527
 10
129.1710479242
 20
40.7572759864
 10
129.2889527635
 20
40.6501831583
 10
129.4095043175
 20
40.5509576751
 10
129.530951282
 20
40.461040943
 10
129.6533068333
 20
40.3805687626
 10
129.7765577951
 20
40.3094053333
 10
129.8989133346
 20
40.248584659
 10
130.0203602809
 20
40.1982577564
 10
130.140911805
 20
40.1582736089
 10
130.2588165869
 20
40.1292131704
 10
130.374036491
 20
40.1112360495
 10
130.4866096528
 20
40.1041826376
 10
130.5948991599
 20
40.1081550629
 10
130.6988403609
 20
40.1233130262
 10
130.798497907
 20
40.1494968268
 10
130.8924288394
 20
40.1863294907
 10
130.9716962651
 20
40.2291847985
  0
LWPOLYLINE
  5
32F
100
AcDbEntity
  8
RACCORDO
100
AcDbPolyline
 62
250
  6
CONTINUOUS
 90
49
 70
0
 10
125.9076453407
 20
43.2655675501
 10
125.9135277536
 20
43.0590382044
 10
125.9306210636
 20
42.8485052963
 10
125.9589252709
 20
42.6339688258
 10
125.9986568572
 20
42.4144446859
 10
126.0495993407
 20
42.1909169836
 10
126.1111032758
 20
41.9663380397
 10
126.1833041887
 20
41.7407275993
 10
126.266066553
 20
41.5140659172
 10
126.3583343442
 20
41.2892460783
 10
126.4602294494
 20
41.0662917897
 10
126.5716299814
 20
40.8451793443
 10
126.6911142535
 20
40.6287307057
 10
126.8187857684
 20
40.4170058521
 10
126.9545410235
 20
40.2099448053
 10
127.0966478242
 20
40.0101895942
 10
127.2451876055
 20
39.8178337747
 10
127.4000789324
 20
39.632783791
 10
127.5593453053
 20
39.4574010037
 10
127.7230427789
 20
39.2918093167
 10
127.8911152984
 20
39.1358848263
 10
128.0614181999
 20
38.9916171822
 10
128.2339800629
 20
38.859155767
 10
128.4087723079
 20
38.7383511982
 10
128.5835645322
 20
38.6307449775
 10
128.7583567381
 20
38.5365062385
 10
128.9331489233
 20
38.4554658476
 10
129.1057106791
 20
38.3886579065
 10
129.2760134176
 20
38.3362648021
 10
129.4440857267
 20
38.2981041475
 10
129.6077829608
 20
38.2746628829
 10
129.7670490687
 20
38.2661296382
 10
129.9219401017
 20
38.2723157836
 10
130.0704795681
 20
38.2931423695
 10
130.2125860403
 20
38.3287969952
 10
130.3483409459
 20
38.3790920616
 10
130.4760120753
 20
38.4433858214
 10
130.5954959147
 20
38.5218577683
 10
130.706895978
 20
38.6143284087
 10
130.8087905968
 20
38.7196175145
 10
130.9010578998
 20
38.8378895912
 10
130.9838197584
 20
38.9689801333
 10
131.0560201185
 20
39.1112153959
 10
131.1175234201
 20
39.2647719104
 10
131.1684652232
 20
39.4294731454
 10
131.2081961539
 20
39.6031157619
 10
131.2364997541
 20
39.7849653136
 10
131.2535924818
 20
39.9757562469
 10
131.2594743371
 20
40.1754885618
  0
LWPOLYLINE
  5
330
100
AcDbEntity
  8
RACCORDO
100
AcDbPolyline
 62
250
  6
CONTINUOUS
 90
49
 70
0
 10
131.2594743371
 20
40.1754885618
 10
131.2535919242
 20
40.3820179075
 10
131.2364986141
 20
40.5925508156
 10
131.2081944069
 20
40.8070872862
 10
131.1684628206
 20
41.026611426
 10
131.117520337
 20
41.2501391283
 10
131.056016402
 20
41.4747180722
 10
130.9838154891
 20
41.7003285126
 10
130.9010531247
 20
41.9269901947
 10
130.8087853336
 20
42.1518100336
 10
130.7068902284
 20
42.3747643222
 10
130.5954896964
 20
42.5958767676
 10
130.4760054242
 20
42.8123254062
 10
130.3483339093
 20
43.0240502598
 10
130.2125786543
 20
43.2311113066
 10
130.0704718536
 20
43.4308665177
 10
129.9219320723
 20
43.6232223372
 10
129.7670407453
 20
43.808272321
 10
129.6077743724
 20
43.9836551082
 10
129.4440768989
 20
44.1492467952
 10
129.2760043793
 20
44.3051712856
 10
129.1057014778
 20
44.4494389298
 10
128.9331396149
 20
44.5819003449
 10
128.7583473699
 20
44.7027049137
 10
128.5835551456
 20
44.8103111344
 10
128.4087629397
 20
44.9045498734
 10
128.2339707544
 20
44.9855902643
 10
128.0614089986
 20
45.0523982054
 10
127.8911062601
 20
45.1047913098
 10
127.7230339511
 20
45.1429519644
 10
127.559336717
 20
45.166393229
 10
127.4000706091
 20
45.1749264737
 10
127.245179576
 20
45.1687403284
 10
127.0966401097
 20
45.1479137424
 10
126.9545336375
 20
45.1122591167
 10
126.8187787319
 20
45.0619640503
 10
126.6911076025
 20
44.9976702905
 10
126.5716237631
 20
44.9191983436
 10
126.4602236998
 20
44.8267277032
 10
126.3583290809
 20
44.7214385975
 10
126.2660617779
 20
44.6031665207
 10
126.1832999194
 20
44.4720759786
 10
126.1110995593
 20
44.329840716
 10
126.0495962577
 20
44.1762842015
 10
125.9986544545
 20
44.0115829666
 10
125.9589235239
 20
43.83794035
 10
125.9306199237
 20
43.6560907983
 10
125.913527196
 20
43.465299865
 10
125.9076453407
 20
43.2655675501
  0
LWPOLYLINE
  5
331
100
AcDbEntity
  8
0
100
AcDbPolyline
 62
7
  6
CONTINUOUS
 90
40
 70
0
 10
132.6494238307
 20
40.189498331
 10
132.6428530824
 20
40.43352979
 10
132.6237900077
 20
40.6820777683
 10
132.5922346065
 20
40.9351422657
 10
132.5479729451
 20
41.1937149954
 10
132.4912189573
 20
41.4568042442
 10
132.4226144443
 20
41.7214348732
 10
132.3420248876
 20
41.9876243789
 10
132.2495848057
 20
42.2553552647
 10
132.1463395553
 20
42.5215999017
 10
132.032166484
 20
42.7863414191
 10
131.9071882442
 20
43.0495966877
 10
131.7728181495
 20
43.3083886909
 10
131.6289495906
 20
43.5626667651
 10
131.4756891769
 20
43.812481574
 10
131.3147700504
 20
44.0550080922
 10
131.1461052751
 20
44.2901635884
 10
130.969781787
 20
44.5180307939
 10
130.7877935366
 20
44.7360328774
 10
130.6000762215
 20
44.9440578572
 10
130.4066941441
 20
45.1422177149
 10
130.2098341613
 20
45.3282715641
 10
130.0094567945
 20
45.5020819863
 10
129.8056015223
 20
45.6637864
 10
129.6005736377
 20
45.8115561744
 10
129.3943598301
 20
45.9452331335
 10
129.18697341
 20
46.0649754533
 10
128.9807596024
 20
46.1694290303
 10
128.7757317178
 20
46.2584203178
 10
128.5718764457
 20
46.3321228626
 10
128.3714990789
 20
46.389703201
 10
128.1746390961
 20
46.4309783254
 10
127.9812570186
 20
46.4561312434
 10
127.7935397036
 20
46.4648775138
 10
127.6115514531
 20
46.4570309002
 10
127.4352279651
 20
46.432777639
 10
127.2665631898
 20
46.3923919976
 10
127.1056440633
 20
46.3356908531
 10
126.9523836496
 20
46.2628573283
 10
126.9155882859
 20
46.2422939324
  0
LWPOLYLINE
  5
332
100
AcDbEntity
  8
RACCORDO
100
AcDbPolyline
 62
250
  6
CONTINUOUS
 90
49
 70
0
 10
131.5423170495
 20
40.1078434123
 10
131.5368627345
 20
40.3154122277
 10
131.5205202949
 20
40.5284940371
 10
131.4933514457
 20
40.7462807154
 10
131.4554588647
 20
40.9679468134
 10
131.4069860752
 20
41.1926510328
 10
131.3481171664
 20
41.4195393491
 10
131.279075565
 20
41.6477506493
 10
131.2001230388
 20
41.8764196842
 10
131.1115592113
 20
42.1046786485
 10
131.0137201447
 20
42.3316614811
 10
130.9069769265
 20
42.5565073502
 10
130.7917343858
 20
42.7783635336
 10
130.6684296288
 20
42.9963885266
 10
130.5375304312
 20
43.2097551986
 10
130.3995333657
 20
43.4176541287
 10
130.2549619174
 20
43.6192966654
 10
130.1043644886
 20
43.813917922
 10
129.9483123452
 20
44.0007796359
 10
129.7873974473
 20
44.1791729748
 10
129.6222302058
 20
44.3484212248
 10
129.4534371617
 20
44.5078823641
 10
129.2816586089
 20
44.656951498
 10
129.1075461656
 20
44.7950631534
 10
128.9317603039
 20
44.9216934223
 10
128.7549678436
 20
45.0363619501
 10
128.577839423
 20
45.1386337572
 10
128.4010469546
 20
45.2281208895
 10
128.2252610771
 20
45.3044838894
 10
128.0511486101
 20
45.3674330845
 10
127.8793700249
 20
45.4167296858
 10
127.7105769392
 20
45.4521866933
 10
127.545409648
 20
45.4736696052
 10
127.3844946936
 20
45.4810969289
 10
127.228442488
 20
45.4744404906
 10
127.0778449905
 20
45.4537255415
 10
126.9332734658
 20
45.4190306598
 10
126.7952763156
 20
45.3704874499
 10
126.6643770264
 20
45.3082800548
 10
126.541072172
 20
45.2326444655
 10
126.4258295269
 20
45.143867635
 10
126.3190861997
 20
45.0422863087
 10
126.2212470243
 20
44.928285728
 10
126.1326830834
 20
44.8022981967
 10
126.0537304432
 20
44.6648017061
 10
125.9846887385
 20
44.5163180946
 10
125.925819773
 20
44.3574104662
 10
125.8773469064
 20
44.1886818164
 10
125.8394541483
 20
44.0107731899
  0
LINE
  5
333
100
AcDbEntity
  8
RACCORDO
100
AcDbLine
 62
250
  6
CONTINUOUS
 10
132.6187893404
 20
40.4179136636
 11
132.625159762
 21
40.1754885618
  0
LWPOLYLINE
  5
334
100
AcDbEntity
  8
ASSI
100
AcDbPolyline
 62
7
  6
CONTINUOUS
 90
60
 70
0
 10
132.7201345088
 20
40.6386003836
 10
132.7186979485
 20
40.7464570403
 10
132.7144247253
 20
40.8556480409
 10
132.7073148391
 20
40.9661733855
 10
132.697356172
 20
41.0781403776
 10
132.684560842
 20
41.1914417136
 10
132.668965203
 20
41.3057554832
 10
132.6505612912
 20
41.4210845654
 10
132.6293570704
 20
41.5374260811
 10
132.6054127859
 20
41.654449482
 10
132.5787206451
 20
41.7721567073
 10
132.5492884406
 20
41.8905458179
 10
132.5171997947
 20
42.0092804477
 10
132.4824471529
 20
42.1283615796
 10
132.4450380697
 20
42.2477882308
 10
132.4050788315
 20
42.3672210877
 10
132.362562186
 20
42.4866601679
 10
132.3174953853
 20
42.6061054537
 10
132.2700064729
 20
42.7252175785
 10
132.2200885606
 20
42.8439955949
 10
132.1677485366
 20
42.9624404502
 10
132.1131351087
 20
43.0802156204
 10
132.0562418116
 20
43.1973192008
 10
131.9970751108
 20
43.3137530959
 10
131.9358031099
 20
43.4291864952
 10
131.8724198217
 20
43.5436165531
 10
131.8069312334
 20
43.6570461152
 10
131.7395234106
 20
43.7691529064
 10
131.6701908951
 20
43.879933165
 10
131.5989391451
 20
43.9893906529
 10
131.5259706001
 20
44.0972143805
 10
131.4512803779
 20
44.2033997017
 10
131.3748733608
 20
44.3079512627
 10
131.2969666357
 20
44.4105720127
 10
131.2175559374
 20
44.5112564608
 10
131.136645531
 20
44.6100100979
 10
131.0544652983
 20
44.7065523462
 10
130.971011628
 20
44.8008769169
 10
130.8862881314
 20
44.8929900988
 10
130.800535524
 20
44.9826301811
 10
130.713750879
 20
45.0697901304
 10
130.6259371232
 20
45.15447698
 10
130.537343752
 20
45.2364501186
 10
130.4479685483
 20
45.3157018286
 10
130.3578137292
 20
45.3922398276
 10
130.2671354417
 20
45.4658466565
 10
130.175932197
 20
45.5365139796
 10
130.0842054838
 20
45.6042501327
 10
129.9922159151
 20
45.6688626646
 10
129.8999627434
 20
45.730342692
 10
129.8074467161
 20
45.7886990982
 10
129.7149306888
 20
45.8437660817
 10
129.6224146615
 20
45.8955342875
 10
129.5298986342
 20
45.9440130706
 10
129.4376454625
 20
45.9890646935
 10
129.3456558938
 20
46.0306794098
 10
129.2539291806
 20
46.0688669659
 10
129.1627259359
 20
46.1035188637
 10
129.0720476484
 20
46.1346250482
 10
129.0150710361
 20
46.1520492436
  0
LINE
  5
335
100
AcDbEntity
  8
RACCORDO
100
AcDbLine
 62
7
  6
CONTINUOUS
 10
125.7904880532
 20
43.4288773874
 11
125.7904880532
 21
43.8907873611
  0
LINE
  5
336
100
AcDbEntity
  8
RACCORDO
100
AcDbLine
 62
250
  6
CONTINUOUS
 10
125.7958224892
 20
44.1070381814
 11
125.7967013676
 21
44.1200584778
  0
LWPOLYLINE
  5
337
100
AcDbEntity
  8
RACCORDO
100
AcDbPolyline
 62
250
  6
CONTINUOUS
 90
49
 70
0
 10
126.0703150075
 20
43.1716441233
 10
126.0756410696
 20
43.3579419513
 10
126.0915260464
 20
43.5362488491
 10
126.1179699378
 20
43.7065648166
 10
126.1551867786
 20
43.8697344114
 10
126.2029625339
 20
44.0249130758
 10
126.2606550998
 20
44.1695671376
 10
126.3283698578
 20
44.3033531974
 10
126.4060014264
 20
44.4266146545
 10
126.4925915558
 20
44.5378480348
 10
126.5882726575
 20
44.6369322534
 10
126.69291232
 20
44.7239883952
 10
126.8051550595
 20
44.7978762406
 10
126.9250903952
 20
44.8584159504
 10
127.0526288078
 20
44.9057873639
 10
127.186146256
 20
44.9393897788
 10
127.3257218895
 20
44.9590482351
 10
127.4712765586
 20
44.9649376928
 10
127.6209487723
 20
44.9569823301
 10
127.774790759
 20
44.9350042773
 10
127.9327502902
 20
44.8991814041
 10
128.0928091905
 20
44.8499714973
 10
128.2549945335
 20
44.7872027591
 10
128.4192792456
 20
44.7110469872
 10
128.58356393
 20
44.6224773619
 10
128.7478485666
 20
44.5213345733
 10
128.9121331755
 20
44.4077779313
 10
129.074318421
 20
44.2832585449
 10
129.2343772888
 20
44.147635822
 10
129.3923367932
 20
44.0010503548
 10
129.546178641
 20
43.8453750292
 10
129.6958504831
 20
43.6804924418
 10
129.8414046686
 20
43.5065199959
 10
129.9809799511
 20
43.3256827873
 10
130.1144974074
 20
43.1378968911
 10
130.2420359608
 20
42.9432462323
 10
130.3619711348
 20
42.7442076809
 10
130.4742130662
 20
42.5407054478
 10
130.5788516183
 20
42.3328153222
 10
130.6745319034
 20
42.1232415426
 10
130.7611218365
 20
41.9120153448
 10
130.8387535027
 20
41.699105493
 10
130.90646827
 20
41.4871225177
 10
130.9641606705
 20
41.2758439345
 10
131.0119361722
 20
41.0654922278
 10
131.0491525458
 20
40.8593453815
 10
131.0755957153
 20
40.6584960568
 10
131.0914797568
 20
40.4618515926
 10
131.0968046703
 20
40.2694119886
  0
LWPOLYLINE
  5
338
100
AcDbEntity
  8
RACCORDO
100
AcDbPolyline
 62
250
  6
CONTINUOUS
 90
19
 70
0
 10
126.4892121526
 20
43.1177693818
 10
126.4940446833
 20
43.2854321136
 10
126.5085217015
 20
43.4467974029
 10
126.5325813933
 20
43.6011741538
 10
126.5661209955
 20
43.7479014983
 10
126.6089970159
 20
43.8863506205
 10
126.6610256364
 20
44.0159276436
 10
126.7219839124
 20
44.1360774792
 10
126.7916108863
 20
44.2462859075
 10
126.8696083177
 20
44.346080936
 10
126.9556420684
 20
44.4350351757
 10
127.0493437791
 20
44.5127678807
 10
127.1503124469
 20
44.5789463967
 10
127.2581158939
 20
44.6332873671
 10
127.372292369
 20
44.675557949
 10
127.4923527571
 20
44.7055770491
 10
127.6177828207
 20
44.7232161319
 10
127.7480455377
 20
44.7283997159
 10
127.7694219889
 20
44.7280681635
  0
LWPOLYLINE
  5
339
100
AcDbEntity
  8
RACCORDO
100
AcDbPolyline
 62
250
  6
CONTINUOUS
 90
51
 70
0
 10
125.7967013676
 20
44.1200584778
 10
125.815317748
 20
44.3412849675
 10
125.8462665853
 20
44.5536276382
 10
125.8894304939
 20
44.7562810136
 10
125.9446457453
 20
44.9484763341
 10
126.0117028787
 20
45.1294844825
 10
126.090347519
 20
45.2986188266
 10
126.1802813427
 20
45.4552377918
 10
126.2811631857
 20
45.5987472523
 10
126.392610397
 20
45.7286028686
 10
126.5142001882
 20
45.8443120187
 10
126.6454711923
 20
45.9454356946
 10
126.7859250782
 20
46.0315901631
 10
126.9350293336
 20
46.1024489235
 10
127.092219331
 20
46.157743533
 10
127.2568996482
 20
46.1972641402
 10
127.4284450272
 20
46.2208603111
 10
127.6062035752
 20
46.2284422954
 10
127.78950042
 20
46.2199814652
 10
127.9776407106
 20
46.1955100474
 10
128.1699110453
 20
46.1551208812
 10
128.3655821696
 20
46.0989671554
 10
128.5639117281
 20
46.0272619095
 10
128.764147389
 20
45.9402771546
 10
128.9655297347
 20
45.8383427822
 10
129.1672946941
 20
45.7218455358
 10
129.3686764492
 20
45.5912276472
 10
129.5689106522
 20
45.4469850295
 10
129.7672382049
 20
45.2896646657
 10
129.9629076576
 20
45.1198626408
 10
130.1551772752
 20
44.938222484
 10
130.3433171483
 20
44.7454336008
 10
130.5266128758
 20
44.5422280418
 10
130.7043687316
 20
44.3293772507
 10
130.8759109375
 20
44.1076881835
 10
131.0405894387
 20
43.87800092
 10
131.1977799512
 20
43.6411860045
 10
131.3468856633
 20
43.39814237
 10
131.4873402644
 20
43.1497931272
 10
131.6186105678
 20
42.8970813269
 10
131.7401992315
 20
42.6409647143
 10
131.8516457789
 20
42.3824132158
 10
131.9525276935
 20
42.1224066342
 10
132.0424617548
 20
41.8619321959
 10
132.1211063508
 20
41.6019791867
 10
132.1881632524
 20
41.3435334379
 10
132.2433780361
 20
41.0875756018
 10
132.2865410016
 20
40.8350785612
 10
132.3174886755
 20
40.5870006491
 10
132.3361041193
 20
40.3442820938
 10
132.3423170495
 20
40.1078434123
  0
LINE
  5
33A
100
AcDbEntity
  8
0
100
AcDbLine
 62
7
  6
CONTINUOUS
 10
100.7235526601
 20
81.5649719702
 11
100.1932225743
 21
81.2587660252
  0
LINE
  5
33B
100
AcDbEntity
  8
0
100
AcDbLine
 62
7
  6
CONTINUOUS
 10
101.0771060507
 20
81.3608346736
 11
100.1932225743
 21
80.8504914319
  0
LWPOLYLINE
  5
33C
100
AcDbEntity
  8
RACCORDO
100
AcDbPolyline
 62
250
  6
CONTINUOUS
 90
4
 70
0
 10
100.1932225743
 20
101.6361186389
 10
100.2010566153
 20
101.6378230217
 10
100.2157280596
 20
101.6428069647
 10
100.2285779133
 20
101.6490715507
  0
LWPOLYLINE
  5
33D
100
AcDbEntity
  8
RACCORDO
100
AcDbPolyline
 62
7
  6
CONTINUOUS
 90
8
 70
0
 10
100.1932225743
 20
103.6792612723
 10
100.2109002438
 20
103.6785620003
 10
100.243329975
 20
103.6798448165
 10
100.2757597063
 20
103.6835693552
 10
100.3065711019
 20
103.6895497513
 10
100.3352247166
 20
103.6977240497
 10
100.3622599957
 20
103.7081542055
 10
100.3876769391
 20
103.7208402187
  0
LWPOLYLINE
  5
33E
100
AcDbEntity
  8
ASSI
100
AcDbPolyline
 62
7
  6
CONTINUOUS
 90
28
 70
0
 10
135.8140116046
 20
80.7814554839
 10
135.8410304641
 20
80.7365585553
 10
135.869036578
 20
80.6924695569
 10
135.8980351361
 20
80.6491927359
 10
135.9280209486
 20
80.606723845
 10
135.9588366597
 20
80.5652857471
 10
135.9904866322
 20
80.5248838609
 10
136.0229665034
 20
80.4855127676
 10
136.0561058296
 20
80.4473790738
 10
136.0899080775
 20
80.4104892843
 10
136.1243697805
 20
80.3748368943
 10
136.1593100948
 20
80.3406089957
 10
136.1947315365
 20
80.3078130769
 10
136.2306315895
 20
80.2764416495
 10
136.2668218623
 20
80.2466593406
 10
136.3033038805
 20
80.2184745037
 10
136.3400761183
 20
80.1918787852
 10
136.3769456074
 20
80.1670117507
 10
136.4139128588
 20
80.1438824875
 10
136.4509773613
 20
80.1224819083
 10
136.4879446128
 20
80.1029223161
 10
136.5248141018
 20
80.0852133889
 10
136.5615863397
 20
80.0693454488
 10
136.5980683578
 20
80.0554017655
 10
136.6342586306
 20
80.0433924546
 10
136.6701586837
 20
80.0333074006
 10
136.7055801253
 20
80.0251995264
 10
136.7331241997
 20
80.0203747841
  0
LINE
  5
33F
100
AcDbEntity
  8
ASSI
100
AcDbLine
 62
7
  6
CONTINUOUS
 10
135.7881217854
 20
80.8269247385
 11
135.8140116046
 21
80.7814554839
  0
LWPOLYLINE
  5
340
100
AcDbEntity
  8
CURVE
100
AcDbPolyline
 62
250
  6
CONTINUOUS
 90
17
 70
0
 10
136.962775196
 20
51.6584634597
 10
136.9796086195
 20
51.4505108338
 10
137.0294677101
 20
51.2310402433
 10
137.1104533506
 20
51.0084112548
 10
137.2216586724
 20
50.7873227982
 10
137.3549581699
 20
50.5839292762
 10
137.5069863866
 20
50.4020256119
 10
137.6719526153
 20
50.2485404592
 10
137.8466586724
 20
50.127532372
 10
138.018339206
 20
50.0478431206
 10
138.1834804815
 20
50.0100630819
 10
138.3357923188
 20
50.0156312859
 10
138.4716586724
 20
50.0655884644
 10
138.581152114
 20
50.1562843662
 10
138.6626689287
 20
50.2847589875
 10
138.7131041662
 20
50.4461187698
 10
138.7305421489
 20
50.6377770656
  0
LWPOLYLINE
  5
341
100
AcDbEntity
  8
CURVE
100
AcDbPolyline
 62
250
  6
CONTINUOUS
 90
17
 70
0
 10
138.7305421489
 20
50.6377769764
 10
138.7137087254
 20
50.8457296022
 10
138.6638496348
 20
51.0652001927
 10
138.5828639943
 20
51.2878291812
 10
138.4716586724
 20
51.5089176378
 10
138.338359175
 20
51.7123111598
 10
138.1863309582
 20
51.8942148242
 10
138.0213647296
 20
52.0476999768
 10
137.8466586724
 20
52.168708064
 10
137.6749781388
 20
52.2483973155
 10
137.5098368634
 20
52.2861773541
 10
137.357525026
 20
52.2806091501
 10
137.2216586724
 20
52.2306519716
 10
137.1121652308
 20
52.1399560698
 10
137.0306484162
 20
52.0114814485
 10
136.9802131787
 20
51.8501216662
 10
136.962775196
 20
51.6584633705
  0
LWPOLYLINE
  5
342
100
AcDbEntity
  8
RACCORDO
100
AcDbPolyline
 62
250
  6
CONTINUOUS
 90
6
 70
0
 10
136.0081810413
 20
80.9087222097
 10
136.0092805516
 20
80.8950147905
 10
136.0125449529
 20
80.8830031801
 10
136.0178728162
 20
80.8730610197
 10
136.0251299865
 20
80.8654732337
 10
136.0288893035
 20
80.8629485235
  0
LWPOLYLINE
  5
343
100
AcDbEntity
  8
ASSI
100
AcDbPolyline
 62
7
  6
CONTINUOUS
 90
9
 70
0
 10
141.3806264468
 20
25.0739847337
 10
135.019469058
 20
131.5763363244
 10
135.0191790812
 20
131.5821984774
 10
135.018927749
 20
131.5880849248
 10
135.0187150518
 20
131.5939959913
 10
135.0185409991
 20
131.5999313522
 10
135.0184056194
 20
131.6058900335
 10
135.0183089224
 20
131.6118717105
 10
135.0182508985
 20
131.6178767078
  0
LWPOLYLINE
  5
344
100
AcDbEntity
  8
ASSI
100
AcDbPolyline
 62
7
  6
CONTINUOUS
 90
10
 70
0
 10
141.3806264468
 20
25.0739847337
 10
141.3809550681
 20
25.0681468751
 10
141.3812450448
 20
25.0622847221
 10
141.3814963771
 20
25.0563982747
 10
141.3817090743
 20
25.0504872082
 10
141.381883127
 20
25.0445518473
 10
141.3820185066
 20
25.038593166
 10
141.3821152036
 20
25.0326114891
 10
141.3821732275
 20
25.0266064917
 10
141.3821925784
 20
25.020578174
  0
LWPOLYLINE
  5
345
100
AcDbEntity
  8
ASSI
100
AcDbPolyline
 62
7
  6
CONTINUOUS
 90
9
 70
0
 10
141.9109565327
 20
24.7677787887
 10
135.5497991439
 20
131.2701303794
 10
135.5495091671
 20
131.2759925324
 10
135.5492578349
 20
131.2818789798
 10
135.5490451377
 20
131.2877900463
 10
135.548871085
 20
131.2937254072
 10
135.5487357053
 20
131.2996840885
 10
135.5486390083
 20
131.3056657655
 10
135.5485809844
 20
131.3116707628
  0
LWPOLYLINE
  5
346
100
AcDbEntity
  8
ASSI
100
AcDbPolyline
 62
7
  6
CONTINUOUS
 90
10
 70
0
 10
141.9109565327
 20
24.7677787887
 10
141.9112851539
 20
24.7619409301
 10
141.9115751307
 20
24.7560787771
 10
141.9118264629
 20
24.7501923297
 10
141.9120391602
 20
24.7442812632
 10
141.9122132129
 20
24.7383459023
 10
141.9123485925
 20
24.7323872211
 10
141.9124452895
 20
24.7264055441
 10
141.9125033134
 20
24.7204005467
 10
141.9125226643
 20
24.714372229
  0
LWPOLYLINE
  5
347
100
AcDbEntity
  8
0
100
AcDbPolyline
 62
7
  6
CONTINUOUS
 90
18
 70
0
 10
141.9125226643
 20
-21.0079632714
 10
141.9131346513
 20
-21.0368559943
 10
141.9149339831
 20
-21.0648660415
 10
141.9179206599
 20
-21.0919934129
 10
141.9221068083
 20
-21.1182954751
 10
141.9274803016
 20
-21.1437148615
 10
141.934004759
 20
-21.1680794731
 10
141.9416879908
 20
-21.1913821524
 10
141.9505221867
 20
-21.2136300567
 10
141.9604475359
 20
-21.2346725591
 10
141.9714714426
 20
-21.2545014801
 10
141.9835865024
 20
-21.2731249992
 10
141.9967106918
 20
-21.2904170278
 10
142.0108508584
 20
-21.3063685309
 10
142.0260001545
 20
-21.3209885435
 10
142.0420560135
 20
-21.3341780825
 10
142.059024587
 20
-21.3459274411
 10
142.0678382787
 20
-21.351259598
  0
LWPOLYLINE
  5
348
100
AcDbEntity
  8
ASSI
100
AcDbPolyline
 62
7
  6
CONTINUOUS
 90
51
 70
0
 10
135.195008243
 20
87.3791367067
 10
135.19562023
 20
87.3495372765
 10
135.1974195619
 20
87.319449406
 10
135.2004062386
 20
87.2888730951
 10
135.204592387
 20
87.2577369737
 10
135.2099658803
 20
87.2261124119
 10
135.2164903378
 20
87.1942135204
 10
135.2241735695
 20
87.1620384377
 10
135.2330077655
 20
87.1295890253
 10
135.2429331147
 20
87.0970849784
 10
135.2539570213
 20
87.0645259264
 10
135.2660720812
 20
87.0319122399
 10
135.2791962706
 20
86.9994647263
 10
135.2933364371
 20
86.9671845133
 10
135.3084857332
 20
86.9350704732
 10
135.3245415922
 20
86.9033400308
 10
135.3415101657
 20
86.8719957888
 10
135.359385302
 20
86.8410351445
 10
135.3780459796
 20
86.8106677135
 10
135.3974975288
 20
86.780897521
 10
135.4177346192
 20
86.7517205418
 10
135.4386202377
 20
86.7233343155
 10
135.4601587852
 20
86.6957442078
 10
135.4823458608
 20
86.6689448529
 10
135.5050312493
 20
86.643117693
 10
135.5282183323
 20
86.6182693251
 10
135.5519037283
 20
86.5943931522
 10
135.5759270778
 20
86.5716508252
 10
135.6002906742
 20
86.5500500381
 10
135.6249922241
 20
86.5295830971
 10
135.6498644885
 20
86.5103885713
 10
135.6749086257
 20
86.4924750948
 10
135.7001234773
 20
86.4758340336
 10
135.7253383289
 20
86.4605780541
 10
135.7505531805
 20
86.446716555
 10
135.7757680321
 20
86.4342401376
 10
135.8008121693
 20
86.4232332722
 10
135.8256844336
 20
86.4137059306
 10
135.8503859836
 20
86.4056481409
 10
135.8747495799
 20
86.3991144576
 10
135.8987729295
 20
86.3941152227
 10
135.9224583254
 20
86.3906400941
 10
135.9456454084
 20
86.3887125998
 10
135.968330797
 20
86.3883432416
 10
135.9905178726
 20
86.3895215177
 10
136.01205642
 20
86.3922394507
 10
136.0329420386
 20
86.3965074882
 10
136.053179129
 20
86.4023151827
 10
136.0726306782
 20
86.4096232137
 10
136.0912913557
 20
86.4184417621
 10
136.1003528003
 20
86.4234284901
  0
LWPOLYLINE
  5
349
100
AcDbEntity
  8
ASSI
100
AcDbPolyline
 62
7
  6
CONTINUOUS
 90
33
 70
0
 10
135.7253383289
 20
87.6853426517
 10
135.7259503159
 20
87.6557432215
 10
135.7277496478
 20
87.625655351
 10
135.7307363245
 20
87.5950790401
 10
135.7349224729
 20
87.5639429187
 10
135.7402959662
 20
87.5323183569
 10
135.7468204237
 20
87.5004194654
 10
135.7545036554
 20
87.4682443827
 10
135.7633378514
 20
87.4357949703
 10
135.7732632005
 20
87.4032909234
 10
135.7842871072
 20
87.3707318714
 10
135.796402167
 20
87.3381181849
 10
135.8095263564
 20
87.3056706713
 10
135.823666523
 20
87.2733904583
 10
135.8388158191
 20
87.2412764182
 10
135.8548716781
 20
87.2095459758
 10
135.8718402516
 20
87.1782017338
 10
135.8897153879
 20
87.1472410895
 10
135.9083760655
 20
87.1168736584
 10
135.9278276147
 20
87.087103466
 10
135.9480647051
 20
87.0579264868
 10
135.9689503236
 20
87.0295402605
 10
135.990488871
 20
87.0019501528
 10
136.0126759467
 20
86.9751507979
 10
136.0353613352
 20
86.949323638
 10
136.0585484182
 20
86.9244752701
 10
136.0822338142
 20
86.9005990972
 10
136.1062571637
 20
86.8778567702
 10
136.1306207601
 20
86.8562559831
 10
136.15532231
 20
86.8357890421
 10
136.1801945744
 20
86.8165945163
 10
136.2052387116
 20
86.7986810398
 10
136.2304535632
 20
86.7820399786
  0
LWPOLYLINE
  5
34A
100
AcDbEntity
  8
ASSI
100
AcDbPolyline
 62
7
  6
CONTINUOUS
 90
51
 70
0
 10
136.2556684148
 20
86.7667248167
 10
136.2550564277
 20
86.7963242469
 10
136.2532570959
 20
86.8264121174
 10
136.2502704192
 20
86.8569884283
 10
136.2460842707
 20
86.8881245497
 10
136.2407107774
 20
86.9197491115
 10
136.23418632
 20
86.951648003
 10
136.2265030882
 20
86.9838230857
 10
136.2176688923
 20
87.0162724981
 10
136.2077435431
 20
87.0487765449
 10
136.1967196365
 20
87.081335597
 10
136.1846045766
 20
87.1139492835
 10
136.1714803872
 20
87.1463967971
 10
136.1573402206
 20
87.1786770101
 10
136.1421909245
 20
87.2107910502
 10
136.1261350656
 20
87.2425214926
 10
136.1091664921
 20
87.2738657345
 10
136.0912913557
 20
87.3048263789
 10
136.0726306782
 20
87.3351938099
 10
136.053179129
 20
87.3649640024
 10
136.0329420386
 20
87.3941409815
 10
136.01205642
 20
87.4225272079
 10
135.9905178726
 20
87.4501173156
 10
135.968330797
 20
87.4769166704
 10
135.9456454084
 20
87.5027438303
 10
135.9224583254
 20
87.5275921983
 10
135.8987729295
 20
87.5514683712
 10
135.8747495799
 20
87.5742106982
 10
135.8503859836
 20
87.5958114852
 10
135.8256844336
 20
87.6162784263
 10
135.8008121693
 20
87.6354729521
 10
135.7757680321
 20
87.6533864285
 10
135.7505531805
 20
87.6700274898
 10
135.7253383289
 20
87.6852834693
 10
135.7001234773
 20
87.6991449684
 10
135.6749086257
 20
87.7116213857
 10
135.6498644885
 20
87.7226282512
 10
135.6249922241
 20
87.7321555928
 10
135.6002906742
 20
87.7402133825
 10
135.5759270778
 20
87.7467470658
 10
135.5519037283
 20
87.7517463007
 10
135.5282183323
 20
87.7552214293
 10
135.5050312493
 20
87.7571489236
 10
135.4823458608
 20
87.7575182818
 10
135.4601587852
 20
87.7563400057
 10
135.4386202377
 20
87.7536220727
 10
135.4177346192
 20
87.7493540351
 10
135.3974975288
 20
87.7435463407
 10
135.3780459796
 20
87.7362383097
 10
135.359385302
 20
87.7274197613
 10
135.3503238574
 20
87.7224330333
  0
LWPOLYLINE
  5
34B
100
AcDbEntity
  8
ASSI
100
AcDbPolyline
 62
7
  6
CONTINUOUS
 90
58
 70
0
 10
135.0182315477
 20
-5.188171061
 10
135.0190181701
 20
-5.2314872467
 10
135.0213413985
 20
-5.2754665079
 10
135.0252012329
 20
-5.3201088447
 10
135.0306098221
 20
-5.3654948072
 10
135.0375550173
 20
-5.4115438452
 10
135.0460003725
 20
-5.4580143086
 10
135.0559537737
 20
-5.5049084128
 10
135.0674073349
 20
-5.5522239424
 10
135.0803009515
 20
-5.5997126011
 10
135.0946421937
 20
-5.647375299
 10
135.1104234913
 20
-5.695211126
 10
135.1275620293
 20
-5.7429690554
 10
135.1460649426
 20
-5.7906486778
 10
135.1659250962
 20
-5.8382504026
 10
135.1870382706
 20
-5.8855244317
 10
135.2094110529
 20
-5.9324690424
 10
135.233036856
 20
-5.9790859575
 10
135.2577916995
 20
-6.0251305466
 10
135.2836815187
 20
-6.0705998011
 10
135.3107003782
 20
-6.1154967297
 10
135.3387064921
 20
-6.1595857281
 10
135.3677050502
 20
-6.2028625492
 10
135.3976908627
 20
-6.24533144
 10
135.4285065738
 20
-6.2867695379
 10
135.4601565463
 20
-6.3271714241
 10
135.4926364175
 20
-6.3665425174
 10
135.5257757437
 20
-6.4046762112
 10
135.5595779916
 20
-6.4415660007
 10
135.5940396946
 20
-6.4772183908
 10
135.6289800089
 20
-6.5114462894
 10
135.6644014506
 20
-6.5442422082
 10
135.7003015036
 20
-6.5756136355
 10
135.7364917764
 20
-6.6053959445
 10
135.7729737946
 20
-6.6335807813
 10
135.8097460324
 20
-6.6601764998
 10
135.8466155215
 20
-6.6850435344
 10
135.8835827729
 20
-6.7081727975
 10
135.9206472755
 20
-6.7295733768
 10
135.9576145269
 20
-6.7491329689
 10
135.9944840159
 20
-6.7668418961
 10
136.0312562538
 20
-6.7827098362
 10
136.0677382719
 20
-6.7966535195
 10
136.1039285447
 20
-6.8086628304
 10
136.1398285978
 20
-6.8187478845
 10
136.1752500395
 20
-6.8268557586
 10
136.2101903538
 20
-6.8329760592
 10
136.2446520567
 20
-6.8371191799
 10
136.2784543046
 20
-6.839263379
 10
136.3115936308
 20
-6.8393981484
 10
136.344073502
 20
-6.8375339963
 10
136.3757234745
 20
-6.8336807049
 10
136.4065391857
 20
-6.8278278179
 10
136.4365249981
 20
-6.8199857916
 10
136.4655235562
 20
-6.8101957786
 10
136.4935296701
 20
-6.7984475385
 10
136.5205485297
 20
-6.7847513117
 10
136.5271431747
 20
-6.7810250702
  0
LWPOLYLINE
  5
34C
100
AcDbEntity
  8
ASSI
100
AcDbPolyline
 62
7
  6
CONTINUOUS
 90
19
 70
0
 10
135.5485616336
 20
-4.881965116
 10
135.5493482559
 20
-4.9252813017
 10
135.5516714844
 20
-4.9692605629
 10
135.5555313188
 20
-5.0139028997
 10
135.560939908
 20
-5.0592888622
 10
135.5678851032
 20
-5.1053379002
 10
135.5763304583
 20
-5.1518083636
 10
135.5862838596
 20
-5.1987024678
 10
135.5977374208
 20
-5.2460179974
 10
135.6106310374
 20
-5.2935066561
 10
135.6249722796
 20
-5.341169354
 10
135.6407535772
 20
-5.389005181
 10
135.6578921152
 20
-5.4367631104
 10
135.6763950285
 20
-5.4844427328
 10
135.6962551821
 20
-5.5320444576
 10
135.7173683565
 20
-5.5793184867
 10
135.7397411388
 20
-5.6262630974
 10
135.7633669419
 20
-5.6728800125
 10
135.7881217854
 20
-5.7189246016
  0
LWPOLYLINE
  5
34D
100
AcDbEntity
  8
ASSI
100
AcDbPolyline
 62
7
  6
CONTINUOUS
 90
58
 70
0
 10
135.0182315477
 20
81.3576782791
 10
135.0190181701
 20
81.3143620934
 10
135.0213413985
 20
81.2703828321
 10
135.0252012329
 20
81.2257404953
 10
135.0306098221
 20
81.1803545329
 10
135.0375550173
 20
81.1343054948
 10
135.0460003725
 20
81.0878350314
 10
135.0559537737
 20
81.0409409272
 10
135.0674073349
 20
80.9936253976
 10
135.0803009515
 20
80.946136739
 10
135.0946421937
 20
80.8984740411
 10
135.1104234913
 20
80.8506382141
 10
135.1275620293
 20
80.8028802846
 10
135.1460649426
 20
80.7552006623
 10
135.1659250962
 20
80.7075989374
 10
135.1870382706
 20
80.6603249083
 10
135.2094110529
 20
80.6133802976
 10
135.233036856
 20
80.5667633826
 10
135.2577916995
 20
80.5207187935
 10
135.2836815187
 20
80.4752495389
 10
135.3107003782
 20
80.4303526103
 10
135.3387064921
 20
80.3862636119
 10
135.3677050502
 20
80.3429867909
 10
135.3976908627
 20
80.3005179
 10
135.4285065738
 20
80.2590798021
 10
135.4601565463
 20
80.2186779159
 10
135.4926364175
 20
80.1793068226
 10
135.5257757437
 20
80.1411731288
 10
135.5595779916
 20
80.1042833393
 10
135.5940396946
 20
80.0686309493
 10
135.6289800089
 20
80.0344030507
 10
135.6644014506
 20
80.0016071319
 10
135.7003015036
 20
79.9702357045
 10
135.7364917764
 20
79.9404533956
 10
135.7729737946
 20
79.9122685587
 10
135.8097460324
 20
79.8856728402
 10
135.8466155215
 20
79.8608058057
 10
135.8835827729
 20
79.8376765425
 10
135.9206472755
 20
79.8162759633
 10
135.9576145269
 20
79.7967163711
 10
135.9944840159
 20
79.7790074439
 10
136.0312562538
 20
79.7631395038
 10
136.0677382719
 20
79.7491958205
 10
136.1039285447
 20
79.7371865096
 10
136.1398285978
 20
79.7271014556
 10
136.1752500395
 20
79.7189935814
 10
136.2101903538
 20
79.7128732808
 10
136.2446520567
 20
79.7087301601
 10
136.2784543046
 20
79.7065859611
 10
136.3115936308
 20
79.7064511916
 10
136.344073502
 20
79.7083153438
 10
136.3757234745
 20
79.7121686351
 10
136.4065391857
 20
79.7180215222
 10
136.4365249981
 20
79.7258635484
 10
136.4655235562
 20
79.7356535614
 10
136.4935296701
 20
79.7474018015
 10
136.5205485297
 20
79.7610980284
 10
136.5271431747
 20
79.7648242699
  0
LWPOLYLINE
  5
34E
100
AcDbEntity
  8
ASSI
100
AcDbPolyline
 62
7
  6
CONTINUOUS
 90
58
 70
0
 10
136.7859985007
 20
-6.2088575443
 10
136.7852118783
 20
-6.1655413586
 10
136.7828886499
 20
-6.1215620973
 10
136.7790288154
 20
-6.0769197605
 10
136.7736202263
 20
-6.0315337981
 10
136.766675031
 20
-5.98548476
 10
136.7582296759
 20
-5.9390142966
 10
136.7482762747
 20
-5.8921201924
 10
136.7368227135
 20
-5.8448046629
 10
136.7239290969
 20
-5.7973160042
 10
136.7095878547
 20
-5.7496533063
 10
136.693806557
 20
-5.7018174793
 10
136.676668019
 20
-5.6540595499
 10
136.6581651058
 20
-5.6063799275
 10
136.6383049521
 20
-5.5587782027
 10
136.6171917777
 20
-5.5115041736
 10
136.5948189954
 20
-5.4645595628
 10
136.5711931923
 20
-5.4179426478
 10
136.5464383488
 20
-5.3718980587
 10
136.5205485297
 20
-5.3264288042
 10
136.4935296701
 20
-5.2815318755
 10
136.4655235562
 20
-5.2374428771
 10
136.4365249981
 20
-5.1941660561
 10
136.4065391857
 20
-5.1516971652
 10
136.3757234745
 20
-5.1102590673
 10
136.344073502
 20
-5.0698571811
 10
136.3115936308
 20
-5.0304860879
 10
136.2784543046
 20
-4.992352394
 10
136.2446520567
 20
-4.9554626045
 10
136.2101903538
 20
-4.9198102145
 10
136.1752500395
 20
-4.8855823159
 10
136.1398285978
 20
-4.8527863971
 10
136.1039285447
 20
-4.8214149698
 10
136.0677382719
 20
-4.7916326608
 10
136.0312562538
 20
-4.7634478239
 10
135.9944840159
 20
-4.7368521055
 10
135.9576145269
 20
-4.7119850709
 10
135.9206472755
 20
-4.6888558077
 10
135.8835827729
 20
-4.6674552285
 10
135.8466155215
 20
-4.6478956363
 10
135.8097460324
 20
-4.6301867091
 10
135.7729737946
 20
-4.614318769
 10
135.7364917764
 20
-4.6003750857
 10
135.7003015036
 20
-4.5883657749
 10
135.6644014506
 20
-4.5782807208
 10
135.6289800089
 20
-4.5701728466
 10
135.5940396946
 20
-4.5640525461
 10
135.5595779916
 20
-4.5599094254
 10
135.5257757437
 20
-4.5577652263
 10
135.4926364175
 20
-4.5576304568
 10
135.4601565463
 20
-4.559494609
 10
135.4285065738
 20
-4.5633479003
 10
135.3976908627
 20
-4.5692007874
 10
135.3677050502
 20
-4.5770428136
 10
135.3387064921
 20
-4.5868328266
 10
135.3107003782
 20
-4.5985810667
 10
135.2836815187
 20
-4.6122772936
 10
135.2770868737
 20
-4.6160035351
  0
LWPOLYLINE
  5
34F
100
AcDbEntity
  8
ASSI
100
AcDbPolyline
 62
7
  6
CONTINUOUS
 90
19
 70
0
 10
135.5485616336
 20
81.6638842241
 10
135.5493482559
 20
81.6205680384
 10
135.5516714844
 20
81.5765887771
 10
135.5555313188
 20
81.5319464403
 10
135.560939908
 20
81.4865604779
 10
135.5678851032
 20
81.4405114398
 10
135.5763304583
 20
81.3940409764
 10
135.5862838596
 20
81.3471468722
 10
135.5977374208
 20
81.2998313426
 10
135.6106310374
 20
81.252342684
 10
135.6249722796
 20
81.2046799861
 10
135.6407535772
 20
81.1568441591
 10
135.6578921152
 20
81.1090862296
 10
135.6763950285
 20
81.0614066073
 10
135.6962551821
 20
81.0138048824
 10
135.7173683565
 20
80.9665308533
 10
135.7397411388
 20
80.9195862426
 10
135.7633669419
 20
80.8729693276
 10
135.7881217854
 20
80.8269247385
  0
LWPOLYLINE
  5
350
100
AcDbEntity
  8
ASSI
100
AcDbPolyline
 62
7
  6
CONTINUOUS
 90
58
 70
0
 10
136.7859985007
 20
80.3369917958
 10
136.7852118783
 20
80.3803079814
 10
136.7828886499
 20
80.4242872427
 10
136.7790288154
 20
80.4689295795
 10
136.7736202263
 20
80.514315542
 10
136.766675031
 20
80.56036458
 10
136.7582296759
 20
80.6068350434
 10
136.7482762747
 20
80.6537291476
 10
136.7368227135
 20
80.7010446772
 10
136.7239290969
 20
80.7485333359
 10
136.7095878547
 20
80.7961960338
 10
136.693806557
 20
80.8440318607
 10
136.676668019
 20
80.8917897902
 10
136.6581651058
 20
80.9394694126
 10
136.6383049521
 20
80.9870711374
 10
136.6171917777
 20
81.0343451665
 10
136.5948189954
 20
81.0812897772
 10
136.5711931923
 20
81.1279066922
 10
136.5464383488
 20
81.1739512813
 10
136.5205485297
 20
81.2194205359
 10
136.4935296701
 20
81.2643174645
 10
136.4655235562
 20
81.3084064629
 10
136.4365249981
 20
81.351683284
 10
136.4065391857
 20
81.3941521748
 10
136.3757234745
 20
81.4355902727
 10
136.344073502
 20
81.4759921589
 10
136.3115936308
 20
81.5153632522
 10
136.2784543046
 20
81.553496946
 10
136.2446520567
 20
81.5903867355
 10
136.2101903538
 20
81.6260391256
 10
136.1752500395
 20
81.6602670242
 10
136.1398285978
 20
81.6930629429
 10
136.1039285447
 20
81.7244343703
 10
136.0677382719
 20
81.7542166793
 10
136.0312562538
 20
81.7824015161
 10
135.9944840159
 20
81.8089972346
 10
135.9576145269
 20
81.8338642691
 10
135.9206472755
 20
81.8569935323
 10
135.8835827729
 20
81.8783941116
 10
135.8466155215
 20
81.8979537037
 10
135.8097460324
 20
81.9156626309
 10
135.7729737946
 20
81.931530571
 10
135.7364917764
 20
81.9454742543
 10
135.7003015036
 20
81.9574835652
 10
135.6644014506
 20
81.9675686192
 10
135.6289800089
 20
81.9756764934
 10
135.5940396946
 20
81.981796794
 10
135.5595779916
 20
81.9859399147
 10
135.5257757437
 20
81.9880841138
 10
135.4926364175
 20
81.9882188832
 10
135.4601565463
 20
81.986354731
 10
135.4285065738
 20
81.9825014397
 10
135.3976908627
 20
81.9766485526
 10
135.3677050502
 20
81.9688065264
 10
135.3387064921
 20
81.9590165134
 10
135.3107003782
 20
81.9472682733
 10
135.2836815187
 20
81.9335720465
 10
135.2770868737
 20
81.929845805
  0
LINE
  5
351
100
AcDbEntity
  8
0
100
AcDbLine
 62
7
  6
CONTINUOUS
 10
133.9575713759
 20
167.0871165247
 11
133.9575713759
 21
165.4541759711
  0
LINE
  5
352
100
AcDbEntity
  8
0
100
AcDbLine
 62
7
  6
CONTINUOUS
 10
133.9575713759
 20
128.1006608079
 11
133.9575713759
 21
-3.1469361866
  0
LINE
  5
353
100
AcDbEntity
  8
0
100
AcDbLine
 62
250
  6
CONTINUOUS
 10
134.3111247665
 20
167.9025609733
 11
134.3111247665
 21
167.2902082657
  0
LINE
  5
354
100
AcDbEntity
  8
ASSI
100
AcDbLine
 62
7
  6
CONTINUOUS
 10
135.0182315477
 20
166.0654633956
 11
135.0182508985
 21
131.6178767078
  0
LINE
  5
355
100
AcDbEntity
  8
ASSI
100
AcDbLine
 62
7
  6
CONTINUOUS
 10
135.5485616336
 20
165.7592574506
 11
135.5485809844
 21
131.3116707628
  0
LINE
  5
356
100
AcDbEntity
  8
0
100
AcDbLine
 62
250
  6
CONTINUOUS
 10
135.7606936679
 20
81.9362241216
 11
135.7606936679
 21
80.8782440598
  0
LINE
  5
357
100
AcDbEntity
  8
0
100
AcDbLine
 62
250
  6
CONTINUOUS
 10
135.7606936679
 20
-4.6096252185
 11
135.7606936679
 21
-5.6676052802
  0
LINE
  5
358
100
AcDbEntity
  8
0
100
AcDbLine
 62
7
  6
CONTINUOUS
 10
135.8314043461
 20
-5.7392352336
 11
135.8314043461
 21
-5.6576079334
  0
LINE
  5
359
100
AcDbEntity
  8
0
100
AcDbLine
 62
7
  6
CONTINUOUS
 10
135.8314043461
 20
80.8066141064
 11
135.8314043461
 21
80.8882414066
  0
LINE
  5
35A
100
AcDbEntity
  8
RACCORDO
100
AcDbLine
 62
7
  6
CONTINUOUS
 10
135.9788917195
 20
80.9733987676
 11
135.9788917195
 21
80.949549669
  0
LINE
  5
35B
100
AcDbEntity
  8
RACCORDO
100
AcDbLine
 62
7
  6
CONTINUOUS
 10
135.9788917195
 20
-5.5724505725
 11
135.9788917195
 21
-5.596299671
  0
LINE
  5
35C
100
AcDbEntity
  8
RACCORDO
100
AcDbLine
 62
250
  6
CONTINUOUS
 10
136.0081810413
 20
80.9903100549
 11
136.0081810413
 21
80.9087222097
  0
LINE
  5
35D
100
AcDbEntity
  8
RACCORDO
100
AcDbLine
 62
250
  6
CONTINUOUS
 10
136.0081810413
 20
-5.5555392851
 11
136.0081810413
 21
-5.6371271304
  0
LINE
  5
35E
100
AcDbEntity
  8
0
100
AcDbLine
 62
250
  6
CONTINUOUS
 10
136.1849577366
 20
81.6507572621
 11
136.1849577366
 21
81.0923787033
  0
LINE
  5
35F
100
AcDbEntity
  8
0
100
AcDbLine
 62
250
  6
CONTINUOUS
 10
136.1849577366
 20
-4.8950920779
 11
136.1849577366
 21
-5.4534706368
  0
LINE
  5
360
100
AcDbEntity
  8
0
100
AcDbLine
 62
7
  6
CONTINUOUS
 10
136.2556684148
 20
-5.943281784
 11
136.2556684148
 21
-5.8208112424
  0
LINE
  5
361
100
AcDbEntity
  8
0
100
AcDbLine
 62
7
  6
CONTINUOUS
 10
136.2556684148
 20
80.6025675561
 11
136.2556684148
 21
80.7250380976
  0
LINE
  5
362
100
AcDbEntity
  8
0
100
AcDbLine
 62
7
  6
CONTINUOUS
 10
136.2728257023
 20
81.5596396722
 11
136.2728257023
 21
81.2148610813
  0
LINE
  5
363
100
AcDbEntity
  8
0
100
AcDbLine
 62
7
  6
CONTINUOUS
 10
136.2728257023
 20
-4.9862096678
 11
136.2728257023
 21
-5.3309882588
  0
LWPOLYLINE
  5
364
100
AcDbEntity
  8
0
100
AcDbPolyline
 62
7
  6
CONTINUOUS
 90
21
 70
0
 10
133.9575713759
 20
-3.1469361866
 10
133.9566995784
 20
-3.1958793144
 10
133.9541217761
 20
-3.2435982321
 10
133.9498379691
 20
-3.2900929394
 10
133.943835688
 20
-3.3354348026
 10
133.9361274022
 20
-3.3795524554
 10
133.926750519
 20
-3.4222318001
 10
133.9156969278
 20
-3.4634658452
 10
133.9029747393
 20
-3.503261582
 10
133.8886456927
 20
-3.5414258864
 10
133.8727019776
 20
-3.5779508282
 10
133.8551514045
 20
-3.6128443376
 10
133.8360791444
 20
-3.6459370801
 10
133.8154778007
 20
-3.6772203028
 10
133.7933547699
 20
-3.7067027588
 10
133.7698174127
 20
-3.7342413728
 10
133.7448588543
 20
-3.7598266966
 10
133.7184859695
 20
-3.7834681784
 10
133.6908267429
 20
-3.805051089
 10
133.6618749218
 20
-3.8245654221
 10
133.6469437018
 20
-3.8335349964
  0
LWPOLYLINE
  5
365
100
AcDbEntity
  8
RACCORDO
100
AcDbPolyline
 62
7
  6
CONTINUOUS
 90
10
 70
0
 10
130.9796473828
 20
40.4327218261
 10
130.9770468309
 20
40.3105855355
 10
130.9693024909
 20
40.1927671583
 10
130.9565229697
 20
40.0796362207
 10
130.9388899329
 20
39.9717668016
 10
130.9165420282
 20
39.8692049204
 10
130.889478521
 20
39.771620755
 10
130.8577638133
 20
39.679205923
 10
130.8216159178
 20
39.5925104307
 10
130.7812202905
 20
39.5118165589
  0
LWPOLYLINE
  5
366
100
AcDbEntity
  8
RACCORDO
100
AcDbPolyline
 62
250
  6
CONTINUOUS
 90
6
 70
0
 10
132.3423170495
 20
40.1078434123
 10
132.3361037351
 20
39.8785722956
 10
132.3174873548
 20
39.6573458059
 10
132.2865385175
 20
39.4450031352
 10
132.2433746089
 20
39.2423497598
 10
132.1881593574
 20
39.0501544393
  0
LWPOLYLINE
  5
367
100
AcDbEntity
  8
RACCORDO
100
AcDbPolyline
 62
250
  6
CONTINUOUS
 90
13
 70
0
 10
132.625159762
 20
40.1754885618
 10
132.6187893184
 20
39.9404194631
 10
132.5997021539
 20
39.7135984978
 10
132.567970674
 20
39.4958860725
 10
132.5237152482
 20
39.2881080408
 10
132.4671037538
 20
39.0910525736
 10
132.3983509394
 20
38.9054671688
 10
132.3177176063
 20
38.7320558056
 10
132.2255096276
 20
38.5714762957
 10
132.1220767935
 20
38.4243377847
 10
132.0078114349
 20
38.291198379
 10
131.883147028
 20
38.1725631516
 10
131.7485565924
 20
38.0688822007
  0
LWPOLYLINE
  5
368
100
AcDbEntity
  8
RACCORDO
100
AcDbPolyline
 62
250
  6
CONTINUOUS
 90
49
 70
0
 10
131.0968046703
 20
40.2694119886
 10
131.0914786082
 20
40.0831141606
 10
131.0755936314
 20
39.9048072628
 10
131.04914974
 20
39.7344912953
 10
131.0119328992
 20
39.5713217006
 10
130.9641571438
 20
39.4161430361
 10
130.906464578
 20
39.2714889743
 10
130.8387498199
 20
39.1377029145
 10
130.7611182514
 20
39.0144414574
 10
130.674528122
 20
38.9032080771
 10
130.5788470203
 20
38.8041238585
 10
130.4742073578
 20
38.7170677167
 10
130.3619646183
 20
38.6431798713
 10
130.2420292826
 20
38.5826401615
 10
130.11449087
 20
38.535268748
 10
129.9809734218
 20
38.5016663331
 10
129.8413977883
 20
38.4820078768
 10
129.6958431192
 20
38.4761184191
 10
129.5461709054
 20
38.4840737819
 10
129.3923289188
 20
38.5060518346
 10
129.2343693876
 20
38.5418747078
 10
129.0743104873
 20
38.5910846146
 10
128.9121251443
 20
38.6538533528
 10
128.7478404322
 20
38.7300091247
 10
128.5835557478
 20
38.8185787501
 10
128.4192711112
 20
38.9197215386
 10
128.2549865023
 20
39.0332781807
 10
128.0928012568
 20
39.157797567
 10
127.9327423889
 20
39.2934202899
 10
127.7747828845
 20
39.4400057571
 10
127.6209410368
 20
39.5956810827
 10
127.4712691947
 20
39.7605636701
 10
127.3257150092
 20
39.934536116
 10
127.1861397267
 20
40.1153733246
 10
127.0526222703
 20
40.3031592208
 10
126.9250837169
 20
40.4978098797
 10
126.805148543
 20
40.696848431
 10
126.6929066115
 20
40.9003506641
 10
126.5882680595
 20
41.1082407897
 10
126.4925877744
 20
41.3178145694
 10
126.4059978413
 20
41.5290407671
 10
126.3283661751
 20
41.7419506189
 10
126.2606514078
 20
41.9539335942
 10
126.2029590072
 20
42.1652121774
 10
126.1551835056
 20
42.3755638841
 10
126.1179671319
 20
42.5817107304
 10
126.0915239625
 20
42.7825600551
 10
126.075639921
 20
42.9792045194
 10
126.0703150075
 20
43.1716441233
  0
LWPOLYLINE
  5
369
100
AcDbEntity
  8
0
100
AcDbPolyline
 62
7
  6
CONTINUOUS
 90
6
 70
0
 10
136.2723091644
 20
81.2148610813
 10
136.2712307517
 20
81.1994722826
 10
136.2626034502
 20
81.1700294194
 10
136.2453488472
 20
81.1428111132
 10
136.2194669427
 20
81.1169275411
 10
136.1849577366
 20
81.0923787033
  0
LWPOLYLINE
  5
36A
100
AcDbEntity
  8
RACCORDO
100
AcDbPolyline
 62
250
  6
CONTINUOUS
 90
4
 70
0
 10
125.8394541483
 20
44.0107731899
 10
125.8122850696
 20
43.8243599561
 10
125.7959424444
 20
43.6301490803
 10
125.7904880532
 20
43.4288773874
  0
LWPOLYLINE
  5
36B
100
AcDbEntity
  8
ASSI
100
AcDbPolyline
 62
7
  6
CONTINUOUS
 90
18
 70
0
 10
135.3503238574
 20
87.7224330333
 10
135.3415101657
 20
87.7171008764
 10
135.3245415922
 20
87.7053515178
 10
135.3084857332
 20
87.6921619788
 10
135.2933364371
 20
87.6775419662
 10
135.2791962706
 20
87.6615904631
 10
135.2660720812
 20
87.6442984345
 10
135.2539570213
 20
87.6256749154
 10
135.2429331147
 20
87.6058459944
 10
135.2330077655
 20
87.584803492
 10
135.2241735695
 20
87.5625555876
 10
135.2164903378
 20
87.5392529084
 10
135.2099658803
 20
87.5148882968
 10
135.204592387
 20
87.4894689104
 10
135.2004062386
 20
87.4631668482
 10
135.1974195619
 20
87.4360394768
 10
135.19562023
 20
87.4080294296
 10
135.195008243
 20
87.3791367067
  0
LWPOLYLINE
  5
36C
100
AcDbEntity
  8
ASSI
100
AcDbPolyline
 62
7
  6
CONTINUOUS
 90
18
 70
0
 10
136.1003528003
 20
86.4234284901
 10
136.1091664921
 20
86.428760647
 10
136.1261350656
 20
86.4405100056
 10
136.1421909245
 20
86.4536995446
 10
136.1573402206
 20
86.4683195572
 10
136.1714803872
 20
86.4842710603
 10
136.1846045766
 20
86.5015630889
 10
136.1967196365
 20
86.520186608
 10
136.2077435431
 20
86.540015529
 10
136.2176688923
 20
86.5610580314
 10
136.2265030882
 20
86.5833059357
 10
136.23418632
 20
86.606608615
 10
136.2407107774
 20
86.6309732265
 10
136.2460842707
 20
86.656392613
 10
136.2502704192
 20
86.6826946752
 10
136.2532570959
 20
86.7098220466
 10
136.2550564277
 20
86.7378320938
 10
136.2556684148
 20
86.7667248167
  0
LINE
  5
36D
100
AcDbEntity
  8
ASSI
100
AcDbLine
 62
250
  6
CONTINUOUS
 10
135.7253383289
 20
87.6853426517
 11
135.195008243
 21
87.3791367067
  0
LWPOLYLINE
  5
36E
100
AcDbEntity
  8
RACCORDO
100
AcDbPolyline
 62
250
  6
CONTINUOUS
 90
4
 70
0
 10
100.1932225743
 20
104.6570584438
 10
100.2010879878
 20
104.6587717237
 10
100.2157441698
 20
104.6637535891
 10
100.2285779133
 20
104.6700115748
  0
LWPOLYLINE
  5
36F
100
AcDbEntity
  8
0
100
AcDbPolyline
 62
7
  6
CONTINUOUS
 90
25
 70
0
 10
99.8396691837
 20
143.4041533444
 10
99.8660253899
 20
143.3704640739
 10
99.8917094409
 20
143.3358186303
 10
99.9165751276
 20
143.3004142364
 10
99.9406177826
 20
143.2642465636
 10
99.9638420733
 20
143.2273199406
 10
99.9861157931
 20
143.1898445758
 10
100.0074335203
 20
143.1518173396
 10
100.0278006766
 20
143.1132413618
 10
100.0471013199
 20
143.07433624
 10
100.0653293672
 20
143.0351000971
 10
100.0824909014
 20
142.9955348102
 10
100.0984882288
 20
142.9558656088
 10
100.1133147092
 20
142.9160919003
 10
100.1269769828
 20
142.8762142774
 10
100.1393972755
 20
142.8364597475
 10
100.1505685039
 20
142.7968290127
 10
100.1604977515
 20
142.7573213709
 10
100.169128495
 20
142.7181617234
 10
100.1764533285
 20
142.6793520551
 10
100.1824796579
 20
142.6408903812
 10
100.1871731777
 20
142.6029956487
 10
100.1905224528
 20
142.5657408399
 10
100.1925389183
 20
142.5290529726
 10
100.1932225743
 20
142.4929320466
  0
LINE
  5
370
100
AcDbEntity
  8
0
100
AcDbLine
 62
7
  6
CONTINUOUS
 10
141.3821925784
 20
-20.7017573264
 11
141.3821925784
 21
25.020578174
  0
LINE
  5
371
100
AcDbEntity
  8
0
100
AcDbLine
 62
7
  6
CONTINUOUS
 10
141.9125226643
 20
-21.0079632714
 11
141.9125226643
 21
24.714372229
  0
LWPOLYLINE
  5
372
100
AcDbEntity
  8
0
100
AcDbPolyline
 62
7
  6
CONTINUOUS
 90
6
 70
0
 10
136.2723091644
 20
-5.3309882588
 10
136.2712307517
 20
-5.3463770574
 10
136.2626034502
 20
-5.3758199206
 10
136.2453488472
 20
-5.4030382269
 10
136.2194669427
 20
-5.4289217989
 10
136.1849577366
 20
-5.4534706368
  0
LWPOLYLINE
  5
373
100
AcDbEntity
  8
ASSI
100
AcDbPolyline
 62
7
  6
CONTINUOUS
 90
9
 70
0
 10
132.6362333823
 20
39.8743899674
 10
132.6505612912
 20
39.9364576097
 10
132.668965203
 20
40.0305343159
 10
132.684560842
 20
40.1268386324
 10
132.697356172
 20
40.2253642421
 10
132.7073148391
 20
40.325831215
 10
132.7144247253
 20
40.4281462413
 10
132.7186979485
 20
40.5324026308
 10
132.7201345088
 20
40.6386003836
  0
LINE
  5
374
100
AcDbEntity
  8
SMUSSO
100
AcDbLine
 62
7
  6
CONTINUOUS
 10
100.3523216
 20
17.7669416931
 11
100.8826516859
 21
18.6855003457
  0
LINE
  5
375
100
AcDbEntity
  8
SMUSSO
100
AcDbLine
 62
7
  6
CONTINUOUS
 10
100.9887177031
 20
18.6242591567
 11
100.4583876172
 21
17.7057005041
  0
LWPOLYLINE
  5
376
100
AcDbEntity
  8
ASSI
100
AcDbPolyline
 62
7
  6
CONTINUOUS
 90
15
 70
0
 10
122.1562498567
 20
61.589253397
 10
122.1553968873
 20
61.5881166798
 10
122.1365123223
 20
61.5594403923
 10
122.1190294171
 20
61.5291053783
 10
122.1029413918
 20
61.4971196614
 10
122.0883263196
 20
61.4636384647
 10
122.0751913603
 20
61.428654519
 10
122.0635293542
 20
61.3921750936
 10
122.0533968956
 20
61.3543772189
 10
122.0448014193
 20
61.3152544863
 10
122.0377354906
 20
61.2748133045
 10
122.0322333997
 20
61.23324993
 10
122.0283065765
 20
61.1906297815
 10
122.0259435911
 20
61.1468874404
 10
122.0251444434
 20
61.1020229065
  0
LWPOLYLINE
  5
377
100
AcDbEntity
  8
ASSI
100
AcDbPolyline
 62
7
  6
CONTINUOUS
 90
20
 70
0
 10
135.2770868737
 20
81.929845805
 10
135.2577916995
 20
81.9179997061
 10
135.233036856
 20
81.9005413898
 10
135.2094110529
 20
81.88120696
 10
135.1870382706
 20
81.8600978774
 10
135.1659250962
 20
81.837204813
 10
135.1460649426
 20
81.8125370957
 10
135.1275620293
 20
81.7862241737
 10
135.1104234913
 20
81.7582573984
 10
135.0946421937
 20
81.7286454184
 10
135.0803009515
 20
81.6975436275
 10
135.0674073349
 20
81.6649441941
 10
135.0559537737
 20
81.6308549499
 10
135.0460003725
 20
81.5954547839
 10
135.0375550173
 20
81.558736805
 10
135.0306098221
 20
81.5207079043
 10
135.0252012329
 20
81.4815676451
 10
135.0213413985
 20
81.4413825483
 10
135.0190181701
 20
81.400086093
 10
135.0182315477
 20
81.3576782791
  0
LWPOLYLINE
  5
378
100
AcDbEntity
  8
ASSI
100
AcDbPolyline
 62
7
  6
CONTINUOUS
 90
20
 70
0
 10
136.5271431747
 20
79.7648242699
 10
136.5464383488
 20
79.7766703687
 10
136.5711931923
 20
79.794128685
 10
136.5948189954
 20
79.8134631148
 10
136.6171917777
 20
79.8345721974
 10
136.6383049521
 20
79.8574652619
 10
136.6581651058
 20
79.8821329791
 10
136.676668019
 20
79.9084459011
 10
136.693806557
 20
79.9364126764
 10
136.7095878547
 20
79.9660246564
 10
136.7239290969
 20
79.9971264473
 10
136.7368227135
 20
80.0297258807
 10
136.7482762747
 20
80.063815125
 10
136.7582296759
 20
80.0992152909
 10
136.766675031
 20
80.1359332699
 10
136.7736202263
 20
80.1739621705
 10
136.7790288154
 20
80.2131024298
 10
136.7828886499
 20
80.2532875265
 10
136.7852118783
 20
80.2945839819
 10
136.7859985007
 20
80.3369917958
  0
LINE
  5
379
100
AcDbEntity
  8
0
100
AcDbLine
 62
250
  6
CONTINUOUS
 10
100.1932225743
 20
62.4788449209
 11
99.8396691837
 21
62.2747076243
  0
LINE
  5
37A
100
AcDbEntity
  8
0
100
AcDbLine
 62
7
  6
CONTINUOUS
 10
99.9861399532
 20
62.0211080598
 11
99.8396691837
 21
61.9365376732
  0
LINE
  5
37B
100
AcDbEntity
  8
ASSI
100
AcDbLine
 62
250
  6
CONTINUOUS
 10
135.5485616336
 20
81.6638842241
 11
135.0182315477
 21
81.3576782791
  0
LINE
  5
37C
100
AcDbEntity
  8
0
100
AcDbLine
 62
7
  6
CONTINUOUS
 10
136.1849577366
 20
81.0923787033
 11
135.7732183237
 21
80.8546455265
  0
LINE
  5
37D
100
AcDbEntity
  8
0
100
AcDbLine
 62
7
  6
CONTINUOUS
 10
135.8075340746
 20
80.7928317108
 11
135.8314043461
 21
80.8066141064
  0
LINE
  5
37E
100
AcDbEntity
  8
0
100
AcDbLine
 62
7
  6
CONTINUOUS
 10
136.261705097
 20
80.7285236022
 11
136.2556684148
 21
80.7250380976
  0
LINE
  5
37F
100
AcDbEntity
  8
0
100
AcDbLine
 62
7
  6
CONTINUOUS
 10
100.7235526601
 20
138.7178913457
 11
101.0771060507
 21
138.5137540491
  0
LWPOLYLINE
  5
380
100
AcDbEntity
  8
RACCORDO
100
AcDbPolyline
 62
250
  6
CONTINUOUS
 90
19
 70
0
 10
132.1881593574
 20
39.0501544393
 10
132.121102224
 20
38.8691462909
 10
132.0424575837
 20
38.7000119468
 10
131.95252376
 20
38.5433929816
 10
131.851641917
 20
38.3998835211
 10
131.7401947057
 20
38.2700279048
 10
131.6186049146
 20
38.1543187547
 10
131.4873339104
 20
38.0531950788
 10
131.3468800246
 20
37.9670406103
 10
131.1977757691
 20
37.8961818499
 10
131.0405857718
 20
37.8408872404
 10
130.8759054546
 20
37.8013666333
 10
130.7043600755
 20
37.7777704623
 10
130.5266015275
 20
37.770188478
 10
130.3433046827
 20
37.7786493082
 10
130.1551643921
 20
37.803120726
 10
129.9628940574
 20
37.8435098922
 10
129.7672229331
 20
37.899663618
 10
129.5688933747
 20
37.9713688639
  0
LWPOLYLINE
  5
381
100
AcDbEntity
  8
ASSI
100
AcDbPolyline
 62
7
  6
CONTINUOUS
 90
21
 70
0
 10
121.9563330874
 20
61.5272678522
 10
121.9426461357
 20
61.5190457425
 10
121.9161069664
 20
61.5011576038
 10
121.8907526753
 20
61.4813732691
 10
121.8665775309
 20
61.4597019107
 10
121.8436988524
 20
61.4362486973
 10
121.8221229416
 20
61.4110049677
 10
121.8018434967
 20
61.3839793831
 10
121.7829589317
 20
61.3553030956
 10
121.7654760266
 20
61.3249680816
 10
121.7493880012
 20
61.2929823647
 10
121.7347729291
 20
61.259501168
 10
121.7216379697
 20
61.2245172223
 10
121.7099759636
 20
61.1880377969
 10
121.699843505
 20
61.1502399222
 10
121.6912480287
 20
61.1111171897
 10
121.6841821
 20
61.0706760078
 10
121.6786800091
 20
61.0291126333
 10
121.6747531859
 20
60.9864924849
 10
121.6723902005
 20
60.9427501437
 10
121.6715910528
 20
60.8978856099
  0
LINE
  5
382
100
AcDbEntity
  8
0
100
AcDbLine
 62
7
  6
CONTINUOUS
 10
109.562387425
 20
57.6836701058
 11
99.8396691837
 21
52.0698944475
  0
LINE
  5
383
100
AcDbEntity
  8
0
100
AcDbLine
 62
7
  6
CONTINUOUS
 10
109.9159408156
 20
57.479572264
 11
110.2694942062
 21
57.6837095607
  0
LINE
  5
384
100
AcDbEntity
  8
ASSI
100
AcDbLine
 62
250
  6
CONTINUOUS
 10
122.0251444434
 20
61.1020229065
 11
121.6715910528
 21
60.8978856099
  0
LINE
  5
385
100
AcDbEntity
  8
ASSI
100
AcDbLine
 62
250
  6
CONTINUOUS
 10
122.0251444434
 20
57.8361417994
 11
121.6715910528
 21
57.6320045027
  0
LWPOLYLINE
  5
386
100
AcDbEntity
  8
0
100
AcDbPolyline
 62
7
  6
CONTINUOUS
 90
31
 70
0
 10
109.562387425
 20
57.6836701058
 10
109.581468028
 20
57.6941150419
 10
109.6013532937
 20
57.7039212939
 10
109.6220432218
 20
57.7130888618
 10
109.6435993415
 20
57.7216395031
 10
109.6659601236
 20
57.7295514603
 10
109.6889409816
 20
57.7367594605
 10
109.7125460169
 20
57.7432574178
 10
109.736771128
 20
57.7490514181
 10
109.7614194234
 20
57.7540944463
 10
109.7864948376
 20
57.7583805207
 10
109.8119934361
 20
57.7619156231
 10
109.8377065232
 20
57.7646706834
 10
109.8636360837
 20
57.7666392761
 10
109.8897801327
 20
57.7678278267
 10
109.9159240206
 20
57.7682265425
 10
109.9420673506
 20
57.7678289329
 10
109.9682105195
 20
57.7666414885
 10
109.9941400675
 20
57.7646738878
 10
110.0198543099
 20
57.7619197792
 10
110.0453549314
 20
57.7583855144
 10
110.0704335261
 20
57.7540998271
 10
110.0950870144
 20
57.7490564526
 10
110.1193184758
 20
57.7432616556
 10
110.1429287433
 20
57.7367629633
 10
110.1659126399
 20
57.7295545126
 10
110.1882753425
 20
57.7216421665
 10
110.2098332141
 20
57.7130910412
 10
110.2305250424
 20
57.703922842
 10
110.2504120398
 20
57.6941158635
 10
110.2694942062
 20
57.6836701058
  0
LINE
  5
387
100
AcDbEntity
  8
0
100
AcDbLine
 62
7
  6
CONTINUOUS
 10
133.9575713759
 20
165.4541759711
 11
135.0182315477
 21
162.3923532508
  0
LWPOLYLINE
  5
388
100
AcDbEntity
  8
0
100
AcDbPolyline
 62
7
  6
CONTINUOUS
 90
10
 70
0
 10
133.8969946821
 20
167.5293217861
 10
133.9029747393
 20
167.5064887476
 10
133.9156969278
 20
167.4520017464
 10
133.926750519
 20
167.3980032912
 10
133.9361274022
 20
167.3444957569
 10
133.943835688
 20
167.2914767688
 10
133.9498379691
 20
167.2392036219
 10
133.9541217761
 20
167.1877620815
 10
133.9566995784
 20
167.1370663825
 10
133.9575713759
 20
167.0871165247
  0
LINE
  5
389
100
AcDbEntity
  8
0
100
AcDbLine
 62
250
  6
CONTINUOUS
 10
164.7167163575
 20
182.6005844254
 11
164.7167163575
 21
-8.4534603442
  0
LINE
  5
38A
100
AcDbEntity
  8
0
100
AcDbLine
 62
7
  6
CONTINUOUS
 10
165.082832881
 20
183.110927667
 11
165.082832881
 21
-7.9431171025
  0
LINE
  5
38B
100
AcDbEntity
  8
0
100
AcDbLine
 62
7
  6
CONTINUOUS
 10
165.3531124606
 20
-5.6364445601
 11
165.3531124606
 21
181.9476015331
  0
LWPOLYLINE
  5
38C
100
AcDbEntity
  8
RACCORDO
100
AcDbPolyline
 62
250
  6
CONTINUOUS
 90
43
 70
0
 10
130.7812202905
 20
39.5118165589
 10
130.7707251327
 20
39.4929698528
 10
130.7010981588
 20
39.3827614245
 10
130.6231007274
 20
39.282966396
 10
130.5370669767
 20
39.1940121563
 10
130.443365266
 20
39.1162794513
 10
130.3423965982
 20
39.0501009353
 10
130.2345931512
 20
38.9957599649
 10
130.120416676
 20
38.953489383
 10
130.000356288
 20
38.9234702829
 10
129.8749262244
 20
38.9058312001
 10
129.7446635074
 20
38.9006476161
 10
129.6101258409
 20
38.9079417174
 10
129.4718892827
 20
38.9276822874
 10
129.3305458311
 20
38.9597848018
 10
129.186700784
 20
39.0041117856
 10
129.0409701274
 20
39.0604734136
 10
128.893977888
 20
39.1286283378
 10
128.7463535031
 20
39.2082847098
 10
128.5987291289
 20
39.2991014245
 10
128.4517369132
 20
39.4006895914
 10
128.3060062813
 20
39.5126142085
 10
128.1621612478
 20
39.6343960252
 10
128.0208178117
 20
39.7655135331
 10
127.8825812937
 20
39.9054052014
 10
127.7480437146
 20
40.0534718991
 10
127.6177811052
 20
40.2090796469
 10
127.4923511215
 20
40.3715622953
 10
127.3722907448
 20
40.5402242927
 10
127.2581142658
 20
40.714343218
 10
127.1503108847
 20
40.8931730238
 10
127.0493424065
 20
41.0759475206
 10
126.955640924
 20
41.2618843954
 10
126.8696073289
 20
41.4501881506
 10
126.7916099544
 20
41.6400527801
 10
126.7219830059
 20
41.8306649368
 10
126.6610247692
 20
42.0212081338
 10
126.608996167
 20
42.2108669629
 10
126.5661202072
 20
42.3988287137
 10
126.5325808023
 20
42.5842866701
 10
126.5085213828
 20
42.7664461564
 10
126.4940445897
 20
42.9445278679
 10
126.4892121526
 20
43.1177693818
  0
LWPOLYLINE
  5
38D
100
AcDbEntity
  8
RACCORDO
100
AcDbPolyline
 62
250
  6
CONTINUOUS
 90
4
 70
0
 10
100.128934674
 20
18.2224514328
 10
100.1343657019
 20
18.2284257561
 10
100.1460173672
 20
18.2386401097
 10
100.1578672352
 20
18.2466367218
  0
LWPOLYLINE
  5
38E
100
AcDbEntity
  8
ASSI
100
AcDbPolyline
 62
7
  6
CONTINUOUS
 90
21
 70
0
 10
123.3313926664
 20
55.8798671287
 10
123.3450796181
 20
55.8880892384
 10
123.3716187874
 20
55.9059773771
 10
123.3969730785
 20
55.9257617118
 10
123.4211482229
 20
55.9474330702
 10
123.4440269014
 20
55.9708862836
 10
123.4656028122
 20
55.9961300132
 10
123.4858822571
 20
56.0231555978
 10
123.5047668222
 20
56.0518318853
 10
123.5222497273
 20
56.0821668993
 10
123.5383377526
 20
56.1141526162
 10
123.5529528248
 20
56.1476338129
 10
123.5660877841
 20
56.1826177586
 10
123.5777497903
 20
56.219097184
 10
123.5878822489
 20
56.2568950587
 10
123.5964777251
 20
56.2960177913
 10
123.6035436538
 20
56.3364589731
 10
123.6090457448
 20
56.3780223476
 10
123.6129725679
 20
56.420642496
 10
123.6153355534
 20
56.4643848372
 10
123.6161347011
 20
56.509249371
  0
LINE
  5
38F
100
AcDbEntity
  8
ASSI
100
AcDbLine
 62
250
  6
CONTINUOUS
 10
135.5501277652
 20
131.2642925208
 11
135.0197976793
 21
131.5704984658
  0
LINE
  5
390
100
AcDbEntity
  8
ASSI
100
AcDbLine
 62
250
  6
CONTINUOUS
 10
79.6886920514
 20
163.5179853937
 11
80.2190221373
 21
163.2117794487
  0
LINE
  5
391
100
AcDbEntity
  8
ASSI
100
AcDbLine
 62
250
  6
CONTINUOUS
 10
135.5485616336
 20
131.3176990806
 11
135.0182315477
 21
131.6239050256
  0
LINE
  5
392
100
AcDbEntity
  8
ASSI
100
AcDbLine
 62
250
  6
CONTINUOUS
 10
79.6871259198
 20
163.5713919534
 11
80.2174560057
 21
163.2651860085
  0
LWPOLYLINE
  5
393
100
AcDbEntity
  8
0
100
AcDbPolyline
 62
7
  6
CONTINUOUS
 90
17
 70
0
 10
165.3531124606
 20
181.9476015331
 10
165.3518710676
 20
182.0352936998
 10
165.3481824125
 20
182.1241205715
 10
165.3420464952
 20
182.2140821483
 10
165.3334515125
 20
182.3052771229
 10
165.3224092677
 20
182.3976068026
 10
165.3089551704
 20
182.490775109
 10
165.2930814782
 20
182.5847847343
 10
165.2747959335
 20
182.6796329864
 10
165.2541571736
 20
182.7750157106
 10
165.2311576443
 20
182.8709346226
 10
165.2058048996
 20
182.9673880067
 10
165.1781802397
 20
183.0640665609
 10
165.1482763711
 20
183.160971008
 10
165.1161005873
 20
183.2581006252
 10
165.0817560678
 20
183.355143942
 10
165.0540131048
 20
183.4287981384
  0
LWPOLYLINE
  5
394
100
AcDbEntity
  8
RACCORDO
100
AcDbPolyline
 62
7
  6
CONTINUOUS
 90
16
 70
0
 10
126.8912877907
 20
46.2283472889
 10
126.7614958927
 20
46.146041517
 10
126.6376712221
 20
46.0522686289
 10
126.520396028
 20
45.9471379276
 10
126.4102884163
 20
45.830877076
 10
126.3077973438
 20
45.7036224289
 10
126.2132279931
 20
45.5653193328
 10
126.1268910358
 20
45.4158113696
 10
126.0494530792
 20
45.2555695076
 10
125.9816042655
 20
45.0855164577
 10
125.9235904387
 20
44.9058463325
 10
125.8757189567
 20
44.7169781264
 10
125.8384284682
 20
44.5204257576
 10
125.8118117218
 20
44.317078694
 10
125.7958224892
 20
44.1070381814
 10
125.7904880532
 20
43.8907873611
  0
LINE
  5
395
100
AcDbEntity
  8
0
100
AcDbLine
 62
7
  6
CONTINUOUS
 10
126.9155518594
 20
46.242357058
 11
126.8912877907
 21
46.2283472889
  0
LINE
  5
396
100
AcDbEntity
  8
RACCORDO
100
AcDbLine
 62
250
  6
CONTINUOUS
 10
126.8912877907
 20
46.2283472889
 11
126.9282540759
 21
46.2490368106
  0
LWPOLYLINE
  5
397
100
AcDbEntity
  8
RACCORDO
100
AcDbPolyline
 62
250
  6
CONTINUOUS
 90
13
 70
0
 10
128.4871112
 20
44.5339994857
 10
128.4493046708
 20
44.5135596842
 10
128.3669034173
 20
44.4552651852
 10
128.291442383
 20
44.3871911214
 10
128.2230385499
 20
44.3092219116
 10
128.1615749361
 20
44.221473137
 10
128.107914202
 20
44.12516084
 10
128.0621505339
 20
44.0199855541
 10
128.0241897455
 20
43.9062467457
 10
127.9946119388
 20
43.786058856
 10
127.9736104809
 20
43.6601266989
 10
127.9609920047
 20
43.5277454605
 10
127.9567565101
 20
43.3889151409
  0
LWPOLYLINE
  5
398
100
AcDbEntity
  8
RACCORDO
100
AcDbPolyline
 62
250
  6
CONTINUOUS
 90
13
 70
0
 10
128.3852415886
 20
44.5803928241
 10
128.3634496
 20
44.5686761257
 10
128.2783447115
 20
44.5086772552
 10
128.2000402774
 20
44.4381627422
 10
128.1289177226
 20
44.3574759359
 10
128.0653237187
 20
44.267009983
 10
128.0095682122
 20
44.1672057323
 10
127.9619227689
 20
44.0585492069
 10
127.9226196349
 20
43.9415699456
 10
127.8918504894
 20
43.8168387656
 10
127.8697651052
 20
43.6849638137
 10
127.8564708204
 20
43.546587414
 10
127.8520322239
 20
43.4023838263
  0
LWPOLYLINE
  5
399
100
AcDbEntity
  8
RACCORDO
100
AcDbPolyline
 62
250
  6
CONTINUOUS
 90
38
 70
0
 10
126.9282540759
 20
46.2490368106
 10
127.0811287695
 20
46.3216875784
 10
127.2422936018
 20
46.3783806026
 10
127.4111379995
 20
46.4189007306
 10
127.587020965
 20
46.4430937786
 10
127.7692742947
 20
46.4508677478
 10
127.9572061725
 20
46.4421932509
 10
128.1501040838
 20
46.417103294
 10
128.3472364454
 20
46.3756930746
 10
128.5478554825
 20
46.3181196906
 10
128.7512001422
 20
46.2446015655
 10
128.9564991519
 20
46.1554175591
 10
129.1629739333
 20
46.0509058732
 10
129.3698410561
 20
45.9314630374
 10
129.5763153008
 20
45.7975424824
 10
129.7816129892
 20
45.6496526627
 10
129.9849558313
 20
45.4883543897
 10
130.1855733495
 20
45.3142588444
 10
130.3827050143
 20
45.1280258721
 10
130.575602504
 20
44.9303622788
 10
130.7635334454
 20
44.7220185247
 10
130.9457846058
 20
44.5037854355
 10
131.1216650659
 20
44.2764904651
 10
131.2905081538
 20
44.0409951749
 10
131.4516736526
 20
43.7981923905
 10
131.6045498558
 20
43.5490035462
 10
131.74855644
 20
43.2943745715
 10
131.8831469293
 20
43.0352718767
 10
132.0078110985
 20
42.7726778613
 10
132.122076424
 20
42.5075878432
 10
132.2255096077
 20
42.2410068398
 10
132.3177179921
 20
41.9739466219
 10
132.3983515059
 20
41.7074210823
 10
132.4671042362
 20
41.4424416371
 10
132.5237155639
 20
41.1800130331
 10
132.5679708501
 20
40.9211303871
 10
132.5997022371
 20
40.666775609
 10
132.6187893404
 20
40.4179136636
  0
LWPOLYLINE
  5
39A
100
AcDbEntity
  8
RACCORDO
100
AcDbPolyline
 62
7
  6
CONTINUOUS
 90
7
 70
0
 10
101.3776264327
 20
18.848810183
 10
101.390809275
 20
18.8576154378
 10
101.4016479126
 20
18.8669813366
 10
101.4101423454
 20
18.8769078794
 10
101.4163569549
 20
18.8875819476
 10
101.4202273597
 20
18.8988166598
 10
101.4215604156
 20
18.910051372
  0
LINE
  5
39B
100
AcDbEntity
  8
RACCORDO
100
AcDbLine
 62
250
  6
CONTINUOUS
 10
131.7485565924
 20
38.0688822007
 11
131.641517312
 21
38.0012384714
  0
LWPOLYLINE
  5
39C
100
AcDbEntity
  8
0
100
AcDbPolyline
 62
7
  6
CONTINUOUS
 90
14
 70
0
 10
131.6657449543
 20
38.0153113661
 10
131.7728181495
 20
38.0828902388
 10
131.9071882442
 20
38.1865150248
 10
132.032166484
 20
38.3054485547
 10
132.1463395553
 20
38.4383458712
 10
132.2495848057
 20
38.585365481
 10
132.3420248876
 20
38.7463488773
 10
132.4226144443
 20
38.919475583
 10
132.4912189573
 20
39.10488344
 10
132.5479729451
 20
39.3024346063
 10
132.5922346065
 20
39.5098950788
 10
132.6237900077
 20
39.72652019
 10
132.6428530824
 20
39.9530546074
 10
132.6494238307
 20
40.189498331
  0
LWPOLYLINE
  5
39D
100
AcDbEntity
  8
ASSI
100
AcDbPolyline
 62
7
  6
CONTINUOUS
 90
20
 70
0
 10
96.739767299
 20
17.6349618013
 10
96.7204721249
 20
17.6231157024
 10
96.6957172813
 20
17.6056573861
 10
96.6720914782
 20
17.5863229563
 10
96.649718696
 20
17.5652138737
 10
96.6286055215
 20
17.5423208093
 10
96.6087453679
 20
17.517653092
 10
96.5902424547
 20
17.4913401701
 10
96.5731039167
 20
17.4633733947
 10
96.557322619
 20
17.4337614147
 10
96.5429813768
 20
17.4026596238
 10
96.5300877602
 20
17.3700601904
 10
96.518634199
 20
17.3359709462
 10
96.5086807978
 20
17.3005707803
 10
96.5002354426
 20
17.2638528013
 10
96.4932902474
 20
17.2258239006
 10
96.4878816582
 20
17.1866836414
 10
96.4840218238
 20
17.1464985446
 10
96.4816985954
 20
17.1052020893
 10
96.480911973
 20
17.0627942754
  0
LWPOLYLINE
  5
39E
100
AcDbEntity
  8
ASSI
100
AcDbPolyline
 62
7
  6
CONTINUOUS
 90
20
 70
0
 10
97.9898236
 20
15.4699402662
 10
98.0091187742
 20
15.481786365
 10
98.0338736177
 20
15.4992446813
 10
98.0574994208
 20
15.5185791111
 10
98.079872203
 20
15.5396881937
 10
98.1009853775
 20
15.5625812582
 10
98.1208455311
 20
15.5872489754
 10
98.1393484443
 20
15.6135618974
 10
98.1564869823
 20
15.6415286727
 10
98.17226828
 20
15.6711406528
 10
98.1866095222
 20
15.7022424436
 10
98.1995031388
 20
15.734841877
 10
98.2109567
 20
15.7689311213
 10
98.2209101012
 20
15.8043312872
 10
98.2293554564
 20
15.8410492662
 10
98.2363006516
 20
15.8790781669
 10
98.2417092408
 20
15.9182184261
 10
98.2455690752
 20
15.9584035229
 10
98.2478923036
 20
15.9996999782
 10
98.248678926
 20
16.0421077921
  0
LINE
  5
39F
100
AcDbEntity
  8
0
100
AcDbLine
 62
7
  6
CONTINUOUS
 10
131.6657813807
 20
38.0152482405
 11
131.641517312
 21
38.0012384714
  0
LINE
  5
3A0
100
AcDbEntity
  8
RACCORDO
100
AcDbLine
 62
7
  6
CONTINUOUS
 10
100.5114206258
 20
19.4714171014
 11
99.9103798618
 21
19.124383697
  0
LINE
  5
3A1
100
AcDbEntity
  8
ASSI
100
AcDbLine
 62
250
  6
CONTINUOUS
 10
97.0112420589
 20
17.3690002204
 11
96.480911973
 21
17.0627942754
  0
LINE
  5
3A2
100
AcDbEntity
  8
RACCORDO
100
AcDbLine
 62
7
  6
CONTINUOUS
 10
100.4760652867
 20
18.7977640224
 11
101.0771060507
 21
19.1447974267
  0
LINE
  5
3A3
100
AcDbEntity
  8
0
100
AcDbLine
 62
7
  6
CONTINUOUS
 10
101.0771060507
 20
19.0223268852
 11
100.4760652867
 21
18.6752934809
  0
LINE
  5
3A4
100
AcDbEntity
  8
RACCORDO
100
AcDbLine
 62
7
  6
CONTINUOUS
 10
101.0771060507
 20
19.0223268852
 11
101.1831720679
 21
19.0835680742
  0
LINE
  5
3A5
100
AcDbEntity
  8
SMUSSO
100
AcDbLine
 62
7
  6
CONTINUOUS
 10
101.2715604156
 20
18.910051372
 11
100.8826516859
 21
18.6855003457
  0
LINE
  5
3A6
100
AcDbEntity
  8
0
100
AcDbLine
 62
7
  6
CONTINUOUS
 10
97.647638162
 20
16.7974946996
 11
97.235898749
 21
16.5597615229
  0
LINE
  5
3A7
100
AcDbEntity
  8
RACCORDO
100
AcDbLine
 62
250
  6
CONTINUOUS
 10
100.8649996439
 20
18.6549261122
 11
100.1578672352
 21
18.2466367218
  0
LINE
  5
3A8
100
AcDbEntity
  8
0
100
AcDbLine
 62
7
  6
CONTINUOUS
 10
87.1117471223
 20
10.6333768939
 11
89.2330674659
 21
11.8582006739
  0
LINE
  5
3A9
100
AcDbEntity
  8
0
100
AcDbLine
 62
7
  6
CONTINUOUS
 10
101.4215604156
 20
18.8956837453
 11
109.3856107297
 21
23.4940265837
  0
LINE
  5
3AA
100
AcDbEntity
  8
0
100
AcDbLine
 62
7
  6
CONTINUOUS
 10
97.2702145
 20
16.4979477072
 11
97.4549708175
 21
16.6054246245
  0
LINE
  5
3AB
100
AcDbEntity
  8
0
100
AcDbLine
 62
7
  6
CONTINUOUS
 10
99.8396691837
 20
17.9811951083
 11
100.1932225743
 21
18.1853324049
  0
LINE
  5
3AC
100
AcDbEntity
  8
SMUSSO
100
AcDbLine
 62
7
  6
CONTINUOUS
 10
101.3776264327
 20
18.848810183
 11
100.9887177031
 21
18.6242591567
  0
LINE
  5
3AD
100
AcDbEntity
  8
RACCORDO
100
AcDbLine
 62
250
  6
CONTINUOUS
 10
100.7235714537
 20
18.4099653013
 11
100.2285779133
 21
18.1241622348
  0
LINE
  5
3AE
100
AcDbEntity
  8
0
100
AcDbLine
 62
7
  6
CONTINUOUS
 10
109.562387425
 20
23.3919184805
 11
101.4215604156
 21
18.6915069938
  0
LINE
  5
3AF
100
AcDbEntity
  8
0
100
AcDbLine
 62
7
  6
CONTINUOUS
 10
97.61772842
 20
16.4952220727
 11
97.470202048
 21
16.4100421945
  0
LINE
  5
3B0
100
AcDbEntity
  8
0
100
AcDbLine
 62
7
  6
CONTINUOUS
 10
97.7243855223
 20
16.4336395986
 11
97.7183488401
 21
16.4301540939
  0
LINE
  5
3B1
100
AcDbEntity
  8
0
100
AcDbLine
 62
250
  6
CONTINUOUS
 10
99.8396691837
 20
17.1647248315
 11
99.3093390978
 21
16.8585188865
  0
LINE
  5
3B2
100
AcDbEntity
  8
RACCORDO
100
AcDbLine
 62
7
  6
CONTINUOUS
 10
100.2816109219
 20
17.2362320677
 11
100.3523216
 21
17.277059527
  0
LINE
  5
3B3
100
AcDbEntity
  8
RACCORDO
100
AcDbLine
 62
7
  6
CONTINUOUS
 10
100.4583876172
 20
17.215818338
 11
100.3876769391
 21
17.1749908787
  0
LINE
  5
3B4
100
AcDbEntity
  8
0
100
AcDbLine
 62
7
  6
CONTINUOUS
 10
100.1504697001
 20
16.1194717392
 11
100.1932225743
 21
16.1441567129
  0
LWPOLYLINE
  5
3B5
100
AcDbEntity
  8
0
100
AcDbPolyline
 62
7
  6
CONTINUOUS
 90
21
 70
0
 10
109.3856107297
 20
23.4940265837
 10
109.4014229508
 20
23.5027616276
 10
109.4178138428
 20
23.5110612414
 10
109.4347834058
 20
23.5189254249
 10
109.4523661015
 20
23.5263674735
 10
109.4705274681
 20
23.5333740919
 10
109.4891641203
 20
23.5399053942
 10
109.5082787686
 20
23.5459586695
 10
109.5278687025
 20
23.5515366287
 10
109.5478224041
 20
23.5566075186
 10
109.5681419482
 20
23.5611684474
 10
109.58882526
 20
23.5652223069
 10
109.6097545977
 20
23.5687460202
 10
109.6309313645
 20
23.5717365636
 10
109.6523541571
 20
23.5741969608
 10
109.6739010242
 20
23.5761132057
 10
109.6955726733
 20
23.5774821948
 10
109.7173683968
 20
23.5783070316
 10
109.7391641203
 20
23.5785830206
 10
109.7609598438
 20
23.5783070316
 10
109.761764036
 20
23.5782765977
  0
LWPOLYLINE
  5
3B6
100
AcDbEntity
  8
ASSI
100
AcDbPolyline
 62
7
  6
CONTINUOUS
 90
21
 70
0
 10
124.0580764393
 20
162.9055076563
 10
124.0973311296
 20
162.8837652366
 10
124.1363959356
 20
162.8639381599
 10
124.1752708573
 20
162.846026426
 10
124.2140182665
 20
162.8300072203
 10
124.2525757914
 20
162.8159033574
 10
124.2907563168
 20
162.803783282
 10
124.32855801
 20
162.7936566365
 10
124.3659827035
 20
162.7855137785
 10
124.4028487797
 20
162.7793942242
 10
124.439153523
 20
162.7753078084
 10
124.474899649
 20
162.7732446963
 10
124.5099136855
 20
162.7732149
 10
124.5441920741
 20
162.775228303
 10
124.5777383734
 20
162.7792750218
 10
124.6103897868
 20
162.785335418
 10
124.6421419646
 20
162.7934192798
 10
124.6729992566
 20
162.8035168191
 10
124.7028119158
 20
162.8155790337
 10
124.7315748646
 20
162.8296154734
 10
124.7456062288
 20
162.8373944787
  0
LWPOLYLINE
  5
3B7
100
AcDbEntity
  8
ASSI
100
AcDbPolyline
 62
7
  6
CONTINUOUS
 90
15
 70
0
 10
124.4116298299
 20
163.1096449529
 10
124.4508845202
 20
163.0879025333
 10
124.4899493262
 20
163.0680754566
 10
124.5288242479
 20
163.0501637227
 10
124.5675716571
 20
163.034144517
 10
124.606129182
 20
163.0200406541
 10
124.6443097074
 20
163.0079205786
 10
124.6821114006
 20
162.9977939332
 10
124.7195360941
 20
162.9896510751
 10
124.7564021703
 20
162.9835315208
 10
124.7927069136
 20
162.979445105
 10
124.8284530396
 20
162.977381993
 10
124.8634670761
 20
162.9773521967
 10
124.8977454647
 20
162.9793655997
 10
124.8992428501
 20
162.9795462305
  0
LINE
  5
3B8
100
AcDbEntity
  8
ASSI
100
AcDbLine
 62
7
  6
CONTINUOUS
 10
124.0580764393
 20
162.9055076563
 11
121.2296493146
 21
164.5386060296
  0
LINE
  5
3B9
100
AcDbEntity
  8
ASSI
100
AcDbLine
 62
7
  6
CONTINUOUS
 10
124.4116298299
 20
163.1096449529
 11
121.5832027051
 21
164.7427433263
  0
LINE
  5
3BA
100
AcDbEntity
  8
ASSI
100
AcDbLine
 62
7
  6
CONTINUOUS
 10
121.2296493146
 20
166.7838992908
 11
124.0580764393
 21
165.1508009175
  0
LINE
  5
3BB
100
AcDbEntity
  8
0
100
AcDbLine
 62
250
  6
CONTINUOUS
 10
100.9003293554
 20
15.3276075263
 11
100.3699992695
 21
15.0214015813
  0
LWPOLYLINE
  5
3BC
100
AcDbEntity
  8
RACCORDO
100
AcDbPolyline
 62
7
  6
CONTINUOUS
 90
7
 70
0
 10
100.5114206258
 20
19.4714171014
 10
100.52563713
 20
19.4784320012
 10
100.5391670325
 20
19.4831364924
 10
100.5520103333
 20
19.4855305749
 10
100.5643610567
 20
19.485576582
 10
100.5760251785
 20
19.4833121805
 10
100.5864242498
 20
19.478848278
  0
LWPOLYLINE
  5
3BD
100
AcDbEntity
  8
RACCORDO
100
AcDbPolyline
 62
7
  6
CONTINUOUS
 90
7
 70
0
 10
100.2816109219
 20
17.2362320677
 10
100.2674385569
 20
17.22959034
 10
100.2524956323
 20
17.2246090443
 10
100.2367821483
 20
17.2212881804
 10
100.2197843984
 20
17.2196277485
 10
100.2020160891
 20
17.2196277485
 10
100.1932225743
 20
17.2204867465
  0
LWPOLYLINE
  5
3BE
100
AcDbEntity
  8
0
100
AcDbPolyline
 62
7
  6
CONTINUOUS
 90
31
 70
0
 10
110.2694942062
 20
180.1542116247
 10
110.2504120398
 20
180.1646573824
 10
110.2305250424
 20
180.1744643609
 10
110.2098332141
 20
180.1836325601
 10
110.1882753425
 20
180.1921836854
 10
110.1659126399
 20
180.2000960315
 10
110.1429287433
 20
180.2073044822
 10
110.1193184758
 20
180.2138031745
 10
110.0950870144
 20
180.2195979716
 10
110.0704335261
 20
180.224641346
 10
110.0453549314
 20
180.2289270334
 10
110.0198543099
 20
180.2324612982
 10
109.9941400675
 20
180.2352154067
 10
109.9682105195
 20
180.2371830074
 10
109.9420673506
 20
180.2383704518
 10
109.9159240206
 20
180.2387680614
 10
109.8897801327
 20
180.2383693456
 10
109.8636360837
 20
180.237180795
 10
109.8377065232
 20
180.2352122024
 10
109.8119934361
 20
180.232457142
 10
109.7864948376
 20
180.2289220397
 10
109.7614194234
 20
180.2246359652
 10
109.736771128
 20
180.219592937
 10
109.7125460169
 20
180.2137989367
 10
109.6889409816
 20
180.2073009795
 10
109.6659601236
 20
180.2000929793
 10
109.6435993415
 20
180.192181022
 10
109.6220432218
 20
180.1836303807
 10
109.6013532937
 20
180.1744628128
 10
109.581468028
 20
180.1646565608
 10
109.562387425
 20
180.1542116247
  0
LWPOLYLINE
  5
3BF
100
AcDbEntity
  8
ASSI
100
AcDbPolyline
 62
7
  6
CONTINUOUS
 90
21
 70
0
 10
121.2296493146
 20
166.7838992908
 10
121.1903946243
 20
166.8056417104
 10
121.1513298183
 20
166.8254687872
 10
121.1124548966
 20
166.843380521
 10
121.0737074873
 20
166.8593997268
 10
121.0351499624
 20
166.8735035896
 10
120.9969694371
 20
166.8856236651
 10
120.9591677439
 20
166.8957503105
 10
120.9217430503
 20
166.9038931686
 10
120.8848769742
 20
166.9100127229
 10
120.8485722308
 20
166.9140991387
 10
120.8128261049
 20
166.9161622508
 10
120.7778120684
 20
166.916192047
 10
120.7435336797
 20
166.914178644
 10
120.7099873805
 20
166.9101319253
 10
120.677335967
 20
166.904071529
 10
120.6455837892
 20
166.8959876672
 10
120.6147264972
 20
166.8858901279
 10
120.584913838
 20
166.8738279133
 10
120.5561508893
 20
166.8597914736
 10
120.5421195251
 20
166.8520124683
  0
LINE
  5
3C0
100
AcDbEntity
  8
0
100
AcDbLine
 62
250
  6
CONTINUOUS
 10
109.2088340344
 20
180.3583489213
 11
109.562387425
 21
180.1542116247
  0
LINE
  5
3C1
100
AcDbEntity
  8
0
100
AcDbLine
 62
250
  6
CONTINUOUS
 10
79.6871259198
 20
198.0129503235
 11
80.2174560057
 21
197.7067443785
  0
LINE
  5
3C2
100
AcDbEntity
  8
0
100
AcDbLine
 62
250
  6
CONTINUOUS
 10
135.5485616336
 20
165.7592574506
 11
135.0182315477
 21
166.0654633956
  0
LINE
  5
3C3
100
AcDbEntity
  8
0
100
AcDbLine
 62
7
  6
CONTINUOUS
 10
109.9159408156
 20
180.7665840597
 11
110.2694942062
 21
180.5624467631
  0
LINE
  5
3C4
100
AcDbEntity
  8
0
100
AcDbLine
 62
7
  6
CONTINUOUS
 10
80.9245627869
 20
198.1149400619
 11
134.3111247665
 21
167.2902082657
  0
LINE
  5
3C5
100
AcDbEntity
  8
0
100
AcDbLine
 62
7
  6
CONTINUOUS
 10
80.9245627869
 20
198.7272927695
 11
134.3111247665
 21
167.9025609733
  0
LWPOLYLINE
  5
3C6
100
AcDbEntity
  8
0
100
AcDbPolyline
 62
7
  6
CONTINUOUS
 90
40
 70
0
 10
134.3111247665
 20
167.2902082657
 10
134.3396736322
 20
167.2730534201
 10
134.3680844002
 20
167.2546650695
 10
134.3963570705
 20
167.235043214
 10
134.4245370045
 20
167.2141520641
 10
134.4525788408
 20
167.1920274092
 10
134.4803464956
 20
167.1687766178
 10
134.5078386361
 20
167.1443942161
 10
134.535056595
 20
167.1188856779
 10
134.5618682868
 20
167.0923747933
 10
134.5882717365
 20
167.0648566902
 10
134.614268919
 20
167.0363362406
 10
134.6397336728
 20
167.0069518512
 10
134.66466341
 20
166.9766993225
 10
134.6890607186
 20
166.9455828539
 10
134.7128072011
 20
166.9137534502
 10
134.735899694
 20
166.881207646
 10
134.7583413609
 20
166.8479489066
 10
134.7800232949
 20
166.814138633
 10
134.8009418031
 20
166.7797741444
 10
134.8211005783
 20
166.7448581215
 10
134.8404017923
 20
166.7095600079
 10
134.8588412768
 20
166.6738779464
 10
134.8764232
 20
166.6378137943
 10
134.8930622389
 20
166.6015425667
 10
134.9087538104
 20
166.5650632573
 10
134.9235024975
 20
166.5283768724
 10
134.9372367267
 20
166.491661447
 10
134.9499515668
 20
166.45491684
 10
134.9616519488
 20
166.4181431925
 10
134.9722810922
 20
166.3815189629
 10
134.9818337899
 20
166.3450448775
 10
134.990315249
 20
166.30872021
 10
134.9976843097
 20
166.2727212399
 10
135.0039355652
 20
166.2370495504
 10
135.0090744224
 20
166.2017035583
 10
135.0130759431
 20
166.1668547937
 10
135.0159318145
 20
166.1325604335
 10
135.0176503494
 20
166.0987633007
 10
135.0182315477
 20
166.0654633956
  0
LWPOLYLINE
  5
3C7
100
AcDbEntity
  8
0
100
AcDbPolyline
 62
7
  6
CONTINUOUS
 90
40
 70
0
 10
134.3111247665
 20
167.9025609733
 10
134.3610852814
 20
167.8725399935
 10
134.4108041254
 20
167.84036038
 10
134.4602812985
 20
167.8060221328
 10
134.5095961829
 20
167.7694626204
 10
134.5586693965
 20
167.7307444744
 10
134.6072627924
 20
167.6900555895
 10
134.6553740383
 20
167.6473863865
 10
134.7030054664
 20
167.6027464447
 10
134.749925927
 20
167.5563523966
 10
134.796131964
 20
167.5081957161
 10
134.8416270334
 20
167.4582849294
 10
134.8861903526
 20
167.4068622479
 10
134.9298173927
 20
167.3539203227
 10
134.9725126826
 20
167.2994665027
 10
135.014069027
 20
167.2437650462
 10
135.0544808897
 20
167.1868098888
 10
135.0937538067
 20
167.1286070949
 10
135.1316971912
 20
167.0694391161
 10
135.1683045805
 20
167.0093012609
 10
135.2035824371
 20
166.9481982209
 10
135.2373595617
 20
166.8864265222
 10
135.2696286594
 20
166.8239829146
 10
135.3003970251
 20
166.7608706483
 10
135.3295153432
 20
166.6973960001
 10
135.3569755933
 20
166.6335572085
 10
135.3827857958
 20
166.569356035
 10
135.4068206968
 20
166.5051040406
 10
135.429071667
 20
166.4408009784
 10
135.4495473356
 20
166.3764470953
 10
135.4681483365
 20
166.3123546935
 10
135.4848655575
 20
166.248525044
 10
135.4997081108
 20
166.1849568758
 10
135.5126039672
 20
166.1219586782
 10
135.5235436642
 20
166.0595332215
 10
135.5325366644
 20
165.9976777353
 10
135.5395393256
 20
165.9366923974
 10
135.5445371005
 20
165.8766772669
 10
135.5475445365
 20
165.8175322846
 10
135.5485616336
 20
165.7592574506
  0
LWPOLYLINE
  5
3C8
100
AcDbEntity
  8
ASSI
100
AcDbPolyline
 62
7
  6
CONTINUOUS
 90
18
 70
0
 10
116.2584407654
 20
4.0352949452
 10
116.2496270737
 20
4.0299627883
 10
116.2326585002
 20
4.0182134297
 10
116.2166026412
 20
4.0050238907
 10
116.2014533451
 20
3.9904038781
 10
116.1873131785
 20
3.974452375
 10
116.1741889891
 20
3.9571603464
 10
116.1620739293
 20
3.9385368273
 10
116.1510500226
 20
3.9187079063
 10
116.1411246734
 20
3.8976654039
 10
116.1322904775
 20
3.8754174995
 10
116.1246072457
 20
3.8521148203
 10
116.1180827883
 20
3.8277502087
 10
116.112709295
 20
3.8023308223
 10
116.1085231465
 20
3.7760287601
 10
116.1055364698
 20
3.7489013886
 10
116.103737138
 20
3.7208913415
 10
116.1031251509
 20
3.6919986186
  0
LWPOLYLINE
  5
3C9
100
AcDbEntity
  8
0
100
AcDbPolyline
 62
7
  6
CONTINUOUS
 90
16
 70
0
 10
80.9245627869
 20
198.1149400619
 10
80.8873881933
 20
198.1352598042
 10
80.8505162362
 20
198.1531985087
 10
80.8139469159
 20
198.1687561756
 10
80.7775818373
 20
198.1819623407
 10
80.7415193953
 20
198.192787468
 10
80.7060547747
 20
198.20114295
 10
80.6711928823
 20
198.2070085161
 10
80.6369288112
 20
198.2104044369
 10
80.603543026
 20
198.2113029152
 10
80.5710427352
 20
198.2096834528
 10
80.5394207303
 20
198.205566548
 10
80.5089358491
 20
198.1989858993
 10
80.4795974251
 20
198.1899212848
 10
80.4513961249
 20
198.1783929264
 10
80.4245386268
 20
198.1644812396
  0
LWPOLYLINE
  5
3CA
100
AcDbEntity
  8
0
100
AcDbPolyline
 62
7
  6
CONTINUOUS
 90
16
 70
0
 10
80.9245627869
 20
198.7272927695
 10
80.859507248
 20
198.7628523185
 10
80.7949813232
 20
198.7942450514
 10
80.7309850126
 20
198.8214709684
 10
80.667346125
 20
198.8445817573
 10
80.6042368516
 20
198.8635257302
 10
80.5421737655
 20
198.8781478236
 10
80.4811654538
 20
198.8884125644
 10
80.4212033295
 20
198.8943554257
 10
80.3627782052
 20
198.8959277628
 10
80.3059026965
 20
198.8930937036
 10
80.2505641878
 20
198.8858891202
 10
80.1972156458
 20
198.874372985
 10
80.1458734038
 20
198.8585099096
 10
80.0965211285
 20
198.8383352824
 10
80.0495205067
 20
198.8139898304
  0
LWPOLYLINE
  5
3CB
100
AcDbEntity
  8
ASSI
100
AcDbPolyline
 62
7
  6
CONTINUOUS
 90
18
 70
0
 10
117.0084697083
 20
2.736290402
 10
117.0172834
 20
2.7416225589
 10
117.0342519735
 20
2.7533719174
 10
117.0503078325
 20
2.7665614564
 10
117.0654571286
 20
2.7811814691
 10
117.0795972952
 20
2.7971329722
 10
117.0927214846
 20
2.8144250008
 10
117.1048365444
 20
2.8330485199
 10
117.1158604511
 20
2.8528774408
 10
117.1257858002
 20
2.8739199433
 10
117.1346199962
 20
2.8961678476
 10
117.1423032279
 20
2.9194705269
 10
117.1488276854
 20
2.9438351384
 10
117.1542011787
 20
2.9692545249
 10
117.1583873271
 20
2.995556587
 10
117.1613740038
 20
3.0226839585
 10
117.1631733357
 20
3.0506940057
 10
117.1637853227
 20
3.0795867286
  0
LINE
  5
3CC
100
AcDbEntity
  8
ASSI
100
AcDbLine
 62
250
  6
CONTINUOUS
 10
116.6334552368
 20
3.9982045636
 11
116.1031251509
 21
3.6919986186
  0
LWPOLYLINE
  5
3CD
100
AcDbEntity
  8
0
100
AcDbPolyline
 62
7
  6
CONTINUOUS
 90
23
 70
0
 10
164.5149034651
 20
184.4808276863
 10
164.5129127495
 20
184.4839275072
 10
164.4540271701
 20
184.5718852268
 10
164.3935815519
 20
184.658548779
 10
164.3317697291
 20
184.7436402554
 10
164.2685873159
 20
184.8271546095
 10
164.204038698
 20
184.9090968877
 10
164.1383308668
 20
184.9892043217
 10
164.0714601009
 20
185.0674710213
 10
164.0034301218
 20
185.1439028767
 10
163.9344590845
 20
185.2182547899
 10
163.8645439681
 20
185.2905200839
 10
163.7936877935
 20
185.3607054358
 10
163.722117779
 20
185.4285857787
 10
163.6498316328
 20
185.4941537129
 10
163.5768316466
 20
185.5574166381
 10
163.5033519131
 20
185.6181716857
 10
163.4293908922
 20
185.6764108051
 10
163.3549501241
 20
185.732142047
 10
163.2802683217
 20
185.7851866951
 10
163.205425056
 20
185.8354851774
 10
163.130340756
 20
185.8830970661
 10
163.0550154217
 20
185.928022361
  0
LWPOLYLINE
  5
3CE
100
AcDbEntity
  8
ASSI
100
AcDbPolyline
 62
7
  6
CONTINUOUS
 90
20
 70
0
 10
135.2770868737
 20
-4.6160035351
 10
135.2577916995
 20
-4.6278496339
 10
135.233036856
 20
-4.6453079502
 10
135.2094110529
 20
-4.66464238
 10
135.1870382706
 20
-4.6857514626
 10
135.1659250962
 20
-4.7086445271
 10
135.1460649426
 20
-4.7333122443
 10
135.1275620293
 20
-4.7596251663
 10
135.1104234913
 20
-4.7875919416
 10
135.0946421937
 20
-4.8172039217
 10
135.0803009515
 20
-4.8483057125
 10
135.0674073349
 20
-4.8809051459
 10
135.0559537737
 20
-4.9149943902
 10
135.0460003725
 20
-4.9503945561
 10
135.0375550173
 20
-4.9871125351
 10
135.0306098221
 20
-5.0251414357
 10
135.0252012329
 20
-5.064281695
 10
135.0213413985
 20
-5.1044667917
 10
135.0190181701
 20
-5.1457632471
 10
135.0182315477
 20
-5.188171061
  0
LINE
  5
3CF
100
AcDbEntity
  8
0
100
AcDbLine
 62
250
  6
CONTINUOUS
 10
133.42724129
 20
-3.4530237668
 11
132.8969112041
 21
-3.7592297118
  0
LWPOLYLINE
  5
3D0
100
AcDbEntity
  8
ASSI
100
AcDbPolyline
 62
7
  6
CONTINUOUS
 90
20
 70
0
 10
136.5271431747
 20
-6.7810250702
 10
136.5464383488
 20
-6.7691789713
 10
136.5711931923
 20
-6.751720655
 10
136.5948189954
 20
-6.7323862252
 10
136.6171917777
 20
-6.7112771426
 10
136.6383049521
 20
-6.6883840782
 10
136.6581651058
 20
-6.6637163609
 10
136.676668019
 20
-6.637403439
 10
136.693806557
 20
-6.6094366636
 10
136.7095878547
 20
-6.5798246836
 10
136.7239290969
 20
-6.5487228927
 10
136.7368227135
 20
-6.5161234593
 10
136.7482762747
 20
-6.4820342151
 10
136.7582296759
 20
-6.4466340492
 10
136.766675031
 20
-6.4099160702
 10
136.7736202263
 20
-6.3718871695
 10
136.7790288154
 20
-6.3327469103
 10
136.7828886499
 20
-6.2925618135
 10
136.7852118783
 20
-6.2512653582
 10
136.7859985007
 20
-6.2088575443
  0
LINE
  5
3D1
100
AcDbEntity
  8
ASSI
100
AcDbLine
 62
250
  6
CONTINUOUS
 10
135.5485616336
 20
-4.881965116
 11
135.0182315477
 21
-5.188171061
  0
LINE
  5
3D2
100
AcDbEntity
  8
0
100
AcDbLine
 62
7
  6
CONTINUOUS
 10
136.1849577366
 20
-5.4534706368
 11
135.7732183237
 21
-5.6912038135
  0
LINE
  5
3D3
100
AcDbEntity
  8
0
100
AcDbLine
 62
7
  6
CONTINUOUS
 10
135.8075340746
 20
-5.7530176292
 11
135.8314043461
 21
-5.7392352336
  0
LINE
  5
3D4
100
AcDbEntity
  8
0
100
AcDbLine
 62
7
  6
CONTINUOUS
 10
136.261705097
 20
-5.8173257378
 11
136.2556684148
 21
-5.8208112424
  0
LWPOLYLINE
  5
3D5
100
AcDbEntity
  8
0
100
AcDbPolyline
 62
7
  6
CONTINUOUS
 90
21
 70
0
 10
133.6469437018
 20
-3.8335349964
 10
133.631636759
 20
-3.842021184
 10
133.6002589967
 20
-3.8573336636
 10
133.5677360958
 20
-3.8704924432
 10
133.5340735954
 20
-3.8815079406
 10
133.499434856
 20
-3.890326699
 10
133.4638151322
 20
-3.8969380404
 10
133.4272191694
 20
-3.9013526426
 10
133.3898245636
 20
-3.9035490822
 10
133.3516274329
 20
-3.9035165772
 10
133.3126316591
 20
-3.9012659095
 10
133.2730264845
 20
-3.8968080014
 10
133.2328089469
 20
-3.8901321239
 10
133.1919820085
 20
-3.8812490061
 10
133.1507437977
 20
-3.8702017565
 10
133.1090923156
 20
-3.856979856
 10
133.0670295611
 20
-3.8415938238
 10
133.0247596601
 20
-3.8241183266
 10
132.9823506546
 20
-3.8045782533
 10
132.9397345026
 20
-3.782948715
 10
132.8969112041
 20
-3.7592297118
  0
LWPOLYLINE
  5
3D6
100
AcDbEntity
  8
0
100
AcDbPolyline
 62
7
  6
CONTINUOUS
 90
21
 70
0
 10
114.6182009105
 20
213.8948320039
 10
114.5428755762
 20
213.9368905169
 10
114.4677912762
 20
213.9759840959
 10
114.3929480105
 20
214.0121127407
 10
114.3182662081
 20
214.0453087661
 10
114.24382544
 20
214.0755398573
 10
114.1698644191
 20
214.1027090709
 10
114.0963846856
 20
214.1268065777
 10
114.0233846994
 20
214.1478422068
 10
113.9510985532
 20
214.1657485022
 10
113.8795285387
 20
214.1805154183
 10
113.8086723641
 20
214.1921530006
 10
113.7387572477
 20
214.2006239305
 10
113.6697862104
 20
214.2059180423
 10
113.6017562313
 20
214.2080455017
 10
113.5348854654
 20
214.2069994863
 10
113.4691776342
 20
214.2027698088
 10
113.4046290163
 20
214.1953666565
 10
113.3414466031
 20
214.1848137696
 10
113.2796347803
 20
214.1711010367
 10
113.2565645968
 20
214.1646651654
  0
LINE
  5
3D7
100
AcDbEntity
  8
0
100
AcDbLine
 62
250
  6
CONTINUOUS
 10
110.0927175109
 20
215.5686197443
 11
163.4792794904
 21
184.7438879481
  0
LINE
  5
3D8
100
AcDbEntity
  8
0
100
AcDbLine
 62
7
  6
CONTINUOUS
 10
110.717747711
 20
215.6305462164
 11
164.1043096906
 21
184.8058144202
  0
LINE
  5
3D9
100
AcDbEntity
  8
0
100
AcDbLine
 62
7
  6
CONTINUOUS
 10
163.0550154217
 20
185.928022361
 11
114.6182009105
 21
213.8948320039
  0
LWPOLYLINE
  5
3DA
100
AcDbEntity
  8
0
100
AcDbPolyline
 62
250
  6
CONTINUOUS
 90
43
 70
0
 10
163.4792794904
 20
184.7438879481
 10
163.5255487327
 20
184.7161734984
 10
163.5717532633
 20
184.6864994717
 10
163.617828461
 20
184.6549073699
 10
163.6637098854
 20
184.6214413773
 10
163.7093333672
 20
184.5861482992
 10
163.7546350978
 20
184.549077496
 10
163.7995517188
 20
184.5102808148
 10
163.84402041
 20
184.4698125162
 10
163.8879789781
 20
184.4277291986
 10
163.9313659431
 20
184.3840897195
 10
163.9741206242
 20
184.3389551127
 10
164.0161832253
 20
184.2923885029
 10
164.0574949179
 20
184.2444550177
 10
164.097997924
 20
184.1952216965
 10
164.1376355964
 20
184.1447573965
 10
164.1763524983
 20
184.0931326967
 10
164.2140944805
 20
184.0404197987
 10
164.2508087575
 20
183.9866924265
 10
164.2864439811
 20
183.9320257225
 10
164.3209503121
 20
183.8764961431
 10
164.3542794904
 20
183.8201813514
 10
164.3863849021
 20
183.7631601088
 10
164.4172216449
 20
183.7055121646
 10
164.4467465907
 20
183.6473181446
 10
164.4749184463
 20
183.5886594386
 10
164.5016978108
 20
183.5296180859
 10
164.5270472308
 20
183.4702766614
 10
164.5509312529
 20
183.4107181592
 10
164.5733164731
 20
183.3510258773
 10
164.5941715837
 20
183.2912833009
 10
164.6134674168
 20
183.2315739853
 10
164.6311769856
 20
183.1719814394
 10
164.6472755216
 20
183.1125890087
 10
164.6617405095
 20
183.053479759
 10
164.6745517188
 20
182.9947363598
 10
164.6856912317
 20
182.9364409691
 10
164.6951434688
 20
182.8786751183
 10
164.7028952101
 20
182.8215195982
 10
164.7089356142
 20
182.7650543459
 10
164.7132562331
 20
182.7093583332
 10
164.7158510238
 20
182.654509456
 10
164.7167163575
 20
182.6005844254
  0
LWPOLYLINE
  5
3DB
100
AcDbEntity
  8
0
100
AcDbPolyline
 62
7
  6
CONTINUOUS
 90
31
 70
0
 10
164.1043096906
 20
184.8058144202
 10
164.1602992599
 20
184.7720618642
 10
164.215965087
 20
184.7355812767
 10
164.2712401561
 20
184.6963094077
 10
164.3264734558
 20
184.6538435315
 10
164.381129739
 20
184.6084280866
 10
164.4339444169
 20
184.5610897724
 10
164.4847345697
 20
184.5120963971
 10
164.5338032916
 20
184.4612388614
 10
164.5807889431
 20
184.4089737623
 10
164.6257113029
 20
184.3553919551
 10
164.668696532
 20
184.3004313004
 10
164.7095849236
 20
184.244381023
 10
164.7484105358
 20
184.1872886753
 10
164.7852594556
 20
184.1290949384
 10
164.8200616456
 20
184.0699633756
 10
164.8528587347
 20
184.0098660289
 10
164.8836704073
 20
183.9487776945
 10
164.9124054194
 20
183.8868816005
 10
164.9390991816
 20
183.8240867651
 10
164.963721762
 20
183.7604068243
 10
164.9861211932
 20
183.6961951968
 10
165.0063156878
 20
183.6313646498
 10
165.0242716411
 20
183.5659343028
 10
165.039832773
 20
183.5004452359
 10
165.0530014545
 20
183.434945442
 10
165.0637936583
 20
183.3693665003
 10
165.072153317
 20
183.3041154863
 10
165.0780929515
 20
183.2393474457
 10
165.0816491108
 20
183.1749447066
 10
165.082832881
 20
183.110927667
  0
LWPOLYLINE
  5
3DC
100
AcDbEntity
  8
0
100
AcDbPolyline
 62
7
  6
CONTINUOUS
 90
19
 70
0
 10
164.7167163575
 20
-8.4534603442
 10
164.7545377704
 20
-8.4306358985
 10
164.7904738367
 20
-8.4069761594
 10
164.8245245564
 20
-8.3824811269
 10
164.8567474961
 20
-8.3571010566
 10
164.8870850892
 20
-8.3308856928
 10
164.9153646358
 20
-8.3039842694
 10
164.9415743979
 20
-8.2763928734
 10
164.9657261136
 20
-8.2481154177
 10
164.9876822967
 20
-8.2193128746
 10
165.007430425
 20
-8.1899822494
 10
165.0249830208
 20
-8.1601265368
 10
165.0402401639
 20
-8.1299156936
 10
165.0531887625
 20
-8.0993476943
 10
165.0638419085
 20
-8.0684245644
 10
165.0721389578
 20
-8.0373223369
 10
165.0780664725
 20
-8.0060399904
 10
165.0816378905
 20
-7.9745785465
 10
165.082832881
 20
-7.9431171025
  0
LINE
  5
3DD
100
AcDbEntity
  8
0
100
AcDbLine
 62
7
  6
CONTINUOUS
 10
165.082832881
 20
-5.7925006019
 11
165.3531124606
 21
-5.6364445601
  0
LINE
  5
3DE
100
AcDbEntity
  8
0
100
AcDbLine
 62
7
  6
CONTINUOUS
 10
164.7167163575
 20
-8.4534603442
 11
142.4428527501
 21
-21.314110034
  0
ARC
  5
3DF
100
AcDbEntity
  8
RACCORDO
100
AcDbCircle
 62
7
  6
CONTINUOUS
 10
97.5415721448
 20
16.6546656653
 40
0.1
100
AcDbArc
 50
180.0007992544
 51
239.9992007423
  0
ARC
  5
3E0
100
AcDbEntity
  8
RACCORDO
100
AcDbCircle
 62
7
  6
CONTINUOUS
 10
136.0788917195
 20
-5.596299671
 40
0.1
100
AcDbArc
 50
180.0007992544
 51
239.9992007423
  0
ARC
  5
3E1
100
AcDbEntity
  8
RACCORDO
100
AcDbCircle
 62
7
  6
CONTINUOUS
 10
97.5415721448
 20
103.2005150054
 40
0.1
100
AcDbArc
 50
180.0007992544
 51
239.9992007423
  0
ARC
  5
3E2
100
AcDbEntity
  8
RACCORDO
100
AcDbCircle
 62
7
  6
CONTINUOUS
 10
100.1578672352
 20
101.68989901
 40
0.1
100
AcDbArc
 50
290.7266100652
 51
300.0015984348
  0
ARC
  5
3E3
100
AcDbEntity
  8
RACCORDO
100
AcDbCircle
 62
7
  6
CONTINUOUS
 10
136.0788917195
 20
80.949549669
 40
0.1
100
AcDbArc
 50
180.0007992544
 51
239.9992007423
  0
ENDSEC
  0
SECTION
  2
OBJECTS
  0
DICTIONARY
  5
C
100
AcDbDictionary
280
0
281
1
  3
ACAD_GROUP
350
D
  3
ACAD_MLINESTYLE
350
17
  3
ACAD_LAYOUT
350
1A
  3
ACAD_PLOTSETTINGS
350
19
  3
ACAD_PLOTSTYLENAME
350
E
  0
DICTIONARY
  5
D
102
{ACAD_REACTORS
330
C
102
}
100
AcDbDictionary
280
0
281
1
  0
ACDBDICTIONARYWDFLT
  5
E
102
{ACAD_REACTORS
330
C
102
}
100
AcDbDictionary
281
1
  3
Normal
350
F
100
AcDbDictionaryWithDefault
340
F
  0
DICTIONARY
  5
17
102
{ACAD_REACTORS
330
C
102
}
100
AcDbDictionary
280
0
281
1
  3
Standard
350
18
  0
DICTIONARY
  5
19
102
{ACAD_REACTORS
330
C
102
}
100
AcDbDictionary
281
1
  0
DICTIONARY
  5
1A
102
{ACAD_REACTORS
330
C
102
}
100
AcDbDictionary
281
1
  3
Model
350
3E4
  3
Layout1
350
3E5
  0
ACDBPLACEHOLDER
  5
F
102
{ACAD_REACTORS
330
E
102
}
  0
MLINESTYLE
  5
18
102
{ACAD_REACTORS
330
17
102
}
100
AcDbMlineStyle
  2
STANDARD
 70
0
  3

 62
256
 51
90.0
 52
90.0
 71
2
 49
0.5
 62
256
  6
BYLAYER
 49
-0.5
 62
256
  6
BYLAYER
  0
LAYOUT
  5
3E4
102
{ACAD_REACTORS
330
1A
102
}
100
AcDbPlotSettings
  1

  2
none_device
  4
ISO_A4_(297.00_x_210.00_MM)
  6

 40
0.0
 41
0.0
 42
0.0
 43
0.0
 44
297.0
 45
210.0
 46
0.0
 47
0.0
 48
0.0
 49
0.0
140
0.0
141
0.0
142
1.0
143
1.0
 70
1024
 72
1
 73
0
 74
0
  7

 75
0
147
1.0
148
0.0
149
0.0
100
AcDbLayout
  1
Model
 70
0
 71
0
 10
0.0
 20
0.0
 11
297.0
 21
210.0
 12
0.0
 22
0.0
 32
0.0
 14
0.0
 24
0.0
 34
0.0
 15
0.0
 25
0.0
 35
0.0
146
0.0
 13
0.0
 23
0.0
 33
0.0
 16
1.0
 26
0.0
 36
0.0
 17
0.0
 27
1.0
 37
0.0
 76
0
330
20F
345
0
346
0
  0
LAYOUT
  5
3E5
102
{ACAD_REACTORS
330
1A
102
}
100
AcDbPlotSettings
  1

  2
none_device
  4
ISO_A4_(297.00_x_210.00_MM)
  6

 40
0.0
 41
0.0
 42
0.0
 43
0.0
 44
297.0
 45
210.0
 46
0.0
 47
0.0
 48
0.0
 49
0.0
140
0.0
141
0.0
142
1.0
143
1.0
 70
0
 72
1
 73
0
 74
0
  7

 75
0
147
1.0
148
0.0
149
0.0
100
AcDbLayout
  1
Layout1
 70
0
 71
1
 10
0.0
 20
0.0
 11
297.0
 21
210.0
 12
0.0
 22
0.0
 32
0.0
 14
0.0
 24
0.0
 34
0.0
 15
0.0
 25
0.0
 35
0.0
146
0.0
 13
0.0
 23
0.0
 33
0.0
 16
1.0
 26
0.0
 36
0.0
 17
0.0
 27
1.0
 37
0.0
 76
0
330
210
345
0
346
0
  0
ENDSEC
  0
EOF
