  0
SECTION
  2
HEADER
  9
$ACADVER
  1
AC1024
  9
$DWGCODEPAGE
  3
ANSI_1252
  9
$EXTMAX
 10
297.0
 20
210.0
 30
0.0
  9
$EXTMIN
 10
0.0
 20
0.0
 30
0.0
  9
$LIMMIN
 10
0.0
 20
0.0
  9
$LIMMAX
 10
297.0
 20
210.0
  9
$VIEWCTR
 10
148.5
 20
105.0
  9
$VIEWSIZE
 40
210.0
  9
$CLAYER
  8
0
  9
$LTSCALE
 40
16.335
  9
$CELTYPE
  6
BYLAYER
  9
$DIMSCALE
 40
1.0
  9
$DIMASZ
 40
3.0
  9
$DIMEXO
 40
0.5
  9
$DIMDLI
 40
11.286
  9
$DIMEXE
 40
1.5
  9
$DIMCEN
 40
2.673
  9
$DIMLFAC
 40
1.0
  9
$DIMBLK
  1
_FILLED
  9
$DIMALT
 70
0
  9
$DIMALTF
 40
0.0393700787
  9
$DIMTXT
 40
3.0
  9
$DIMTOL
 70
1
  9
$DIMLIM
 70
0
  9
$DIMTFAC
 40
1.0
  9
$DIMTP
 40
0.01
  9
$DIMTM
 40
0.01
  9
$DIMGAP
 40
0.625
  9
$DIMDSEP
 70
44
  9
$AUNITS
 70
0
  9
$PDMODE
 70
3
  9
$PDSIZE
 40
3.0
  9
$HANDSEED
  5
41F
  9
$TILEMODE
 70
1
  9
$MEASUREMENT
 70
1
  9
$INSUNITS
 70
4
  0
ENDSEC
  0
SECTION
  2
CLASSES
  0
CLASS
  1
ACDBDICTIONARYWDFLT
  2
AcDbDictionaryWithDefault
  3
AutoCAD 2000
 90
0
 91
1
280
0
281
0
  0
CLASS
  1
ACDBPLACEHOLDER
  2
AcDbPlaceHolder
  3
AutoCAD 2000
 90
0
 91
1
280
0
281
0
  0
CLASS
  1
LAYOUT
  2
AcDbLayout
  3
AutoCAD 2000
 90
0
 91
0
280
0
281
0
  0
ENDSEC
  0
SECTION
  2
TABLES
  0
TABLE
  2
VPORT
  5
8
100
AcDbSymbolTable
 70
2
  0
VPORT
  5
1F4
100
AcDbSymbolTableRecord
100
AcDbViewportTableRecord
  2
*ACTIVE
 70
0
 10
0.0
 20
0.0
 11
1.0
 21
1.0
 12
148.5
 22
105.0
 13
0.0
 23
0.0
 14
1.0
 24
1.0
 15
0.0
 25
0.0
 16
0.0
 26
0.0
 36
1.0
 17
0.0
 27
0.0
 37
0.0
 40
210.0
 41
1.4142857143
 42
50.0
 43
0.0
 44
0.0
 50
0.0
 51
0.0
 71
0
 72
100
 73
1
 74
1
 75
0
 76
0
 77
0
 78
0
  0
ENDTAB
  0
TABLE
  2
LTYPE
  5
5
100
AcDbSymbolTable
 70
6
  0
LTYPE
  5
14
100
AcDbSymbolTableRecord
100
AcDbLinetypeTableRecord
  2
BYBLOCK
 70
0
  3

 72
65
 73
0
 40
0.0
  0
LTYPE
  5
15
100
AcDbSymbolTableRecord
100
AcDbLinetypeTableRecord
  2
BYLAYER
 70
0
  3

 72
65
 73
0
 40
0.0
  0
LTYPE
  5
16
100
AcDbSymbolTableRecord
100
AcDbLinetypeTableRecord
  2
CONTINUOUS
 70
64
  3
Solid line
 72
65
 73
0
 40
0.0
  0
LTYPE
  5
1F5
100
AcDbSymbolTableRecord
100
AcDbLinetypeTableRecord
  2
CENTER
 70
64
  3
____ _ ____ _ ____ _ ____ _ ____ _ ____ _ ____
 72
65
 73
4
 40
0.6
 49
0.375
 74
0
 49
-0.075
 74
0
 49
0.075
 74
0
 49
-0.075
 74
0
  0
LTYPE
  5
1F6
100
AcDbSymbolTableRecord
100
AcDbLinetypeTableRecord
  2
HIDDEN
 70
64
  3
- - - - - - - - - - - - - - - - - - - -
 72
65
 73
2
 40
0.2
 49
0.1
 74
0
 49
-0.1
 74
0
  0
LTYPE
  5
1F7
100
AcDbSymbolTableRecord
100
AcDbLinetypeTableRecord
  2
PHANTOM
 70
64
  3
_____ _ _ _____ _ _ _____ _ _ _____
 72
65
 73
6
 40
0.8
 49
0.45
 74
0
 49
-0.05
 74
0
 49
0.1
 74
0
 49
-0.05
 74
0
 49
0.1
 74
0
 49
-0.05
 74
0
  0
LTYPE
  5
1F8
100
AcDbSymbolTableRecord
100
AcDbLinetypeTableRecord
  2
DOT
 70
64
  3
. . . . . . . . . . . . . . . . . . . .
 72
65
 73
2
 40
0.2
 49
0.1
 74
0
 49
-0.1
 74
0
  0
LTYPE
  5
1F9
100
AcDbSymbolTableRecord
100
AcDbLinetypeTableRecord
  2
DASHED
 70
64
  3
- - - - - - - - - - - - - - - - - - - -
 72
65
 73
2
 40
0.2
 49
0.1
 74
0
 49
-0.1
 74
0
  0
ENDTAB
  0
TABLE
  2
LAYER
  5
2
100
AcDbSymbolTable
 70
36
  0
LAYER
  5
10
100
AcDbSymbolTableRecord
100
AcDbLayerTableRecord
  2
0
 70
0
 62
7
  6
CONTINUOUS
370
-3
390
F
  0
LAYER
  5
1FA
100
AcDbSymbolTableRecord
100
AcDbLayerTableRecord
  2
DEFAULT_1
 70
0
 62
7
  6
CENTER
370
-3
390
F
  0
LAYER
  5
1FB
100
AcDbSymbolTableRecord
100
AcDbLayerTableRecord
  2
DEFAULT_2
 70
0
 62
7
  6
HIDDEN
370
-3
390
F
  0
LAYER
  5
1FC
100
AcDbSymbolTableRecord
100
AcDbLayerTableRecord
  2
DEFAULT_3
 70
0
 62
7
  6
PHANTOM
370
-3
390
F
  0
LAYER
  5
1FD
100
AcDbSymbolTableRecord
100
AcDbLayerTableRecord
  2
ASSI
 70
0
 62
7
  6
CONTINUOUS
370
-3
390
F
  0
LAYER
  5
1FE
100
AcDbSymbolTableRecord
100
AcDbLayerTableRecord
  2
COORDINATE
 70
0
 62
7
  6
CONTINUOUS
370
-3
390
F
  0
LAYER
  5
1FF
100
AcDbSymbolTableRecord
100
AcDbLayerTableRecord
  2
COPY_PUBLISH
 70
0
 62
7
  6
CONTINUOUS
370
-3
390
F
  0
LAYER
  5
200
100
AcDbSymbolTableRecord
100
AcDbLayerTableRecord
  2
COSMETICI
 70
0
 62
7
  6
CONTINUOUS
370
-3
390
F
  0
LAYER
  5
201
100
AcDbSymbolTableRecord
100
AcDbLayerTableRecord
  2
CURVE
 70
0
 62
7
  6
CONTINUOUS
370
-3
390
F
  0
LAYER
  5
202
100
AcDbSymbolTableRecord
100
AcDbLayerTableRecord
  2
DRAFT
 70
0
 62
7
  6
CONTINUOUS
370
-3
390
F
  0
LAYER
  5
203
100
AcDbSymbolTableRecord
100
AcDbLayerTableRecord
  2
IMPORT_IGES
 70
0
 62
7
  6
CONTINUOUS
370
-3
390
F
  0
LAYER
  5
204
100
AcDbSymbolTableRecord
100
AcDbLayerTableRecord
  2
NOTE
 70
0
 62
7
  6
CONTINUOUS
370
-3
390
F
  0
LAYER
  5
205
100
AcDbSymbolTableRecord
100
AcDbLayerTableRecord
  2
PIANI
 70
0
 62
7
  6
CONTINUOUS
370
-3
390
F
  0
LAYER
  5
206
100
AcDbSymbolTableRecord
100
AcDbLayerTableRecord
  2
PUNTI
 70
0
 62
7
  6
CONTINUOUS
370
-3
390
F
  0
LAYER
  5
207
100
AcDbSymbolTableRecord
100
AcDbLayerTableRecord
  2
RACCORDO
 70
0
 62
7
  6
CONTINUOUS
370
-3
390
F
  0
LAYER
  5
208
100
AcDbSymbolTableRecord
100
AcDbLayerTableRecord
  2
SIMBOLI
 70
0
 62
7
  6
CONTINUOUS
370
-3
390
F
  0
LAYER
  5
209
100
AcDbSymbolTableRecord
100
AcDbLayerTableRecord
  2
SMUSSO
 70
0
 62
7
  6
CONTINUOUS
370
-3
390
F
  0
LAYER
  5
20A
100
AcDbSymbolTableRecord
100
AcDbLayerTableRecord
  2
SNAPLINE
 70
0
 62
7
  6
CONTINUOUS
370
-3
390
F
  0
LAYER
  5
20B
100
AcDbSymbolTableRecord
100
AcDbLayerTableRecord
  2
SUPERFICI
 70
0
 62
7
  6
CONTINUOUS
370
-3
390
F
  0
LAYER
  5
20C
100
AcDbSymbolTableRecord
100
AcDbLayerTableRecord
  2
TRASH
 70
0
 62
7
  6
CONTINUOUS
370
-3
390
F
  0
ENDTAB
  0
TABLE
  2
STYLE
  5
3
100
AcDbSymbolTable
 70
1
  0
STYLE
  5
11
100
AcDbSymbolTableRecord
100
AcDbTextStyleTableRecord
  2
STANDARD
 70
0
 40
0.0
 41
0.8
 50
0.0
 71
0
 42
0.2
  3
txt
  4

  0
STYLE
  5
20D
100
AcDbSymbolTableRecord
100
AcDbTextStyleTableRecord
  2
TEXTSTYLE_1
 70
0
 40
0.0
 41
0.8
 50
0.0
 71
0
 42
0.2
  3
gdt
  4

  0
ENDTAB
  0
TABLE
  2
VIEW
  5
6
100
AcDbSymbolTable
 70
0
  0
ENDTAB
  0
TABLE
  2
UCS
  5
7
100
AcDbSymbolTable
 70
0
  0
ENDTAB
  0
TABLE
  2
APPID
  5
9
100
AcDbSymbolTable
 70
1
  0
APPID
  5
20E
100
AcDbSymbolTableRecord
100
AcDbRegAppTableRecord
  2
ACAD
 70
0
  0
ENDTAB
  0
TABLE
  2
BLOCK_RECORD
  5
1
100
AcDbSymbolTable
 70
0
  0
BLOCK_RECORD
  5
20F
100
AcDbSymbolTableRecord
100
AcDbBlockTableRecord
  2
*Model_Space
  0
BLOCK_RECORD
  5
210
100
AcDbSymbolTableRecord
100
AcDbBlockTableRecord
  2
*Paper_Space
  0
BLOCK_RECORD
  5
211
100
AcDbSymbolTableRecord
100
AcDbBlockTableRecord
  2
_FILLED
  0
ENDTAB
  0
TABLE
  2
DIMSTYLE
  5
A
100
AcDbSymbolTable
 70
1
100
AcDbDimStyleTable
 71
0
  0
DIMSTYLE
105
212
100
AcDbSymbolTableRecord
100
AcDbDimStyleTableRecord
  2
STANDARD
 70
0
  3

  4

 40
1.0
 41
3.0
 42
0.5
 43
0.38
 44
1.5
 45
0.0
 46
0.0
 47
0.01
 48
0.01
140
3.0
141
0.09
142
0.0
143
25.4
144
1.0
145
0.0
146
1.0
147
0.625
 71
1
 72
0
 73
0
 74
0
 75
0
 76
0
 77
1
 78
8
 79
2
170
0
171
1
172
0
173
0
174
0
175
0
176
0
177
0
178
0
270
2
179
2
271
2
272
2
273
2
274
2
275
0
280
0
281
0
282
0
283
1
284
8
285
0
286
0
287
3
288
0
340
11
278
44
341
211
342
211
343
211
344
211
  0
ENDTAB
  0
ENDSEC
  0
SECTION
  2
BLOCKS
  0
BLOCK
  5
20
100
AcDbEntity
  8
0
100
AcDbBlockBegin
  2
*Model_Space
 70
0
 10
0.0
 20
0.0
 30
0.0
  3
*Model_Space
  1

  0
ENDBLK
  5
21
100
AcDbEntity
  8
0
100
AcDbBlockEnd
  0
BLOCK
  5
1C
100
AcDbEntity
  8
0
100
AcDbBlockBegin
  2
*Paper_Space
 70
0
 10
0.0
 20
0.0
 30
0.0
  3
*Paper_Space
  1

  0
ENDBLK
  5
1D
100
AcDbEntity
  8
0
100
AcDbBlockEnd
  0
BLOCK
  5
213
100
AcDbEntity
  8
0
100
AcDbBlockBegin
  2
_FILLED
 70
64
 10
0.0
 20
0.0
  3
_FILLED
  1

  0
SOLID
  5
214
100
AcDbEntity
  8
0
  6
BYBLOCK
 62
0
100
AcDbTrace
 10
0.0
 20
0.0
 11
-1.0
 21
0.3166666667
 12
-1.0
 22
-0.3166666667
 13
-1.0
 23
-0.3166666667
  0
ENDBLK
  5
215
100
AcDbEntity
  8
0
  6
BYBLOCK
 62
0
100
AcDbBlockEnd
  0
ENDSEC
  0
SECTION
  2
ENTITIES
  0
LINE
  5
216
100
AcDbEntity
  8
0
100
AcDbLine
 62
7
  6
CONTINUOUS
 10
-42.4705986835
 20
101.5838644032
 11
-13.3024439596
 21
118.425191378
  0
LINE
  5
217
100
AcDbEntity
  8
0
100
AcDbLine
 62
250
  6
CONTINUOUS
 10
-41.5955564033
 20
101.4971673423
 11
-12.4274016794
 21
118.3384943171
  0
LINE
  5
218
100
AcDbEntity
  8
0
100
AcDbLine
 62
250
  6
CONTINUOUS
 10
-42.3026631845
 20
100.4766189512
 11
-41.5955905734
 21
100.8848738152
  0
LINE
  5
219
100
AcDbEntity
  8
0
100
AcDbLine
 62
250
  6
CONTINUOUS
 10
-8.3490691188
 20
116.4065272863
 11
-7.9019182798
 21
116.6647065767
  0
LINE
  5
21A
100
AcDbEntity
  8
0
100
AcDbLine
 62
7
  6
CONTINUOUS
 10
-35.783390188
 20
-86.6339044166
 11
-36.3137202739
 21
-86.3276984716
  0
LINE
  5
21B
100
AcDbEntity
  8
0
100
AcDbLine
 62
7
  6
CONTINUOUS
 10
19.0173853539
 20
-118.2751853995
 11
19.5477154398
 21
-118.5813913445
  0
LINE
  5
21C
100
AcDbEntity
  8
0
100
AcDbLine
 62
250
  6
CONTINUOUS
 10
-35.9387021538
 20
-86.2906017707
 11
-36.4690322397
 21
-85.9843958257
  0
LINE
  5
21D
100
AcDbEntity
  8
0
100
AcDbLine
 62
250
  6
CONTINUOUS
 10
18.8620733882
 20
-117.9318827536
 11
19.392403474
 21
-118.2380886986
  0
LINE
  5
21E
100
AcDbEntity
  8
0
100
AcDbLine
 62
250
  6
CONTINUOUS
 10
-22.8581321213
 20
90.0660606894
 11
-23.2107800924
 21
89.8624461705
  0
LINE
  5
21F
100
AcDbEntity
  8
0
100
AcDbLine
 62
7
  6
CONTINUOUS
 10
-22.6804500066
 20
89.3521818387
 11
-22.326896616
 21
89.5563191354
  0
LINE
  5
220
100
AcDbEntity
  8
0
100
AcDbLine
 62
7
  6
CONTINUOUS
 10
-22.6804500066
 20
88.5357115619
 11
-23.2107800924
 21
88.2295056169
  0
LINE
  5
221
100
AcDbEntity
  8
0
100
AcDbLine
 62
7
  6
CONTINUOUS
 10
-24.4482169595
 20
85.4740466613
 11
-24.9785470454
 21
85.1678407163
  0
LINE
  5
222
100
AcDbEntity
  8
0
100
AcDbLine
 62
7
  6
CONTINUOUS
 10
-33.2870517244
 20
-85.3719247534
 11
18.8620733882
 21
-115.4821760113
  0
LINE
  5
223
100
AcDbEntity
  8
0
100
AcDbLine
 62
7
  6
CONTINUOUS
 10
-24.4482169595
 20
76.6978986492
 11
-13.3112851558
 21
83.1282234941
  0
LINE
  5
224
100
AcDbEntity
  8
0
100
AcDbLine
 62
7
  6
CONTINUOUS
 10
-24.4482169595
 20
76.2896240559
 11
-12.9577317652
 21
82.9240861974
  0
LINE
  5
225
100
AcDbEntity
  8
0
100
AcDbLine
 62
7
  6
CONTINUOUS
 10
14.3539645071
 20
-103.9796652438
 11
13.450307542
 21
-103.4579050376
  0
LINE
  5
226
100
AcDbEntity
  8
0
100
AcDbLine
 62
7
  6
CONTINUOUS
 10
-24.1833550676
 20
-81.7286999074
 11
-25.0870120327
 21
-81.2069397012
  0
LINE
  5
227
100
AcDbEntity
  8
0
100
AcDbLine
 62
7
  6
CONTINUOUS
 10
14.4401024998
 20
-103.6211256479
 11
13.3112851558
 21
-102.9693606609
  0
LINE
  5
228
100
AcDbEntity
  8
0
100
AcDbLine
 62
7
  6
CONTINUOUS
 10
-24.0972170748
 20
-81.3701603115
 11
-25.2260344188
 21
-80.7183953245
  0
LINE
  5
229
100
AcDbEntity
  8
0
100
AcDbLine
 62
7
  6
CONTINUOUS
 10
-24.8017703501
 20
-80.9224418749
 11
-24.2360849252
 21
-81.2490615495
  0
LINE
  5
22A
100
AcDbEntity
  8
0
100
AcDbLine
 62
7
  6
CONTINUOUS
 10
13.7355492245
 20
-103.1734072112
 11
14.3012346495
 21
-103.5000268859
  0
LINE
  5
22B
100
AcDbEntity
  8
0
100
AcDbLine
 62
7
  6
CONTINUOUS
 10
-24.8017703501
 20
-80.7999713333
 11
-24.2360849252
 21
-81.126591008
  0
LINE
  5
22C
100
AcDbEntity
  8
0
100
AcDbLine
 62
7
  6
CONTINUOUS
 10
13.7355492245
 20
-103.0509366697
 11
14.3012346495
 21
-103.3775563444
  0
LINE
  5
22D
100
AcDbEntity
  8
RACCORDO
100
AcDbLine
 62
7
  6
CONTINUOUS
 10
-25.0285494614
 20
-80.6620609074
 11
-24.0975975573
 21
-81.1995808693
  0
LINE
  5
22E
100
AcDbEntity
  8
RACCORDO
100
AcDbLine
 62
7
  6
CONTINUOUS
 10
13.5087701132
 20
-102.9130262437
 11
14.4397220174
 21
-103.4505462056
  0
LINE
  5
22F
100
AcDbEntity
  8
RACCORDO
100
AcDbLine
 62
250
  6
CONTINUOUS
 10
-25.0492577235
 20
-80.6162872213
 11
-24.1002105002
 21
-81.1642551936
  0
LINE
  5
230
100
AcDbEntity
  8
RACCORDO
100
AcDbLine
 62
250
  6
CONTINUOUS
 10
13.4880618511
 20
-102.8672525576
 11
14.4371090744
 21
-103.41522053
  0
LINE
  5
231
100
AcDbEntity
  8
0
100
AcDbLine
 62
7
  6
CONTINUOUS
 10
10.3767920139
 20
-100.989355139
 11
-22.1501199207
 21
-82.208723846
  0
LINE
  5
232
100
AcDbEntity
  8
0
100
AcDbLine
 62
7
  6
CONTINUOUS
 10
10.9071220998
 20
-100.683149194
 11
-21.6197898348
 21
-81.902517901
  0
LINE
  5
233
100
AcDbEntity
  8
0
100
AcDbLine
 62
7
  6
CONTINUOUS
 10
11.4225119668
 20
-100.5724542505
 11
-22.326896616
 21
-81.0859687143
  0
LINE
  5
234
100
AcDbEntity
  8
0
100
AcDbLine
 62
7
  6
CONTINUOUS
 10
-22.1677975902
 20
-79.9530659002
 11
-22.061731573
 21
-80.0143070892
  0
LINE
  5
235
100
AcDbEntity
  8
SMUSSO
100
AcDbLine
 62
7
  6
CONTINUOUS
 10
-22.061731573
 20
-79.5244249231
 11
-22.1677975902
 21
-79.4631837341
  0
LINE
  5
236
100
AcDbEntity
  8
0
100
AcDbLine
 62
7
  6
CONTINUOUS
 10
-22.326896616
 20
-79.0447930223
 11
-22.6804500066
 21
-78.8406557257
  0
LINE
  5
237
100
AcDbEntity
  8
RACCORDO
100
AcDbLine
 62
250
  6
CONTINUOUS
 10
-22.362251955
 20
-78.9834887054
 11
-22.6804500066
 21
-78.7997651384
  0
LINE
  5
238
100
AcDbEntity
  8
0
100
AcDbLine
 62
7
  6
CONTINUOUS
 10
-22.0440539035
 20
-78.5548319464
 11
-22.6097393284
 21
-78.2282122717
  0
LINE
  5
239
100
AcDbEntity
  8
0
100
AcDbLine
 62
7
  6
CONTINUOUS
 10
-22.0440539035
 20
-78.4323614049
 11
-22.6097393284
 21
-78.1057417302
  0
LINE
  5
23A
100
AcDbEntity
  8
SMUSSO
100
AcDbLine
 62
7
  6
CONTINUOUS
 10
-21.5314014871
 20
-78.6058662705
 11
-21.6374675043
 21
-78.5446250816
  0
LINE
  5
23B
100
AcDbEntity
  8
RACCORDO
100
AcDbLine
 62
7
  6
CONTINUOUS
 10
-22.6804500066
 20
-77.8199061144
 11
-22.3975697106
 21
-77.983237652
  0
LINE
  5
23C
100
AcDbEntity
  8
RACCORDO
100
AcDbLine
 62
7
  6
CONTINUOUS
 10
-21.7258285185
 20
-78.3710925974
 11
-21.5313741537
 21
-78.4833681106
  0
LINE
  5
23D
100
AcDbEntity
  8
0
100
AcDbLine
 62
7
  6
CONTINUOUS
 10
-21.2485587747
 20
-78.3200740552
 11
-21.4430131395
 21
-78.2077985421
  0
LINE
  5
23E
100
AcDbEntity
  8
0
100
AcDbLine
 62
7
  6
CONTINUOUS
 10
-22.8218667547
 20
-77.4116657457
 11
-22.1147543316
 21
-77.8199435966
  0
LINE
  5
23F
100
AcDbEntity
  8
RACCORDO
100
AcDbLine
 62
250
  6
CONTINUOUS
 10
-22.0086985644
 20
-77.7587083259
 11
-21.4430131395
 21
-78.0853280005
  0
LINE
  5
240
100
AcDbEntity
  8
RACCORDO
100
AcDbLine
 62
7
  6
CONTINUOUS
 10
-21.1424927575
 20
-78.2588328662
 11
-21.3369471223
 21
-78.1465573531
  0
LINE
  5
241
100
AcDbEntity
  8
RACCORDO
100
AcDbLine
 62
7
  6
CONTINUOUS
 10
-22.8831099167
 20
-77.2538223336
 11
-22.0086934389
 21
-77.7586994488
  0
LINE
  5
242
100
AcDbEntity
  8
RACCORDO
100
AcDbLine
 62
7
  6
CONTINUOUS
 10
-21.9336949404
 20
-77.7512771492
 11
-21.3680095155
 21
-78.0778968239
  0
LINE
  5
243
100
AcDbEntity
  8
0
100
AcDbLine
 62
250
  6
CONTINUOUS
 10
-12.9577317652
 20
-73.8382069468
 11
13.5587725293
 21
-89.1485041966
  0
LINE
  5
244
100
AcDbEntity
  8
0
100
AcDbLine
 62
250
  6
CONTINUOUS
 10
-12.6041783747
 20
-73.2258345117
 11
13.5587725293
 21
-88.3319944648
  0
LINE
  5
245
100
AcDbEntity
  8
0
100
AcDbLine
 62
7
  6
CONTINUOUS
 10
-24.9785470454
 20
85.1678407163
 11
-23.2107800924
 21
88.2295056169
  0
LINE
  5
246
100
AcDbEntity
  8
0
100
AcDbLine
 62
7
  6
CONTINUOUS
 10
-24.4482169595
 20
85.4740466613
 11
-22.6804500066
 21
88.5357115619
  0
LINE
  5
247
100
AcDbEntity
  8
0
100
AcDbLine
 62
7
  6
CONTINUOUS
 10
-24.4482169595
 20
56.285234266
 11
-24.9785470454
 21
55.979028321
  0
LINE
  5
248
100
AcDbEntity
  8
ASSI
100
AcDbLine
 62
250
  6
CONTINUOUS
 10
-0.9369164851
 20
67.512617899
 11
-1.2904698757
 21
67.3084806023
  0
LINE
  5
249
100
AcDbEntity
  8
0
100
AcDbLine
 62
250
  6
CONTINUOUS
 10
40.0877453925
 20
88.4397176434
 11
40.5348962315
 21
88.6978969337
  0
LINE
  5
24A
100
AcDbEntity
  8
ASSI
100
AcDbLine
 62
250
  6
CONTINUOUS
 10
1.8915106397
 20
65.8795195257
 11
1.5379572491
 21
65.675382229
  0
LINE
  5
24B
100
AcDbEntity
  8
0
100
AcDbLine
 62
7
  6
CONTINUOUS
 10
-22.6804500066
 20
51.1821963987
 11
-23.2107800924
 21
50.8759904537
  0
LINE
  5
24C
100
AcDbEntity
  8
0
100
AcDbLine
 62
250
  6
CONTINUOUS
 10
40.9591603002
 20
87.5137625208
 11
11.7910055763
 21
70.672435546
  0
LINE
  5
24D
100
AcDbEntity
  8
0
100
AcDbLine
 62
7
  6
CONTINUOUS
 10
-22.6804500066
 20
48.7338508514
 11
-21.4430131395
 21
49.4483313898
  0
LINE
  5
24E
100
AcDbEntity
  8
0
100
AcDbLine
 62
250
  6
CONTINUOUS
 10
42.1965971673
 20
85.3704589981
 11
13.0284424434
 21
68.5291320233
  0
LINE
  5
24F
100
AcDbEntity
  8
0
100
AcDbLine
 62
250
  6
CONTINUOUS
 10
42.5627136908
 20
84.561420064
 11
42.8329932704
 21
84.7174761058
  0
LINE
  5
250
100
AcDbEntity
  8
0
100
AcDbLine
 62
250
  6
CONTINUOUS
 10
-22.326896616
 20
45.2628066194
 11
-22.6804500066
 21
45.0586693227
  0
LINE
  5
251
100
AcDbEntity
  8
ASSI
100
AcDbLine
 62
250
  6
CONTINUOUS
 10
19.392403474
 20
-72.5157531982
 11
18.8620733882
 21
-72.2095472532
  0
LINE
  5
252
100
AcDbEntity
  8
ASSI
100
AcDbLine
 62
250
  6
CONTINUOUS
 10
-36.4690322397
 20
-40.2620603253
 11
-35.9387021538
 21
-40.5682662703
  0
LINE
  5
253
100
AcDbEntity
  8
ASSI
100
AcDbLine
 62
250
  6
CONTINUOUS
 10
19.3908373424
 20
-72.4623466385
 11
18.8605072565
 21
-72.1561406935
  0
LINE
  5
254
100
AcDbEntity
  8
ASSI
100
AcDbLine
 62
250
  6
CONTINUOUS
 10
-36.4705983713
 20
-40.2086537656
 11
-35.9402682854
 21
-40.5148597106
  0
LINE
  5
255
100
AcDbEntity
  8
0
100
AcDbLine
 62
7
  6
CONTINUOUS
 10
-23.2107800924
 20
-78.0823483333
 11
-25.332100436
 21
-72.6150205464
  0
LINE
  5
256
100
AcDbEntity
  8
ASSI
100
AcDbLine
 62
7
  6
CONTINUOUS
 10
-42.8329932704
 20
100.7828248962
 11
-42.8329932704
 21
66.3412665262
  0
LINE
  5
257
100
AcDbEntity
  8
ASSI
100
AcDbLine
 62
7
  6
CONTINUOUS
 10
-42.3026631845
 20
100.4766189512
 11
-42.3026631845
 21
66.0350605812
  0
LINE
  5
258
100
AcDbEntity
  8
0
100
AcDbLine
 62
250
  6
CONTINUOUS
 10
-41.5955564033
 20
101.4971673423
 11
-41.5955564033
 21
100.8848146347
  0
LINE
  5
259
100
AcDbEntity
  8
0
100
AcDbLine
 62
7
  6
CONTINUOUS
 10
-21.7965665301
 20
41.4877659185
 11
-22.326896616
 21
41.1815599735
  0
LINE
  5
25A
100
AcDbEntity
  8
0
100
AcDbLine
 62
7
  6
CONTINUOUS
 10
-21.4430131395
 20
41.2836286218
 11
-22.326896616
 21
40.7732853802
  0
LINE
  5
25B
100
AcDbEntity
  8
0
100
AcDbLine
 62
7
  6
CONTINUOUS
 10
6.1465612978
 20
-58.7826385253
 11
6.546599955
 21
-59.013571192
  0
LINE
  5
25C
100
AcDbEntity
  8
0
100
AcDbLine
 62
7
  6
CONTINUOUS
 10
-22.6804500066
 20
-77.7761423883
 11
-24.8017703501
 21
-72.3088146015
  0
LINE
  5
25D
100
AcDbEntity
  8
ASSI
100
AcDbLine
 62
7
  6
CONTINUOUS
 10
-36.4705983713
 20
-40.2086537656
 11
-42.8314271388
 21
66.2878599665
  0
LINE
  5
25E
100
AcDbEntity
  8
ASSI
100
AcDbLine
 62
7
  6
CONTINUOUS
 10
-35.9402682854
 20
-40.5148597106
 11
-42.3010970529
 21
65.9816540215
  0
LINE
  5
25F
100
AcDbEntity
  8
0
100
AcDbLine
 62
7
  6
CONTINUOUS
 10
-36.4690322397
 20
-85.9843958257
 11
-36.4690322397
 21
-40.2620603253
  0
LINE
  5
260
100
AcDbEntity
  8
0
100
AcDbLine
 62
7
  6
CONTINUOUS
 10
-35.9387021538
 20
-86.2906017707
 11
-35.9387021538
 21
-40.5682662703
  0
LINE
  5
261
100
AcDbEntity
  8
0
100
AcDbLine
 62
7
  6
CONTINUOUS
 10
-12.6041783747
 20
-39.7505531632
 11
-12.2506249841
 21
-39.9546904599
  0
LINE
  5
262
100
AcDbEntity
  8
0
100
AcDbLine
 62
250
  6
CONTINUOUS
 10
-25.7210091657
 20
7.2307356794
 11
-25.7210091657
 21
5.8682538564
  0
LINE
  5
263
100
AcDbEntity
  8
0
100
AcDbLine
 62
250
  6
CONTINUOUS
 10
-25.7210091657
 20
-79.3151136607
 11
-25.7210091657
 21
-80.6775954836
  0
LINE
  5
264
100
AcDbEntity
  8
0
100
AcDbLine
 62
7
  6
CONTINUOUS
 10
-25.332100436
 20
-72.6150205464
 11
-25.332100436
 21
-49.3456176579
  0
LINE
  5
265
100
AcDbEntity
  8
0
100
AcDbLine
 62
250
  6
CONTINUOUS
 10
-25.2967450969
 20
7.1633803732
 11
-25.2967450969
 21
5.8682538564
  0
LINE
  5
266
100
AcDbEntity
  8
0
100
AcDbLine
 62
250
  6
CONTINUOUS
 10
-25.2967450969
 20
-79.3824689669
 11
-25.2967450969
 21
-80.6775954836
  0
LINE
  5
267
100
AcDbEntity
  8
0
100
AcDbLine
 62
7
  6
CONTINUOUS
 10
-25.2260344188
 20
-80.7183953245
 11
-25.2260344188
 21
-80.6367680243
  0
LINE
  5
268
100
AcDbEntity
  8
0
100
AcDbLine
 62
7
  6
CONTINUOUS
 10
-25.2260344188
 20
5.8274540155
 11
-25.2260344188
 21
5.9090813157
  0
LINE
  5
269
100
AcDbEntity
  8
RACCORDO
100
AcDbLine
 62
7
  6
CONTINUOUS
 10
-25.0785470454
 20
5.9942386767
 11
-25.0785470454
 21
5.9703895781
  0
LINE
  5
26A
100
AcDbEntity
  8
RACCORDO
100
AcDbLine
 62
7
  6
CONTINUOUS
 10
-25.0785470454
 20
-80.5516106634
 11
-25.0785470454
 21
-80.5754597619
  0
LINE
  5
26B
100
AcDbEntity
  8
RACCORDO
100
AcDbLine
 62
250
  6
CONTINUOUS
 10
-25.0492577235
 20
6.0111499641
 11
-25.0492577235
 21
5.9295621188
  0
LINE
  5
26C
100
AcDbEntity
  8
RACCORDO
100
AcDbLine
 62
250
  6
CONTINUOUS
 10
-25.0492577235
 20
-80.534699376
 11
-25.0492577235
 21
-80.6162872213
  0
LINE
  5
26D
100
AcDbEntity
  8
0
100
AcDbLine
 62
7
  6
CONTINUOUS
 10
-24.9785470454
 20
55.979028321
 11
-24.9785470454
 21
85.1678407163
  0
LINE
  5
26E
100
AcDbEntity
  8
0
100
AcDbLine
 62
250
  6
CONTINUOUS
 10
-24.8724810282
 20
6.885004214
 11
-24.8724810282
 21
6.1132186124
  0
LINE
  5
26F
100
AcDbEntity
  8
0
100
AcDbLine
 62
250
  6
CONTINUOUS
 10
-24.8724810282
 20
-79.660845126
 11
-24.8724810282
 21
-80.4326307277
  0
LINE
  5
270
100
AcDbEntity
  8
0
100
AcDbLine
 62
7
  6
CONTINUOUS
 10
-24.8017703501
 20
-80.9224418749
 11
-24.8017703501
 21
-80.7999713333
  0
LINE
  5
271
100
AcDbEntity
  8
0
100
AcDbLine
 62
7
  6
CONTINUOUS
 10
-24.8017703501
 20
-72.3088146015
 11
-24.8017703501
 21
-49.0394117129
  0
LINE
  5
272
100
AcDbEntity
  8
0
100
AcDbLine
 62
7
  6
CONTINUOUS
 10
-24.8017703501
 20
5.6234074652
 11
-24.8017703501
 21
5.7458780067
  0
LINE
  5
273
100
AcDbEntity
  8
0
100
AcDbLine
 62
7
  6
CONTINUOUS
 10
-24.7846130626
 20
6.8014741198
 11
-24.7846130626
 21
6.2357009904
  0
LINE
  5
274
100
AcDbEntity
  8
0
100
AcDbLine
 62
7
  6
CONTINUOUS
 10
-24.7846130626
 20
-79.7443752202
 11
-24.7846130626
 21
-80.3101483497
  0
LINE
  5
275
100
AcDbEntity
  8
0
100
AcDbLine
 62
7
  6
CONTINUOUS
 10
-24.4482169595
 20
56.285234266
 11
-24.4482169595
 21
85.4740466613
  0
LINE
  5
276
100
AcDbEntity
  8
0
100
AcDbLine
 62
7
  6
CONTINUOUS
 10
-24.2360849252
 20
5.419258332
 11
-24.2360849252
 21
5.2967877905
  0
LINE
  5
277
100
AcDbEntity
  8
0
100
AcDbLine
 62
7
  6
CONTINUOUS
 10
-24.2360849252
 20
-81.126591008
 11
-24.2360849252
 21
-81.2490615495
  0
LINE
  5
278
100
AcDbEntity
  8
ASSI
100
AcDbLine
 62
250
  6
CONTINUOUS
 10
-24.9785470454
 20
18.6255723401
 11
-25.5088771313
 21
18.3193663951
  0
LINE
  5
279
100
AcDbEntity
  8
0
100
AcDbLine
 62
7
  6
CONTINUOUS
 10
-21.7965665301
 20
-15.665153457
 11
-21.4430131395
 21
-15.8692907537
  0
LINE
  5
27A
100
AcDbEntity
  8
0
100
AcDbLine
 62
7
  6
CONTINUOUS
 10
-23.2107800924
 20
-80.3716065408
 11
-23.2107800924
 21
-78.0823483333
  0
LINE
  5
27B
100
AcDbEntity
  8
0
100
AcDbLine
 62
7
  6
CONTINUOUS
 10
-23.2107800924
 20
-46.327937431
 11
-23.2107800924
 21
50.8759904537
  0
LINE
  5
27C
100
AcDbEntity
  8
0
100
AcDbLine
 62
7
  6
CONTINUOUS
 10
-23.2107800924
 20
88.2295056169
 11
-23.2107800924
 21
89.8624461705
  0
LINE
  5
27D
100
AcDbEntity
  8
0
100
AcDbLine
 62
7
  6
CONTINUOUS
 10
-22.6804500066
 20
-80.0654005958
 11
-22.6804500066
 21
-77.7761423883
  0
LINE
  5
27E
100
AcDbEntity
  8
0
100
AcDbLine
 62
7
  6
CONTINUOUS
 10
-22.6804500066
 20
-46.021731486
 11
-22.6804500066
 21
51.1821963987
  0
LINE
  5
27F
100
AcDbEntity
  8
0
100
AcDbLine
 62
7
  6
CONTINUOUS
 10
-22.6804500066
 20
88.5357115619
 11
-22.6804500066
 21
89.9634692632
  0
LINE
  5
280
100
AcDbEntity
  8
0
100
AcDbLine
 62
7
  6
CONTINUOUS
 10
-22.6097393284
 20
-78.2282122717
 11
-22.6097393284
 21
-78.1057417302
  0
LINE
  5
281
100
AcDbEntity
  8
0
100
AcDbLine
 62
7
  6
CONTINUOUS
 10
-22.326896616
 20
45.2628066194
 11
-22.326896616
 21
-34.7512805063
  0
LINE
  5
282
100
AcDbEntity
  8
0
100
AcDbLine
 62
7
  6
CONTINUOUS
 10
-22.326896616
 20
-79.0447930223
 11
-22.326896616
 21
-81.0859687143
  0
LINE
  5
283
100
AcDbEntity
  8
0
100
AcDbLine
 62
7
  6
CONTINUOUS
 10
-22.326896616
 20
89.5563191354
 11
-22.326896616
 21
89.7593319665
  0
LINE
  5
284
100
AcDbEntity
  8
RACCORDO
100
AcDbLine
 62
250
  6
CONTINUOUS
 10
-22.2915412769
 20
-80.0096386808
 11
-22.2915412769
 21
-79.1059631924
  0
LINE
  5
285
100
AcDbEntity
  8
RACCORDO
100
AcDbLine
 62
250
  6
CONTINUOUS
 10
-22.2915412769
 20
4.4189461235
 11
-22.2915412769
 21
4.8161952914
  0
LINE
  5
286
100
AcDbEntity
  8
RACCORDO
100
AcDbLine
 62
250
  6
CONTINUOUS
 10
-22.2915412769
 20
6.5362106593
 11
-22.2915412769
 21
7.4398861476
  0
LINE
  5
287
100
AcDbEntity
  8
SMUSSO
100
AcDbLine
 62
7
  6
CONTINUOUS
 10
-22.1677975902
 20
-79.9530659002
 11
-22.1677975902
 21
-79.4631837341
  0
LINE
  5
288
100
AcDbEntity
  8
SMUSSO
100
AcDbLine
 62
7
  6
CONTINUOUS
 10
-22.1677975902
 20
4.4699607202
 11
-22.1677975902
 21
4.8412540118
  0
LINE
  5
289
100
AcDbEntity
  8
SMUSSO
100
AcDbLine
 62
7
  6
CONTINUOUS
 10
-22.1677975902
 20
6.5927834398
 11
-22.1677975902
 21
7.0826656059
  0
LINE
  5
28A
100
AcDbEntity
  8
RACCORDO
100
AcDbLine
 62
250
  6
CONTINUOUS
 10
-22.1324422511
 20
-81.1982442275
 11
-22.1324422511
 21
-80.0551345485
  0
LINE
  5
28B
100
AcDbEntity
  8
RACCORDO
100
AcDbLine
 62
250
  6
CONTINUOUS
 10
-22.1324422511
 20
4.8577742379
 11
-22.1324422511
 21
6.4907147915
  0
LINE
  5
28C
100
AcDbEntity
  8
SMUSSO
100
AcDbLine
 62
7
  6
CONTINUOUS
 10
-22.061731573
 20
-80.0143070892
 11
-22.061731573
 21
-79.5244249231
  0
LINE
  5
28D
100
AcDbEntity
  8
SMUSSO
100
AcDbLine
 62
7
  6
CONTINUOUS
 10
-22.061731573
 20
4.4087195312
 11
-22.061731573
 21
4.8986016972
  0
LINE
  5
28E
100
AcDbEntity
  8
SMUSSO
100
AcDbLine
 62
7
  6
CONTINUOUS
 10
-22.061731573
 20
6.5315422508
 11
-22.061731573
 21
7.0214244169
  0
LINE
  5
28F
100
AcDbEntity
  8
0
100
AcDbLine
 62
7
  6
CONTINUOUS
 10
-22.0440539035
 20
8.1134879352
 11
-22.0440539035
 21
7.9910173937
  0
LINE
  5
290
100
AcDbEntity
  8
0
100
AcDbLine
 62
7
  6
CONTINUOUS
 10
-22.0440539035
 20
4.1536070927
 11
-22.0440539035
 21
4.0311365512
  0
LINE
  5
291
100
AcDbEntity
  8
0
100
AcDbLine
 62
7
  6
CONTINUOUS
 10
-22.0440539035
 20
-78.4323614049
 11
-22.0440539035
 21
-78.5548319464
  0
LINE
  5
292
100
AcDbEntity
  8
0
100
AcDbLine
 62
7
  6
CONTINUOUS
 10
-21.7965665301
 20
49.2441940931
 11
-21.7965665301
 21
41.4877659185
  0
LINE
  5
293
100
AcDbEntity
  8
0
100
AcDbLine
 62
7
  6
CONTINUOUS
 10
-21.7965665301
 20
-7.9087252824
 11
-21.7965665301
 21
-15.665153457
  0
LINE
  5
294
100
AcDbEntity
  8
0
100
AcDbLine
 62
7
  6
CONTINUOUS
 10
-21.4430131395
 20
49.4483313898
 11
-21.4430131395
 21
41.2836286218
  0
LINE
  5
295
100
AcDbEntity
  8
0
100
AcDbLine
 62
7
  6
CONTINUOUS
 10
-21.4430131395
 20
-7.7045879857
 11
-21.4430131395
 21
-15.8692907537
  0
LINE
  5
296
100
AcDbEntity
  8
RACCORDO
100
AcDbLine
 62
250
  6
CONTINUOUS
 10
-21.1424927575
 20
8.1645340958
 11
-21.1424927575
 21
4.3271237949
  0
LINE
  5
297
100
AcDbEntity
  8
RACCORDO
100
AcDbLine
 62
250
  6
CONTINUOUS
 10
-21.1424927575
 20
-78.3813152442
 11
-21.1424927575
 21
-81.7698286581
  0
LINE
  5
298
100
AcDbEntity
  8
RACCORDO
100
AcDbLine
 62
7
  6
CONTINUOUS
 10
-21.0985587747
 20
8.2257752848
 11
-21.0985587747
 21
4.3883649839
  0
LINE
  5
299
100
AcDbEntity
  8
RACCORDO
100
AcDbLine
 62
7
  6
CONTINUOUS
 10
-21.0985587747
 20
-78.3200740552
 11
-21.0985587747
 21
-81.7951955892
  0
LINE
  5
29A
100
AcDbEntity
  8
SMUSSO
100
AcDbLine
 62
7
  6
CONTINUOUS
 10
-22.1677975902
 20
7.0826656059
 11
-21.6374675043
 21
8.0012242585
  0
LINE
  5
29B
100
AcDbEntity
  8
SMUSSO
100
AcDbLine
 62
7
  6
CONTINUOUS
 10
-21.5314014871
 20
7.9399830695
 11
-22.061731573
 21
7.0214244169
  0
LINE
  5
29C
100
AcDbEntity
  8
ASSI
100
AcDbLine
 62
250
  6
CONTINUOUS
 10
-25.6856538266
 20
6.7867927815
 11
-26.2159839125
 21
6.4805868365
  0
LINE
  5
29D
100
AcDbEntity
  8
RACCORDO
100
AcDbLine
 62
7
  6
CONTINUOUS
 10
-22.0086985644
 20
8.7871410142
 11
-22.326896616
 21
8.6034174472
  0
LINE
  5
29E
100
AcDbEntity
  8
RACCORDO
100
AcDbLine
 62
7
  6
CONTINUOUS
 10
-22.0440539035
 20
8.1134879352
 11
-21.4430131395
 21
8.4605213395
  0
LINE
  5
29F
100
AcDbEntity
  8
RACCORDO
100
AcDbLine
 62
7
  6
CONTINUOUS
 10
-21.4430131395
 20
8.338050798
 11
-21.3369471223
 21
8.399291987
  0
LINE
  5
2A0
100
AcDbEntity
  8
0
100
AcDbLine
 62
7
  6
CONTINUOUS
 10
-21.4430131395
 20
8.338050798
 11
-22.0440539035
 21
7.9910173937
  0
LINE
  5
2A1
100
AcDbEntity
  8
SMUSSO
100
AcDbLine
 62
7
  6
CONTINUOUS
 10
-21.2485587747
 20
8.2257752848
 11
-21.6374675043
 21
8.0012242585
  0
LINE
  5
2A2
100
AcDbEntity
  8
0
100
AcDbLine
 62
7
  6
CONTINUOUS
 10
-24.8724810282
 20
6.1132186124
 11
-25.2967450969
 21
5.8682538564
  0
LINE
  5
2A3
100
AcDbEntity
  8
RACCORDO
100
AcDbLine
 62
250
  6
CONTINUOUS
 10
-21.6551195463
 20
7.970650025
 11
-22.326896616
 21
7.5827743643
  0
LINE
  5
2A4
100
AcDbEntity
  8
0
100
AcDbLine
 62
7
  6
CONTINUOUS
 10
-25.3748481849
 20
5.7415308121
 11
-25.2260344188
 21
5.8274540155
  0
LINE
  5
2A5
100
AcDbEntity
  8
SMUSSO
100
AcDbLine
 62
7
  6
CONTINUOUS
 10
-21.1424927575
 20
8.1645340958
 11
-21.5314014871
 21
7.9399830695
  0
LINE
  5
2A6
100
AcDbEntity
  8
RACCORDO
100
AcDbLine
 62
250
  6
CONTINUOUS
 10
-21.7965477365
 20
7.7256892141
 11
-22.2915412769
 21
7.4398861476
  0
LINE
  5
2A7
100
AcDbEntity
  8
0
100
AcDbLine
 62
7
  6
CONTINUOUS
 10
-24.7957336679
 20
5.7493635114
 11
-24.8017703501
 21
5.7458780067
  0
LINE
  5
2A8
100
AcDbEntity
  8
0
100
AcDbLine
 62
7
  6
CONTINUOUS
 10
-24.230048243
 20
5.4227438367
 11
-24.2360849252
 21
5.419258332
  0
LINE
  5
2A9
100
AcDbEntity
  8
RACCORDO
100
AcDbLine
 62
7
  6
CONTINUOUS
 10
-22.2385082683
 20
6.5519559805
 11
-22.1677975902
 21
6.5927834398
  0
LINE
  5
2AA
100
AcDbEntity
  8
RACCORDO
100
AcDbLine
 62
7
  6
CONTINUOUS
 10
-24.1239924758
 20
5.3615085659
 11
-24.2360849252
 21
5.2967877905
  0
LINE
  5
2AB
100
AcDbEntity
  8
RACCORDO
100
AcDbLine
 62
7
  6
CONTINUOUS
 10
-22.061731573
 20
6.5315422508
 11
-22.1324422511
 21
6.4907147915
  0
LINE
  5
2AC
100
AcDbEntity
  8
0
100
AcDbLine
 62
250
  6
CONTINUOUS
 10
-13.1345084605
 20
-73.7360988435
 11
-13.1345084605
 21
-39.6485239698
  0
LINE
  5
2AD
100
AcDbEntity
  8
0
100
AcDbLine
 62
250
  6
CONTINUOUS
 10
-13.1345084605
 20
83.2093516439
 11
-13.1345084605
 21
84.4517622533
  0
LINE
  5
2AE
100
AcDbEntity
  8
0
100
AcDbLine
 62
250
  6
CONTINUOUS
 10
-12.9577317652
 20
82.9240861974
 11
-12.9577317652
 21
-39.5464553215
  0
LINE
  5
2AF
100
AcDbEntity
  8
0
100
AcDbLine
 62
7
  6
CONTINUOUS
 10
-12.6041783747
 20
84.1455563083
 11
-12.6041783747
 21
83.5364586325
  0
LINE
  5
2B0
100
AcDbEntity
  8
0
100
AcDbLine
 62
7
  6
CONTINUOUS
 10
-12.6041783747
 20
-39.7505531632
 11
-12.6041783747
 21
-73.2258345117
  0
LINE
  5
2B1
100
AcDbEntity
  8
0
100
AcDbLine
 62
250
  6
CONTINUOUS
 10
-12.4274016794
 20
-39.6484845149
 11
-12.4274016794
 21
-39.4805842443
  0
LINE
  5
2B2
100
AcDbEntity
  8
0
100
AcDbLine
 62
250
  6
CONTINUOUS
 10
-12.4274016794
 20
83.288201407
 11
-12.4274016794
 21
83.4343899842
  0
LINE
  5
2B3
100
AcDbEntity
  8
0
100
AcDbLine
 62
250
  6
CONTINUOUS
 10
-12.2506249841
 20
82.9240861974
 11
-12.2506249841
 21
-39.5464553215
  0
LINE
  5
2B4
100
AcDbEntity
  8
0
100
AcDbLine
 62
7
  6
CONTINUOUS
 10
-12.2506249841
 20
-39.5464553215
 11
-12.2506249841
 21
-39.9546904599
  0
LINE
  5
2B5
100
AcDbEntity
  8
0
100
AcDbLine
 62
7
  6
CONTINUOUS
 10
-12.2506249841
 20
82.9240861974
 11
-12.2506249841
 21
83.3323213358
  0
LINE
  5
2B6
100
AcDbEntity
  8
RACCORDO
100
AcDbLine
 62
7
  6
CONTINUOUS
 10
-22.061731573
 20
4.8986016972
 11
-22.1324422511
 21
4.8577742379
  0
LINE
  5
2B7
100
AcDbEntity
  8
RACCORDO
100
AcDbLine
 62
250
  6
CONTINUOUS
 10
-22.1677975902
 20
4.4903941773
 11
-22.2915412769
 21
4.4189461235
  0
LINE
  5
2B8
100
AcDbEntity
  8
RACCORDO
100
AcDbLine
 62
7
  6
CONTINUOUS
 10
-22.156207853
 20
4.4632689512
 11
-22.312249539
 21
4.3731724373
  0
LINE
  5
2B9
100
AcDbEntity
  8
0
100
AcDbLine
 62
7
  6
CONTINUOUS
 10
-21.8319509137
 20
4.2760727008
 11
-22.0440539035
 21
4.1536070927
  0
LINE
  5
2BA
100
AcDbEntity
  8
RACCORDO
100
AcDbLine
 62
7
  6
CONTINUOUS
 10
-21.7258848965
 20
4.2148433482
 11
-22.0440539035
 21
4.0311365512
  0
LINE
  5
2BB
100
AcDbEntity
  8
SMUSSO
100
AcDbLine
 62
7
  6
CONTINUOUS
 10
-21.5314014871
 20
4.1025727686
 11
-21.1424927575
 21
4.3271237949
  0
LINE
  5
2BC
100
AcDbEntity
  8
ASSI
100
AcDbLine
 62
250
  6
CONTINUOUS
 10
-24.9785470454
 20
-5.8685359637
 11
-25.5088771313
 21
-6.1747419087
  0
LINE
  5
2BD
100
AcDbEntity
  8
0
100
AcDbLine
 62
7
  6
CONTINUOUS
 10
14.3539645071
 20
-17.4338159038
 11
13.450307542
 21
-16.9120556976
  0
LINE
  5
2BE
100
AcDbEntity
  8
0
100
AcDbLine
 62
7
  6
CONTINUOUS
 10
-24.1833550676
 20
4.8171494326
 11
-25.0870120327
 21
5.3389096388
  0
LINE
  5
2BF
100
AcDbEntity
  8
0
100
AcDbLine
 62
7
  6
CONTINUOUS
 10
14.4401024998
 20
-17.0752763079
 11
13.3112851558
 21
-16.4235113209
  0
LINE
  5
2C0
100
AcDbEntity
  8
0
100
AcDbLine
 62
7
  6
CONTINUOUS
 10
-24.0972170748
 20
5.1756890285
 11
-25.2260344188
 21
5.8274540155
  0
LINE
  5
2C1
100
AcDbEntity
  8
0
100
AcDbLine
 62
7
  6
CONTINUOUS
 10
-24.8017703501
 20
5.6234074652
 11
-24.2360849252
 21
5.2967877905
  0
LINE
  5
2C2
100
AcDbEntity
  8
0
100
AcDbLine
 62
7
  6
CONTINUOUS
 10
-22.326896616
 20
4.1944463885
 11
-22.0440539035
 21
4.0311365512
  0
LINE
  5
2C3
100
AcDbEntity
  8
0
100
AcDbLine
 62
7
  6
CONTINUOUS
 10
13.7355492245
 20
-16.6275578712
 11
14.3012346495
 21
-16.9541775458
  0
LINE
  5
2C4
100
AcDbEntity
  8
0
100
AcDbLine
 62
7
  6
CONTINUOUS
 10
-24.8017703501
 20
5.7458780067
 11
-24.2360849252
 21
5.419258332
  0
LINE
  5
2C5
100
AcDbEntity
  8
0
100
AcDbLine
 62
7
  6
CONTINUOUS
 10
-22.326896616
 20
4.3169169301
 11
-22.0440539035
 21
4.1536070927
  0
LINE
  5
2C6
100
AcDbEntity
  8
0
100
AcDbLine
 62
7
  6
CONTINUOUS
 10
13.7355492245
 20
-16.5050873297
 11
14.3012346495
 21
-16.8317070043
  0
LINE
  5
2C7
100
AcDbEntity
  8
RACCORDO
100
AcDbLine
 62
7
  6
CONTINUOUS
 10
-25.0285494614
 20
5.8837884327
 11
-24.0975975573
 21
5.3462684708
  0
LINE
  5
2C8
100
AcDbEntity
  8
RACCORDO
100
AcDbLine
 62
7
  6
CONTINUOUS
 10
13.5087701132
 20
-16.3671769037
 11
14.4397220174
 21
-16.9046968656
  0
LINE
  5
2C9
100
AcDbEntity
  8
RACCORDO
100
AcDbLine
 62
250
  6
CONTINUOUS
 10
-25.0492577235
 20
5.9295621188
 11
-24.1002105002
 21
5.3815941464
  0
LINE
  5
2CA
100
AcDbEntity
  8
RACCORDO
100
AcDbLine
 62
250
  6
CONTINUOUS
 10
13.4880618511
 20
-16.3214032176
 11
14.4371090744
 21
-16.86937119
  0
LINE
  5
2CB
100
AcDbEntity
  8
0
100
AcDbLine
 62
7
  6
CONTINUOUS
 10
11.4374521857
 20
-66.3333925041
 11
13.5587725293
 21
-71.8007202909
  0
LINE
  5
2CC
100
AcDbEntity
  8
ASSI
100
AcDbLine
 62
7
  6
CONTINUOUS
 10
-0.8485281374
 20
-39.5981209246
 11
-0.8485281374
 21
-36.3322398174
  0
LINE
  5
2CD
100
AcDbEntity
  8
ASSI
100
AcDbLine
 62
7
  6
CONTINUOUS
 10
-0.4949747468
 20
-39.3939836279
 11
-0.4949747468
 21
-36.1281025207
  0
LINE
  5
2CE
100
AcDbEntity
  8
ASSI
100
AcDbLine
 62
7
  6
CONTINUOUS
 10
1.0960155108
 20
-37.454994949
 11
1.0960155108
 21
-40.7208760562
  0
LINE
  5
2CF
100
AcDbEntity
  8
0
100
AcDbLine
 62
7
  6
CONTINUOUS
 10
12.5879150826
 20
32.8630671818
 11
11.4374521857
 21
30.8705353806
  0
LINE
  5
2D0
100
AcDbEntity
  8
0
100
AcDbLine
 62
7
  6
CONTINUOUS
 10
-22.326896616
 20
-8.2149312274
 11
-21.4430131395
 21
-7.7045879857
  0
LINE
  5
2D1
100
AcDbEntity
  8
SMUSSO
100
AcDbLine
 62
7
  6
CONTINUOUS
 10
-22.1677975902
 20
4.4699607202
 11
-21.5314014871
 21
4.1025727686
  0
LINE
  5
2D2
100
AcDbEntity
  8
0
100
AcDbLine
 62
7
  6
CONTINUOUS
 10
-22.1677975902
 20
6.5927834398
 11
-22.061731573
 21
6.5315422508
  0
LINE
  5
2D3
100
AcDbEntity
  8
SMUSSO
100
AcDbLine
 62
7
  6
CONTINUOUS
 10
-22.061731573
 20
7.0214244169
 11
-22.1677975902
 21
7.0826656059
  0
LINE
  5
2D4
100
AcDbEntity
  8
0
100
AcDbLine
 62
7
  6
CONTINUOUS
 10
-22.0440539035
 20
7.9910173937
 11
-22.326896616
 21
8.154327231
  0
LINE
  5
2D5
100
AcDbEntity
  8
0
100
AcDbLine
 62
7
  6
CONTINUOUS
 10
-22.0440539035
 20
8.1134879352
 11
-22.326896616
 21
8.2767977725
  0
LINE
  5
2D6
100
AcDbEntity
  8
SMUSSO
100
AcDbLine
 62
7
  6
CONTINUOUS
 10
-21.5314014871
 20
7.9399830695
 11
-21.6374675043
 21
8.0012242585
  0
LINE
  5
2D7
100
AcDbEntity
  8
RACCORDO
100
AcDbLine
 62
7
  6
CONTINUOUS
 10
-21.7258285185
 20
8.1747567426
 11
-21.5313741537
 21
8.0624812295
  0
LINE
  5
2D8
100
AcDbEntity
  8
0
100
AcDbLine
 62
7
  6
CONTINUOUS
 10
-22.326896616
 20
8.8483940396
 11
-22.1147543316
 21
8.7259057434
  0
LINE
  5
2D9
100
AcDbEntity
  8
0
100
AcDbLine
 62
7
  6
CONTINUOUS
 10
-21.2485587747
 20
8.2257752848
 11
-21.4430131395
 21
8.338050798
  0
LINE
  5
2DA
100
AcDbEntity
  8
RACCORDO
100
AcDbLine
 62
250
  6
CONTINUOUS
 10
-22.0086985644
 20
8.7871410142
 11
-21.4430131395
 21
8.4605213395
  0
LINE
  5
2DB
100
AcDbEntity
  8
RACCORDO
100
AcDbLine
 62
7
  6
CONTINUOUS
 10
-22.326896616
 20
8.9708764176
 11
-22.0086934389
 21
8.7871498912
  0
LINE
  5
2DC
100
AcDbEntity
  8
RACCORDO
100
AcDbLine
 62
7
  6
CONTINUOUS
 10
-21.1424927575
 20
8.2870164738
 11
-21.3369471223
 21
8.399291987
  0
LINE
  5
2DD
100
AcDbEntity
  8
RACCORDO
100
AcDbLine
 62
7
  6
CONTINUOUS
 10
-21.9336949404
 20
8.7945721908
 11
-21.3680095155
 21
8.4679525162
  0
LINE
  5
2DE
100
AcDbEntity
  8
0
100
AcDbLine
 62
7
  6
CONTINUOUS
 10
-23.2107800924
 20
50.8759904537
 11
-24.9785470454
 21
55.979028321
  0
LINE
  5
2DF
100
AcDbEntity
  8
0
100
AcDbLine
 62
7
  6
CONTINUOUS
 10
-22.6804500066
 20
51.1821963987
 11
-24.4482169595
 21
56.285234266
  0
LINE
  5
2E0
100
AcDbEntity
  8
RACCORDO
100
AcDbLine
 62
7
  6
CONTINUOUS
 10
3.270368863
 20
-53.8012480398
 11
3.270368863
 21
-53.3393380662
  0
LINE
  5
2E1
100
AcDbEntity
  8
0
100
AcDbLine
 62
7
  6
CONTINUOUS
 10
-25.332100436
 20
-49.3456176579
 11
-23.2107800924
 21
-46.327937431
  0
LINE
  5
2E2
100
AcDbEntity
  8
0
100
AcDbLine
 62
7
  6
CONTINUOUS
 10
-24.8017703501
 20
-49.0394117129
 11
-22.6804500066
 21
-46.021731486
  0
LINE
  5
2E3
100
AcDbEntity
  8
0
100
AcDbLine
 62
7
  6
CONTINUOUS
 10
-21.7965665301
 20
-15.665153457
 11
-22.326896616
 21
-15.971359402
  0
LINE
  5
2E4
100
AcDbEntity
  8
0
100
AcDbLine
 62
7
  6
CONTINUOUS
 10
-21.4430131395
 20
-15.8692907537
 11
-22.326896616
 21
-16.3796339953
  0
LINE
  5
2E5
100
AcDbEntity
  8
ASSI
100
AcDbLine
 62
7
  6
CONTINUOUS
 10
18.8605072565
 20
-72.1561406935
 11
12.4996784891
 21
34.3403730386
  0
LINE
  5
2E6
100
AcDbEntity
  8
ASSI
100
AcDbLine
 62
7
  6
CONTINUOUS
 10
19.3908373424
 20
-72.4623466385
 11
13.030008575
 21
34.0341670936
  0
LINE
  5
2E7
100
AcDbEntity
  8
0
100
AcDbLine
 62
7
  6
CONTINUOUS
 10
11.4374521857
 20
69.8569910975
 11
11.4374521857
 21
68.2240505439
  0
LINE
  5
2E8
100
AcDbEntity
  8
0
100
AcDbLine
 62
7
  6
CONTINUOUS
 10
11.4374521857
 20
30.8705353806
 11
11.4374521857
 21
-66.3333925041
  0
LINE
  5
2E9
100
AcDbEntity
  8
0
100
AcDbLine
 62
7
  6
CONTINUOUS
 10
11.4374521857
 20
-98.0878034063
 11
11.4374521857
 21
-100.3770616138
  0
LINE
  5
2EA
100
AcDbEntity
  8
0
100
AcDbLine
 62
250
  6
CONTINUOUS
 10
11.7910055763
 20
70.672435546
 11
11.7910055763
 21
70.0600828385
  0
LINE
  5
2EB
100
AcDbEntity
  8
ASSI
100
AcDbLine
 62
7
  6
CONTINUOUS
 10
12.4981123575
 20
68.8353379683
 11
12.4981123575
 21
34.3937795983
  0
LINE
  5
2EC
100
AcDbEntity
  8
0
100
AcDbLine
 62
250
  6
CONTINUOUS
 10
12.816310409
 20
-15.020229657
 11
12.816310409
 21
-16.38271148
  0
LINE
  5
2ED
100
AcDbEntity
  8
0
100
AcDbLine
 62
250
  6
CONTINUOUS
 10
12.816310409
 20
-101.566078997
 11
12.816310409
 21
-102.92856082
  0
LINE
  5
2EE
100
AcDbEntity
  8
ASSI
100
AcDbLine
 62
7
  6
CONTINUOUS
 10
13.0284424434
 20
68.5291320233
 11
13.0284424434
 21
34.0875736533
  0
LINE
  5
2EF
100
AcDbEntity
  8
0
100
AcDbLine
 62
250
  6
CONTINUOUS
 10
13.2405744777
 20
-15.0875849632
 11
13.2405744777
 21
-16.38271148
  0
LINE
  5
2F0
100
AcDbEntity
  8
0
100
AcDbLine
 62
250
  6
CONTINUOUS
 10
13.2405744777
 20
-101.6334343033
 11
13.2405744777
 21
-102.92856082
  0
LINE
  5
2F1
100
AcDbEntity
  8
0
100
AcDbLine
 62
7
  6
CONTINUOUS
 10
13.3112851558
 20
-102.9693606609
 11
13.3112851558
 21
-102.8877333607
  0
LINE
  5
2F2
100
AcDbEntity
  8
0
100
AcDbLine
 62
7
  6
CONTINUOUS
 10
13.3112851558
 20
-16.4235113209
 11
13.3112851558
 21
-16.3418840206
  0
LINE
  5
2F3
100
AcDbEntity
  8
RACCORDO
100
AcDbLine
 62
7
  6
CONTINUOUS
 10
13.4587725293
 20
-16.2567266597
 11
13.4587725293
 21
-16.2805757583
  0
LINE
  5
2F4
100
AcDbEntity
  8
RACCORDO
100
AcDbLine
 62
7
  6
CONTINUOUS
 10
13.4587725293
 20
-102.8025759997
 11
13.4587725293
 21
-102.8264250983
  0
LINE
  5
2F5
100
AcDbEntity
  8
RACCORDO
100
AcDbLine
 62
250
  6
CONTINUOUS
 10
13.4880618511
 20
-16.2398153723
 11
13.4880618511
 21
-16.3214032176
  0
LINE
  5
2F6
100
AcDbEntity
  8
RACCORDO
100
AcDbLine
 62
250
  6
CONTINUOUS
 10
13.4880618511
 20
-102.7856647123
 11
13.4880618511
 21
-102.8672525576
  0
LINE
  5
2F7
100
AcDbEntity
  8
0
100
AcDbLine
 62
7
  6
CONTINUOUS
 10
13.5587725293
 20
-71.8007202909
 11
13.5587725293
 21
-95.0701231795
  0
LINE
  5
2F8
100
AcDbEntity
  8
0
100
AcDbLine
 62
250
  6
CONTINUOUS
 10
13.6648385464
 20
-15.3659611223
 11
13.6648385464
 21
-16.137746724
  0
LINE
  5
2F9
100
AcDbEntity
  8
0
100
AcDbLine
 62
250
  6
CONTINUOUS
 10
13.6648385464
 20
-101.9118104624
 11
13.6648385464
 21
-102.683596064
  0
LINE
  5
2FA
100
AcDbEntity
  8
0
100
AcDbLine
 62
7
  6
CONTINUOUS
 10
13.7355492245
 20
-103.1734072112
 11
13.7355492245
 21
-103.0509366697
  0
LINE
  5
2FB
100
AcDbEntity
  8
0
100
AcDbLine
 62
7
  6
CONTINUOUS
 10
13.7355492245
 20
-16.6275578712
 11
13.7355492245
 21
-16.5050873297
  0
LINE
  5
2FC
100
AcDbEntity
  8
0
100
AcDbLine
 62
7
  6
CONTINUOUS
 10
13.7527065121
 20
-15.4494912165
 11
13.7527065121
 21
-16.015264346
  0
LINE
  5
2FD
100
AcDbEntity
  8
0
100
AcDbLine
 62
7
  6
CONTINUOUS
 10
13.7527065121
 20
-101.9953405566
 11
13.7527065121
 21
-102.561113686
  0
LINE
  5
2FE
100
AcDbEntity
  8
0
100
AcDbLine
 62
7
  6
CONTINUOUS
 10
14.3012346495
 20
-16.8317070043
 11
14.3012346495
 21
-16.9541775458
  0
LINE
  5
2FF
100
AcDbEntity
  8
0
100
AcDbLine
 62
7
  6
CONTINUOUS
 10
14.3012346495
 20
-103.3775563444
 11
14.3012346495
 21
-103.5000268859
  0
LINE
  5
300
100
AcDbEntity
  8
ASSI
100
AcDbLine
 62
250
  6
CONTINUOUS
 10
13.2052191387
 20
-3.4212556996
 11
12.6748890528
 21
-3.7274616446
  0
LINE
  5
301
100
AcDbEntity
  8
0
100
AcDbLine
 62
7
  6
CONTINUOUS
 10
18.8620733882
 20
-117.9318827536
 11
18.8620733882
 21
-72.2095472532
  0
LINE
  5
302
100
AcDbEntity
  8
0
100
AcDbLine
 62
7
  6
CONTINUOUS
 10
19.392403474
 20
-118.2380886986
 11
19.392403474
 21
-72.5157531982
  0
LINE
  5
303
100
AcDbEntity
  8
SMUSSO
100
AcDbLine
 62
7
  6
CONTINUOUS
 10
-22.1677975902
 20
-79.4631837341
 11
-21.6374675043
 21
-78.5446250816
  0
LINE
  5
304
100
AcDbEntity
  8
SMUSSO
100
AcDbLine
 62
7
  6
CONTINUOUS
 10
-21.5314014871
 20
-78.6058662705
 11
-22.061731573
 21
-79.5244249231
  0
LINE
  5
305
100
AcDbEntity
  8
0
100
AcDbLine
 62
250
  6
CONTINUOUS
 10
-22.326896616
 20
-34.7512805063
 11
-22.6804500066
 21
-34.955417803
  0
LINE
  5
306
100
AcDbEntity
  8
0
100
AcDbLine
 62
7
  6
CONTINUOUS
 10
-22.533979237
 20
-35.2090173675
 11
-22.6804500066
 21
-35.2935877541
  0
LINE
  5
307
100
AcDbEntity
  8
ASSI
100
AcDbLine
 62
250
  6
CONTINUOUS
 10
12.8516657481
 20
-15.4641725548
 11
12.3213356622
 21
-15.7703784998
  0
LINE
  5
308
100
AcDbEntity
  8
0
100
AcDbLine
 62
7
  6
CONTINUOUS
 10
13.6648385464
 20
-16.137746724
 11
13.2405744777
 21
-16.38271148
  0
LINE
  5
309
100
AcDbEntity
  8
0
100
AcDbLine
 62
7
  6
CONTINUOUS
 10
13.1624713898
 20
-16.5094345243
 11
13.3112851558
 21
-16.4235113209
  0
LINE
  5
30A
100
AcDbEntity
  8
0
100
AcDbLine
 62
7
  6
CONTINUOUS
 10
13.7415859067
 20
-16.501601825
 11
13.7355492245
 21
-16.5050873297
  0
LINE
  5
30B
100
AcDbEntity
  8
0
100
AcDbLine
 62
7
  6
CONTINUOUS
 10
14.3072713317
 20
-16.8282214997
 11
14.3012346495
 21
-16.8317070043
  0
LINE
  5
30C
100
AcDbEntity
  8
RACCORDO
100
AcDbLine
 62
7
  6
CONTINUOUS
 10
14.4133270988
 20
-16.8894567704
 11
14.3012346495
 21
-16.9541775458
  0
LINE
  5
30D
100
AcDbEntity
  8
0
100
AcDbLine
 62
7
  6
CONTINUOUS
 10
-21.7965665301
 20
41.4877659185
 11
-21.4430131395
 21
41.2836286218
  0
LINE
  5
30E
100
AcDbEntity
  8
0
100
AcDbLine
 62
7
  6
CONTINUOUS
 10
-12.9577317652
 20
-39.5464553215
 11
-22.6804500066
 21
-45.1602309797
  0
LINE
  5
30F
100
AcDbEntity
  8
0
100
AcDbLine
 62
7
  6
CONTINUOUS
 10
-12.6041783747
 20
-39.7505531632
 11
-12.2506249841
 21
-39.5464158666
  0
LINE
  5
310
100
AcDbEntity
  8
0
100
AcDbLine
 62
7
  6
CONTINUOUS
 10
-22.6804500066
 20
-46.021731486
 11
-23.2107800924
 21
-46.327937431
  0
LINE
  5
311
100
AcDbEntity
  8
0
100
AcDbLine
 62
7
  6
CONTINUOUS
 10
-24.8017703501
 20
-49.0394117129
 11
-25.332100436
 21
-49.3456176579
  0
LINE
  5
312
100
AcDbEntity
  8
ASSI
100
AcDbLine
 62
250
  6
CONTINUOUS
 10
13.2052191387
 20
-27.9153640034
 11
12.6748890528
 21
-28.2215699484
  0
LINE
  5
313
100
AcDbEntity
  8
ASSI
100
AcDbLine
 62
250
  6
CONTINUOUS
 10
-0.4949747468
 20
-36.1281025207
 11
-0.8485281374
 21
-36.3322398174
  0
LINE
  5
314
100
AcDbEntity
  8
ASSI
100
AcDbLine
 62
250
  6
CONTINUOUS
 10
-0.4949747468
 20
-39.3939836279
 11
-0.8485281374
 21
-39.5981209246
  0
LINE
  5
315
100
AcDbEntity
  8
0
100
AcDbLine
 62
7
  6
CONTINUOUS
 10
11.4374521857
 20
68.2240505439
 11
12.4981123575
 21
65.1622278235
  0
LINE
  5
316
100
AcDbEntity
  8
0
100
AcDbLine
 62
250
  6
CONTINUOUS
 10
42.1965971673
 20
85.3704589981
 11
42.1965971673
 21
-105.6835857714
  0
LINE
  5
317
100
AcDbEntity
  8
0
100
AcDbLine
 62
7
  6
CONTINUOUS
 10
42.5627136908
 20
85.8808022398
 11
42.5627136908
 21
-105.1732425298
  0
LINE
  5
318
100
AcDbEntity
  8
0
100
AcDbLine
 62
7
  6
CONTINUOUS
 10
42.8329932704
 20
-102.8665699873
 11
42.8329932704
 21
84.7174761058
  0
LINE
  5
319
100
AcDbEntity
  8
ASSI
100
AcDbLine
 62
250
  6
CONTINUOUS
 10
-42.8314271388
 20
66.2878599665
 11
-42.3010970529
 21
65.9816540215
  0
LINE
  5
31A
100
AcDbEntity
  8
ASSI
100
AcDbLine
 62
250
  6
CONTINUOUS
 10
13.030008575
 20
34.0341670936
 11
12.4996784891
 21
34.3403730386
  0
LINE
  5
31B
100
AcDbEntity
  8
ASSI
100
AcDbLine
 62
250
  6
CONTINUOUS
 10
-42.8329932704
 20
66.3412665262
 11
-42.3026631845
 21
66.0350605812
  0
LINE
  5
31C
100
AcDbEntity
  8
ASSI
100
AcDbLine
 62
250
  6
CONTINUOUS
 10
13.0284424434
 20
34.0875736533
 11
12.4981123575
 21
34.3937795983
  0
LINE
  5
31D
100
AcDbEntity
  8
0
100
AcDbLine
 62
7
  6
CONTINUOUS
 10
4.3954326692
 20
-50.9877683692
 11
4.3711686005
 21
-51.0017781384
  0
LINE
  5
31E
100
AcDbEntity
  8
0
100
AcDbLine
 62
7
  6
CONTINUOUS
 10
-24.8017703501
 20
-72.3088146015
 11
-25.332100436
 21
-72.6150205464
  0
LINE
  5
31F
100
AcDbEntity
  8
0
100
AcDbLine
 62
7
  6
CONTINUOUS
 10
9.1456621905
 20
-59.2148771867
 11
9.1213981218
 21
-59.2288869559
  0
LINE
  5
320
100
AcDbEntity
  8
0
100
AcDbLine
 62
7
  6
CONTINUOUS
 10
-22.6804500066
 20
-77.7761423883
 11
-23.2107800924
 21
-78.0823483333
  0
LINE
  5
321
100
AcDbEntity
  8
ASSI
100
AcDbLine
 62
250
  6
CONTINUOUS
 10
-25.6856538266
 20
-79.7590565585
 11
-26.2159839125
 21
-80.0652625035
  0
LINE
  5
322
100
AcDbEntity
  8
RACCORDO
100
AcDbLine
 62
7
  6
CONTINUOUS
 10
-22.0086985644
 20
-77.7587083259
 11
-22.6097393284
 21
-78.1057417302
  0
LINE
  5
323
100
AcDbEntity
  8
RACCORDO
100
AcDbLine
 62
7
  6
CONTINUOUS
 10
-22.0440539035
 20
-78.4323614049
 11
-21.4430131395
 21
-78.0853280005
  0
LINE
  5
324
100
AcDbEntity
  8
RACCORDO
100
AcDbLine
 62
7
  6
CONTINUOUS
 10
-21.4430131395
 20
-78.2077985421
 11
-21.3369471223
 21
-78.1465573531
  0
LINE
  5
325
100
AcDbEntity
  8
0
100
AcDbLine
 62
7
  6
CONTINUOUS
 10
-21.4430131395
 20
-78.2077985421
 11
-22.0440539035
 21
-78.5548319464
  0
LINE
  5
326
100
AcDbEntity
  8
SMUSSO
100
AcDbLine
 62
7
  6
CONTINUOUS
 10
-21.2485587747
 20
-78.3200740552
 11
-21.6374675043
 21
-78.5446250816
  0
LINE
  5
327
100
AcDbEntity
  8
0
100
AcDbLine
 62
7
  6
CONTINUOUS
 10
-24.8724810282
 20
-80.4326307277
 11
-25.2967450969
 21
-80.6775954836
  0
LINE
  5
328
100
AcDbEntity
  8
RACCORDO
100
AcDbLine
 62
250
  6
CONTINUOUS
 10
-21.6551195463
 20
-78.5751993151
 11
-22.362251955
 21
-78.9834887054
  0
LINE
  5
329
100
AcDbEntity
  8
0
100
AcDbLine
 62
7
  6
CONTINUOUS
 10
-35.4083720679
 20
-86.5967485333
 11
-33.2870517244
 21
-85.3719247534
  0
LINE
  5
32A
100
AcDbEntity
  8
0
100
AcDbLine
 62
7
  6
CONTINUOUS
 10
-21.0985587747
 20
-78.3344416819
 11
-13.1345084605
 21
-73.7360988435
  0
LINE
  5
32B
100
AcDbEntity
  8
0
100
AcDbLine
 62
7
  6
CONTINUOUS
 10
-25.3748481849
 20
-80.804318528
 11
-25.0651483727
 21
-80.6247008027
  0
LINE
  5
32C
100
AcDbEntity
  8
0
100
AcDbLine
 62
7
  6
CONTINUOUS
 10
-22.6804500066
 20
-79.248930319
 11
-22.326896616
 21
-79.0447930223
  0
LINE
  5
32D
100
AcDbEntity
  8
SMUSSO
100
AcDbLine
 62
7
  6
CONTINUOUS
 10
-21.1424927575
 20
-78.3813152442
 11
-21.5314014871
 21
-78.6058662705
  0
LINE
  5
32E
100
AcDbEntity
  8
RACCORDO
100
AcDbLine
 62
250
  6
CONTINUOUS
 10
-21.7965477365
 20
-78.820160126
 11
-22.2915412769
 21
-79.1059631924
  0
LINE
  5
32F
100
AcDbEntity
  8
0
100
AcDbLine
 62
7
  6
CONTINUOUS
 10
-12.9577317652
 20
-73.8382069468
 11
-21.0985587747
 21
-78.5386184335
  0
LINE
  5
330
100
AcDbEntity
  8
0
100
AcDbLine
 62
7
  6
CONTINUOUS
 10
-24.9023907702
 20
-80.7349033545
 11
-25.0499171422
 21
-80.8200832328
  0
LINE
  5
331
100
AcDbEntity
  8
0
100
AcDbLine
 62
7
  6
CONTINUOUS
 10
-24.7957336679
 20
-80.7964858287
 11
-24.8017703501
 21
-80.7999713333
  0
LINE
  5
332
100
AcDbEntity
  8
0
100
AcDbLine
 62
250
  6
CONTINUOUS
 10
-22.6804500066
 20
-80.0654005958
 11
-23.2107800924
 21
-80.3716065408
  0
LINE
  5
333
100
AcDbEntity
  8
0
100
AcDbLine
 62
7
  6
CONTINUOUS
 10
-24.230048243
 20
-81.1231055033
 11
-24.2360849252
 21
-81.126591008
  0
LINE
  5
334
100
AcDbEntity
  8
RACCORDO
100
AcDbLine
 62
7
  6
CONTINUOUS
 10
-22.2385082683
 20
-79.9938933595
 11
-22.1677975902
 21
-79.9530659002
  0
LINE
  5
335
100
AcDbEntity
  8
RACCORDO
100
AcDbLine
 62
7
  6
CONTINUOUS
 10
-24.1239924758
 20
-81.1843407741
 11
-24.2360849252
 21
-81.2490615495
  0
LINE
  5
336
100
AcDbEntity
  8
RACCORDO
100
AcDbLine
 62
7
  6
CONTINUOUS
 10
-22.061731573
 20
-80.0143070892
 11
-22.1324422511
 21
-80.0551345485
  0
LINE
  5
337
100
AcDbEntity
  8
0
100
AcDbLine
 62
7
  6
CONTINUOUS
 10
-22.3696494901
 20
-81.110653688
 11
-22.326896616
 21
-81.0859687143
  0
LINE
  5
338
100
AcDbEntity
  8
ASSI
100
AcDbLine
 62
7
  6
CONTINUOUS
 10
1.5379572491
 20
65.675382229
 11
-1.2904698757
 21
67.3084806023
  0
LINE
  5
339
100
AcDbEntity
  8
ASSI
100
AcDbLine
 62
7
  6
CONTINUOUS
 10
1.8915106397
 20
65.8795195257
 11
-0.9369164851
 21
67.512617899
  0
LINE
  5
33A
100
AcDbEntity
  8
ASSI
100
AcDbLine
 62
7
  6
CONTINUOUS
 10
-1.2904698757
 20
69.5537738635
 11
1.5379572491
 21
67.9206754902
  0
LINE
  5
33B
100
AcDbEntity
  8
0
100
AcDbLine
 62
7
  6
CONTINUOUS
 10
13.5587725293
 20
-95.0701231795
 11
11.4374521857
 21
-98.0878034063
  0
LINE
  5
33C
100
AcDbEntity
  8
0
100
AcDbLine
 62
250
  6
CONTINUOUS
 10
-21.6197898348
 20
-81.902517901
 11
-22.1501199207
 21
-82.208723846
  0
LINE
  5
33D
100
AcDbEntity
  8
0
100
AcDbLine
 62
250
  6
CONTINUOUS
 10
-13.3112851558
 20
83.1282234941
 11
-12.9577317652
 21
82.9240861974
  0
LINE
  5
33E
100
AcDbEntity
  8
0
100
AcDbLine
 62
250
  6
CONTINUOUS
 10
-42.8329932704
 20
100.7828248962
 11
-42.3026631845
 21
100.4766189512
  0
LINE
  5
33F
100
AcDbEntity
  8
0
100
AcDbLine
 62
250
  6
CONTINUOUS
 10
13.0284424434
 20
68.5291320233
 11
12.4981123575
 21
68.8353379683
  0
LINE
  5
340
100
AcDbEntity
  8
0
100
AcDbLine
 62
7
  6
CONTINUOUS
 10
-12.6041783747
 20
83.5364586325
 11
-12.2506249841
 21
83.3323213358
  0
LINE
  5
341
100
AcDbEntity
  8
0
100
AcDbLine
 62
7
  6
CONTINUOUS
 10
-41.5955564033
 20
100.8848146347
 11
11.7910055763
 21
70.0600828385
  0
LINE
  5
342
100
AcDbEntity
  8
0
100
AcDbLine
 62
7
  6
CONTINUOUS
 10
-41.5955564033
 20
101.4971673423
 11
11.7910055763
 21
70.672435546
  0
LINE
  5
343
100
AcDbEntity
  8
ASSI
100
AcDbLine
 62
250
  6
CONTINUOUS
 10
-5.8866639534
 20
-93.2319208637
 11
-6.4169940393
 21
-93.5381268087
  0
LINE
  5
344
100
AcDbEntity
  8
0
100
AcDbLine
 62
250
  6
CONTINUOUS
 10
10.9071220998
 20
-100.683149194
 11
10.3767920139
 21
-100.989355139
  0
LINE
  5
345
100
AcDbEntity
  8
ASSI
100
AcDbLine
 62
250
  6
CONTINUOUS
 10
12.8516657481
 20
-102.0100218949
 11
12.3213356622
 21
-102.3162278399
  0
LINE
  5
346
100
AcDbEntity
  8
0
100
AcDbLine
 62
7
  6
CONTINUOUS
 10
13.6648385464
 20
-102.683596064
 11
13.2405744777
 21
-102.92856082
  0
LINE
  5
347
100
AcDbEntity
  8
0
100
AcDbLine
 62
7
  6
CONTINUOUS
 10
13.1624713898
 20
-103.0552838643
 11
13.3112851558
 21
-102.9693606609
  0
LINE
  5
348
100
AcDbEntity
  8
0
100
AcDbLine
 62
7
  6
CONTINUOUS
 10
13.7415859067
 20
-103.047451165
 11
13.7355492245
 21
-103.0509366697
  0
LINE
  5
349
100
AcDbEntity
  8
0
100
AcDbLine
 62
7
  6
CONTINUOUS
 10
14.3072713317
 20
-103.3740708397
 11
14.3012346495
 21
-103.3775563444
  0
LINE
  5
34A
100
AcDbEntity
  8
RACCORDO
100
AcDbLine
 62
7
  6
CONTINUOUS
 10
14.4133270988
 20
-103.4353061105
 11
14.3012346495
 21
-103.5000268859
  0
LINE
  5
34B
100
AcDbEntity
  8
0
100
AcDbLine
 62
250
  6
CONTINUOUS
 10
-12.4274016794
 20
118.3384943171
 11
40.9591603002
 21
87.5137625208
  0
LINE
  5
34C
100
AcDbEntity
  8
0
100
AcDbLine
 62
7
  6
CONTINUOUS
 10
-11.8023714792
 20
118.4004207892
 11
41.5841905004
 21
87.5756889929
  0
LINE
  5
34D
100
AcDbEntity
  8
0
100
AcDbLine
 62
7
  6
CONTINUOUS
 10
40.5348962315
 20
88.6978969337
 11
-7.9019182798
 21
116.6647065767
  0
LINE
  5
34E
100
AcDbEntity
  8
0
100
AcDbLine
 62
7
  6
CONTINUOUS
 10
42.5627136908
 20
-103.0226260291
 11
42.8329932704
 21
-102.8665699873
  0
LINE
  5
34F
100
AcDbEntity
  8
0
100
AcDbLine
 62
7
  6
CONTINUOUS
 10
42.1965971673
 20
-105.6835857714
 11
19.9227335599
 21
-118.5442354612
  0
ARC
  5
350
100
AcDbEntity
  8
RACCORDO
100
AcDbCircle
 62
250
  6
CONTINUOUS
 10
5.6397141764
 20
-57.0546431087
 40
4.4653263954
100
AcDbArc
 50
0.0000801085
 51
0.1691029895
  0
ARC
  5
351
100
AcDbEntity
  8
RACCORDO
100
AcDbCircle
 62
250
  6
CONTINUOUS
 10
8.670246623
 20
-55.3364041681
 40
4.2463333846
100
AcDbArc
 50
239.9925215011
 51
241.6756788882
  0
ARC
  5
352
100
AcDbEntity
  8
RACCORDO
100
AcDbCircle
 62
250
  6
CONTINUOUS
 10
7.463197081
 20
-53.3385368908
 40
4.1928282946
100
AcDbArc
 50
176.9073166697
 51
180.0109482101
  0
ARC
  5
353
100
AcDbEntity
  8
RACCORDO
100
AcDbCircle
 62
250
  6
CONTINUOUS
 10
8.5537534385
 20
-55.5546016033
 40
3.998987953
100
AcDbArc
 50
241.6616347951
 51
243.8133917235
  0
ARC
  5
354
100
AcDbEntity
  8
RACCORDO
100
AcDbCircle
 62
250
  6
CONTINUOUS
 10
7.2379193285
 20
-53.3287411233
 40
3.9673508588
100
AcDbArc
 50
176.634677773
 51
176.8730530553
  0
ARC
  5
355
100
AcDbEntity
  8
RACCORDO
100
AcDbCircle
 62
250
  6
CONTINUOUS
 10
8.4750851991
 20
-55.7141451084
 40
3.8211037634
100
AcDbArc
 50
243.8162095283
 51
244.932713786
  0
ARC
  5
356
100
AcDbEntity
  8
RACCORDO
100
AcDbCircle
 62
250
  6
CONTINUOUS
 10
7.7061634252
 20
-56.1878268798
 40
3.0245622494
100
AcDbArc
 50
247.7048444983
 51
248.2914861339
  0
ARC
  5
357
100
AcDbEntity
  8
RACCORDO
100
AcDbCircle
 62
250
  6
CONTINUOUS
 10
5.1635068425
 20
-52.3743526572
 40
1.5848446658
100
AcDbArc
 50
118.4647677045
 51
119.99630475
  0
ARC
  5
358
100
AcDbEntity
  8
RACCORDO
100
AcDbCircle
 62
250
  6
CONTINUOUS
 10
8.3296364064
 20
-57.857321863
 40
1.5836822136
100
AcDbArc
 50
299.9964983558
 51
301.008781388
  0
ARC
  5
359
100
AcDbEntity
  8
ASSI
100
AcDbCircle
 62
7
  6
CONTINUOUS
 10
13.3864152297
 20
34.3931025749
 40
0.8883031302
100
AcDbArc
 50
179.9563318115
 51
183.4030691046
  0
ARC
  5
35A
100
AcDbEntity
  8
ASSI
100
AcDbCircle
 62
7
  6
CONTINUOUS
 10
17.9737705159
 20
-72.2088702298
 40
0.8883031302
100
AcDbArc
 50
359.9563318115
 51
3.4030691046
  0
ARC
  5
35B
100
AcDbEntity
  8
ASSI
100
AcDbCircle
 62
7
  6
CONTINUOUS
 10
-41.4143603122
 20
66.0343835578
 40
0.8883031302
100
AcDbArc
 50
179.9563318115
 51
183.4030691046
  0
ARC
  5
35C
100
AcDbEntity
  8
ASSI
100
AcDbCircle
 62
7
  6
CONTINUOUS
 10
-36.827005026
 20
-40.5675892469
 40
0.8883031302
100
AcDbArc
 50
359.9563318115
 51
3.4030691046
  0
ARC
  5
35D
100
AcDbEntity
  8
ASSI
100
AcDbCircle
 62
7
  6
CONTINUOUS
 10
-41.9446903981
 20
66.3405895028
 40
0.8883031303
100
AcDbArc
 50
179.9563318115
 51
183.4030691045
  0
ARC
  5
35E
100
AcDbEntity
  8
ASSI
100
AcDbCircle
 62
7
  6
CONTINUOUS
 10
-37.3573351119
 20
-40.2613833019
 40
0.8883031302
100
AcDbArc
 50
359.9563318115
 51
3.4030691046
  0
ARC
  5
35F
100
AcDbEntity
  8
ASSI
100
AcDbCircle
 62
7
  6
CONTINUOUS
 10
18.5041006018
 20
-72.5150761748
 40
0.8883031302
100
AcDbArc
 50
359.9563318115
 51
3.4030691046
  0
ARC
  5
360
100
AcDbEntity
  8
ASSI
100
AcDbCircle
 62
7
  6
CONTINUOUS
 10
13.9167453156
 20
34.0868966299
 40
0.8883031302
100
AcDbArc
 50
179.9563318115
 51
183.4030691046
  0
ARC
  5
361
100
AcDbEntity
  8
ASSI
100
AcDbCircle
 62
7
  6
CONTINUOUS
 10
14.1018121652
 20
-3.7058254461
 40
0.732181996
100
AcDbArc
 50
237.6782603442
 51
239.9843501814
  0
ARC
  5
362
100
AcDbEntity
  8
ASSI
100
AcDbCircle
 62
7
  6
CONTINUOUS
 10
14.1018121652
 20
-28.1999337499
 40
0.732181996
100
AcDbArc
 50
237.6782603442
 51
239.9843501814
  0
ARC
  5
363
100
AcDbEntity
  8
ASSI
100
AcDbCircle
 62
7
  6
CONTINUOUS
 10
-24.0819540189
 20
18.3410025936
 40
0.732181996
100
AcDbArc
 50
237.6782603441
 51
239.9843501814
  0
ARC
  5
364
100
AcDbEntity
  8
ASSI
100
AcDbCircle
 62
7
  6
CONTINUOUS
 10
-24.0819540189
 20
-6.1531057102
 40
0.732181996
100
AcDbArc
 50
237.6782603441
 51
239.9843501814
  0
ARC
  5
365
100
AcDbEntity
  8
ASSI
100
AcDbCircle
 62
7
  6
CONTINUOUS
 10
-4.9900709269
 20
-93.5164906101
 40
0.732181996
100
AcDbArc
 50
237.6782603442
 51
239.9843501814
  0
ARC
  5
366
100
AcDbEntity
  8
RACCORDO
100
AcDbCircle
 62
7
  6
CONTINUOUS
 10
-24.9785470454
 20
-80.5754597619
 40
0.1
100
AcDbArc
 50
180.000799293
 51
239.9992007423
  0
ARC
  5
367
100
AcDbEntity
  8
RACCORDO
100
AcDbCircle
 62
7
  6
CONTINUOUS
 10
13.5587725293
 20
-102.8264250983
 40
0.1
100
AcDbArc
 50
180.000799293
 51
239.9992007423
  0
ARC
  5
368
100
AcDbEntity
  8
RACCORDO
100
AcDbCircle
 62
7
  6
CONTINUOUS
 10
-24.9785470454
 20
5.9703895781
 40
0.1
100
AcDbArc
 50
180.000799293
 51
239.9992007423
  0
ARC
  5
369
100
AcDbEntity
  8
RACCORDO
100
AcDbCircle
 62
7
  6
CONTINUOUS
 10
-22.362251955
 20
4.4597735828
 40
0.1
100
AcDbArc
 50
290.7266100652
 51
300.0015984348
  0
ARC
  5
36A
100
AcDbEntity
  8
RACCORDO
100
AcDbCircle
 62
7
  6
CONTINUOUS
 10
13.5587725293
 20
-16.2805757583
 40
0.1
100
AcDbArc
 50
180.000799293
 51
239.9992007423
  0
SPLINE
  5
36B
100
AcDbEntity
  8
RACCORDO
100
AcDbSpline
 62
7
  6
CONTINUOUS
 70
0
 71
3
 72
9
 73
5
 74
0
 42
0.0000001
 43
0.0000001
 44
0.0000000001
 40
0.0
 40
0.0
 40
0.0
 40
0.0
 40
0.4492570638
 40
1.0
 40
1.0
 40
1.0
 40
1.0
 10
-21.0985587747
 20
-78.3200740552
 30
0.0
 10
-21.0985587747
 20
-78.3083890057
 30
0.0
 10
-21.1087731389
 20
-78.2823162922
 30
0.0
 10
-21.1300874306
 20
-78.2659955465
 30
0.0
 10
-21.1424927575
 20
-78.2588328662
 30
0.0
  0
SPLINE
  5
36C
100
AcDbEntity
  8
0
100
AcDbSpline
 62
7
  6
CONTINUOUS
 70
0
 71
3
 72
11
 73
7
 74
0
 42
0.0000001
 43
0.0000001
 44
0.0000000001
 40
0.0
 40
0.0
 40
0.0
 40
0.0
 40
0.2177718005
 40
0.4517847251
 40
0.7118886071
 40
1.0
 40
1.0
 40
1.0
 40
1.0
 10
-24.7845745214
 20
-80.3101483497
 30
0.0
 10
-24.7845745214
 20
-80.3215728858
 30
0.0
 10
-24.7887769003
 20
-80.3454488776
 30
0.0
 10
-24.8070658957
 20
-80.3786079638
 30
0.0
 10
-24.8356056583
 20
-80.4085660367
 30
0.0
 10
-24.8593915902
 20
-80.4250730502
 30
0.0
 10
-24.8724810282
 20
-80.4326307277
 30
0.0
  0
SPLINE
  5
36D
100
AcDbEntity
  8
0
100
AcDbSpline
 62
7
  6
CONTINUOUS
 70
0
 71
3
 72
9
 73
5
 74
0
 42
0.0000001
 43
0.0000001
 44
0.0000000001
 40
0.0
 40
0.0
 40
0.0
 40
0.0
 40
0.2317416083
 40
1.0
 40
1.0
 40
1.0
 40
1.0
 10
-25.2967450969
 20
-80.6775954836
 30
0.0
 10
-25.3055822732
 20
-80.6826979585
 30
0.0
 10
-25.3449584713
 20
-80.7025445186
 30
0.0
 10
-25.3878968813
 20
-80.7148176723
 30
0.0
 10
-25.4212016933
 20
-80.7207516355
 30
0.0
  0
SPLINE
  5
36E
100
AcDbEntity
  8
RACCORDO
100
AcDbSpline
 62
7
  6
CONTINUOUS
 70
0
 71
3
 72
9
 73
5
 74
0
 42
0.0000001
 43
0.0000001
 44
0.0000000001
 40
0.0
 40
0.0
 40
0.0
 40
0.0
 40
0.4756711793
 40
1.0
 40
1.0
 40
1.0
 40
1.0
 10
-22.2385082683
 20
-79.9938933595
 30
0.0
 10
-22.2509927746
 20
-80.001101757
 30
0.0
 10
-22.2805158853
 20
-80.010514532
 30
0.0
 10
-22.3111718084
 20
-80.0115454887
 30
0.0
 10
-22.3269764333
 20
-80.0098932066
 30
0.0
  0
SPLINE
  5
36F
100
AcDbEntity
  8
RACCORDO
100
AcDbSpline
 62
7
  6
CONTINUOUS
 70
0
 71
3
 72
9
 73
5
 74
0
 42
0.0000001
 43
0.0000001
 44
0.0000000001
 40
0.0
 40
0.0
 40
0.0
 40
0.0
 40
0.5507582221
 40
1.0
 40
1.0
 40
1.0
 40
1.0
 10
-22.0086985644
 20
-77.7587083259
 30
0.0
 10
-21.996292738
 20
-77.7515453572
 30
0.0
 10
-21.9715019174
 20
-77.7412450157
 30
0.0
 10
-21.9438141051
 20
-77.7454344604
 30
0.0
 10
-21.9336949404
 20
-77.7512771492
 30
0.0
  0
SPLINE
  5
370
100
AcDbEntity
  8
RACCORDO
100
AcDbSpline
 62
7
  6
CONTINUOUS
 70
0
 71
3
 72
9
 73
5
 74
0
 42
0.0000001
 43
0.0000001
 44
0.0000000001
 40
0.0
 40
0.0
 40
0.0
 40
0.0
 40
0.5507499566
 40
1.0
 40
1.0
 40
1.0
 40
1.0
 10
-21.3369471223
 20
-78.1465573531
 30
0.0
 10
-21.3369471223
 20
-78.132234445
 30
0.0
 10
-21.3404225256
 20
-78.1056188909
 30
0.0
 10
-21.3578916637
 20
-78.0837387546
 30
0.0
 10
-21.3680095155
 20
-78.0778968239
 30
0.0
  0
SPLINE
  5
371
100
AcDbEntity
  8
RACCORDO
100
AcDbSpline
 62
250
  6
CONTINUOUS
 70
0
 71
3
 72
9
 73
5
 74
0
 42
0.0000001
 43
0.0000001
 44
0.0000000001
 40
0.0
 40
0.0
 40
0.0
 40
0.0
 40
0.5499606268
 40
1.0
 40
1.0
 40
1.0
 40
1.0
 10
-25.0492577235
 20
-80.6162872213
 30
0.0
 10
-25.0492577235
 20
-80.625819512
 30
0.0
 10
-25.0468835127
 20
-80.6435299451
 30
0.0
 10
-25.0353098911
 20
-80.6581695398
 30
0.0
 10
-25.0285541505
 20
-80.6620690294
 30
0.0
  0
SPLINE
  5
372
100
AcDbEntity
  8
RACCORDO
100
AcDbSpline
 62
250
  6
CONTINUOUS
 70
0
 71
3
 72
9
 73
5
 74
0
 42
0.0000001
 43
0.0000001
 44
0.0000000001
 40
0.0
 40
0.0
 40
0.0
 40
0.0
 40
0.549951663
 40
1.0
 40
1.0
 40
1.0
 40
1.0
 10
-25.0492577235
 20
-80.6162872213
 30
0.0
 10
-25.0575135552
 20
-80.6115204075
 30
0.0
 10
-25.071664875
 20
-80.6006070546
 30
0.0
 10
-25.0785572031
 20
-80.5832625439
 30
0.0
 10
-25.0785564488
 20
-80.5754611567
 30
0.0
  0
SPLINE
  5
373
100
AcDbEntity
  8
RACCORDO
100
AcDbSpline
 62
250
  6
CONTINUOUS
 70
0
 71
3
 72
9
 73
5
 74
0
 42
0.0000001
 43
0.0000001
 44
0.0000000001
 40
0.0
 40
0.0
 40
0.0
 40
0.0
 40
0.265517223
 40
1.0
 40
1.0
 40
1.0
 40
1.0
 10
-22.3912857279
 20
-79.0074711984
 30
0.0
 10
-22.3890323768
 20
-79.0050061769
 30
0.0
 10
-22.380245831
 20
-78.9960127517
 30
0.0
 10
-22.370252625
 20
-78.988108192
 30
0.0
 10
-22.362251955
 20
-78.9834887054
 30
0.0
  0
SPLINE
  5
374
100
AcDbEntity
  8
RACCORDO
100
AcDbSpline
 62
250
  6
CONTINUOUS
 70
0
 71
3
 72
9
 73
5
 74
0
 42
0.0000001
 43
0.0000001
 44
0.0000000001
 40
0.0
 40
0.0
 40
0.0
 40
0.0
 40
0.265504454
 40
1.0
 40
1.0
 40
1.0
 40
1.0
 10
-22.3267715582
 20
-79.1191051013
 30
0.0
 10
-22.323515439
 20
-79.118385992
 30
0.0
 10
-22.3113529795
 20
-79.1152736779
 30
0.0
 10
-22.29953009
 20
-79.110575833
 30
0.0
 10
-22.2915412769
 20
-79.1059631924
 30
0.0
  0
SPLINE
  5
375
100
AcDbEntity
  8
RACCORDO
100
AcDbSpline
 62
250
  6
CONTINUOUS
 70
0
 71
3
 72
9
 73
5
 74
0
 42
0.0000001
 43
0.0000001
 44
0.0000000001
 40
0.0
 40
0.0
 40
0.0
 40
0.0
 40
0.2279896901
 40
1.0
 40
1.0
 40
1.0
 40
1.0
 10
-22.2915412769
 20
-79.1059631924
 30
0.0
 10
-22.2915412769
 20
-79.0997487725
 30
0.0
 10
-22.2943078358
 20
-79.0725232415
 30
0.0
 10
-22.3053664303
 20
-79.0464986901
 30
0.0
 10
-22.3167942184
 20
-79.0288290775
 30
0.0
  0
SPLINE
  5
376
100
AcDbEntity
  8
RACCORDO
100
AcDbSpline
 62
250
  6
CONTINUOUS
 70
0
 71
3
 72
9
 73
5
 74
0
 42
0.0000001
 43
0.0000001
 44
0.0000000001
 40
0.0
 40
0.0
 40
0.0
 40
0.0
 40
0.2548936548
 40
1.0
 40
1.0
 40
1.0
 40
1.0
 10
-22.3167942184
 20
-79.0288290775
 30
0.0
 10
-22.3183614767
 20
-79.0264057873
 30
0.0
 10
-22.3247470338
 20
-79.0170551535
 30
0.0
 10
-22.3320995071
 20
-79.0083559985
 30
0.0
 10
-22.3380781102
 20
-79.002404063
 30
0.0
  0
SPLINE
  5
377
100
AcDbEntity
  8
RACCORDO
100
AcDbSpline
 62
250
  6
CONTINUOUS
 70
0
 71
3
 72
9
 73
5
 74
0
 42
0.0000001
 43
0.0000001
 44
0.0000000001
 40
0.0
 40
0.0
 40
0.0
 40
0.0
 40
0.2639967202
 40
1.0
 40
1.0
 40
1.0
 40
1.0
 10
-22.3380781102
 20
-79.002404063
 30
0.0
 10
-22.3399951701
 20
-79.0004955541
 30
0.0
 10
-22.3474543247
 20
-78.9934739069
 30
0.0
 10
-22.3557208456
 20
-78.9872596862
 30
0.0
 10
-22.362251955
 20
-78.9834887054
 30
0.0
  0
SPLINE
  5
378
100
AcDbEntity
  8
RACCORDO
100
AcDbSpline
 62
7
  6
CONTINUOUS
 70
0
 71
3
 72
9
 73
5
 74
0
 42
0.0000001
 43
0.0000001
 44
0.0000000001
 40
0.0
 40
0.0
 40
0.0
 40
0.0
 40
0.5252920976
 40
1.0
 40
1.0
 40
1.0
 40
1.0
 10
-22.3269379175
 20
-80.0970477417
 30
0.0
 10
-22.2918054251
 20
-80.0984949875
 30
0.0
 10
-22.224410325
 20
-80.093261788
 30
0.0
 10
-22.159960853
 20
-80.0710234444
 30
0.0
 10
-22.1324422511
 20
-80.0551345485
 30
0.0
  0
SPLINE
  5
379
100
AcDbEntity
  8
RACCORDO
100
AcDbSpline
 62
7
  6
CONTINUOUS
 70
0
 71
3
 72
9
 73
5
 74
0
 42
0.0000001
 43
0.0000001
 44
0.0000000001
 40
0.0
 40
0.0
 40
0.0
 40
0.0
 40
0.5507429362
 40
1.0
 40
1.0
 40
1.0
 40
1.0
 10
-21.1424927575
 20
-78.3813152442
 30
0.0
 10
-21.1300874306
 20
-78.3741525639
 30
0.0
 10
-21.1087731389
 20
-78.3578318183
 30
0.0
 10
-21.0985587747
 20
-78.3317591047
 30
0.0
 10
-21.0985587747
 20
-78.3200740552
 30
0.0
  0
SPLINE
  5
37A
100
AcDbEntity
  8
RACCORDO
100
AcDbSpline
 62
7
  6
CONTINUOUS
 70
0
 71
3
 72
9
 73
5
 74
0
 42
0.0000001
 43
0.0000001
 44
0.0000000001
 40
0.0
 40
0.0
 40
0.0
 40
0.0
 40
0.4492417779
 40
1.0
 40
1.0
 40
1.0
 40
1.0
 10
-21.3680095155
 20
-78.0778968239
 30
0.0
 10
-21.3781286802
 20
-78.0720541351
 30
0.0
 10
-21.4058164924
 20
-78.0678646903
 30
0.0
 10
-21.430607313
 20
-78.0781650318
 30
0.0
 10
-21.4430131395
 20
-78.0853280005
 30
0.0
  0
SPLINE
  5
37B
100
AcDbEntity
  8
0
100
AcDbSpline
 62
7
  6
CONTINUOUS
 70
0
 71
3
 72
11
 73
7
 74
0
 42
0.0000001
 43
0.0000001
 44
0.0000000001
 40
0.0
 40
0.0
 40
0.0
 40
0.0
 40
0.2177718005
 40
0.4517847251
 40
0.7118886071
 40
1.0
 40
1.0
 40
1.0
 40
1.0
 10
13.7527450532
 20
-102.561113686
 30
0.0
 10
13.7527450532
 20
-102.5725382221
 30
0.0
 10
13.7485426743
 20
-102.5964142139
 30
0.0
 10
13.730253679
 20
-102.6295733002
 30
0.0
 10
13.7017139164
 20
-102.659531373
 30
0.0
 10
13.6779279845
 20
-102.6760383865
 30
0.0
 10
13.6648385464
 20
-102.683596064
 30
0.0
  0
SPLINE
  5
37C
100
AcDbEntity
  8
0
100
AcDbSpline
 62
7
  6
CONTINUOUS
 70
0
 71
3
 72
9
 73
5
 74
0
 42
0.0000001
 43
0.0000001
 44
0.0000000001
 40
0.0
 40
0.0
 40
0.0
 40
0.0
 40
0.2317416083
 40
1.0
 40
1.0
 40
1.0
 40
1.0
 10
13.2405744777
 20
-102.92856082
 30
0.0
 10
13.2317373014
 20
-102.9336632948
 30
0.0
 10
13.1923611034
 20
-102.9535098549
 30
0.0
 10
13.1494226933
 20
-102.9657830086
 30
0.0
 10
13.1161178814
 20
-102.9717169718
 30
0.0
  0
SPLINE
  5
37D
100
AcDbEntity
  8
RACCORDO
100
AcDbSpline
 62
250
  6
CONTINUOUS
 70
0
 71
3
 72
9
 73
5
 74
0
 42
0.0000001
 43
0.0000001
 44
0.0000000001
 40
0.0
 40
0.0
 40
0.0
 40
0.0
 40
0.5499606268
 40
1.0
 40
1.0
 40
1.0
 40
1.0
 10
13.4880618511
 20
-102.8672525576
 30
0.0
 10
13.4880618511
 20
-102.8767848484
 30
0.0
 10
13.4904360619
 20
-102.8944952814
 30
0.0
 10
13.5020096836
 20
-102.9091348762
 30
0.0
 10
13.5087654242
 20
-102.9130343658
 30
0.0
  0
SPLINE
  5
37E
100
AcDbEntity
  8
RACCORDO
100
AcDbSpline
 62
250
  6
CONTINUOUS
 70
0
 71
3
 72
9
 73
5
 74
0
 42
0.0000001
 43
0.0000001
 44
0.0000000001
 40
0.0
 40
0.0
 40
0.0
 40
0.0
 40
0.549951663
 40
1.0
 40
1.0
 40
1.0
 40
1.0
 10
13.4880618511
 20
-102.8672525576
 30
0.0
 10
13.4798060194
 20
-102.8624857439
 30
0.0
 10
13.4656546997
 20
-102.8515723909
 30
0.0
 10
13.4587623716
 20
-102.8342278802
 30
0.0
 10
13.4587631258
 20
-102.826426493
 30
0.0
  0
SPLINE
  5
37F
100
AcDbEntity
  8
RACCORDO
100
AcDbSpline
 62
7
  6
CONTINUOUS
 70
0
 71
3
 72
9
 73
5
 74
0
 42
0.0000001
 43
0.0000001
 44
0.0000000001
 40
0.0
 40
0.0
 40
0.0
 40
0.0
 40
0.4492570638
 40
1.0
 40
1.0
 40
1.0
 40
1.0
 10
-21.0985587747
 20
4.3883649839
 30
0.0
 10
-21.0985587747
 20
4.3766799344
 30
0.0
 10
-21.1087731389
 20
4.3506072209
 30
0.0
 10
-21.1300874306
 20
4.3342864752
 30
0.0
 10
-21.1424927575
 20
4.3271237949
 30
0.0
  0
SPLINE
  5
380
100
AcDbEntity
  8
RACCORDO
100
AcDbSpline
 62
7
  6
CONTINUOUS
 70
0
 71
3
 72
9
 73
5
 74
0
 42
0.0000001
 43
0.0000001
 44
0.0000000001
 40
0.0
 40
0.0
 40
0.0
 40
0.0
 40
0.4492570638
 40
1.0
 40
1.0
 40
1.0
 40
1.0
 10
-21.0985587747
 20
8.2257752848
 30
0.0
 10
-21.0985587747
 20
8.2374603343
 30
0.0
 10
-21.1087731389
 20
8.2635330479
 30
0.0
 10
-21.1300874306
 20
8.2798537935
 30
0.0
 10
-21.1424927575
 20
8.2870164738
 30
0.0
  0
SPLINE
  5
381
100
AcDbEntity
  8
0
100
AcDbSpline
 62
7
  6
CONTINUOUS
 70
0
 71
3
 72
11
 73
7
 74
0
 42
0.0000001
 43
0.0000001
 44
0.0000000001
 40
0.0
 40
0.0
 40
0.0
 40
0.0
 40
0.2177718005
 40
0.4517847251
 40
0.7118886071
 40
1.0
 40
1.0
 40
1.0
 40
1.0
 10
-24.7845745214
 20
6.2357009904
 30
0.0
 10
-24.7845745214
 20
6.2242764543
 30
0.0
 10
-24.7887769003
 20
6.2004004625
 30
0.0
 10
-24.8070658957
 20
6.1672413762
 30
0.0
 10
-24.8356056583
 20
6.1372833034
 30
0.0
 10
-24.8593915902
 20
6.1207762899
 30
0.0
 10
-24.8724810282
 20
6.1132186124
 30
0.0
  0
SPLINE
  5
382
100
AcDbEntity
  8
RACCORDO
100
AcDbSpline
 62
7
  6
CONTINUOUS
 70
0
 71
3
 72
9
 73
5
 74
0
 42
0.0000001
 43
0.0000001
 44
0.0000000001
 40
0.0
 40
0.0
 40
0.0
 40
0.0
 40
0.4747079024
 40
1.0
 40
1.0
 40
1.0
 40
1.0
 10
-22.1324422511
 20
4.8577742379
 30
0.0
 10
-22.159960853
 20
4.8418853421
 30
0.0
 10
-22.224410325
 20
4.8196469985
 30
0.0
 10
-22.2918054251
 20
4.814413799
 30
0.0
 10
-22.3269379175
 20
4.8158610447
 30
0.0
  0
SPLINE
  5
383
100
AcDbEntity
  8
0
100
AcDbSpline
 62
7
  6
CONTINUOUS
 70
0
 71
3
 72
9
 73
5
 74
0
 42
0.0000001
 43
0.0000001
 44
0.0000000001
 40
0.0
 40
0.0
 40
0.0
 40
0.0
 40
0.2317416083
 40
1.0
 40
1.0
 40
1.0
 40
1.0
 10
-25.2967450969
 20
5.8682538564
 30
0.0
 10
-25.3055822732
 20
5.8631513816
 30
0.0
 10
-25.3449584713
 20
5.8433048215
 30
0.0
 10
-25.3878968813
 20
5.8310316678
 30
0.0
 10
-25.4212016933
 20
5.8250977046
 30
0.0
  0
SPLINE
  5
384
100
AcDbEntity
  8
RACCORDO
100
AcDbSpline
 62
7
  6
CONTINUOUS
 70
0
 71
3
 72
9
 73
5
 74
0
 42
0.0000001
 43
0.0000001
 44
0.0000000001
 40
0.0
 40
0.0
 40
0.0
 40
0.0
 40
0.4756711793
 40
1.0
 40
1.0
 40
1.0
 40
1.0
 10
-22.2385082683
 20
6.5519559805
 30
0.0
 10
-22.2509927746
 20
6.544747583
 30
0.0
 10
-22.2805158853
 20
6.535334808
 30
0.0
 10
-22.3111718084
 20
6.5343038513
 30
0.0
 10
-22.3269764333
 20
6.5359561334
 30
0.0
  0
SPLINE
  5
385
100
AcDbEntity
  8
RACCORDO
100
AcDbSpline
 62
7
  6
CONTINUOUS
 70
0
 71
3
 72
9
 73
5
 74
0
 42
0.0000001
 43
0.0000001
 44
0.0000000001
 40
0.0
 40
0.0
 40
0.0
 40
0.0
 40
0.5507582221
 40
1.0
 40
1.0
 40
1.0
 40
1.0
 10
-22.0086985644
 20
8.7871410142
 30
0.0
 10
-21.996292738
 20
8.7943039829
 30
0.0
 10
-21.9715019174
 20
8.8046043244
 30
0.0
 10
-21.9438141051
 20
8.8004148796
 30
0.0
 10
-21.9336949404
 20
8.7945721908
 30
0.0
  0
SPLINE
  5
386
100
AcDbEntity
  8
RACCORDO
100
AcDbSpline
 62
7
  6
CONTINUOUS
 70
0
 71
3
 72
9
 73
5
 74
0
 42
0.0000001
 43
0.0000001
 44
0.0000000001
 40
0.0
 40
0.0
 40
0.0
 40
0.0
 40
0.5507499566
 40
1.0
 40
1.0
 40
1.0
 40
1.0
 10
-21.3369471223
 20
8.399291987
 30
0.0
 10
-21.3369471223
 20
8.413614895
 30
0.0
 10
-21.3404225256
 20
8.4402304491
 30
0.0
 10
-21.3578916637
 20
8.4621105854
 30
0.0
 10
-21.3680095155
 20
8.4679525162
 30
0.0
  0
SPLINE
  5
387
100
AcDbEntity
  8
RACCORDO
100
AcDbSpline
 62
250
  6
CONTINUOUS
 70
0
 71
3
 72
9
 73
5
 74
0
 42
0.0000001
 43
0.0000001
 44
0.0000000001
 40
0.0
 40
0.0
 40
0.0
 40
0.0
 40
0.4499768863
 40
1.0
 40
1.0
 40
1.0
 40
1.0
 10
-22.3122431149
 20
4.3731613111
 30
0.0
 10
-22.3054885749
 20
4.3770612976
 30
0.0
 10
-22.2939146711
 20
4.3917008221
 30
0.0
 10
-22.2915412769
 20
4.409412393
 30
0.0
 10
-22.2915412769
 20
4.4189461235
 30
0.0
  0
SPLINE
  5
388
100
AcDbEntity
  8
RACCORDO
100
AcDbSpline
 62
250
  6
CONTINUOUS
 70
0
 71
3
 72
9
 73
5
 74
0
 42
0.0000001
 43
0.0000001
 44
0.0000000001
 40
0.0
 40
0.0
 40
0.0
 40
0.0
 40
0.5499606268
 40
1.0
 40
1.0
 40
1.0
 40
1.0
 10
-25.0492577235
 20
5.9295621188
 30
0.0
 10
-25.0492577235
 20
5.920029828
 30
0.0
 10
-25.0468835127
 20
5.902319395
 30
0.0
 10
-25.0353098911
 20
5.8876798002
 30
0.0
 10
-25.0285541505
 20
5.8837803106
 30
0.0
  0
SPLINE
  5
389
100
AcDbEntity
  8
RACCORDO
100
AcDbSpline
 62
250
  6
CONTINUOUS
 70
0
 71
3
 72
9
 73
5
 74
0
 42
0.0000001
 43
0.0000001
 44
0.0000000001
 40
0.0
 40
0.0
 40
0.0
 40
0.0
 40
0.549951663
 40
1.0
 40
1.0
 40
1.0
 40
1.0
 10
-25.0492577235
 20
5.9295621188
 30
0.0
 10
-25.0575135552
 20
5.9343289325
 30
0.0
 10
-25.071664875
 20
5.9452422855
 30
0.0
 10
-25.0785572031
 20
5.9625867962
 30
0.0
 10
-25.0785564488
 20
5.9703881834
 30
0.0
  0
SPLINE
  5
38A
100
AcDbEntity
  8
RACCORDO
100
AcDbSpline
 62
250
  6
CONTINUOUS
 70
0
 71
3
 72
9
 73
5
 74
0
 42
0.0000001
 43
0.0000001
 44
0.0000000001
 40
0.0
 40
0.0
 40
0.0
 40
0.0
 40
0.265504454
 40
1.0
 40
1.0
 40
1.0
 40
1.0
 10
-22.3267715582
 20
7.4267442388
 30
0.0
 10
-22.323515439
 20
7.4274633481
 30
0.0
 10
-22.3113529795
 20
7.4305756621
 30
0.0
 10
-22.29953009
 20
7.435273507
 30
0.0
 10
-22.2915412769
 20
7.4398861476
 30
0.0
  0
SPLINE
  5
38B
100
AcDbEntity
  8
RACCORDO
100
AcDbSpline
 62
250
  6
CONTINUOUS
 70
0
 71
3
 72
9
 73
5
 74
0
 42
0.0000001
 43
0.0000001
 44
0.0000000001
 40
0.0
 40
0.0
 40
0.0
 40
0.0
 40
0.265506121
 40
1.0
 40
1.0
 40
1.0
 40
1.0
 10
-22.3267714904
 20
4.4058043355
 30
0.0
 10
-22.3235153635
 20
4.4065234615
 30
0.0
 10
-22.311352949
 20
4.4096357868
 30
0.0
 10
-22.2995300483
 20
4.414333507
 30
0.0
 10
-22.2915412769
 20
4.4189461235
 30
0.0
  0
SPLINE
  5
38C
100
AcDbEntity
  8
RACCORDO
100
AcDbSpline
 62
250
  6
CONTINUOUS
 70
0
 71
3
 72
9
 73
5
 74
0
 42
0.0000001
 43
0.0000001
 44
0.0000000001
 40
0.0
 40
0.0
 40
0.0
 40
0.0
 40
0.4772206246
 40
1.0
 40
1.0
 40
1.0
 40
1.0
 10
-22.2915412769
 20
7.4398861476
 30
0.0
 10
-22.2915412769
 20
7.4556370589
 30
0.0
 10
-22.2993323012
 20
7.4885795434
 30
0.0
 10
-22.3160693358
 20
7.5175735678
 30
0.0
 10
-22.3268966131
 20
7.531008274
 30
0.0
  0
SPLINE
  5
38D
100
AcDbEntity
  8
RACCORDO
100
AcDbSpline
 62
7
  6
CONTINUOUS
 70
0
 71
3
 72
9
 73
5
 74
0
 42
0.0000001
 43
0.0000001
 44
0.0000000001
 40
0.0
 40
0.0
 40
0.0
 40
0.0
 40
0.5252920976
 40
1.0
 40
1.0
 40
1.0
 40
1.0
 10
-22.3269379175
 20
6.4488015983
 30
0.0
 10
-22.2918054251
 20
6.4473543525
 30
0.0
 10
-22.224410325
 20
6.4525875521
 30
0.0
 10
-22.159960853
 20
6.4748258957
 30
0.0
 10
-22.1324422511
 20
6.4907147915
 30
0.0
  0
SPLINE
  5
38E
100
AcDbEntity
  8
RACCORDO
100
AcDbSpline
 62
7
  6
CONTINUOUS
 70
0
 71
3
 72
9
 73
5
 74
0
 42
0.0000001
 43
0.0000001
 44
0.0000000001
 40
0.0
 40
0.0
 40
0.0
 40
0.0
 40
0.5507429362
 40
1.0
 40
1.0
 40
1.0
 40
1.0
 10
-21.1424927575
 20
8.1645340958
 30
0.0
 10
-21.1300874306
 20
8.1716967761
 30
0.0
 10
-21.1087731389
 20
8.1880175218
 30
0.0
 10
-21.0985587747
 20
8.2140902353
 30
0.0
 10
-21.0985587747
 20
8.2257752848
 30
0.0
  0
SPLINE
  5
38F
100
AcDbEntity
  8
RACCORDO
100
AcDbSpline
 62
7
  6
CONTINUOUS
 70
0
 71
3
 72
9
 73
5
 74
0
 42
0.0000001
 43
0.0000001
 44
0.0000000001
 40
0.0
 40
0.0
 40
0.0
 40
0.0
 40
0.4492417779
 40
1.0
 40
1.0
 40
1.0
 40
1.0
 10
-21.3680095155
 20
8.4679525162
 30
0.0
 10
-21.3781286802
 20
8.473795205
 30
0.0
 10
-21.4058164924
 20
8.4779846497
 30
0.0
 10
-21.430607313
 20
8.4676843082
 30
0.0
 10
-21.4430131395
 20
8.4605213395
 30
0.0
  0
SPLINE
  5
390
100
AcDbEntity
  8
0
100
AcDbSpline
 62
7
  6
CONTINUOUS
 70
0
 71
3
 72
11
 73
7
 74
0
 42
0.0000001
 43
0.0000001
 44
0.0000000001
 40
0.0
 40
0.0
 40
0.0
 40
0.0
 40
0.2177718005
 40
0.4517847251
 40
0.7118886071
 40
1.0
 40
1.0
 40
1.0
 40
1.0
 10
13.7527450532
 20
-16.015264346
 30
0.0
 10
13.7527450532
 20
-16.0266888821
 30
0.0
 10
13.7485426743
 20
-16.0505648739
 30
0.0
 10
13.730253679
 20
-16.0837239602
 30
0.0
 10
13.7017139164
 20
-16.113682033
 30
0.0
 10
13.6779279845
 20
-16.1301890465
 30
0.0
 10
13.6648385464
 20
-16.137746724
 30
0.0
  0
SPLINE
  5
391
100
AcDbEntity
  8
0
100
AcDbSpline
 62
7
  6
CONTINUOUS
 70
0
 71
3
 72
9
 73
5
 74
0
 42
0.0000001
 43
0.0000001
 44
0.0000000001
 40
0.0
 40
0.0
 40
0.0
 40
0.0
 40
0.2317416083
 40
1.0
 40
1.0
 40
1.0
 40
1.0
 10
13.2405744777
 20
-16.38271148
 30
0.0
 10
13.2317373014
 20
-16.3878139548
 30
0.0
 10
13.1923611034
 20
-16.4076605149
 30
0.0
 10
13.1494226933
 20
-16.4199336686
 30
0.0
 10
13.1161178814
 20
-16.4258676318
 30
0.0
  0
SPLINE
  5
392
100
AcDbEntity
  8
RACCORDO
100
AcDbSpline
 62
250
  6
CONTINUOUS
 70
0
 71
3
 72
9
 73
5
 74
0
 42
0.0000001
 43
0.0000001
 44
0.0000000001
 40
0.0
 40
0.0
 40
0.0
 40
0.0
 40
0.5499606268
 40
1.0
 40
1.0
 40
1.0
 40
1.0
 10
13.4880618511
 20
-16.3214032176
 30
0.0
 10
13.4880618511
 20
-16.3309355084
 30
0.0
 10
13.4904360619
 20
-16.3486459414
 30
0.0
 10
13.5020096836
 20
-16.3632855362
 30
0.0
 10
13.5087654242
 20
-16.3671850257
 30
0.0
  0
SPLINE
  5
393
100
AcDbEntity
  8
RACCORDO
100
AcDbSpline
 62
250
  6
CONTINUOUS
 70
0
 71
3
 72
9
 73
5
 74
0
 42
0.0000001
 43
0.0000001
 44
0.0000000001
 40
0.0
 40
0.0
 40
0.0
 40
0.0
 40
0.549951663
 40
1.0
 40
1.0
 40
1.0
 40
1.0
 10
13.4880618511
 20
-16.3214032176
 30
0.0
 10
13.4798060194
 20
-16.3166364038
 30
0.0
 10
13.4656546997
 20
-16.3057230509
 30
0.0
 10
13.4587623716
 20
-16.2883785402
 30
0.0
 10
13.4587631258
 20
-16.280577153
 30
0.0
  0
SPLINE
  5
394
100
AcDbEntity
  8
0
100
AcDbSpline
 62
7
  6
CONTINUOUS
 70
0
 71
3
 72
21
 73
17
 74
0
 42
0.0000001
 43
0.0000001
 44
0.0000000001
 40
0.0
 40
0.0
 40
0.0
 40
0.0
 40
0.0624025048
 40
0.1287801464
 40
0.1983974134
 40
0.270406579
 40
0.4174466435
 40
0.5616802204
 40
0.6303085543
 40
0.6954257509
 40
0.7564004837
 40
0.8128625412
 40
0.8647858565
 40
0.9125815765
 40
0.9571750136
 40
1.0
 40
1.0
 40
1.0
 40
1.0
 10
10.1293046405
 20
-57.0406270963
 30
0.0
 10
10.1293046405
 20
-56.8435901646
 30
0.0
 10
10.1025856473
 20
-56.436693791
 30
0.0
 10
9.9927596688
 20
-55.8189000178
 30
0.0
 10
9.8141168519
 20
-55.1858062027
 30
0.0
 10
9.4872055892
 20
-54.3338738777
 30
0.0
 10
8.9384339124
 20
-53.3200619613
 30
0.0
 10
8.2351336221
 20
-52.4193967279
 30
0.0
 10
7.6021004568
 20
-51.809583401
 30
0.0
 10
7.1170107108
 20
-51.4298270769
 30
0.0
 10
6.6240766905
 20
-51.1282544978
 30
0.0
 10
6.1332725983
 20
-50.9113448365
 30
0.0
 10
5.6543780942
 20
-50.784101905
 30
0.0
 10
5.1967941431
 20
-50.7504096895
 30
0.0
 10
4.7706687534
 20
-50.8128482059
 30
0.0
 10
4.5125456788
 20
-50.9201728928
 30
0.0
 10
4.3954370854
 20
-50.9877760512
 30
0.0
  0
SPLINE
  5
395
100
AcDbEntity
  8
RACCORDO
100
AcDbSpline
 62
7
  6
CONTINUOUS
 70
0
 71
3
 72
13
 73
9
 74
0
 42
0.0000001
 43
0.0000001
 44
0.0000000001
 40
0.0
 40
0.0
 40
0.0
 40
0.0
 40
0.2760632051
 40
0.530559905
 40
0.6515620163
 40
0.769446458
 40
0.8851269645
 40
1.0
 40
1.0
 40
1.0
 40
1.0
 10
6.5463913853
 20
-59.0134497256
 30
0.0
 10
6.7618639939
 20
-59.1378508904
 30
0.0
 10
7.196865982
 20
-59.343695748
 30
0.0
 10
7.7745535638
 20
-59.4791018977
 30
0.0
 10
8.2203827042
 20
-59.4919511432
 30
0.0
 10
8.5390255691
 20
-59.4547127435
 30
0.0
 10
8.8426413628
 20
-59.3695333751
 30
0.0
 10
9.031739327
 20
-59.2806548203
 30
0.0
 10
9.1213981218
 20
-59.2288869559
 30
0.0
  0
SPLINE
  5
396
100
AcDbEntity
  8
RACCORDO
100
AcDbSpline
 62
7
  6
CONTINUOUS
 70
0
 71
3
 72
13
 73
9
 74
0
 42
0.0000001
 43
0.0000001
 44
0.0000000001
 40
0.0
 40
0.0
 40
0.0
 40
0.0
 40
0.1148395013
 40
0.2305502017
 40
0.3484530944
 40
0.4694381287
 40
0.72392425
 40
1.0
 40
1.0
 40
1.0
 40
1.0
 10
4.3711686005
 20
-51.0017781384
 30
0.0
 10
4.28154386
 20
-51.0535263403
 30
0.0
 10
4.1100366051
 20
-51.1728338018
 30
0.0
 10
3.8845016071
 20
-51.3931996444
 30
0.0
 10
3.6928661257
 20
-51.650488724
 30
0.0
 10
3.4812275042
 20
-52.0430410012
 30
0.0
 10
3.3095584209
 20
-52.6109228921
 30
0.0
 10
3.270368863
 20
-53.0905433012
 30
0.0
 10
3.270368863
 20
-53.3393380662
 30
0.0
  0
SPLINE
  5
397
100
AcDbEntity
  8
RACCORDO
100
AcDbSpline
 62
7
  6
CONTINUOUS
 70
0
 71
3
 72
15
 73
11
 74
0
 42
0.0000001
 43
0.0000001
 44
0.0000000001
 40
0.0
 40
0.0
 40
0.0
 40
0.0
 40
0.1158152283
 40
0.2391536933
 40
0.3680910317
 40
0.5000016173
 40
0.6319118861
 40
0.7608486039
 40
0.8841854925
 40
1.0
 40
1.0
 40
1.0
 40
1.0
 10
6.1465612978
 20
-58.7826385253
 30
0.0
 10
5.9466983192
 20
-58.6672624491
 30
0.0
 10
5.5542253283
 20
-58.3929993302
 30
0.0
 10
5.0165437796
 20
-57.8913017282
 30
0.0
 10
4.524758845
 20
-57.3021949332
 30
0.0
 10
4.0949576631
 20
-56.6461643042
 30
0.0
 10
3.7416821713
 20
-55.945950201
 30
0.0
 10
3.4773571396
 20
-55.2255171717
 30
0.0
 10
3.3116767829
 20
-54.5090373672
 30
0.0
 10
3.270368863
 20
-54.0320210587
 30
0.0
 10
3.270368863
 20
-53.8012480398
 30
0.0
  0
SPLINE
  5
398
100
AcDbEntity
  8
RACCORDO
100
AcDbSpline
 62
7
  6
CONTINUOUS
 70
0
 71
3
 72
16
 73
12
 74
0
 42
0.0000001
 43
0.0000001
 44
0.0000000001
 40
0.0
 40
0.0
 40
0.0
 40
0.0
 40
0.0863060355
 40
0.1376286396
 40
0.1939556498
 40
0.3192774648
 40
0.4569983024
 40
0.6006852307
 40
0.7435099361
 40
0.8786983166
 40
1.0
 40
1.0
 40
1.0
 40
1.0
 10
5.2493027987
 20
-52.5020572637
 30
0.0
 10
5.4146795818
 20
-52.5058628447
 30
0.0
 10
5.6774669916
 20
-52.5656840369
 30
0.0
 10
6.0183033508
 20
-52.7143801911
 30
0.0
 10
6.4049562668
 20
-52.9399110955
 30
0.0
 10
6.8820692671
 20
-53.3293560299
 30
0.0
 10
7.3996693062
 20
-53.9161339466
 30
0.0
 10
7.8445228995
 20
-54.6001070817
 30
0.0
 10
8.1861895662
 20
-55.3358007749
 30
0.0
 10
8.4026601476
 20
-56.0728532283
 30
0.0
 10
8.4595281926
 20
-56.5649077776
 30
0.0
 10
8.4595281926
 20
-56.7974036015
 30
0.0
  0
SPLINE
  5
399
100
AcDbEntity
  8
RACCORDO
100
AcDbSpline
 62
7
  6
CONTINUOUS
 70
0
 71
3
 72
9
 73
5
 74
0
 42
0.0000001
 43
0.0000001
 44
0.0000000001
 40
0.0
 40
0.0
 40
0.0
 40
0.0
 40
0.5494756396
 40
1.0
 40
1.0
 40
1.0
 40
1.0
 10
8.4595281926
 20
-56.7974036012
 30
0.0
 10
8.4595281926
 20
-56.9712533214
 30
0.0
 10
8.4324136048
 20
-57.2888343334
 30
0.0
 10
8.3295065026
 20
-57.5932528219
 30
0.0
 10
8.2611011002
 20
-57.7183088683
 30
0.0
  0
SPLINE
  5
39A
100
AcDbEntity
  8
0
100
AcDbSpline
 62
7
  6
CONTINUOUS
 70
0
 71
3
 72
12
 73
8
 74
0
 42
0.0000001
 43
0.0000001
 44
0.0000000001
 40
0.0
 40
0.0
 40
0.0
 40
0.0
 40
0.1081618119
 40
0.2183636529
 40
0.4513693922
 40
0.7104137125
 40
1.0
 40
1.0
 40
1.0
 40
1.0
 10
9.1456577743
 20
-59.2148695047
 30
0.0
 10
9.2235297143
 20
-59.1699164492
 30
0.0
 10
9.373234267
 20
-59.0654077136
 30
0.0
 10
9.641821902
 20
-58.8012485214
 30
0.0
 10
9.9077561724
 20
-58.3675859703
 30
0.0
 10
10.0928387124
 20
-57.7390777827
 30
0.0
 10
10.1293046405
 20
-57.2813620296
 30
0.0
 10
10.1293046405
 20
-57.0406270963
 30
0.0
  0
SPLINE
  5
39B
100
AcDbEntity
  8
RACCORDO
100
AcDbSpline
 62
250
  6
CONTINUOUS
 70
0
 71
3
 72
23
 73
19
 74
0
 42
0.0000001
 43
0.0000001
 44
0.0000000001
 40
0.0
 40
0.0
 40
0.0
 40
0.0
 40
0.0603765993
 40
0.1143891152
 40
0.1629699595
 40
0.2083412584
 40
0.2537133437
 40
0.3022963516
 40
0.3563118286
 40
0.4166928023
 40
0.4832812262
 40
0.5551293306
 40
0.6307560829
 40
0.7083508403
 40
0.7859451047
 40
0.8615702862
 40
0.9334159565
 40
1.0
 40
1.0
 40
1.0
 40
1.0
 10
8.5766854801
 20
-56.9607134386
 30
0.0
 10
8.5766854801
 20
-57.140850961
 30
0.0
 10
8.5494580033
 20
-57.483331206
 30
0.0
 10
8.4107051546
 20
-57.9537672978
 30
0.0
 10
8.1770097603
 20
-58.3357689868
 30
0.0
 10
7.8526398609
 20
-58.6085781241
 30
0.0
 10
7.4541687142
 20
-58.7530438925
 30
0.0
 10
7.0065037914
 20
-58.7644073163
 30
0.0
 10
6.5295944819
 20
-58.6492571634
 30
0.0
 10
6.0392437618
 20
-58.415891434
 30
0.0
 10
5.5516682561
 20
-58.0740460382
 30
0.0
 10
5.0839306721
 20
-57.6364767851
 30
0.0
 10
4.653058215
 20
-57.1193725726
 30
0.0
 10
4.2750438723
 20
-56.5419858114
 30
0.0
 10
3.9640263137
 20
-55.9259414816
 30
0.0
 10
3.7316434408
 20
-55.2942045787
 30
0.0
 10
3.5865826305
 20
-54.670539067
 30
0.0
 10
3.5501958172
 20
-54.257139141
 30
0.0
 10
3.5501958172
 20
-54.058481304
 30
0.0
  0
SPLINE
  5
39C
100
AcDbEntity
  8
RACCORDO
100
AcDbSpline
 62
250
  6
CONTINUOUS
 70
0
 71
3
 72
9
 73
5
 74
0
 42
0.0000001
 43
0.0000001
 44
0.0000000001
 40
0.0
 40
0.0
 40
0.0
 40
0.0
 40
0.2691182791
 40
1.0
 40
1.0
 40
1.0
 40
1.0
 10
9.8221978593
 20
-57.1222820149
 30
0.0
 10
9.8221978593
 20
-57.2310189651
 30
0.0
 10
9.8071443289
 20
-57.6345093049
 30
0.0
 10
9.7276843483
 20
-58.0386999721
 30
0.0
 10
9.620065287
 20
-58.3137041492
 30
0.0
  0
SPLINE
  5
39D
100
AcDbEntity
  8
RACCORDO
100
AcDbSpline
 62
250
  6
CONTINUOUS
 70
0
 71
3
 72
16
 73
12
 74
0
 42
0.0000001
 43
0.0000001
 44
0.0000000001
 40
0.0
 40
0.0
 40
0.0
 40
0.0
 40
0.1269466612
 40
0.2458170048
 40
0.3600700039
 40
0.4739723288
 40
0.5918514129
 40
0.7173369654
 40
0.7838230786
 40
0.853041597
 40
1.0
 40
1.0
 40
1.0
 40
1.0
 10
9.620065287
 20
-58.3137041492
 30
0.0
 10
9.5691007555
 20
-58.4439362743
 30
0.0
 10
9.4481867001
 20
-58.6884551595
 30
0.0
 10
9.2002851582
 20
-59.002200422
 30
0.0
 10
8.8968619951
 20
-59.2409688525
 30
0.0
 10
8.5452111553
 20
-59.3977904922
 30
0.0
 10
8.154750342
 20
-59.4692242808
 30
0.0
 10
7.8112175594
 20
-59.4578173857
 30
0.0
 10
7.5272918654
 20
-59.4094769273
 30
0.0
 10
7.2255746682
 20
-59.3312158628
 30
0.0
 10
7.0028011518
 20
-59.2439260139
 30
0.0
 10
6.8561511409
 20
-59.1753423703
 30
0.0
  0
SPLINE
  5
39E
100
AcDbEntity
  8
RACCORDO
100
AcDbSpline
 62
250
  6
CONTINUOUS
 70
0
 71
3
 72
26
 73
22
 74
0
 42
0.0000001
 43
0.0000001
 44
0.0000000001
 40
0.0
 40
0.0
 40
0.0
 40
0.0
 40
0.0663599883
 40
0.1377878732
 40
0.2129640849
 40
0.2902660341
 40
0.3679161812
 40
0.4441116836
 40
0.5171548734
 40
0.5855909099
 40
0.6483665071
 40
0.7050255276
 40
0.7559498992
 40
0.7797328221
 40
0.8027241964
 40
0.8252719478
 40
0.8477602346
 40
0.870578983
 40
0.8940902211
 40
0.9442459142
 40
1.0
 40
1.0
 40
1.0
 40
1.0
 10
9.0221978593
 20
-57.1222820149
 30
0.0
 10
9.0221978593
 20
-56.9057534799
 30
0.0
 10
8.9844390997
 20
-56.4557594207
 30
0.0
 10
8.833020444
 20
-55.7758384463
 30
0.0
 10
8.5897485308
 20
-55.0851981182
 30
0.0
 10
8.2629212009
 20
-54.4075398468
 30
0.0
 10
7.8637057394
 20
-53.7659215197
 30
0.0
 10
7.4057442784
 20
-53.1822916768
 30
0.0
 10
6.9045995782
 20
-52.6765301713
 30
0.0
 10
6.3771238384
 20
-52.265755947
 30
0.0
 10
5.8404018626
 20
-51.9639083814
 30
0.0
 10
5.311580465
 20
-51.7815663817
 30
0.0
 10
4.8802519207
 20
-51.7355492506
 30
0.0
 10
4.5622443271
 20
-51.7697073301
 30
0.0
 10
4.3426204439
 20
-51.8275764152
 30
0.0
 10
4.1388241624
 20
-51.9179631503
 30
0.0
 10
3.9528890268
 20
-52.0399618981
 30
0.0
 10
3.7867001699
 20
-52.1923771783
 30
0.0
 10
3.5893133292
 20
-52.4390517881
 30
0.0
 10
3.4010295883
 20
-52.8229050907
 30
0.0
 10
3.3243350396
 20
-53.1626598251
 30
0.0
 10
3.30000686
 20
-53.3429479324
 30
0.0
  0
SPLINE
  5
39F
100
AcDbEntity
  8
RACCORDO
100
AcDbSpline
 62
250
  6
CONTINUOUS
 70
0
 71
3
 72
9
 73
5
 74
0
 42
0.0000001
 43
0.0000001
 44
0.0000000001
 40
0.0
 40
0.0
 40
0.0
 40
0.0
 40
0.2430399527
 40
1.0
 40
1.0
 40
1.0
 40
1.0
 10
3.30000686
 20
-53.3429479324
 30
0.0
 10
3.2950292305
 20
-53.3798355012
 30
0.0
 10
3.2773257502
 20
-53.5319798988
 30
0.0
 10
3.270368863
 20
-53.6853185897
 30
0.0
 10
3.270368863
 20
-53.8012480398
 30
0.0
  0
SPLINE
  5
3A0
100
AcDbEntity
  8
RACCORDO
100
AcDbSpline
 62
250
  6
CONTINUOUS
 70
0
 71
3
 72
26
 73
22
 74
0
 42
0.0000001
 43
0.0000001
 44
0.0000000001
 40
0.0
 40
0.0
 40
0.0
 40
0.0
 40
0.0582828721
 40
0.1104683672
 40
0.1346944252
 40
0.1579787261
 40
0.1806670781
 40
0.2031540534
 40
0.225852004
 40
0.2491551253
 40
0.2987611707
 40
0.3539784389
 40
0.415470721
 40
0.4829308847
 40
0.5553552255
 40
0.6312704613
 40
0.7089157088
 40
0.7863973783
 40
0.8618354392
 40
0.9335039603
 40
1.0
 40
1.0
 40
1.0
 40
1.0
 10
3.2774100086
 20
-53.0958489522
 30
0.0
 10
3.2904449674
 20
-52.8741885292
 30
0.0
 10
3.3500847167
 20
-52.454655095
 30
0.0
 10
3.5334153203
 20
-51.9692023714
 30
0.0
 10
3.7393135533
 20
-51.6485520361
 30
0.0
 10
3.916638967
 20
-51.4468923597
 30
0.0
 10
4.1188998549
 20
-51.2803674374
 30
0.0
 10
4.3441585796
 20
-51.1509437379
 30
0.0
 10
4.5899498657
 20
-51.0598929573
 30
0.0
 10
4.9487170013
 20
-50.9894041444
 30
0.0
 10
5.4433814987
 20
-51.0071382464
 30
0.0
 10
6.0565650515
 20
-51.1846078004
 30
0.0
 10
6.6834701754
 20
-51.507676257
 30
0.0
 10
7.3034063475
 20
-51.9641751238
 30
0.0
 10
7.895484709
 20
-52.537738823
 30
0.0
 10
8.4388742927
 20
-53.2079988293
 30
0.0
 10
8.9141922323
 20
-53.9509732485
 30
0.0
 10
9.3043719789
 20
-54.7399477174
 30
0.0
 10
9.5953859818
 20
-55.5466927394
 30
0.0
 10
9.7768140896
 20
-56.3420935857
 30
0.0
 10
9.8221978593
 20
-56.8689485143
 30
0.0
 10
9.8221978593
 20
-57.1222820149
 30
0.0
  0
SPLINE
  5
3A1
100
AcDbEntity
  8
RACCORDO
100
AcDbSpline
 62
250
  6
CONTINUOUS
 70
0
 71
3
 72
18
 73
14
 74
0
 42
0.0000001
 43
0.0000001
 44
0.0000000001
 40
0.0
 40
0.0
 40
0.0
 40
0.0
 40
0.1288785201
 40
0.2707059023
 40
0.4180604642
 40
0.5624702388
 40
0.6960065979
 40
0.7568877625
 40
0.8132145342
 40
0.8649836435
 40
0.9126387209
 40
0.9571500018
 40
1.0
 40
1.0
 40
1.0
 40
1.0
 10
5.4366373199
 20
-53.8412102863
 30
0.0
 10
5.4366373199
 20
-54.0547949593
 30
0.0
 10
5.4966964067
 20
-54.50393776
 30
0.0
 10
5.7205608988
 20
-55.1630614283
 30
0.0
 10
6.0654770979
 20
-55.7974957769
 30
0.0
 10
6.5029102043
 20
-56.3542972718
 30
0.0
 10
6.9282375548
 20
-56.7278777825
 30
0.0
 10
7.2848441873
 20
-56.9431668562
 30
0.0
 10
7.5427882144
 20
-57.0547437764
 30
0.0
 10
7.7941359788
 20
-57.1188355263
 30
0.0
 10
8.0339401775
 20
-57.1333761297
 30
0.0
 10
8.2567540168
 20
-57.0970022756
 30
0.0
 10
8.3910966266
 20
-57.0381771679
 30
0.0
 10
8.4518929376
 20
-57.0014795851
 30
0.0
  0
SPLINE
  5
3A2
100
AcDbEntity
  8
RACCORDO
100
AcDbSpline
 62
250
  6
CONTINUOUS
 70
0
 71
3
 72
12
 73
8
 74
0
 42
0.0000001
 43
0.0000001
 44
0.0000000001
 40
0.0
 40
0.0
 40
0.0
 40
0.0
 40
0.1082888619
 40
0.2184408059
 40
0.4511160039
 40
0.710063026
 40
1.0
 40
1.0
 40
1.0
 40
1.0
 10
5.96623452
 20
-52.6947933284
 30
0.0
 10
5.9244284306
 20
-52.7178160928
 30
0.0
 10
5.8439658238
 20
-52.7717147605
 30
0.0
 10
5.6994068389
 20
-52.9094182683
 30
0.0
 10
5.5559777579
 20
-53.1377884393
 30
0.0
 10
5.4562541435
 20
-53.4706205977
 30
0.0
 10
5.4366373199
 20
-53.7134260444
 30
0.0
 10
5.4366373199
 20
-53.8412102863
 30
0.0
  0
SPLINE
  5
3A3
100
AcDbEntity
  8
RACCORDO
100
AcDbSpline
 62
250
  6
CONTINUOUS
 70
0
 71
3
 72
18
 73
14
 74
0
 42
0.0000001
 43
0.0000001
 44
0.0000000001
 40
0.0
 40
0.0
 40
0.0
 40
0.0
 40
0.1286321303
 40
0.2701560802
 40
0.4172542588
 40
0.5615560078
 40
0.6952021388
 40
0.7562194665
 40
0.81272498
 40
0.8646919101
 40
0.9125269347
 40
0.9571524133
 40
1.0
 40
1.0
 40
1.0
 40
1.0
 10
5.3319130336
 20
-53.8277416009
 30
0.0
 10
5.3319130336
 20
-54.0479150274
 30
0.0
 10
5.3934956727
 20
-54.5108587818
 30
0.0
 10
5.6232853761
 20
-55.1906094829
 30
0.0
 10
5.9775580519
 20
-55.8455854141
 30
0.0
 10
6.427305624
 20
-56.4216577786
 30
0.0
 10
6.8649607586
 20
-56.8095653316
 30
0.0
 10
7.232393685
 20
-57.0347142933
 30
0.0
 10
7.4985961388
 20
-57.1525508598
 30
0.0
 10
7.7583392137
 20
-57.2218155073
 30
0.0
 10
8.0065686322
 20
-57.2403621076
 30
0.0
 10
8.2377565822
 20
-57.2067738134
 30
0.0
 10
8.3778780631
 20
-57.1488208482
 30
0.0
 10
8.4414471667
 20
-57.1122456248
 30
0.0
  0
SPLINE
  5
3A4
100
AcDbEntity
  8
RACCORDO
100
AcDbSpline
 62
250
  6
CONTINUOUS
 70
0
 71
3
 72
15
 73
11
 74
0
 42
0.0000001
 43
0.0000001
 44
0.0000000001
 40
0.0
 40
0.0
 40
0.0
 40
0.0
 40
0.1518976688
 40
0.2924664583
 40
0.4220891576
 40
0.5424825871
 40
0.6564612408
 40
0.7678806463
 40
0.8810612374
 40
1.0
 40
1.0
 40
1.0
 40
1.0
 10
3.9690929624
 20
-54.1123560455
 30
0.0
 10
3.9690929624
 20
-53.9948551685
 30
0.0
 10
3.9823057695
 20
-53.7682643385
 30
0.0
 10
4.0468012453
 20
-53.446955617
 30
0.0
 10
4.1546952967
 20
-53.1630087528
 30
0.0
 10
4.304637427
 20
-52.9222717092
 30
0.0
 10
4.4945532644
 20
-52.7304236443
 30
0.0
 10
4.7205601661
 20
-52.5928348423
 30
0.0
 10
4.9766525541
 20
-52.5131906424
 30
0.0
 10
5.1573240026
 20
-52.4999552158
 30
0.0
 10
5.2493052406
 20
-52.5020645454
 30
0.0
  0
SPLINE
  5
3A5
100
AcDbEntity
  8
RACCORDO
100
AcDbSpline
 62
250
  6
CONTINUOUS
 70
0
 71
3
 72
12
 73
8
 74
0
 42
0.0000001
 43
0.0000001
 44
0.0000000001
 40
0.0
 40
0.0
 40
0.0
 40
0.0
 40
0.2892510324
 40
0.5483892856
 40
0.7816753576
 40
0.8919306498
 40
1.0
 40
1.0
 40
1.0
 40
1.0
 10
10.1050405718
 20
-57.0546368654
 30
0.0
 10
10.1050405718
 20
-57.2924179873
 30
0.0
 10
10.0694302585
 20
-57.7447949117
 30
0.0
 10
9.8890277717
 20
-58.3669110888
 30
0.0
 10
9.6299713023
 20
-58.7981977192
 30
0.0
 10
9.3678927299
 20
-59.0631526366
 30
0.0
 10
9.221644172
 20
-59.1689101287
 30
0.0
 10
9.1455010885
 20
-59.2146774444
 30
0.0
  0
SPLINE
  5
3A6
100
AcDbEntity
  8
RACCORDO
100
AcDbSpline
 62
250
  6
CONTINUOUS
 70
0
 71
3
 72
12
 73
8
 74
0
 42
0.0000001
 43
0.0000001
 44
0.0000000001
 40
0.0
 40
0.0
 40
0.0
 40
0.0
 40
0.1081552708
 40
0.2183629249
 40
0.4513790192
 40
0.7104559024
 40
1.0
 40
1.0
 40
1.0
 40
1.0
 10
5.8645554102
 20
-52.6487517218
 30
0.0
 10
5.822384787
 20
-52.6731830505
 30
0.0
 10
5.7413021365
 20
-52.7299228996
 30
0.0
 10
5.5958732388
 20
-52.8732808881
 30
0.0
 10
5.4518612364
 20
-53.1084455573
 30
0.0
 10
5.351671711
 20
-53.4491693647
 30
0.0
 10
5.3319130336
 20
-53.6972682526
 30
0.0
 10
5.3319130336
 20
-53.8277416009
 30
0.0
  0
SPLINE
  5
3A7
100
AcDbEntity
  8
RACCORDO
100
AcDbSpline
 62
250
  6
CONTINUOUS
 70
0
 71
3
 72
21
 73
17
 74
0
 42
0.0000001
 43
0.0000001
 44
0.0000000001
 40
0.0
 40
0.0
 40
0.0
 40
0.0
 40
0.0428334827
 40
0.0875739345
 40
0.1355876057
 40
0.1877385307
 40
0.2443939311
 40
0.3055018663
 40
0.3706810984
 40
0.4393002364
 40
0.5833408608
 40
0.7300567148
 40
0.80190064
 40
0.8713759593
 40
0.9376497152
 40
1.0
 40
1.0
 40
1.0
 40
1.0
 10
4.4081409224
 20
-50.9810992913
 30
0.0
 10
4.5263448098
 20
-50.9170135431
 30
0.0
 10
4.7860159821
 20
-50.8168441744
 30
0.0
 10
5.211920717
 20
-50.7638043543
 30
0.0
 10
5.6679347354
 20
-50.8051610101
 30
0.0
 10
6.1442102516
 20
-50.9383095591
 30
0.0
 10
6.6315530088
 20
-51.1593953804
 30
0.0
 10
7.1203804868
 20
-51.4634456092
 30
0.0
 10
7.6009351313
 20
-51.8440462369
 30
0.0
 10
8.2273093612
 20
-52.4526922671
 30
0.0
 10
8.9229440786
 20
-53.3486188958
 30
0.0
 10
9.4660292581
 20
-54.3553209309
 30
0.0
 10
9.7899318954
 20
-55.2005658521
 30
0.0
 10
9.9673409344
 20
-55.8286611769
 30
0.0
 10
10.0770412052
 20
-56.4417904117
 30
0.0
 10
10.1044437373
 20
-56.8457410513
 30
0.0
 10
10.1050211236
 20
-57.0414641459
 30
0.0
  0
SPLINE
  5
3A8
100
AcDbEntity
  8
RACCORDO
100
AcDbSpline
 62
250
  6
CONTINUOUS
 70
0
 71
3
 72
23
 73
19
 74
0
 42
0.0000001
 43
0.0000001
 44
0.0000000001
 40
0.0
 40
0.0
 40
0.0
 40
0.0
 40
0.0603765993
 40
0.1143891152
 40
0.1629699595
 40
0.2083412584
 40
0.2537133437
 40
0.3022963516
 40
0.3563118286
 40
0.4166928023
 40
0.4832812262
 40
0.5551293306
 40
0.6307560829
 40
0.7083508403
 40
0.7859451047
 40
0.8615702862
 40
0.9334159565
 40
1.0
 40
1.0
 40
1.0
 40
1.0
 10
3.5501958172
 20
-54.058481304
 30
0.0
 10
3.5501958172
 20
-53.8783437816
 30
0.0
 10
3.5774232941
 20
-53.5358635366
 30
0.0
 10
3.7161761428
 20
-53.0654274448
 30
0.0
 10
3.949871537
 20
-52.6834257558
 30
0.0
 10
4.2742414365
 20
-52.4106166185
 30
0.0
 10
4.6727125832
 20
-52.2661508501
 30
0.0
 10
5.1203775059
 20
-52.2547874262
 30
0.0
 10
5.5972868154
 20
-52.3699375792
 30
0.0
 10
6.0876375355
 20
-52.6033033086
 30
0.0
 10
6.5752130412
 20
-52.9451487044
 30
0.0
 10
7.0429506252
 20
-53.3827179574
 30
0.0
 10
7.4738230823
 20
-53.89982217
 30
0.0
 10
7.851837425
 20
-54.4772089312
 30
0.0
 10
8.1628549837
 20
-55.0932532609
 30
0.0
 10
8.3952378565
 20
-55.7249901639
 30
0.0
 10
8.5402986668
 20
-56.3486556755
 30
0.0
 10
8.5766854801
 20
-56.7620556016
 30
0.0
 10
8.5766854801
 20
-56.9607134386
 30
0.0
  0
SPLINE
  5
3A9
100
AcDbEntity
  8
RACCORDO
100
AcDbSpline
 62
250
  6
CONTINUOUS
 70
0
 71
3
 72
22
 73
18
 74
0
 42
0.0000001
 43
0.0000001
 44
0.0000000001
 40
0.0
 40
0.0
 40
0.0
 40
0.0
 40
0.0469313687
 40
0.0914783886
 40
0.1360098257
 40
0.1828968144
 40
0.2339483022
 40
0.2901695095
 40
0.3518121912
 40
0.4185316114
 40
0.4895429032
 40
0.5637503154
 40
0.7162584483
 40
0.7918904001
 40
0.8651760474
 40
0.9348898887
 40
1.0
 40
1.0
 40
1.0
 40
1.0
 10
8.2610927751
 20
-57.7182994466
 30
0.0
 10
8.2084728961
 20
-57.8144743116
 30
0.0
 10
8.0835344695
 20
-57.991297812
 30
0.0
 10
7.8319858371
 20
-58.1925407523
 30
0.0
 10
7.5322976563
 20
-58.3109062461
 30
0.0
 10
7.1972184738
 20
-58.3428404255
 30
0.0
 10
6.8380886557
 20
-58.2903460309
 30
0.0
 10
6.4644641617
 20
-58.1571433136
 30
0.0
 10
6.085685423
 20
-57.9478576508
 30
0.0
 10
5.7115156884
 20
-57.6684969684
 30
0.0
 10
5.3518494899
 20
-57.3267115432
 30
0.0
 10
4.9010815494
 20
-56.7958601905
 30
0.0
 10
4.5260559175
 20
-56.1910046582
 30
0.0
 10
4.2446726546
 20
-55.5446618607
 30
0.0
 10
4.0890596426
 20
-55.0571553693
 30
0.0
 10
3.9928186703
 20
-54.579640037
 30
0.0
 10
3.9690929624
 20
-54.2644491631
 30
0.0
 10
3.9690929624
 20
-54.1123560455
 30
0.0
  0
SPLINE
  5
3AA
100
AcDbEntity
  8
RACCORDO
100
AcDbSpline
 62
250
  6
CONTINUOUS
 70
0
 71
3
 72
9
 73
5
 74
0
 42
0.0000001
 43
0.0000001
 44
0.0000000001
 40
0.0
 40
0.0
 40
0.0
 40
0.0
 40
0.2572322981
 40
1.0
 40
1.0
 40
1.0
 40
1.0
 10
6.146561297
 20
-58.7826283454
 30
0.0
 10
6.1807136467
 20
-58.8023436785
 30
0.0
 10
6.314647251
 20
-58.8769357167
 30
0.0
 10
6.4533547774
 20
-58.9430805974
 30
0.0
 10
6.5587112616
 20
-58.9862782967
 30
0.0
  0
SPLINE
  5
3AB
100
AcDbEntity
  8
RACCORDO
100
AcDbSpline
 62
250
  6
CONTINUOUS
 70
0
 71
3
 72
15
 73
11
 74
0
 42
0.0000001
 43
0.0000001
 44
0.0000000001
 40
0.0
 40
0.0
 40
0.0
 40
0.0
 40
0.1360926252
 40
0.2592398729
 40
0.3729276013
 40
0.4828287763
 40
0.5956592922
 40
0.7173157208
 40
0.8516024762
 40
1.0
 40
1.0
 40
1.0
 40
1.0
 10
6.5874237692
 20
-58.9978799723
 30
0.0
 10
6.7467139297
 20
-59.0612940277
 30
0.0
 10
7.0616310147
 20
-59.1567319489
 30
0.0
 10
7.5346705712
 20
-59.1917951311
 30
0.0
 10
7.9693125945
 20
-59.1060164221
 30
0.0
 10
8.3467906267
 20
-58.8983905699
 30
0.0
 10
8.6491325814
 20
-58.5784284221
 30
0.0
 10
8.8666945452
 20
-58.1624363108
 30
0.0
 10
8.9963708413
 20
-57.6663268477
 30
0.0
 10
9.0221978593
 20
-57.3092324849
 30
0.0
 10
9.0221978593
 20
-57.1222820149
 30
0.0
  0
SPLINE
  5
3AC
100
AcDbEntity
  8
RACCORDO
100
AcDbSpline
 62
250
  6
CONTINUOUS
 70
0
 71
3
 72
25
 73
21
 74
0
 42
0.0000001
 43
0.0000001
 44
0.0000000001
 40
0.0
 40
0.0
 40
0.0
 40
0.0
 40
0.0665640987
 40
0.13838705
 40
0.2139883379
 40
0.291557962
 40
0.3691280838
 40
0.4447308115
 40
0.5165560924
 40
0.5831233715
 40
0.6434851849
 40
0.6974835362
 40
0.7460511471
 40
0.7690212649
 40
0.7915663907
 40
0.8141111639
 40
0.837080863
 40
0.8856462733
 40
0.9396416043
 40
1.0
 40
1.0
 40
1.0
 40
1.0
 10
3.3875261505
 20
-53.9645578771
 30
0.0
 10
3.3875261505
 20
-54.1760771358
 30
0.0
 10
3.4262693539
 20
-54.6162373759
 30
0.0
 10
3.5807204339
 20
-55.2802722353
 30
0.0
 10
3.8281452857
 20
-55.952896824
 30
0.0
 10
4.1592933037
 20
-56.6088131305
 30
0.0
 10
4.5617747954
 20
-57.2235689604
 30
0.0
 10
5.0205327092
 20
-57.7741424056
 30
0.0
 10
5.5185504071
 20
-58.2400272274
 30
0.0
 10
6.0376603141
 20
-58.604013145
 30
0.0
 10
6.5598211988
 20
-58.8524327088
 30
0.0
 10
7.0673640049
 20
-58.9751958663
 30
0.0
 10
7.4725036252
 20
-58.9644919891
 30
0.0
 10
7.761828741
 20
-58.8843498608
 30
0.0
 10
7.9586895092
 20
-58.7922658745
 30
0.0
 10
8.1368829999
 20
-58.6678450031
 30
0.0
 10
8.3509608218
 20
-58.4573799842
 30
0.0
 10
8.5628248904
 20
-58.1118790672
 30
0.0
 10
8.7102985759
 20
-57.6111170733
 30
0.0
 10
8.7393551468
 20
-57.2464363993
 30
0.0
 10
8.7393551468
 20
-57.0546368654
 30
0.0
  0
SPLINE
  5
3AD
100
AcDbEntity
  8
RACCORDO
100
AcDbSpline
 62
250
  6
CONTINUOUS
 70
0
 71
3
 72
25
 73
21
 74
0
 42
0.0000001
 43
0.0000001
 44
0.0000000001
 40
0.0
 40
0.0
 40
0.0
 40
0.0
 40
0.0665640987
 40
0.13838705
 40
0.2139883379
 40
0.291557962
 40
0.3691280838
 40
0.4447308115
 40
0.5165560924
 40
0.5831233715
 40
0.6434851849
 40
0.6974835362
 40
0.7460511471
 40
0.7690212649
 40
0.7915663907
 40
0.8141111639
 40
0.837080863
 40
0.8856462733
 40
0.9396416043
 40
1.0
 40
1.0
 40
1.0
 40
1.0
 10
8.7393551468
 20
-57.0546368654
 30
0.0
 10
8.7393551468
 20
-56.8431176067
 30
0.0
 10
8.7006119434
 20
-56.4029573667
 30
0.0
 10
8.5461608635
 20
-55.7389225073
 30
0.0
 10
8.2987360117
 20
-55.0662979186
 30
0.0
 10
7.9675879936
 20
-54.410381612
 30
0.0
 10
7.565106502
 20
-53.7956257822
 30
0.0
 10
7.1063485882
 20
-53.245052337
 30
0.0
 10
6.6083308902
 20
-52.7791675152
 30
0.0
 10
6.0892209833
 20
-52.4151815975
 30
0.0
 10
5.5670600985
 20
-52.1667620338
 30
0.0
 10
5.0595172924
 20
-52.0439988763
 30
0.0
 10
4.6543776722
 20
-52.0547027535
 30
0.0
 10
4.3650525564
 20
-52.1348448818
 30
0.0
 10
4.1681917881
 20
-52.226928868
 30
0.0
 10
3.9899982974
 20
-52.3513497394
 30
0.0
 10
3.7759204755
 20
-52.5618147584
 30
0.0
 10
3.564056407
 20
-52.9073156753
 30
0.0
 10
3.4165827215
 20
-53.4080776692
 30
0.0
 10
3.3875261505
 20
-53.7727583433
 30
0.0
 10
3.3875261505
 20
-53.9645578771
 30
0.0
  0
SPLINE
  5
3AE
100
AcDbEntity
  8
0
100
AcDbSpline
 62
7
  6
CONTINUOUS
 70
0
 71
3
 72
9
 73
5
 74
0
 42
0.0000001
 43
0.0000001
 44
0.0000000001
 40
0.0
 40
0.0
 40
0.0
 40
0.0
 40
0.4775597178
 40
1.0
 40
1.0
 40
1.0
 40
1.0
 10
42.8329932704
 20
84.7174761058
 30
0.0
 10
42.8329932704
 20
84.9589938042
 30
0.0
 10
42.7741897306
 20
85.4651978169
 30
0.0
 10
42.6284913997
 20
85.9519119915
 30
0.0
 10
42.5340915538
 20
86.1986879693
 30
0.0
  0
SPLINE
  5
3AF
100
AcDbEntity
  8
0
100
AcDbSpline
 62
7
  6
CONTINUOUS
 70
0
 71
3
 72
10
 73
6
 74
0
 42
0.0000001
 43
0.0000001
 44
0.0000000001
 40
0.0
 40
0.0
 40
0.0
 40
0.0
 40
0.5246282764
 40
0.7705360544
 40
1.0
 40
1.0
 40
1.0
 40
1.0
 10
41.9948105466
 20
87.2507239678
 30
0.0
 10
41.7964078025
 20
87.5537234296
 30
0.0
 10
41.4607551991
 20
87.9731816985
 30
0.0
 10
40.9439272262
 20
88.4325541394
 30
0.0
 10
40.6720815081
 20
88.6186878744
 30
0.0
 10
40.5348962315
 20
88.6978969337
 30
0.0
  0
SPLINE
  5
3B0
100
AcDbEntity
  8
0
100
AcDbSpline
 62
7
  6
CONTINUOUS
 70
0
 71
3
 72
11
 73
7
 74
0
 42
0.0000001
 43
0.0000001
 44
0.0000000001
 40
0.0
 40
0.0
 40
0.0
 40
0.0
 40
0.2836703014
 40
0.5432059452
 40
0.7803704005
 40
1.0
 40
1.0
 40
1.0
 40
1.0
 10
-7.9019182798
 20
116.6647065767
 30
0.0
 10
-8.0183696415
 20
116.7319441334
 30
0.0
 10
-8.2502363891
 20
116.8463951824
 30
0.0
 10
-8.6057572066
 20
116.955276152
 30
0.0
 10
-8.945892774
 20
116.9906122929
 30
0.0
 10
-9.1632689951
 20
116.962244726
 30
0.0
 10
-9.2637289361
 20
116.9349140419
 30
0.0
  0
SPLINE
  5
3B1
100
AcDbEntity
  8
ASSI
100
AcDbSpline
 62
7
  6
CONTINUOUS
 70
0
 71
3
 72
11
 73
7
 74
0
 42
0.0000001
 43
0.0000001
 44
0.0000000001
 40
0.0
 40
0.0
 40
0.0
 40
0.0
 40
0.2177724472
 40
0.4509526051
 40
0.7101928552
 40
1.0
 40
1.0
 40
1.0
 40
1.0
 10
13.5802368576
 20
-29.1772837895
 30
0.0
 10
13.6049727066
 20
-29.1630016302
 30
0.0
 10
13.6512700299
 20
-29.1240981119
 30
0.0
 10
13.7005122378
 20
-29.0435295717
 30
0.0
 10
13.7298095694
 20
-28.944254631
 30
0.0
 10
13.7355492245
 20
-28.8719928358
 30
0.0
 10
13.7355492245
 20
-28.8339818384
 30
0.0
  0
SPLINE
  5
3B2
100
AcDbEntity
  8
ASSI
100
AcDbSpline
 62
7
  6
CONTINUOUS
 70
0
 71
3
 72
11
 73
7
 74
0
 42
0.0000001
 43
0.0000001
 44
0.0000000001
 40
0.0
 40
0.0
 40
0.0
 40
0.0
 40
0.2177724472
 40
0.4509526051
 40
0.7101928552
 40
1.0
 40
1.0
 40
1.0
 40
1.0
 10
-24.6035293265
 20
-7.1304557498
 30
0.0
 10
-24.5787934775
 20
-7.1161735905
 30
0.0
 10
-24.5324961542
 20
-7.0772700722
 30
0.0
 10
-24.4832539463
 20
-6.996701532
 30
0.0
 10
-24.4539566147
 20
-6.8974265913
 30
0.0
 10
-24.4482169595
 20
-6.8251647961
 30
0.0
 10
-24.4482169595
 20
-6.7871537987
 30
0.0
  0
SPLINE
  5
3B3
100
AcDbEntity
  8
ASSI
100
AcDbSpline
 62
7
  6
CONTINUOUS
 70
0
 71
3
 72
11
 73
7
 74
0
 42
0.0000001
 43
0.0000001
 44
0.0000000001
 40
0.0
 40
0.0
 40
0.0
 40
0.0
 40
0.2177724472
 40
0.4509526051
 40
0.7101928552
 40
1.0
 40
1.0
 40
1.0
 40
1.0
 10
13.5802368576
 20
-4.6831754857
 30
0.0
 10
13.6049727066
 20
-4.6688933264
 30
0.0
 10
13.6512700299
 20
-4.6299898081
 30
0.0
 10
13.7005122378
 20
-4.5494212679
 30
0.0
 10
13.7298095694
 20
-4.4501463272
 30
0.0
 10
13.7355492245
 20
-4.377884532
 30
0.0
 10
13.7355492245
 20
-4.3398735346
 30
0.0
  0
SPLINE
  5
3B4
100
AcDbEntity
  8
ASSI
100
AcDbSpline
 62
7
  6
CONTINUOUS
 70
0
 71
3
 72
11
 73
7
 74
0
 42
0.0000001
 43
0.0000001
 44
0.0000000001
 40
0.0
 40
0.0
 40
0.0
 40
0.0
 40
0.2177724472
 40
0.4509526051
 40
0.7101928552
 40
1.0
 40
1.0
 40
1.0
 40
1.0
 10
-24.6035293265
 20
17.363652554
 30
0.0
 10
-24.5787934775
 20
17.3779347133
 30
0.0
 10
-24.5324961542
 20
17.4168382316
 30
0.0
 10
-24.4832539463
 20
17.4974067718
 30
0.0
 10
-24.4539566147
 20
17.5966817125
 30
0.0
 10
-24.4482169595
 20
17.6689435077
 30
0.0
 10
-24.4482169595
 20
17.7069545051
 30
0.0
  0
SPLINE
  5
3B5
100
AcDbEntity
  8
ASSI
100
AcDbSpline
 62
7
  6
CONTINUOUS
 70
0
 71
3
 72
11
 73
7
 74
0
 42
0.0000001
 43
0.0000001
 44
0.0000000001
 40
0.0
 40
0.0
 40
0.0
 40
0.0
 40
0.2177724472
 40
0.4509526051
 40
0.7101928552
 40
1.0
 40
1.0
 40
1.0
 40
1.0
 10
-5.5116462344
 20
-94.4938406498
 30
0.0
 10
-5.4869103854
 20
-94.4795584905
 30
0.0
 10
-5.4406130621
 20
-94.4406549722
 30
0.0
 10
-5.3913708543
 20
-94.360086432
 30
0.0
 10
-5.3620735227
 20
-94.2608114912
 30
0.0
 10
-5.3563338675
 20
-94.1885496961
 30
0.0
 10
-5.3563338675
 20
-94.1505386987
 30
0.0
  0
SPLINE
  5
3B6
100
AcDbEntity
  8
ASSI
100
AcDbSpline
 62
7
  6
CONTINUOUS
 70
0
 71
3
 72
11
 73
7
 74
0
 42
0.0000001
 43
0.0000001
 44
0.0000000001
 40
0.0
 40
0.0
 40
0.0
 40
0.0
 40
0.2177723708
 40
0.4509513093
 40
0.7101971511
 40
1.0
 40
1.0
 40
1.0
 40
1.0
 10
14.132031654
 20
-17.6818068439
 30
0.0
 10
14.1815033504
 20
-17.6532425068
 30
0.0
 10
14.2740969576
 20
-17.5754348749
 30
0.0
 10
14.3725838678
 20
-17.4142979385
 30
0.0
 10
14.4311760923
 20
-17.2157469187
 30
0.0
 10
14.4426560057
 20
-17.0712231849
 30
0.0
 10
14.4426560057
 20
-16.9952022798
 30
0.0
  0
SPLINE
  5
3B7
100
AcDbEntity
  8
ASSI
100
AcDbSpline
 62
7
  6
CONTINUOUS
 70
0
 71
3
 72
11
 73
7
 74
0
 42
0.0000001
 43
0.0000001
 44
0.0000000001
 40
0.0
 40
0.0
 40
0.0
 40
0.0
 40
0.2177723708
 40
0.4509513093
 40
0.7101971511
 40
1.0
 40
1.0
 40
1.0
 40
1.0
 10
-24.4052879207
 20
4.5691584925
 30
0.0
 10
-24.3558162243
 20
4.5977228295
 30
0.0
 10
-24.2632226171
 20
4.6755304615
 30
0.0
 10
-24.1647357069
 20
4.8366673978
 30
0.0
 10
-24.1061434823
 20
5.0352184176
 30
0.0
 10
-24.0946635689
 20
5.1797421515
 30
0.0
 10
-24.0946635689
 20
5.2557630565
 30
0.0
  0
SPLINE
  5
3B8
100
AcDbEntity
  8
ASSI
100
AcDbSpline
 62
7
  6
CONTINUOUS
 70
0
 71
3
 72
11
 73
7
 74
0
 42
0.0000001
 43
0.0000001
 44
0.0000000001
 40
0.0
 40
0.0
 40
0.0
 40
0.0
 40
0.2177723708
 40
0.4509513093
 40
0.7101971511
 40
1.0
 40
1.0
 40
1.0
 40
1.0
 10
14.132031654
 20
-104.2276561839
 30
0.0
 10
14.1815033504
 20
-104.1990918469
 30
0.0
 10
14.2740969576
 20
-104.1212842149
 30
0.0
 10
14.3725838678
 20
-103.9601472786
 30
0.0
 10
14.4311760923
 20
-103.7615962588
 30
0.0
 10
14.4426560057
 20
-103.6170725249
 30
0.0
 10
14.4426560057
 20
-103.5410516199
 30
0.0
  0
SPLINE
  5
3B9
100
AcDbEntity
  8
ASSI
100
AcDbSpline
 62
7
  6
CONTINUOUS
 70
0
 71
3
 72
11
 73
7
 74
0
 42
0.0000001
 43
0.0000001
 44
0.0000000001
 40
0.0
 40
0.0
 40
0.0
 40
0.0
 40
0.2177723708
 40
0.4509513093
 40
0.7101971511
 40
1.0
 40
1.0
 40
1.0
 40
1.0
 10
-24.4052879207
 20
-81.9766908475
 30
0.0
 10
-24.3558162243
 20
-81.9481265105
 30
0.0
 10
-24.2632226171
 20
-81.8703188786
 30
0.0
 10
-24.1647357069
 20
-81.7091819422
 30
0.0
 10
-24.1061434823
 20
-81.5106309224
 30
0.0
 10
-24.0946635689
 20
-81.3661071885
 30
0.0
 10
-24.0946635689
 20
-81.2900862835
 30
0.0
  0
SPLINE
  5
3BA
100
AcDbEntity
  8
0
100
AcDbSpline
 62
7
  6
CONTINUOUS
 70
0
 71
3
 72
11
 73
7
 74
0
 42
0.0000001
 43
0.0000001
 44
0.0000000001
 40
0.0
 40
0.0
 40
0.0
 40
0.0
 40
0.2898028482
 40
0.5490486894
 40
0.7822276274
 40
1.0
 40
1.0
 40
1.0
 40
1.0
 10
11.4374521857
 20
-100.3770616138
 30
0.0
 10
11.4374521857
 20
-100.4530825186
 30
0.0
 10
11.4259722724
 20
-100.597606252
 30
0.0
 10
11.3673800482
 20
-100.7961572711
 30
0.0
 10
11.268893139
 20
-100.9572942081
 30
0.0
 10
11.1762995297
 20
-101.0351018389
 30
0.0
 10
11.1268278317
 20
-101.0636661739
 30
0.0
  0
SPLINE
  5
3BB
100
AcDbEntity
  8
ASSI
100
AcDbSpline
 62
7
  6
CONTINUOUS
 70
0
 71
3
 72
17
 73
13
 74
0
 42
0.0000001
 43
0.0000001
 44
0.0000000001
 40
0.0
 40
0.0
 40
0.0
 40
0.0
 40
0.1286775573
 40
0.2702704757
 40
0.4174273866
 40
0.5617758268
 40
0.6954484185
 40
0.8127143474
 40
0.8646790217
 40
0.9125124277
 40
0.957141039
 40
1.0
 40
1.0
 40
1.0
 40
1.0
 10
14.4426560057
 20
-16.9952022798
 30
0.0
 10
14.4426560057
 20
-16.8669981922
 30
0.0
 10
14.4067822067
 20
-16.5974163778
 30
0.0
 10
14.2729206428
 20
-16.2015804726
 30
0.0
 10
14.0666065511
 20
-15.8202597015
 30
0.0
 10
13.8044715546
 20
-15.4847223442
 30
0.0
 10
13.5079140646
 20
-15.2220782185
 30
0.0
 10
13.2394950791
 20
-15.0753113833
 30
0.0
 10
13.0295272251
 20
-15.0194448422
 30
0.0
 10
12.8850181508
 20
-15.0088182386
 30
0.0
 10
12.7504568671
 20
-15.0285382126
 30
0.0
 10
12.6689397954
 20
-15.0624222737
 30
0.0
 10
12.6319600139
 20
-15.0837739358
 30
0.0
  0
SPLINE
  5
3BC
100
AcDbEntity
  8
ASSI
100
AcDbSpline
 62
7
  6
CONTINUOUS
 70
0
 71
3
 72
17
 73
13
 74
0
 42
0.0000001
 43
0.0000001
 44
0.0000000001
 40
0.0
 40
0.0
 40
0.0
 40
0.0
 40
0.1286775573
 40
0.2702704757
 40
0.4174273866
 40
0.5617758268
 40
0.6954484185
 40
0.8127143474
 40
0.8646790217
 40
0.9125124277
 40
0.957141039
 40
1.0
 40
1.0
 40
1.0
 40
1.0
 10
-24.0946635689
 20
5.2557630565
 30
0.0
 10
-24.0946635689
 20
5.3839671442
 30
0.0
 10
-24.130537368
 20
5.6535489585
 30
0.0
 10
-24.2643989319
 20
6.0493848638
 30
0.0
 10
-24.4707130235
 20
6.4307056349
 30
0.0
 10
-24.7328480201
 20
6.7662429922
 30
0.0
 10
-25.0294055101
 20
7.0288871179
 30
0.0
 10
-25.2978244955
 20
7.175653953
 30
0.0
 10
-25.5077923495
 20
7.2315204942
 30
0.0
 10
-25.6523014239
 20
7.2421470978
 30
0.0
 10
-25.7868627076
 20
7.2224271238
 30
0.0
 10
-25.8683797792
 20
7.1885430627
 30
0.0
 10
-25.9053595608
 20
7.1671914006
 30
0.0
  0
SPLINE
  5
3BD
100
AcDbEntity
  8
ASSI
100
AcDbSpline
 62
7
  6
CONTINUOUS
 70
0
 71
3
 72
17
 73
13
 74
0
 42
0.0000001
 43
0.0000001
 44
0.0000000001
 40
0.0
 40
0.0
 40
0.0
 40
0.0
 40
0.1286775573
 40
0.2702704757
 40
0.4174273866
 40
0.5617758268
 40
0.6954484185
 40
0.8127143474
 40
0.8646790217
 40
0.9125124277
 40
0.957141039
 40
1.0
 40
1.0
 40
1.0
 40
1.0
 10
14.4426560057
 20
-103.5410516199
 30
0.0
 10
14.4426560057
 20
-103.4128475322
 30
0.0
 10
14.4067822067
 20
-103.1432657179
 30
0.0
 10
14.2729206428
 20
-102.7474298126
 30
0.0
 10
14.0666065511
 20
-102.3661090415
 30
0.0
 10
13.8044715546
 20
-102.0305716842
 30
0.0
 10
13.5079140646
 20
-101.7679275585
 30
0.0
 10
13.2394950791
 20
-101.6211607234
 30
0.0
 10
13.0295272251
 20
-101.5652941822
 30
0.0
 10
12.8850181508
 20
-101.5546675786
 30
0.0
 10
12.7504568671
 20
-101.5743875526
 30
0.0
 10
12.6689397954
 20
-101.6082716137
 30
0.0
 10
12.6319600139
 20
-101.6296232758
 30
0.0
  0
SPLINE
  5
3BE
100
AcDbEntity
  8
ASSI
100
AcDbSpline
 62
7
  6
CONTINUOUS
 70
0
 71
3
 72
17
 73
13
 74
0
 42
0.0000001
 43
0.0000001
 44
0.0000000001
 40
0.0
 40
0.0
 40
0.0
 40
0.0
 40
0.1286775573
 40
0.2702704757
 40
0.4174273866
 40
0.5617758268
 40
0.6954484185
 40
0.8127143474
 40
0.8646790217
 40
0.9125124277
 40
0.957141039
 40
1.0
 40
1.0
 40
1.0
 40
1.0
 10
-24.0946635689
 20
-81.2900862835
 30
0.0
 10
-24.0946635689
 20
-81.1618821958
 30
0.0
 10
-24.130537368
 20
-80.8923003815
 30
0.0
 10
-24.2643989319
 20
-80.4964644763
 30
0.0
 10
-24.4707130235
 20
-80.1151437052
 30
0.0
 10
-24.7328480201
 20
-79.7796063479
 30
0.0
 10
-25.0294055101
 20
-79.5169622222
 30
0.0
 10
-25.2978244955
 20
-79.370195387
 30
0.0
 10
-25.5077923495
 20
-79.3143288459
 30
0.0
 10
-25.6523014239
 20
-79.3037022422
 30
0.0
 10
-25.7868627076
 20
-79.3234222163
 30
0.0
 10
-25.8683797792
 20
-79.3573062774
 30
0.0
 10
-25.9053595608
 20
-79.3786579395
 30
0.0
  0
SPLINE
  5
3BF
100
AcDbEntity
  8
ASSI
100
AcDbSpline
 62
7
  6
CONTINUOUS
 70
0
 71
3
 72
16
 73
12
 74
0
 42
0.0000001
 43
0.0000001
 44
0.0000000001
 40
0.0
 40
0.0
 40
0.0
 40
0.0
 40
0.1287336634
 40
0.2703881089
 40
0.4176090879
 40
0.5620202926
 40
0.6957509801
 40
0.8130679054
 40
0.9124743731
 40
0.957122413
 40
1.0
 40
1.0
 40
1.0
 40
1.0
 10
13.7355492245
 20
-28.8339818384
 30
0.0
 10
13.7355492245
 20
-28.7698797447
 30
0.0
 10
13.7176118287
 20
-28.6350885795
 30
0.0
 10
13.6506853188
 20
-28.4371716707
 30
0.0
 10
13.5475091933
 20
-28.2465080319
 30
0.0
 10
13.4165114511
 20
-28.0787509551
 30
0.0
 10
13.2680010205
 20
-27.947391175
 30
0.0
 10
13.1135039978
 20
-27.8626414592
 30
0.0
 10
12.982350862
 20
-27.8370330497
 30
0.0
 10
12.8894498918
 20
-27.8506508158
 30
0.0
 10
12.8486913015
 20
-27.8675921787
 30
0.0
 10
12.8302014197
 20
-27.8782679973
 30
0.0
  0
SPLINE
  5
3C0
100
AcDbEntity
  8
ASSI
100
AcDbSpline
 62
7
  6
CONTINUOUS
 70
0
 71
3
 72
16
 73
12
 74
0
 42
0.0000001
 43
0.0000001
 44
0.0000000001
 40
0.0
 40
0.0
 40
0.0
 40
0.0
 40
0.1287336634
 40
0.2703881089
 40
0.4176090879
 40
0.5620202926
 40
0.6957509801
 40
0.8130679054
 40
0.9124743731
 40
0.957122413
 40
1.0
 40
1.0
 40
1.0
 40
1.0
 10
-24.4482169595
 20
-6.7871537987
 30
0.0
 10
-24.4482169595
 20
-6.723051705
 30
0.0
 10
-24.4661543554
 20
-6.5882605398
 30
0.0
 10
-24.5330808653
 20
-6.390343631
 30
0.0
 10
-24.6362569908
 20
-6.1996799922
 30
0.0
 10
-24.767254733
 20
-6.0319229154
 30
0.0
 10
-24.9157651635
 20
-5.9005631353
 30
0.0
 10
-25.0702621863
 20
-5.8158134195
 30
0.0
 10
-25.2014153221
 20
-5.79020501
 30
0.0
 10
-25.2943162922
 20
-5.8038227761
 30
0.0
 10
-25.3350748826
 20
-5.820764139
 30
0.0
 10
-25.3535647644
 20
-5.8314399576
 30
0.0
  0
SPLINE
  5
3C1
100
AcDbEntity
  8
ASSI
100
AcDbSpline
 62
7
  6
CONTINUOUS
 70
0
 71
3
 72
16
 73
12
 74
0
 42
0.0000001
 43
0.0000001
 44
0.0000000001
 40
0.0
 40
0.0
 40
0.0
 40
0.0
 40
0.1287336634
 40
0.2703881089
 40
0.4176090879
 40
0.5620202926
 40
0.6957509801
 40
0.8130679054
 40
0.9124743731
 40
0.957122413
 40
1.0
 40
1.0
 40
1.0
 40
1.0
 10
13.7355492245
 20
-4.3398735346
 30
0.0
 10
13.7355492245
 20
-4.2757714409
 30
0.0
 10
13.7176118287
 20
-4.1409802757
 30
0.0
 10
13.6506853188
 20
-3.9430633669
 30
0.0
 10
13.5475091933
 20
-3.7523997282
 30
0.0
 10
13.4165114511
 20
-3.5846426513
 30
0.0
 10
13.2680010205
 20
-3.4532828712
 30
0.0
 10
13.1135039978
 20
-3.3685331554
 30
0.0
 10
12.982350862
 20
-3.3429247459
 30
0.0
 10
12.8894498918
 20
-3.356542512
 30
0.0
 10
12.8486913015
 20
-3.3734838749
 30
0.0
 10
12.8302014197
 20
-3.3841596935
 30
0.0
  0
SPLINE
  5
3C2
100
AcDbEntity
  8
ASSI
100
AcDbSpline
 62
7
  6
CONTINUOUS
 70
0
 71
3
 72
16
 73
12
 74
0
 42
0.0000001
 43
0.0000001
 44
0.0000000001
 40
0.0
 40
0.0
 40
0.0
 40
0.0
 40
0.1287336634
 40
0.2703881089
 40
0.4176090879
 40
0.5620202926
 40
0.6957509801
 40
0.8130679054
 40
0.9124743731
 40
0.957122413
 40
1.0
 40
1.0
 40
1.0
 40
1.0
 10
-24.4482169595
 20
17.7069545051
 30
0.0
 10
-24.4482169595
 20
17.7710565988
 30
0.0
 10
-24.4661543554
 20
17.905847764
 30
0.0
 10
-24.5330808653
 20
18.1037646728
 30
0.0
 10
-24.6362569908
 20
18.2944283115
 30
0.0
 10
-24.767254733
 20
18.4621853884
 30
0.0
 10
-24.9157651635
 20
18.5935451685
 30
0.0
 10
-25.0702621863
 20
18.6782948843
 30
0.0
 10
-25.2014153221
 20
18.7039032938
 30
0.0
 10
-25.2943162922
 20
18.6902855277
 30
0.0
 10
-25.3350748826
 20
18.6733441648
 30
0.0
 10
-25.3535647644
 20
18.6626683462
 30
0.0
  0
SPLINE
  5
3C3
100
AcDbEntity
  8
ASSI
100
AcDbSpline
 62
7
  6
CONTINUOUS
 70
0
 71
3
 72
16
 73
12
 74
0
 42
0.0000001
 43
0.0000001
 44
0.0000000001
 40
0.0
 40
0.0
 40
0.0
 40
0.0
 40
0.1287336634
 40
0.2703881089
 40
0.4176090879
 40
0.5620202926
 40
0.6957509801
 40
0.8130679054
 40
0.9124743731
 40
0.957122413
 40
1.0
 40
1.0
 40
1.0
 40
1.0
 10
-5.3563338675
 20
-94.1505386987
 30
0.0
 10
-5.3563338675
 20
-94.0864366049
 30
0.0
 10
-5.3742712633
 20
-93.9516454397
 30
0.0
 10
-5.4411977732
 20
-93.753728531
 30
0.0
 10
-5.5443738988
 20
-93.5630648922
 30
0.0
 10
-5.675371641
 20
-93.3953078154
 30
0.0
 10
-5.8238820715
 20
-93.2639480353
 30
0.0
 10
-5.9783790943
 20
-93.1791983195
 30
0.0
 10
-6.10953223
 20
-93.15358991
 30
0.0
 10
-6.2024332002
 20
-93.1672076761
 30
0.0
 10
-6.2431917905
 20
-93.184149039
 30
0.0
 10
-6.2616816723
 20
-93.1948248576
 30
0.0
  0
SPLINE
  5
3C4
100
AcDbEntity
  8
0
100
AcDbSpline
 62
7
  6
CONTINUOUS
 70
0
 71
3
 72
9
 73
5
 74
0
 42
0.0000001
 43
0.0000001
 44
0.0000000001
 40
0.0
 40
0.0
 40
0.0
 40
0.0
 40
0.2626610364
 40
1.0
 40
1.0
 40
1.0
 40
1.0
 10
11.3770745305
 20
70.2991624791
 30
0.0
 10
11.386907263
 20
70.2612886623
 30
0.0
 10
11.4203470116
 20
70.1161399981
 30
0.0
 10
11.4374521857
 20
69.9668346404
 30
0.0
 10
11.4374521857
 20
69.8569910975
 30
0.0
  0
SPLINE
  5
3C5
100
AcDbEntity
  8
ASSI
100
AcDbSpline
 62
7
  6
CONTINUOUS
 70
0
 71
3
 72
11
 73
7
 74
0
 42
0.0000001
 43
0.0000001
 44
0.0000000001
 40
0.0
 40
0.0
 40
0.0
 40
0.0
 40
0.2177724472
 40
0.4509526051
 40
0.7101928552
 40
1.0
 40
1.0
 40
1.0
 40
1.0
 10
-25.3535647644
 20
-5.8314399576
 30
0.0
 10
-25.3783006134
 20
-5.8457221169
 30
0.0
 10
-25.4245979367
 20
-5.8846256352
 30
0.0
 10
-25.4738401445
 20
-5.9651941754
 30
0.0
 10
-25.5031374761
 20
-6.0644691161
 30
0.0
 10
-25.5088771313
 20
-6.1367309113
 30
0.0
 10
-25.5088771313
 20
-6.1747419087
 30
0.0
  0
SPLINE
  5
3C6
100
AcDbEntity
  8
ASSI
100
AcDbSpline
 62
7
  6
CONTINUOUS
 70
0
 71
3
 72
11
 73
7
 74
0
 42
0.0000001
 43
0.0000001
 44
0.0000000001
 40
0.0
 40
0.0
 40
0.0
 40
0.0
 40
0.2177723708
 40
0.4509513093
 40
0.7101971511
 40
1.0
 40
1.0
 40
1.0
 40
1.0
 10
-25.9053595608
 20
7.1671914006
 30
0.0
 10
-25.9548312571
 20
7.1386270635
 30
0.0
 10
-26.0474248644
 20
7.0608194316
 30
0.0
 10
-26.1459117746
 20
6.8996824952
 30
0.0
 10
-26.2045039991
 20
6.7011314754
 30
0.0
 10
-26.2159839125
 20
6.5566077416
 30
0.0
 10
-26.2159839125
 20
6.4805868365
 30
0.0
  0
SPLINE
  5
3C7
100
AcDbEntity
  8
0
100
AcDbSpline
 62
7
  6
CONTINUOUS
 70
0
 71
3
 72
13
 73
9
 74
0
 42
0.0000001
 43
0.0000001
 44
0.0000000001
 40
0.0
 40
0.0
 40
0.0
 40
0.0
 40
0.1142597691
 40
0.237541703
 40
0.5000060652
 40
0.7624671074
 40
0.8857451648
 40
1.0
 40
1.0
 40
1.0
 40
1.0
 10
-22.1501199207
 20
-82.208723846
 30
0.0
 10
-22.2227311386
 20
-82.1667990388
 30
0.0
 10
-22.36616775
 20
-82.0662611801
 30
0.0
 10
-22.6346763431
 20
-81.8149170537
 30
0.0
 10
-22.9183314145
 20
-81.4274926676
 30
0.0
 10
-23.1120229059
 20
-80.9881305909
 30
0.0
 10
-23.195433942
 20
-80.629931128
 30
0.0
 10
-23.2107800924
 20
-80.4554484831
 30
0.0
 10
-23.2107800924
 20
-80.3716065408
 30
0.0
  0
SPLINE
  5
3C8
100
AcDbEntity
  8
ASSI
100
AcDbSpline
 62
7
  6
CONTINUOUS
 70
0
 71
3
 72
9
 73
5
 74
0
 42
0.0000001
 43
0.0000001
 44
0.0000000001
 40
0.0
 40
0.0
 40
0.0
 40
0.0
 40
0.2385624923
 40
1.0
 40
1.0
 40
1.0
 40
1.0
 10
12.3213356622
 20
-15.7703784998
 30
0.0
 10
12.3213356622
 20
-15.8003254731
 30
0.0
 10
12.3253291907
 20
-15.9258479474
 30
0.0
 10
12.3442666797
 20
-16.0506984871
 30
0.0
 10
12.3651361604
 20
-16.143976346
 30
0.0
  0
SPLINE
  5
3C9
100
AcDbEntity
  8
ASSI
100
AcDbSpline
 62
7
  6
CONTINUOUS
 70
0
 71
3
 72
16
 73
12
 74
0
 42
0.0000001
 43
0.0000001
 44
0.0000000001
 40
0.0
 40
0.0
 40
0.0
 40
0.0
 40
0.1414639492
 40
0.2888611146
 40
0.4357536616
 40
0.5757724114
 40
0.703541054
 40
0.8157618565
 40
0.9126458376
 40
0.9570140765
 40
1.0
 40
1.0
 40
1.0
 40
1.0
 10
12.3651361604
 20
-16.143976346
 30
0.0
 10
12.3920356328
 20
-16.2642057483
 30
0.0
 10
12.4691243079
 20
-16.5050726384
 30
0.0
 10
12.6387732956
 20
-16.8459728012
 30
0.0
 10
12.8557296753
 20
-17.1575472538
 30
0.0
 10
13.1061840295
 20
-17.4199345396
 30
0.0
 10
13.3749407267
 20
-17.6166899478
 30
0.0
 10
13.6461958064
 20
-17.7357340031
 30
0.0
 10
13.8705371146
 20
-17.7618366678
 30
0.0
 10
14.0291553312
 20
-17.7311632648
 30
0.0
 10
14.0996110368
 20
-17.7005261016
 30
0.0
 10
14.132031654
 20
-17.6818068439
 30
0.0
  0
SPLINE
  5
3CA
100
AcDbEntity
  8
ASSI
100
AcDbSpline
 62
7
  6
CONTINUOUS
 70
0
 71
3
 72
9
 73
5
 74
0
 42
0.0000001
 43
0.0000001
 44
0.0000000001
 40
0.0
 40
0.0
 40
0.0
 40
0.0
 40
0.2385624923
 40
1.0
 40
1.0
 40
1.0
 40
1.0
 10
-26.2159839125
 20
6.4805868365
 30
0.0
 10
-26.2159839125
 20
6.4506398632
 30
0.0
 10
-26.2119903839
 20
6.3251173889
 30
0.0
 10
-26.1930528949
 20
6.2002668493
 30
0.0
 10
-26.1721834142
 20
6.1069889903
 30
0.0
  0
SPLINE
  5
3CB
100
AcDbEntity
  8
ASSI
100
AcDbSpline
 62
7
  6
CONTINUOUS
 70
0
 71
3
 72
16
 73
12
 74
0
 42
0.0000001
 43
0.0000001
 44
0.0000000001
 40
0.0
 40
0.0
 40
0.0
 40
0.0
 40
0.1414639492
 40
0.2888611146
 40
0.4357536616
 40
0.5757724114
 40
0.703541054
 40
0.8157618565
 40
0.9126458376
 40
0.9570140765
 40
1.0
 40
1.0
 40
1.0
 40
1.0
 10
-26.1721834142
 20
6.1069889903
 30
0.0
 10
-26.1452839418
 20
5.9867595881
 30
0.0
 10
-26.0681952668
 20
5.7458926979
 30
0.0
 10
-25.898546279
 20
5.4049925351
 30
0.0
 10
-25.6815898993
 20
5.0934180826
 30
0.0
 10
-25.4311355452
 20
4.8310307968
 30
0.0
 10
-25.162378848
 20
4.6342753886
 30
0.0
 10
-24.8911237682
 20
4.5152313332
 30
0.0
 10
-24.6667824601
 20
4.4891286685
 30
0.0
 10
-24.5081642435
 20
4.5198020715
 30
0.0
 10
-24.4377085378
 20
4.5504392347
 30
0.0
 10
-24.4052879207
 20
4.5691584925
 30
0.0
  0
SPLINE
  5
3CC
100
AcDbEntity
  8
ASSI
100
AcDbSpline
 62
7
  6
CONTINUOUS
 70
0
 71
3
 72
11
 73
7
 74
0
 42
0.0000001
 43
0.0000001
 44
0.0000000001
 40
0.0
 40
0.0
 40
0.0
 40
0.0
 40
0.2177724472
 40
0.4509526051
 40
0.7101928552
 40
1.0
 40
1.0
 40
1.0
 40
1.0
 10
-25.3535647644
 20
18.6626683462
 30
0.0
 10
-25.3783006134
 20
18.6483861869
 30
0.0
 10
-25.4245979367
 20
18.6094826686
 30
0.0
 10
-25.4738401445
 20
18.5289141284
 30
0.0
 10
-25.5031374761
 20
18.4296391877
 30
0.0
 10
-25.5088771313
 20
18.3573773925
 30
0.0
 10
-25.5088771313
 20
18.3193663951
 30
0.0
  0
SPLINE
  5
3CD
100
AcDbEntity
  8
ASSI
100
AcDbSpline
 62
7
  6
CONTINUOUS
 70
0
 71
3
 72
9
 73
5
 74
0
 42
0.0000001
 43
0.0000001
 44
0.0000000001
 40
0.0
 40
0.0
 40
0.0
 40
0.0
 40
0.2385624923
 40
1.0
 40
1.0
 40
1.0
 40
1.0
 10
12.3213356622
 20
-102.3162278399
 30
0.0
 10
12.3213356622
 20
-102.3461748132
 30
0.0
 10
12.3253291907
 20
-102.4716972875
 30
0.0
 10
12.3442666797
 20
-102.5965478271
 30
0.0
 10
12.3651361604
 20
-102.6898256861
 30
0.0
  0
SPLINE
  5
3CE
100
AcDbEntity
  8
ASSI
100
AcDbSpline
 62
7
  6
CONTINUOUS
 70
0
 71
3
 72
16
 73
12
 74
0
 42
0.0000001
 43
0.0000001
 44
0.0000000001
 40
0.0
 40
0.0
 40
0.0
 40
0.0
 40
0.1414639492
 40
0.2888611146
 40
0.4357536616
 40
0.5757724114
 40
0.703541054
 40
0.8157618565
 40
0.9126458376
 40
0.9570140765
 40
1.0
 40
1.0
 40
1.0
 40
1.0
 10
12.3651361604
 20
-102.6898256861
 30
0.0
 10
12.3920356328
 20
-102.8100550883
 30
0.0
 10
12.4691243079
 20
-103.0509219785
 30
0.0
 10
12.6387732956
 20
-103.3918221413
 30
0.0
 10
12.8557296753
 20
-103.7033965938
 30
0.0
 10
13.1061840295
 20
-103.9657838796
 30
0.0
 10
13.3749407267
 20
-104.1625392878
 30
0.0
 10
13.6461958064
 20
-104.2815833432
 30
0.0
 10
13.8705371146
 20
-104.3076860079
 30
0.0
 10
14.0291553312
 20
-104.2770126049
 30
0.0
 10
14.0996110368
 20
-104.2463754417
 30
0.0
 10
14.132031654
 20
-104.2276561839
 30
0.0
  0
SPLINE
  5
3CF
100
AcDbEntity
  8
ASSI
100
AcDbSpline
 62
7
  6
CONTINUOUS
 70
0
 71
3
 72
9
 73
5
 74
0
 42
0.0000001
 43
0.0000001
 44
0.0000000001
 40
0.0
 40
0.0
 40
0.0
 40
0.0
 40
0.2385624923
 40
1.0
 40
1.0
 40
1.0
 40
1.0
 10
-26.2159839125
 20
-80.0652625035
 30
0.0
 10
-26.2159839125
 20
-80.0952094768
 30
0.0
 10
-26.2119903839
 20
-80.2207319511
 30
0.0
 10
-26.1930528949
 20
-80.3455824908
 30
0.0
 10
-26.1721834142
 20
-80.4388603497
 30
0.0
  0
SPLINE
  5
3D0
100
AcDbEntity
  8
ASSI
100
AcDbSpline
 62
7
  6
CONTINUOUS
 70
0
 71
3
 72
16
 73
12
 74
0
 42
0.0000001
 43
0.0000001
 44
0.0000000001
 40
0.0
 40
0.0
 40
0.0
 40
0.0
 40
0.1414639492
 40
0.2888611146
 40
0.4357536616
 40
0.5757724114
 40
0.703541054
 40
0.8157618565
 40
0.9126458376
 40
0.9570140765
 40
1.0
 40
1.0
 40
1.0
 40
1.0
 10
-26.1721834142
 20
-80.4388603497
 30
0.0
 10
-26.1452839418
 20
-80.5590897519
 30
0.0
 10
-26.0681952668
 20
-80.7999566421
 30
0.0
 10
-25.898546279
 20
-81.1408568049
 30
0.0
 10
-25.6815898993
 20
-81.4524312575
 30
0.0
 10
-25.4311355452
 20
-81.7148185432
 30
0.0
 10
-25.162378848
 20
-81.9115739515
 30
0.0
 10
-24.8911237682
 20
-82.0306180068
 30
0.0
 10
-24.6667824601
 20
-82.0567206715
 30
0.0
 10
-24.5081642435
 20
-82.0260472685
 30
0.0
 10
-24.4377085378
 20
-81.9954101053
 30
0.0
 10
-24.4052879207
 20
-81.9766908475
 30
0.0
  0
SPLINE
  5
3D1
100
AcDbEntity
  8
ASSI
100
AcDbSpline
 62
7
  6
CONTINUOUS
 70
0
 71
3
 72
11
 73
7
 74
0
 42
0.0000001
 43
0.0000001
 44
0.0000000001
 40
0.0
 40
0.0
 40
0.0
 40
0.0
 40
0.2177723708
 40
0.4509513093
 40
0.7101971511
 40
1.0
 40
1.0
 40
1.0
 40
1.0
 10
12.6319600139
 20
-101.6296232758
 30
0.0
 10
12.5824883176
 20
-101.6581876129
 30
0.0
 10
12.4898947103
 20
-101.7359952448
 30
0.0
 10
12.3914078001
 20
-101.8971321812
 30
0.0
 10
12.3328155756
 20
-102.095683201
 30
0.0
 10
12.3213356622
 20
-102.2402069348
 30
0.0
 10
12.3213356622
 20
-102.3162278399
 30
0.0
  0
SPLINE
  5
3D2
100
AcDbEntity
  8
ASSI
100
AcDbSpline
 62
7
  6
CONTINUOUS
 70
0
 71
3
 72
13
 73
9
 74
0
 42
0.0000001
 43
0.0000001
 44
0.0000000001
 40
0.0
 40
0.0
 40
0.0
 40
0.0
 40
0.2968775126
 40
0.5667765998
 40
0.6886017978
 40
0.8009038946
 40
0.9041962383
 40
1.0
 40
1.0
 40
1.0
 40
1.0
 10
-25.7400360611
 20
91.7298270957
 30
0.0
 10
-25.6564835573
 20
91.6178419314
 30
0.0
 10
-25.4788857511
 20
91.4167920535
 30
0.0
 10
-25.2195629036
 20
91.2176082221
 30
0.0
 10
-25.0067779995
 20
91.1112294945
 30
0.0
 10
-24.8552202818
 20
91.0615535143
 30
0.0
 10
-24.7093725589
 20
91.040479929
 30
0.0
 10
-24.6149432782
 20
91.0463914297
 30
0.0
 10
-24.5706114203
 20
91.0546159644
 30
0.0
  0
SPLINE
  5
3D3
100
AcDbEntity
  8
ASSI
100
AcDbSpline
 62
7
  6
CONTINUOUS
 70
0
 71
3
 72
11
 73
7
 74
0
 42
0.0000001
 43
0.0000001
 44
0.0000000001
 40
0.0
 40
0.0
 40
0.0
 40
0.0
 40
0.2177724472
 40
0.4509526051
 40
0.7101928552
 40
1.0
 40
1.0
 40
1.0
 40
1.0
 10
12.8302014197
 20
-27.8782679973
 30
0.0
 10
12.8054655707
 20
-27.8925501566
 30
0.0
 10
12.7591682474
 20
-27.9314536749
 30
0.0
 10
12.7099260395
 20
-28.0120222151
 30
0.0
 10
12.6806287079
 20
-28.1112971558
 30
0.0
 10
12.6748890528
 20
-28.183558951
 30
0.0
 10
12.6748890528
 20
-28.2215699484
 30
0.0
  0
SPLINE
  5
3D4
100
AcDbEntity
  8
ASSI
100
AcDbSpline
 62
7
  6
CONTINUOUS
 70
0
 71
3
 72
16
 73
12
 74
0
 42
0.0000001
 43
0.0000001
 44
0.0000000001
 40
0.0
 40
0.0
 40
0.0
 40
0.0
 40
0.1287336634
 40
0.2703881089
 40
0.4176090879
 40
0.5620202926
 40
0.6957509801
 40
0.8130679054
 40
0.9124743731
 40
0.957122413
 40
1.0
 40
1.0
 40
1.0
 40
1.0
 10
12.6748890528
 20
-28.2215699484
 30
0.0
 10
12.6748890528
 20
-28.2856720421
 30
0.0
 10
12.6928264486
 20
-28.4204632073
 30
0.0
 10
12.7597529585
 20
-28.6183801161
 30
0.0
 10
12.862929084
 20
-28.8090437548
 30
0.0
 10
12.9939268262
 20
-28.9768008317
 30
0.0
 10
13.1424372568
 20
-29.1081606118
 30
0.0
 10
13.2969342795
 20
-29.1929103276
 30
0.0
 10
13.4280874153
 20
-29.2185187371
 30
0.0
 10
13.5209883855
 20
-29.204900971
 30
0.0
 10
13.5617469758
 20
-29.1879596081
 30
0.0
 10
13.5802368576
 20
-29.1772837895
 30
0.0
  0
SPLINE
  5
3D5
100
AcDbEntity
  8
ASSI
100
AcDbSpline
 62
7
  6
CONTINUOUS
 70
0
 71
3
 72
16
 73
12
 74
0
 42
0.0000001
 43
0.0000001
 44
0.0000000001
 40
0.0
 40
0.0
 40
0.0
 40
0.0
 40
0.1287336634
 40
0.2703881089
 40
0.4176090879
 40
0.5620202926
 40
0.6957509801
 40
0.8130679054
 40
0.9124743731
 40
0.957122413
 40
1.0
 40
1.0
 40
1.0
 40
1.0
 10
-25.5088771313
 20
-6.1747419087
 30
0.0
 10
-25.5088771313
 20
-6.2388440024
 30
0.0
 10
-25.4909397355
 20
-6.3736351676
 30
0.0
 10
-25.4240132256
 20
-6.5715520764
 30
0.0
 10
-25.3208371
 20
-6.7622157151
 30
0.0
 10
-25.1898393578
 20
-6.929972792
 30
0.0
 10
-25.0413289273
 20
-7.0613325721
 30
0.0
 10
-24.8868319045
 20
-7.1460822879
 30
0.0
 10
-24.7556787688
 20
-7.1716906974
 30
0.0
 10
-24.6627777986
 20
-7.1580729313
 30
0.0
 10
-24.6220192083
 20
-7.1411315684
 30
0.0
 10
-24.6035293265
 20
-7.1304557498
 30
0.0
  0
SPLINE
  5
3D6
100
AcDbEntity
  8
ASSI
100
AcDbSpline
 62
7
  6
CONTINUOUS
 70
0
 71
3
 72
11
 73
7
 74
0
 42
0.0000001
 43
0.0000001
 44
0.0000000001
 40
0.0
 40
0.0
 40
0.0
 40
0.0
 40
0.2177723708
 40
0.4509513093
 40
0.7101971511
 40
1.0
 40
1.0
 40
1.0
 40
1.0
 10
12.6319600139
 20
-15.0837739358
 30
0.0
 10
12.5824883176
 20
-15.1123382728
 30
0.0
 10
12.4898947103
 20
-15.1901459048
 30
0.0
 10
12.3914078001
 20
-15.3512828411
 30
0.0
 10
12.3328155756
 20
-15.5498338609
 30
0.0
 10
12.3213356622
 20
-15.6943575948
 30
0.0
 10
12.3213356622
 20
-15.7703784998
 30
0.0
  0
SPLINE
  5
3D7
100
AcDbEntity
  8
ASSI
100
AcDbSpline
 62
7
  6
CONTINUOUS
 70
0
 71
3
 72
16
 73
12
 74
0
 42
0.0000001
 43
0.0000001
 44
0.0000000001
 40
0.0
 40
0.0
 40
0.0
 40
0.0
 40
0.1287336634
 40
0.2703881089
 40
0.4176090879
 40
0.5620202926
 40
0.6957509801
 40
0.8130679054
 40
0.9124743731
 40
0.957122413
 40
1.0
 40
1.0
 40
1.0
 40
1.0
 10
12.6748890528
 20
-3.7274616446
 30
0.0
 10
12.6748890528
 20
-3.7915637383
 30
0.0
 10
12.6928264486
 20
-3.9263549035
 30
0.0
 10
12.7597529585
 20
-4.1242718123
 30
0.0
 10
12.862929084
 20
-4.3149354511
 30
0.0
 10
12.9939268262
 20
-4.4826925279
 30
0.0
 10
13.1424372568
 20
-4.614052308
 30
0.0
 10
13.2969342795
 20
-4.6988020238
 30
0.0
 10
13.4280874153
 20
-4.7244104333
 30
0.0
 10
13.5209883855
 20
-4.7107926672
 30
0.0
 10
13.5617469758
 20
-4.6938513043
 30
0.0
 10
13.5802368576
 20
-4.6831754857
 30
0.0
  0
SPLINE
  5
3D8
100
AcDbEntity
  8
ASSI
100
AcDbSpline
 62
7
  6
CONTINUOUS
 70
0
 71
3
 72
16
 73
12
 74
0
 42
0.0000001
 43
0.0000001
 44
0.0000000001
 40
0.0
 40
0.0
 40
0.0
 40
0.0
 40
0.1287336634
 40
0.2703881089
 40
0.4176090879
 40
0.5620202926
 40
0.6957509801
 40
0.8130679054
 40
0.9124743731
 40
0.957122413
 40
1.0
 40
1.0
 40
1.0
 40
1.0
 10
-25.5088771313
 20
18.3193663951
 30
0.0
 10
-25.5088771313
 20
18.2552643014
 30
0.0
 10
-25.4909397355
 20
18.1204731362
 30
0.0
 10
-25.4240132256
 20
17.9225562274
 30
0.0
 10
-25.3208371
 20
17.7318925886
 30
0.0
 10
-25.1898393578
 20
17.5641355118
 30
0.0
 10
-25.0413289273
 20
17.4327757317
 30
0.0
 10
-24.8868319045
 20
17.3480260159
 30
0.0
 10
-24.7556787688
 20
17.3224176064
 30
0.0
 10
-24.6627777986
 20
17.3360353725
 30
0.0
 10
-24.6220192083
 20
17.3529767354
 30
0.0
 10
-24.6035293265
 20
17.363652554
 30
0.0
  0
SPLINE
  5
3D9
100
AcDbEntity
  8
ASSI
100
AcDbSpline
 62
7
  6
CONTINUOUS
 70
0
 71
3
 72
11
 73
7
 74
0
 42
0.0000001
 43
0.0000001
 44
0.0000000001
 40
0.0
 40
0.0
 40
0.0
 40
0.0
 40
0.2177723708
 40
0.4509513093
 40
0.7101971511
 40
1.0
 40
1.0
 40
1.0
 40
1.0
 10
-25.9053595608
 20
-79.3786579395
 30
0.0
 10
-25.9548312571
 20
-79.4072222765
 30
0.0
 10
-26.0474248644
 20
-79.4850299085
 30
0.0
 10
-26.1459117746
 20
-79.6461668448
 30
0.0
 10
-26.2045039991
 20
-79.8447178646
 30
0.0
 10
-26.2159839125
 20
-79.9892415985
 30
0.0
 10
-26.2159839125
 20
-80.0652625035
 30
0.0
  0
SPLINE
  5
3DA
100
AcDbEntity
  8
ASSI
100
AcDbSpline
 62
7
  6
CONTINUOUS
 70
0
 71
3
 72
16
 73
12
 74
0
 42
0.0000001
 43
0.0000001
 44
0.0000000001
 40
0.0
 40
0.0
 40
0.0
 40
0.0
 40
0.1287336634
 40
0.2703881089
 40
0.4176090879
 40
0.5620202926
 40
0.6957509801
 40
0.8130679054
 40
0.9124743731
 40
0.957122413
 40
1.0
 40
1.0
 40
1.0
 40
1.0
 10
-6.4169940393
 20
-93.5381268087
 30
0.0
 10
-6.4169940393
 20
-93.6022289024
 30
0.0
 10
-6.3990566434
 20
-93.7370200676
 30
0.0
 10
-6.3321301335
 20
-93.9349369763
 30
0.0
 10
-6.228954008
 20
-94.1256006151
 30
0.0
 10
-6.0979562658
 20
-94.2933576919
 30
0.0
 10
-5.9494458352
 20
-94.4247174721
 30
0.0
 10
-5.7949488125
 20
-94.5094671879
 30
0.0
 10
-5.6637956767
 20
-94.5350755974
 30
0.0
 10
-5.5708947066
 20
-94.5214578313
 30
0.0
 10
-5.5301361162
 20
-94.5045164684
 30
0.0
 10
-5.5116462344
 20
-94.4938406498
 30
0.0
  0
SPLINE
  5
3DB
100
AcDbEntity
  8
0
100
AcDbSpline
 62
7
  6
CONTINUOUS
 70
0
 71
3
 72
11
 73
7
 74
0
 42
0.0000001
 43
0.0000001
 44
0.0000000001
 40
0.0
 40
0.0
 40
0.0
 40
0.0
 40
0.2177670281
 40
0.4509437233
 40
0.7101916188
 40
1.0
 40
1.0
 40
1.0
 40
1.0
 10
11.1268278317
 20
-101.0636661739
 30
0.0
 10
11.077349951
 20
-101.0922340787
 30
0.0
 10
10.9636554485
 20
-101.1335281284
 30
0.0
 10
10.7748360975
 20
-101.1382520712
 30
0.0
 10
10.5735590592
 20
-101.0897074532
 30
0.0
 10
10.442638089
 20
-101.0273738375
 30
0.0
 10
10.3767920139
 20
-100.989355139
 30
0.0
  0
SPLINE
  5
3DC
100
AcDbEntity
  8
ASSI
100
AcDbSpline
 62
7
  6
CONTINUOUS
 70
0
 71
3
 72
11
 73
7
 74
0
 42
0.0000001
 43
0.0000001
 44
0.0000000001
 40
0.0
 40
0.0
 40
0.0
 40
0.0
 40
0.2177724472
 40
0.4509526051
 40
0.7101928552
 40
1.0
 40
1.0
 40
1.0
 40
1.0
 10
-6.2616816723
 20
-93.1948248576
 30
0.0
 10
-6.2864175213
 20
-93.2091070169
 30
0.0
 10
-6.3327148446
 20
-93.2480105351
 30
0.0
 10
-6.3819570525
 20
-93.3285790754
 30
0.0
 10
-6.4112543841
 20
-93.4278540161
 30
0.0
 10
-6.4169940393
 20
-93.5001158113
 30
0.0
 10
-6.4169940393
 20
-93.5381268087
 30
0.0
  0
SPLINE
  5
3DD
100
AcDbEntity
  8
ASSI
100
AcDbSpline
 62
7
  6
CONTINUOUS
 70
0
 71
3
 72
11
 73
7
 74
0
 42
0.0000001
 43
0.0000001
 44
0.0000000001
 40
0.0
 40
0.0
 40
0.0
 40
0.0
 40
0.2177724472
 40
0.4509526051
 40
0.7101928552
 40
1.0
 40
1.0
 40
1.0
 40
1.0
 10
12.8302014197
 20
-3.3841596935
 30
0.0
 10
12.8054655707
 20
-3.3984418528
 30
0.0
 10
12.7591682474
 20
-3.4373453711
 30
0.0
 10
12.7099260395
 20
-3.5179139113
 30
0.0
 10
12.6806287079
 20
-3.617188852
 30
0.0
 10
12.6748890528
 20
-3.6894506472
 30
0.0
 10
12.6748890528
 20
-3.7274616446
 30
0.0
  0
SPLINE
  5
3DE
100
AcDbEntity
  8
0
100
AcDbSpline
 62
7
  6
CONTINUOUS
 70
0
 71
3
 72
9
 73
5
 74
0
 42
0.0000001
 43
0.0000001
 44
0.0000000001
 40
0.0
 40
0.0
 40
0.0
 40
0.0
 40
0.2683783352
 40
1.0
 40
1.0
 40
1.0
 40
1.0
 10
-23.2107800924
 20
89.8624461705
 30
0.0
 10
-23.2107800924
 20
89.8962942282
 30
0.0
 10
-23.2062734185
 20
90.0222619368
 30
0.0
 10
-23.1824810183
 20
90.1483778923
 30
0.0
 10
-23.1504024373
 20
90.2348949494
 30
0.0
  0
SPLINE
  5
3DF
100
AcDbEntity
  8
CURVE
100
AcDbSpline
 62
250
  6
CONTINUOUS
 70
0
 71
3
 72
131
 73
127
 74
0
 42
0.0000001
 43
0.0000001
 44
0.0000000001
 40
0.0
 40
0.0
 40
0.0
 40
0.0
 40
0.015625
 40
0.03125
 40
0.046875
 40
0.0546875
 40
0.05859375
 40
0.0625
 40
0.06640625
 40
0.0703125
 40
0.078125
 40
0.09375
 40
0.109375
 40
0.1171875
 40
0.12109375
 40
0.125
 40
0.12890625
 40
0.1328125
 40
0.140625
 40
0.15625
 40
0.171875
 40
0.1796875
 40
0.18359375
 40
0.1875
 40
0.19140625
 40
0.1953125
 40
0.203125
 40
0.21875
 40
0.234375
 40
0.2421875
 40
0.24609375
 40
0.25
 40
0.25390625
 40
0.2578125
 40
0.265625
 40
0.28125
 40
0.296875
 40
0.3046875
 40
0.30859375
 40
0.3125
 40
0.31640625
 40
0.3203125
 40
0.328125
 40
0.34375
 40
0.359375
 40
0.3671875
 40
0.37109375
 40
0.375
 40
0.37890625
 40
0.3828125
 40
0.390625
 40
0.40625
 40
0.421875
 40
0.4296875
 40
0.43359375
 40
0.4375
 40
0.44140625
 40
0.4453125
 40
0.453125
 40
0.46875
 40
0.484375
 40
0.4921875
 40
0.49609375
 40
0.5
 40
0.50390625
 40
0.5078125
 40
0.515625
 40
0.53125
 40
0.546875
 40
0.5546875
 40
0.55859375
 40
0.5625
 40
0.56640625
 40
0.5703125
 40
0.578125
 40
0.59375
 40
0.609375
 40
0.6171875
 40
0.62109375
 40
0.625
 40
0.62890625
 40
0.6328125
 40
0.640625
 40
0.65625
 40
0.671875
 40
0.6796875
 40
0.68359375
 40
0.6875
 40
0.69140625
 40
0.6953125
 40
0.703125
 40
0.71875
 40
0.734375
 40
0.7421875
 40
0.74609375
 40
0.75
 40
0.75390625
 40
0.7578125
 40
0.765625
 40
0.78125
 40
0.796875
 40
0.8046875
 40
0.80859375
 40
0.8125
 40
0.81640625
 40
0.8203125
 40
0.828125
 40
0.84375
 40
0.859375
 40
0.8671875
 40
0.87109375
 40
0.875
 40
0.87890625
 40
0.8828125
 40
0.890625
 40
0.90625
 40
0.921875
 40
0.9296875
 40
0.93359375
 40
0.9375
 40
0.94140625
 40
0.9453125
 40
0.953125
 40
0.96875
 40
0.984375
 40
1.0
 40
1.0
 40
1.0
 40
1.0
 10
-26.2159839125
 20
35.0570465243
 30
0.0
 10
-26.2173866978
 20
35.0743759098
 30
0.0
 10
-26.220198481
 20
35.1090368474
 30
0.0
 10
-26.22437888
 20
35.1610152539
 30
0.0
 10
-26.2279712669
 20
35.2043685093
 30
0.0
 10
-26.2302739318
 20
35.2346418505
 30
0.0
 10
-26.2319205627
 20
35.2520562779
 30
0.0
 10
-26.2322236418
 20
35.2647920974
 30
0.0
 10
-26.2360888859
 20
35.2787702333
 30
0.0
 10
-26.2399996906
 20
35.296974378
 30
0.0
 10
-26.2474259897
 20
35.3290339064
 30
0.0
 10
-26.2577037687
 20
35.3747245825
 30
0.0
 10
-26.2681971106
 20
35.4204645732
 30
0.0
 10
-26.2753216218
 20
35.4524550611
 30
0.0
 10
-26.2797066647
 20
35.470767698
 30
0.0
 10
-26.2821168596
 20
35.4844129603
 30
0.0
 10
-26.2878844567
 20
35.4983989048
 30
0.0
 10
-26.2944031656
 20
35.516928012
 30
0.0
 10
-26.3063599155
 20
35.5494091586
 30
0.0
 10
-26.3231280196
 20
35.5957831477
 30
0.0
 10
-26.3401022599
 20
35.6421625726
 30
0.0
 10
-26.3517704193
 20
35.6746361091
 30
0.0
 10
-26.3587426275
 20
35.6931771752
 30
0.0
 10
-26.363118806
 20
35.7071264278
 30
0.0
 10
-26.370754551
 20
35.7209094885
 30
0.0
 10
-26.3797983341
 20
35.7393450559
 30
0.0
 10
-26.3961571791
 20
35.7715783641
 30
0.0
 10
-26.4192295709
 20
35.8176558845
 30
0.0
 10
-26.4424777484
 20
35.8636687696
 30
0.0
 10
-26.4585904935
 20
35.8959925672
 30
0.0
 10
-26.468021005
 20
35.914285937
 30
0.0
 10
-26.4744701969
 20
35.9285052856
 30
0.0
 10
-26.4833025413
 20
35.9408160348
 30
0.0
 10
-26.4942475305
 20
35.9578963351
 30
0.0
 10
-26.513790664
 20
35.9874742946
 30
0.0
 10
-26.5414897029
 20
36.0299102805
 30
0.0
 10
-26.5693259157
 20
36.0722145977
 30
0.0
 10
-26.5886770058
 20
36.1019768933
 30
0.0
 10
-26.5999237775
 20
36.1187675225
 30
0.0
 10
-26.6078301983
 20
36.1319670353
 30
0.0
 10
-26.6177567478
 20
36.1428485827
 30
0.0
 10
-26.6302873645
 20
36.1581661448
 30
0.0
 10
-26.6525457101
 20
36.1845920198
 30
0.0
 10
-26.6841597134
 20
36.2225660805
 30
0.0
 10
-26.7158801237
 20
36.2603724383
 30
0.0
 10
-26.7379894994
 20
36.2870330973
 30
0.0
 10
-26.7507542117
 20
36.3019817131
 30
0.0
 10
-26.7599625136
 20
36.3139952549
 30
0.0
 10
-26.7705663529
 20
36.3229434999
 30
0.0
 10
-26.7842179219
 20
36.3359440469
 30
0.0
 10
-26.8083360624
 20
36.35819323
 30
0.0
 10
-26.8426629771
 20
36.3902678729
 30
0.0
 10
-26.8770660937
 20
36.4221378934
 30
0.0
 10
-26.9010775516
 20
36.4446735478
 30
0.0
 10
-26.9148967648
 20
36.4572239255
 30
0.0
 10
-26.924986241
 20
36.4675533716
 30
0.0
 10
-26.936126262
 20
36.4743797364
 30
0.0
 10
-26.9506132102
 20
36.4847039064
 30
0.0
 10
-26.9761358017
 20
36.5021973102
 30
0.0
 10
-27.0125098481
 20
36.5275231623
 30
0.0
 10
-27.048906456
 20
36.5526010445
 30
0.0
 10
-27.0743974614
 20
36.5704416061
 30
0.0
 10
-27.0889340448
 20
36.5802202425
 30
0.0
 10
-27.0999217758
 20
36.5887204038
 30
0.0
 10
-27.1105831857
 20
36.5927638139
 30
0.0
 10
-27.1249122918
 20
36.5997100371
 30
0.0
 10
-27.1499344757
 20
36.6111369556
 30
0.0
 10
-27.1857140836
 20
36.6278781704
 30
0.0
 10
-27.2214615523
 20
36.6443397215
 30
0.0
 10
-27.2465287312
 20
36.6561581691
 30
0.0
 10
-27.2607871309
 20
36.6624891323
 30
0.0
 10
-27.2716654808
 20
36.6684202719
 30
0.0
 10
-27.2818384813
 20
36.6698309603
 30
0.0
 10
-27.2956486501
 20
36.6732891221
 30
0.0
 10
-27.3197004019
 20
36.6786014229
 30
0.0
 10
-27.3541315769
 20
36.6866141794
 30
0.0
 10
-27.3884976689
 20
36.6943404525
 30
0.0
 10
-27.4126405369
 20
36.7000538301
 30
0.0
 10
-27.4263075231
 20
36.7028817284
 30
0.0
 10
-27.4369198338
 20
36.7062261798
 30
0.0
 10
-27.4461483299
 20
36.7048949648
 30
0.0
 10
-27.458935855
 20
36.7047514074
 30
0.0
 10
-27.4810873066
 20
36.7037353573
 30
0.0
 10
-27.5128647907
 20
36.7027217631
 30
0.0
 10
-27.5445439046
 20
36.7014133535
 30
0.0
 10
-27.5668330746
 20
36.7008100451
 30
0.0
 10
-27.5794041851
 20
36.7000178935
 30
0.0
 10
-27.5892966807
 20
36.7006766835
 30
0.0
 10
-27.5974153045
 20
36.6965475604
 30
0.0
 10
-27.60885916
 20
36.6927125744
 30
0.0
 10
-27.62859471
 20
36.6852186751
 30
0.0
 10
-27.656962988
 20
36.6749573182
 30
0.0
 10
-27.685187387
 20
36.6644099142
 30
0.0
 10
-27.7051243675
 20
36.6573164809
 30
0.0
 10
-27.7162516894
 20
36.6528521912
 30
0.0
 10
-27.7253414957
 20
36.650653886
 30
0.0
 10
-27.7315866617
 20
36.6440613822
 30
0.0
 10
-27.7409060888
 20
36.6368045249
 30
0.0
 10
-27.7567496671
 20
36.6233866687
 30
0.0
 10
-27.7796506349
 20
36.6046263357
 30
0.0
 10
-27.8023689771
 20
36.5856021673
 30
0.0
 10
-27.8184682313
 20
36.5725536807
 30
0.0
 10
-27.8273858819
 20
36.5647163855
 30
0.0
 10
-27.8348637712
 20
36.5599047707
 30
0.0
 10
-27.8393240169
 20
36.5510182379
 30
0.0
 10
-27.8463239282
 20
36.5405912552
 30
0.0
 10
-27.8580798961
 20
36.5216781081
 30
0.0
 10
-27.8751589275
 20
36.4950357962
 30
0.0
 10
-27.8920395107
 20
36.4681560385
 30
0.0
 10
-27.9040733062
 20
36.4495753156
 30
0.0
 10
-27.9106366313
 20
36.438625952
 30
0.0
 10
-27.9164364029
 20
36.4313421788
 30
0.0
 10
-27.9188836281
 20
36.4205113115
 30
0.0
 10
-27.9233163506
 20
36.4073077437
 30
0.0
 10
-27.9305250934
 20
36.3836216487
 30
0.0
 10
-27.9411383272
 20
36.3501135671
 30
0.0
 10
-27.9515362448
 20
36.3163931765
 30
0.0
 10
-27.9590464302
 20
36.2930043141
 30
0.0
 10
-27.9630054573
 20
36.2793336666
 30
0.0
 10
-27.9669060661
 20
36.2699358846
 30
0.0
 10
-27.9672475746
 20
36.25727008
 30
0.0
 10
-27.9689443756
 20
36.2415222657
 30
0.0
 10
-27.9713353364
 20
36.2134324567
 30
0.0
 10
-27.9750535996
 20
36.1735820149
 30
0.0
 10
-27.9793851625
 20
36.1256417927
 30
0.0
 10
-27.9822977002
 20
36.093704443
 30
0.0
 10
-27.9837508655
 20
36.0777329184
 30
0.0
  0
SPLINE
  5
3E0
100
AcDbEntity
  8
CURVE
100
AcDbSpline
 62
250
  6
CONTINUOUS
 70
0
 71
3
 72
131
 73
127
 74
0
 42
0.0000001
 43
0.0000001
 44
0.0000000001
 40
0.0
 40
0.0
 40
0.0
 40
0.0
 40
0.015625
 40
0.03125
 40
0.046875
 40
0.0546875
 40
0.05859375
 40
0.0625
 40
0.06640625
 40
0.0703125
 40
0.078125
 40
0.09375
 40
0.109375
 40
0.1171875
 40
0.12109375
 40
0.125
 40
0.12890625
 40
0.1328125
 40
0.140625
 40
0.15625
 40
0.171875
 40
0.1796875
 40
0.18359375
 40
0.1875
 40
0.19140625
 40
0.1953125
 40
0.203125
 40
0.21875
 40
0.234375
 40
0.2421875
 40
0.24609375
 40
0.25
 40
0.25390625
 40
0.2578125
 40
0.265625
 40
0.28125
 40
0.296875
 40
0.3046875
 40
0.30859375
 40
0.3125
 40
0.31640625
 40
0.3203125
 40
0.328125
 40
0.34375
 40
0.359375
 40
0.3671875
 40
0.37109375
 40
0.375
 40
0.37890625
 40
0.3828125
 40
0.390625
 40
0.40625
 40
0.421875
 40
0.4296875
 40
0.43359375
 40
0.4375
 40
0.44140625
 40
0.4453125
 40
0.453125
 40
0.46875
 40
0.484375
 40
0.4921875
 40
0.49609375
 40
0.5
 40
0.50390625
 40
0.5078125
 40
0.515625
 40
0.53125
 40
0.546875
 40
0.5546875
 40
0.55859375
 40
0.5625
 40
0.56640625
 40
0.5703125
 40
0.578125
 40
0.59375
 40
0.609375
 40
0.6171875
 40
0.62109375
 40
0.625
 40
0.62890625
 40
0.6328125
 40
0.640625
 40
0.65625
 40
0.671875
 40
0.6796875
 40
0.68359375
 40
0.6875
 40
0.69140625
 40
0.6953125
 40
0.703125
 40
0.71875
 40
0.734375
 40
0.7421875
 40
0.74609375
 40
0.75
 40
0.75390625
 40
0.7578125
 40
0.765625
 40
0.78125
 40
0.796875
 40
0.8046875
 40
0.80859375
 40
0.8125
 40
0.81640625
 40
0.8203125
 40
0.828125
 40
0.84375
 40
0.859375
 40
0.8671875
 40
0.87109375
 40
0.875
 40
0.87890625
 40
0.8828125
 40
0.890625
 40
0.90625
 40
0.921875
 40
0.9296875
 40
0.93359375
 40
0.9375
 40
0.94140625
 40
0.9453125
 40
0.953125
 40
0.96875
 40
0.984375
 40
1.0
 40
1.0
 40
1.0
 40
1.0
 10
-27.9837508655
 20
36.0777330076
 30
0.0
 10
-27.9823480802
 20
36.0604036221
 30
0.0
 10
-27.979536297
 20
36.0257426844
 30
0.0
 10
-27.9753558979
 20
35.973764278
 30
0.0
 10
-27.9717635111
 20
35.9304110225
 30
0.0
 10
-27.9694608462
 20
35.9001376814
 30
0.0
 10
-27.9678142153
 20
35.882723254
 30
0.0
 10
-27.9675111361
 20
35.8699874344
 30
0.0
 10
-27.963645892
 20
35.8560092986
 30
0.0
 10
-27.9597350874
 20
35.8378051539
 30
0.0
 10
-27.9523087882
 20
35.8057456255
 30
0.0
 10
-27.9420310092
 20
35.7600549494
 30
0.0
 10
-27.9315376674
 20
35.7143149587
 30
0.0
 10
-27.9244131562
 20
35.6823244707
 30
0.0
 10
-27.9200281133
 20
35.6640118339
 30
0.0
 10
-27.9176179184
 20
35.6503665716
 30
0.0
 10
-27.9118503212
 20
35.6363806271
 30
0.0
 10
-27.9053316124
 20
35.6178515198
 30
0.0
 10
-27.8933748625
 20
35.5853703732
 30
0.0
 10
-27.8766067583
 20
35.5389963841
 30
0.0
 10
-27.859632518
 20
35.4926169592
 30
0.0
 10
-27.8479643587
 20
35.4601434228
 30
0.0
 10
-27.8409921504
 20
35.4416023567
 30
0.0
 10
-27.8366159719
 20
35.4276531041
 30
0.0
 10
-27.828980227
 20
35.4138700433
 30
0.0
 10
-27.8199364439
 20
35.395434476
 30
0.0
 10
-27.8035775989
 20
35.3632011678
 30
0.0
 10
-27.780505207
 20
35.3171236474
 30
0.0
 10
-27.7572570295
 20
35.2711107623
 30
0.0
 10
-27.7411442845
 20
35.2387869647
 30
0.0
 10
-27.731713773
 20
35.2204935949
 30
0.0
 10
-27.7252645811
 20
35.2062742462
 30
0.0
 10
-27.7164322366
 20
35.193963497
 30
0.0
 10
-27.7054872475
 20
35.1768831967
 30
0.0
 10
-27.685944114
 20
35.1473052373
 30
0.0
 10
-27.658245075
 20
35.1048692514
 30
0.0
 10
-27.6304088622
 20
35.0625649342
 30
0.0
 10
-27.6110577721
 20
35.0328026386
 30
0.0
 10
-27.5998110005
 20
35.0160120094
 30
0.0
 10
-27.5919045797
 20
35.0028124965
 30
0.0
 10
-27.5819780302
 20
34.9919309491
 30
0.0
 10
-27.5694474134
 20
34.976613387
 30
0.0
 10
-27.5471890678
 20
34.9501875121
 30
0.0
 10
-27.5155750646
 20
34.9122134514
 30
0.0
 10
-27.4838546543
 20
34.8744070935
 30
0.0
 10
-27.4617452785
 20
34.8477464345
 30
0.0
 10
-27.4489805663
 20
34.8327978188
 30
0.0
 10
-27.4397722643
 20
34.820784277
 30
0.0
 10
-27.4291684251
 20
34.8118360319
 30
0.0
 10
-27.4155168561
 20
34.7988354849
 30
0.0
 10
-27.3913987155
 20
34.7765863019
 30
0.0
 10
-27.3570718008
 20
34.744511659
 30
0.0
 10
-27.3226686842
 20
34.7126416385
 30
0.0
 10
-27.2986572264
 20
34.6901059841
 30
0.0
 10
-27.2848380131
 20
34.6775556063
 30
0.0
 10
-27.2747485369
 20
34.6672261603
 30
0.0
 10
-27.2636085159
 20
34.6603997955
 30
0.0
 10
-27.2491215678
 20
34.6500756255
 30
0.0
 10
-27.2235989763
 20
34.6325822217
 30
0.0
 10
-27.1872249299
 20
34.6072563696
 30
0.0
 10
-27.150828322
 20
34.5821784874
 30
0.0
 10
-27.1253373165
 20
34.5643379257
 30
0.0
 10
-27.1108007331
 20
34.5545592894
 30
0.0
 10
-27.0998130021
 20
34.5460591281
 30
0.0
 10
-27.0891515922
 20
34.5420157179
 30
0.0
 10
-27.0748224861
 20
34.5350694948
 30
0.0
 10
-27.0498003022
 20
34.5236425762
 30
0.0
 10
-27.0140206943
 20
34.5069013615
 30
0.0
 10
-26.9782732257
 20
34.4904398104
 30
0.0
 10
-26.9532060468
 20
34.4786213627
 30
0.0
 10
-26.9389476471
 20
34.4722903996
 30
0.0
 10
-26.9280692971
 20
34.4663592599
 30
0.0
 10
-26.9178962967
 20
34.4649485716
 30
0.0
 10
-26.9040861278
 20
34.4614904097
 30
0.0
 10
-26.8800343761
 20
34.4561781089
 30
0.0
 10
-26.8456032011
 20
34.4481653525
 30
0.0
 10
-26.811237109
 20
34.4404390794
 30
0.0
 10
-26.7870942411
 20
34.4347257018
 30
0.0
 10
-26.7734272548
 20
34.4318978035
 30
0.0
 10
-26.7628149442
 20
34.4285533521
 30
0.0
 10
-26.7535864481
 20
34.429884567
 30
0.0
 10
-26.7407989229
 20
34.4300281244
 30
0.0
 10
-26.7186474713
 20
34.4310441746
 30
0.0
 10
-26.6868699872
 20
34.4320577687
 30
0.0
 10
-26.6551908734
 20
34.4333661784
 30
0.0
 10
-26.6329017034
 20
34.4339694868
 30
0.0
 10
-26.6203305929
 20
34.4347616384
 30
0.0
 10
-26.6104380973
 20
34.4341028483
 30
0.0
 10
-26.6023194734
 20
34.4382319714
 30
0.0
 10
-26.590875618
 20
34.4420669575
 30
0.0
 10
-26.5711400679
 20
34.4495608568
 30
0.0
 10
-26.54277179
 20
34.4598222137
 30
0.0
 10
-26.514547391
 20
34.4703696176
 30
0.0
 10
-26.4946104104
 20
34.477463051
 30
0.0
 10
-26.4834830886
 20
34.4819273407
 30
0.0
 10
-26.4743932823
 20
34.4841256459
 30
0.0
 10
-26.4681481163
 20
34.4907181496
 30
0.0
 10
-26.4588286892
 20
34.4979750069
 30
0.0
 10
-26.4429851109
 20
34.5113928632
 30
0.0
 10
-26.420084143
 20
34.5301531962
 30
0.0
 10
-26.3973658009
 20
34.5491773645
 30
0.0
 10
-26.3812665466
 20
34.5622258512
 30
0.0
 10
-26.372348896
 20
34.5700631464
 30
0.0
 10
-26.3648710068
 20
34.5748747611
 30
0.0
 10
-26.3604107611
 20
34.5837612939
 30
0.0
 10
-26.3534108498
 20
34.5941882767
 30
0.0
 10
-26.3416548818
 20
34.6131014238
 30
0.0
 10
-26.3245758504
 20
34.6397437356
 30
0.0
 10
-26.3076952673
 20
34.6666234933
 30
0.0
 10
-26.2956614717
 20
34.6852042162
 30
0.0
 10
-26.2890981466
 20
34.6961535798
 30
0.0
 10
-26.283298375
 20
34.7034373531
 30
0.0
 10
-26.2808511499
 20
34.7142682204
 30
0.0
 10
-26.2764184274
 20
34.7274717882
 30
0.0
 10
-26.2692096846
 20
34.7511578832
 30
0.0
 10
-26.2585964508
 20
34.7846659648
 30
0.0
 10
-26.2481985331
 20
34.8183863553
 30
0.0
 10
-26.2406883478
 20
34.8417752178
 30
0.0
 10
-26.2367293207
 20
34.8554458652
 30
0.0
 10
-26.2328287119
 20
34.8648436473
 30
0.0
 10
-26.2324872034
 20
34.8775094518
 30
0.0
 10
-26.2307904023
 20
34.8932572662
 30
0.0
 10
-26.2283994416
 20
34.9213470751
 30
0.0
 10
-26.2246811784
 20
34.9611975169
 30
0.0
 10
-26.2203496155
 20
35.0091377392
 30
0.0
 10
-26.2174370777
 20
35.0410750888
 30
0.0
 10
-26.2159839125
 20
35.0570466135
 30
0.0
  0
SPLINE
  5
3E1
100
AcDbEntity
  8
CURVE
100
AcDbSpline
 62
250
  6
CONTINUOUS
 70
0
 71
3
 72
131
 73
127
 74
0
 42
0.0000001
 43
0.0000001
 44
0.0000000001
 40
0.0
 40
0.0
 40
0.0
 40
0.0
 40
0.015625
 40
0.03125
 40
0.046875
 40
0.0546875
 40
0.05859375
 40
0.0625
 40
0.06640625
 40
0.0703125
 40
0.078125
 40
0.09375
 40
0.109375
 40
0.1171875
 40
0.12109375
 40
0.125
 40
0.12890625
 40
0.1328125
 40
0.140625
 40
0.15625
 40
0.171875
 40
0.1796875
 40
0.18359375
 40
0.1875
 40
0.19140625
 40
0.1953125
 40
0.203125
 40
0.21875
 40
0.234375
 40
0.2421875
 40
0.24609375
 40
0.25
 40
0.25390625
 40
0.2578125
 40
0.265625
 40
0.28125
 40
0.296875
 40
0.3046875
 40
0.30859375
 40
0.3125
 40
0.31640625
 40
0.3203125
 40
0.328125
 40
0.34375
 40
0.359375
 40
0.3671875
 40
0.37109375
 40
0.375
 40
0.37890625
 40
0.3828125
 40
0.390625
 40
0.40625
 40
0.421875
 40
0.4296875
 40
0.43359375
 40
0.4375
 40
0.44140625
 40
0.4453125
 40
0.453125
 40
0.46875
 40
0.484375
 40
0.4921875
 40
0.49609375
 40
0.5
 40
0.50390625
 40
0.5078125
 40
0.515625
 40
0.53125
 40
0.546875
 40
0.5546875
 40
0.55859375
 40
0.5625
 40
0.56640625
 40
0.5703125
 40
0.578125
 40
0.59375
 40
0.609375
 40
0.6171875
 40
0.62109375
 40
0.625
 40
0.62890625
 40
0.6328125
 40
0.640625
 40
0.65625
 40
0.671875
 40
0.6796875
 40
0.68359375
 40
0.6875
 40
0.69140625
 40
0.6953125
 40
0.703125
 40
0.71875
 40
0.734375
 40
0.7421875
 40
0.74609375
 40
0.75
 40
0.75390625
 40
0.7578125
 40
0.765625
 40
0.78125
 40
0.796875
 40
0.8046875
 40
0.80859375
 40
0.8125
 40
0.81640625
 40
0.8203125
 40
0.828125
 40
0.84375
 40
0.859375
 40
0.8671875
 40
0.87109375
 40
0.875
 40
0.87890625
 40
0.8828125
 40
0.890625
 40
0.90625
 40
0.921875
 40
0.9296875
 40
0.93359375
 40
0.9375
 40
0.94140625
 40
0.9453125
 40
0.953125
 40
0.96875
 40
0.984375
 40
1.0
 40
1.0
 40
1.0
 40
1.0
 10
-17.3771491477
 20
-87.6181057505
 30
0.0
 10
-17.378551933
 20
-87.600776365
 30
0.0
 10
-17.3813637162
 20
-87.5661154273
 30
0.0
 10
-17.3855441152
 20
-87.5141370209
 30
0.0
 10
-17.3891365021
 20
-87.4707837654
 30
0.0
 10
-17.391439167
 20
-87.4405104243
 30
0.0
 10
-17.3930857979
 20
-87.4230959969
 30
0.0
 10
-17.393388877
 20
-87.4103601773
 30
0.0
 10
-17.3972541211
 20
-87.3963820415
 30
0.0
 10
-17.4011649257
 20
-87.3781778968
 30
0.0
 10
-17.4085912249
 20
-87.3461183684
 30
0.0
 10
-17.4188690039
 20
-87.3004276923
 30
0.0
 10
-17.4293623458
 20
-87.2546877016
 30
0.0
 10
-17.4364868569
 20
-87.2226972136
 30
0.0
 10
-17.4408718998
 20
-87.2043845768
 30
0.0
 10
-17.4432820947
 20
-87.1907393145
 30
0.0
 10
-17.4490496919
 20
-87.17675337
 30
0.0
 10
-17.4555684008
 20
-87.1582242627
 30
0.0
 10
-17.4675251506
 20
-87.1257431161
 30
0.0
 10
-17.4842932548
 20
-87.079369127
 30
0.0
 10
-17.5012674951
 20
-87.0329897021
 30
0.0
 10
-17.5129356544
 20
-87.0005161657
 30
0.0
 10
-17.5199078627
 20
-86.9819750996
 30
0.0
 10
-17.5242840412
 20
-86.968025847
 30
0.0
 10
-17.5319197862
 20
-86.9542427862
 30
0.0
 10
-17.5409635692
 20
-86.9358072189
 30
0.0
 10
-17.5573224142
 20
-86.9035739107
 30
0.0
 10
-17.5803948061
 20
-86.8574963903
 30
0.0
 10
-17.6036429836
 20
-86.8114835052
 30
0.0
 10
-17.6197557287
 20
-86.7791597076
 30
0.0
 10
-17.6291862401
 20
-86.7608663378
 30
0.0
 10
-17.6356354321
 20
-86.7466469891
 30
0.0
 10
-17.6444677765
 20
-86.7343362399
 30
0.0
 10
-17.6554127656
 20
-86.7172559396
 30
0.0
 10
-17.6749558992
 20
-86.6876779802
 30
0.0
 10
-17.7026549381
 20
-86.6452419943
 30
0.0
 10
-17.7304911509
 20
-86.6029376771
 30
0.0
 10
-17.749842241
 20
-86.5731753815
 30
0.0
 10
-17.7610890126
 20
-86.5563847523
 30
0.0
 10
-17.7689954335
 20
-86.5431852395
 30
0.0
 10
-17.7789219829
 20
-86.532303692
 30
0.0
 10
-17.7914525997
 20
-86.51698613
 30
0.0
 10
-17.8137109453
 20
-86.490560255
 30
0.0
 10
-17.8453249486
 20
-86.4525861943
 30
0.0
 10
-17.8770453588
 20
-86.4147798364
 30
0.0
 10
-17.8991547346
 20
-86.3881191774
 30
0.0
 10
-17.9119194468
 20
-86.3731705617
 30
0.0
 10
-17.9211277488
 20
-86.3611570199
 30
0.0
 10
-17.9317315881
 20
-86.3522087748
 30
0.0
 10
-17.945383157
 20
-86.3392082278
 30
0.0
 10
-17.9695012976
 20
-86.3169590448
 30
0.0
 10
-18.0038282123
 20
-86.2848844019
 30
0.0
 10
-18.0382313289
 20
-86.2530143814
 30
0.0
 10
-18.0622427867
 20
-86.230478727
 30
0.0
 10
-18.076062
 20
-86.2179283492
 30
0.0
 10
-18.0861514762
 20
-86.2075989032
 30
0.0
 10
-18.0972914972
 20
-86.2007725384
 30
0.0
 10
-18.1117784453
 20
-86.1904483684
 30
0.0
 10
-18.1373010368
 20
-86.1729549646
 30
0.0
 10
-18.1736750833
 20
-86.1476291125
 30
0.0
 10
-18.2100716912
 20
-86.1225512303
 30
0.0
 10
-18.2355626966
 20
-86.1047106686
 30
0.0
 10
-18.25009928
 20
-86.0949320323
 30
0.0
 10
-18.261087011
 20
-86.086431871
 30
0.0
 10
-18.2717484209
 20
-86.0823884608
 30
0.0
 10
-18.286077527
 20
-86.0754422377
 30
0.0
 10
-18.3110997109
 20
-86.0640153191
 30
0.0
 10
-18.3468793188
 20
-86.0472741044
 30
0.0
 10
-18.3826267874
 20
-86.0308125533
 30
0.0
 10
-18.4076939663
 20
-86.0189941057
 30
0.0
 10
-18.421952366
 20
-86.0126631425
 30
0.0
 10
-18.432830716
 20
-86.0067320028
 30
0.0
 10
-18.4430037164
 20
-86.0053213145
 30
0.0
 10
-18.4568138853
 20
-86.0018631526
 30
0.0
 10
-18.480865637
 20
-85.9965508518
 30
0.0
 10
-18.5152968121
 20
-85.9885380954
 30
0.0
 10
-18.5496629041
 20
-85.9808118223
 30
0.0
 10
-18.573805772
 20
-85.9750984447
 30
0.0
 10
-18.5874727583
 20
-85.9722705464
 30
0.0
 10
-18.5980850689
 20
-85.968926095
 30
0.0
 10
-18.6073135651
 20
-85.9702573099
 30
0.0
 10
-18.6201010902
 20
-85.9704008673
 30
0.0
 10
-18.6422525418
 20
-85.9714169175
 30
0.0
 10
-18.6740300259
 20
-85.9724305116
 30
0.0
 10
-18.7057091397
 20
-85.9737389213
 30
0.0
 10
-18.7279983098
 20
-85.9743422297
 30
0.0
 10
-18.7405694203
 20
-85.9751343813
 30
0.0
 10
-18.7504619158
 20
-85.9744755912
 30
0.0
 10
-18.7585805397
 20
-85.9786047143
 30
0.0
 10
-18.7700243951
 20
-85.9824397004
 30
0.0
 10
-18.7897599452
 20
-85.9899335997
 30
0.0
 10
-18.8181282231
 20
-86.0001949566
 30
0.0
 10
-18.8463526221
 20
-86.0107423606
 30
0.0
 10
-18.8662896027
 20
-86.0178357939
 30
0.0
 10
-18.8774169246
 20
-86.0223000836
 30
0.0
 10
-18.8865067309
 20
-86.0244983888
 30
0.0
 10
-18.8927518969
 20
-86.0310908926
 30
0.0
 10
-18.9020713239
 20
-86.0383477499
 30
0.0
 10
-18.9179149022
 20
-86.0517656061
 30
0.0
 10
-18.9408158701
 20
-86.0705259391
 30
0.0
 10
-18.9635342123
 20
-86.0895501074
 30
0.0
 10
-18.9796334665
 20
-86.1025985941
 30
0.0
 10
-18.9885511171
 20
-86.1104358893
 30
0.0
 10
-18.9960290063
 20
-86.1152475041
 30
0.0
 10
-19.000489252
 20
-86.1241340368
 30
0.0
 10
-19.0074891634
 20
-86.1345610196
 30
0.0
 10
-19.0192451313
 20
-86.1534741667
 30
0.0
 10
-19.0363241627
 20
-86.1801164785
 30
0.0
 10
-19.0532047459
 20
-86.2069962362
 30
0.0
 10
-19.0652385414
 20
-86.2255769591
 30
0.0
 10
-19.0718018665
 20
-86.2365263227
 30
0.0
 10
-19.0776016381
 20
-86.243810096
 30
0.0
 10
-19.0800488633
 20
-86.2546409633
 30
0.0
 10
-19.0844815858
 20
-86.2678445311
 30
0.0
 10
-19.0916903286
 20
-86.2915306261
 30
0.0
 10
-19.1023035623
 20
-86.3250387077
 30
0.0
 10
-19.11270148
 20
-86.3587590982
 30
0.0
 10
-19.1202116654
 20
-86.3821479607
 30
0.0
 10
-19.1241706924
 20
-86.3958186081
 30
0.0
 10
-19.1280713013
 20
-86.4052163902
 30
0.0
 10
-19.1284128097
 20
-86.4178821947
 30
0.0
 10
-19.1301096108
 20
-86.4336300091
 30
0.0
 10
-19.1325005715
 20
-86.461719818
 30
0.0
 10
-19.1362188347
 20
-86.5015702598
 30
0.0
 10
-19.1405503977
 20
-86.5495104821
 30
0.0
 10
-19.1434629354
 20
-86.5814478317
 30
0.0
 10
-19.1449161006
 20
-86.5974193564
 30
0.0
  0
SPLINE
  5
3E2
100
AcDbEntity
  8
CURVE
100
AcDbSpline
 62
250
  6
CONTINUOUS
 70
0
 71
3
 72
131
 73
127
 74
0
 42
0.0000001
 43
0.0000001
 44
0.0000000001
 40
0.0
 40
0.0
 40
0.0
 40
0.0
 40
0.015625
 40
0.03125
 40
0.046875
 40
0.0546875
 40
0.05859375
 40
0.0625
 40
0.06640625
 40
0.0703125
 40
0.078125
 40
0.09375
 40
0.109375
 40
0.1171875
 40
0.12109375
 40
0.125
 40
0.12890625
 40
0.1328125
 40
0.140625
 40
0.15625
 40
0.171875
 40
0.1796875
 40
0.18359375
 40
0.1875
 40
0.19140625
 40
0.1953125
 40
0.203125
 40
0.21875
 40
0.234375
 40
0.2421875
 40
0.24609375
 40
0.25
 40
0.25390625
 40
0.2578125
 40
0.265625
 40
0.28125
 40
0.296875
 40
0.3046875
 40
0.30859375
 40
0.3125
 40
0.31640625
 40
0.3203125
 40
0.328125
 40
0.34375
 40
0.359375
 40
0.3671875
 40
0.37109375
 40
0.375
 40
0.37890625
 40
0.3828125
 40
0.390625
 40
0.40625
 40
0.421875
 40
0.4296875
 40
0.43359375
 40
0.4375
 40
0.44140625
 40
0.4453125
 40
0.453125
 40
0.46875
 40
0.484375
 40
0.4921875
 40
0.49609375
 40
0.5
 40
0.50390625
 40
0.5078125
 40
0.515625
 40
0.53125
 40
0.546875
 40
0.5546875
 40
0.55859375
 40
0.5625
 40
0.56640625
 40
0.5703125
 40
0.578125
 40
0.59375
 40
0.609375
 40
0.6171875
 40
0.62109375
 40
0.625
 40
0.62890625
 40
0.6328125
 40
0.640625
 40
0.65625
 40
0.671875
 40
0.6796875
 40
0.68359375
 40
0.6875
 40
0.69140625
 40
0.6953125
 40
0.703125
 40
0.71875
 40
0.734375
 40
0.7421875
 40
0.74609375
 40
0.75
 40
0.75390625
 40
0.7578125
 40
0.765625
 40
0.78125
 40
0.796875
 40
0.8046875
 40
0.80859375
 40
0.8125
 40
0.81640625
 40
0.8203125
 40
0.828125
 40
0.84375
 40
0.859375
 40
0.8671875
 40
0.87109375
 40
0.875
 40
0.87890625
 40
0.8828125
 40
0.890625
 40
0.90625
 40
0.921875
 40
0.9296875
 40
0.93359375
 40
0.9375
 40
0.94140625
 40
0.9453125
 40
0.953125
 40
0.96875
 40
0.984375
 40
1.0
 40
1.0
 40
1.0
 40
1.0
 10
-19.1449161006
 20
-86.5974192672
 30
0.0
 10
-19.1435133153
 20
-86.6147486527
 30
0.0
 10
-19.1407015321
 20
-86.6494095903
 30
0.0
 10
-19.1365211331
 20
-86.7013879968
 30
0.0
 10
-19.1329287462
 20
-86.7447412522
 30
0.0
 10
-19.1306260813
 20
-86.7750145934
 30
0.0
 10
-19.1289794504
 20
-86.7924290208
 30
0.0
 10
-19.1286763713
 20
-86.8051648404
 30
0.0
 10
-19.1248111272
 20
-86.8191429762
 30
0.0
 10
-19.1209003225
 20
-86.8373471209
 30
0.0
 10
-19.1134740234
 20
-86.8694066493
 30
0.0
 10
-19.1031962444
 20
-86.9150973254
 30
0.0
 10
-19.0927029025
 20
-86.9608373161
 30
0.0
 10
-19.0855783914
 20
-86.992827804
 30
0.0
 10
-19.0811933485
 20
-87.0111404409
 30
0.0
 10
-19.0787831535
 20
-87.0247857032
 30
0.0
 10
-19.0730155564
 20
-87.0387716477
 30
0.0
 10
-19.0664968475
 20
-87.0573007549
 30
0.0
 10
-19.0545400977
 20
-87.0897819015
 30
0.0
 10
-19.0377719935
 20
-87.1361558906
 30
0.0
 10
-19.0207977532
 20
-87.1825353156
 30
0.0
 10
-19.0091295939
 20
-87.215008852
 30
0.0
 10
-19.0021573856
 20
-87.2335499181
 30
0.0
 10
-18.9977812071
 20
-87.2474991707
 30
0.0
 10
-18.9901454621
 20
-87.2612822315
 30
0.0
 10
-18.981101679
 20
-87.2797177988
 30
0.0
 10
-18.9647428341
 20
-87.311951107
 30
0.0
 10
-18.9416704422
 20
-87.3580286274
 30
0.0
 10
-18.9184222647
 20
-87.4040415125
 30
0.0
 10
-18.9023095196
 20
-87.4363653101
 30
0.0
 10
-18.8928790081
 20
-87.4546586799
 30
0.0
 10
-18.8864298162
 20
-87.4688780285
 30
0.0
 10
-18.8775974718
 20
-87.4811887777
 30
0.0
 10
-18.8666524827
 20
-87.4982690781
 30
0.0
 10
-18.8471093491
 20
-87.5278470375
 30
0.0
 10
-18.8194103102
 20
-87.5702830234
 30
0.0
 10
-18.7915740974
 20
-87.6125873406
 30
0.0
 10
-18.7722230073
 20
-87.6423496362
 30
0.0
 10
-18.7609762357
 20
-87.6591402654
 30
0.0
 10
-18.7530698148
 20
-87.6723397782
 30
0.0
 10
-18.7431432654
 20
-87.6832213256
 30
0.0
 10
-18.7306126486
 20
-87.6985388877
 30
0.0
 10
-18.708354303
 20
-87.7249647627
 30
0.0
 10
-18.6767402997
 20
-87.7629388234
 30
0.0
 10
-18.6450198894
 20
-87.8007451813
 30
0.0
 10
-18.6229105137
 20
-87.8274058402
 30
0.0
 10
-18.6101458014
 20
-87.842354456
 30
0.0
 10
-18.6009374995
 20
-87.8543679978
 30
0.0
 10
-18.5903336602
 20
-87.8633162428
 30
0.0
 10
-18.5766820912
 20
-87.8763167898
 30
0.0
 10
-18.5525639507
 20
-87.8985659729
 30
0.0
 10
-18.518237036
 20
-87.9306406158
 30
0.0
 10
-18.4838339194
 20
-87.9625106363
 30
0.0
 10
-18.4598224615
 20
-87.9850462907
 30
0.0
 10
-18.4460032483
 20
-87.9975966685
 30
0.0
 10
-18.4359137721
 20
-88.0079261145
 30
0.0
 10
-18.4247737511
 20
-88.0147524793
 30
0.0
 10
-18.410286803
 20
-88.0250766493
 30
0.0
 10
-18.3847642114
 20
-88.0425700531
 30
0.0
 10
-18.348390165
 20
-88.0678959052
 30
0.0
 10
-18.3119935571
 20
-88.0929737874
 30
0.0
 10
-18.2865025517
 20
-88.110814349
 30
0.0
 10
-18.2719659683
 20
-88.1205929854
 30
0.0
 10
-18.2609782373
 20
-88.1290931467
 30
0.0
 10
-18.2503168274
 20
-88.1331365568
 30
0.0
 10
-18.2359877213
 20
-88.14008278
 30
0.0
 10
-18.2109655374
 20
-88.1515096985
 30
0.0
 10
-18.1751859295
 20
-88.1682509133
 30
0.0
 10
-18.1394384608
 20
-88.1847124644
 30
0.0
 10
-18.1143712819
 20
-88.196530912
 30
0.0
 10
-18.1001128823
 20
-88.2028618752
 30
0.0
 10
-18.0892345323
 20
-88.2087930148
 30
0.0
 10
-18.0790615319
 20
-88.2102037032
 30
0.0
 10
-18.065251363
 20
-88.213661865
 30
0.0
 10
-18.0411996113
 20
-88.2189741658
 30
0.0
 10
-18.0067684362
 20
-88.2269869223
 30
0.0
 10
-17.9724023442
 20
-88.2347131954
 30
0.0
 10
-17.9482594763
 20
-88.240426573
 30
0.0
 10
-17.93459249
 20
-88.2432544713
 30
0.0
 10
-17.9239801794
 20
-88.2465989227
 30
0.0
 10
-17.9147516832
 20
-88.2452677077
 30
0.0
 10
-17.9019641581
 20
-88.2451241503
 30
0.0
 10
-17.8798127065
 20
-88.2441081002
 30
0.0
 10
-17.8480352224
 20
-88.2430945061
 30
0.0
 10
-17.8163561085
 20
-88.2417860964
 30
0.0
 10
-17.7940669385
 20
-88.241182788
 30
0.0
 10
-17.781495828
 20
-88.2403906364
 30
0.0
 10
-17.7716033325
 20
-88.2410494265
 30
0.0
 10
-17.7634847086
 20
-88.2369203033
 30
0.0
 10
-17.7520408532
 20
-88.2330853173
 30
0.0
 10
-17.7323053031
 20
-88.225591418
 30
0.0
 10
-17.7039370252
 20
-88.2153300611
 30
0.0
 10
-17.6757126261
 20
-88.2047826571
 30
0.0
 10
-17.6557756456
 20
-88.1976892238
 30
0.0
 10
-17.6446483237
 20
-88.1932249341
 30
0.0
 10
-17.6355585174
 20
-88.1910266289
 30
0.0
 10
-17.6293133514
 20
-88.1844341251
 30
0.0
 10
-17.6199939244
 20
-88.1771772678
 30
0.0
 10
-17.604150346
 20
-88.1637594116
 30
0.0
 10
-17.5812493782
 20
-88.1449990786
 30
0.0
 10
-17.558531036
 20
-88.1259749102
 30
0.0
 10
-17.5424317818
 20
-88.1129264236
 30
0.0
 10
-17.5335141312
 20
-88.1050891284
 30
0.0
 10
-17.5260362419
 20
-88.1002775136
 30
0.0
 10
-17.5215759963
 20
-88.0913909808
 30
0.0
 10
-17.5145760849
 20
-88.0809639981
 30
0.0
 10
-17.502820117
 20
-88.062050851
 30
0.0
 10
-17.4857410856
 20
-88.0354085392
 30
0.0
 10
-17.4688605024
 20
-88.0085287814
 30
0.0
 10
-17.4568267069
 20
-87.9899480586
 30
0.0
 10
-17.4502633818
 20
-87.9789986949
 30
0.0
 10
-17.4444636102
 20
-87.9717149217
 30
0.0
 10
-17.442016385
 20
-87.9608840544
 30
0.0
 10
-17.4375836625
 20
-87.9476804866
 30
0.0
 10
-17.4303749197
 20
-87.9239943916
 30
0.0
 10
-17.4197616859
 20
-87.89048631
 30
0.0
 10
-17.4093637683
 20
-87.8567659194
 30
0.0
 10
-17.4018535829
 20
-87.833377057
 30
0.0
 10
-17.3978945558
 20
-87.8197064095
 30
0.0
 10
-17.393993947
 20
-87.8103086275
 30
0.0
 10
-17.3936524385
 20
-87.7976428229
 30
0.0
 10
-17.3919556375
 20
-87.7818950086
 30
0.0
 10
-17.3895646768
 20
-87.7538051996
 30
0.0
 10
-17.3858464136
 20
-87.7139547579
 30
0.0
 10
-17.3815148506
 20
-87.6660145356
 30
0.0
 10
-17.3786023129
 20
-87.6340771859
 30
0.0
 10
-17.3771491477
 20
-87.6181056613
 30
0.0
  0
SPLINE
  5
3E3
100
AcDbEntity
  8
CURVE
100
AcDbSpline
 62
250
  6
CONTINUOUS
 70
0
 71
3
 72
131
 73
127
 74
0
 42
0.0000001
 43
0.0000001
 44
0.0000000001
 40
0.0
 40
0.0
 40
0.0
 40
0.0
 40
0.015625
 40
0.03125
 40
0.046875
 40
0.0546875
 40
0.05859375
 40
0.0625
 40
0.06640625
 40
0.0703125
 40
0.078125
 40
0.09375
 40
0.109375
 40
0.1171875
 40
0.12109375
 40
0.125
 40
0.12890625
 40
0.1328125
 40
0.140625
 40
0.15625
 40
0.171875
 40
0.1796875
 40
0.18359375
 40
0.1875
 40
0.19140625
 40
0.1953125
 40
0.203125
 40
0.21875
 40
0.234375
 40
0.2421875
 40
0.24609375
 40
0.25
 40
0.25390625
 40
0.2578125
 40
0.265625
 40
0.28125
 40
0.296875
 40
0.3046875
 40
0.30859375
 40
0.3125
 40
0.31640625
 40
0.3203125
 40
0.328125
 40
0.34375
 40
0.359375
 40
0.3671875
 40
0.37109375
 40
0.375
 40
0.37890625
 40
0.3828125
 40
0.390625
 40
0.40625
 40
0.421875
 40
0.4296875
 40
0.43359375
 40
0.4375
 40
0.44140625
 40
0.4453125
 40
0.453125
 40
0.46875
 40
0.484375
 40
0.4921875
 40
0.49609375
 40
0.5
 40
0.50390625
 40
0.5078125
 40
0.515625
 40
0.53125
 40
0.546875
 40
0.5546875
 40
0.55859375
 40
0.5625
 40
0.56640625
 40
0.5703125
 40
0.578125
 40
0.59375
 40
0.609375
 40
0.6171875
 40
0.62109375
 40
0.625
 40
0.62890625
 40
0.6328125
 40
0.640625
 40
0.65625
 40
0.671875
 40
0.6796875
 40
0.68359375
 40
0.6875
 40
0.69140625
 40
0.6953125
 40
0.703125
 40
0.71875
 40
0.734375
 40
0.7421875
 40
0.74609375
 40
0.75
 40
0.75390625
 40
0.7578125
 40
0.765625
 40
0.78125
 40
0.796875
 40
0.8046875
 40
0.80859375
 40
0.8125
 40
0.81640625
 40
0.8203125
 40
0.828125
 40
0.84375
 40
0.859375
 40
0.8671875
 40
0.87109375
 40
0.875
 40
0.87890625
 40
0.8828125
 40
0.890625
 40
0.90625
 40
0.921875
 40
0.9296875
 40
0.93359375
 40
0.9375
 40
0.94140625
 40
0.9453125
 40
0.953125
 40
0.96875
 40
0.984375
 40
1.0
 40
1.0
 40
1.0
 40
1.0
 10
-26.2159839125
 20
-22.0958728512
 30
0.0
 10
-26.2173866978
 20
-22.0785434657
 30
0.0
 10
-26.220198481
 20
-22.0438825281
 30
0.0
 10
-26.22437888
 20
-21.9919041216
 30
0.0
 10
-26.2279712669
 20
-21.9485508662
 30
0.0
 10
-26.2302739318
 20
-21.918277525
 30
0.0
 10
-26.2319205627
 20
-21.9008630976
 30
0.0
 10
-26.2322236418
 20
-21.8881272781
 30
0.0
 10
-26.2360888859
 20
-21.8741491422
 30
0.0
 10
-26.2399996906
 20
-21.8559449975
 30
0.0
 10
-26.2474259897
 20
-21.8238854691
 30
0.0
 10
-26.2577037687
 20
-21.778194793
 30
0.0
 10
-26.2681971106
 20
-21.7324548023
 30
0.0
 10
-26.2753216218
 20
-21.7004643144
 30
0.0
 10
-26.2797066647
 20
-21.6821516775
 30
0.0
 10
-26.2821168596
 20
-21.6685064152
 30
0.0
 10
-26.2878844567
 20
-21.6545204707
 30
0.0
 10
-26.2944031656
 20
-21.6359913635
 30
0.0
 10
-26.3063599155
 20
-21.6035102169
 30
0.0
 10
-26.3231280196
 20
-21.5571362278
 30
0.0
 10
-26.3401022599
 20
-21.5107568028
 30
0.0
 10
-26.3517704193
 20
-21.4782832664
 30
0.0
 10
-26.3587426275
 20
-21.4597422003
 30
0.0
 10
-26.363118806
 20
-21.4457929477
 30
0.0
 10
-26.370754551
 20
-21.4320098869
 30
0.0
 10
-26.3797983341
 20
-21.4135743196
 30
0.0
 10
-26.3961571791
 20
-21.3813410114
 30
0.0
 10
-26.4192295709
 20
-21.335263491
 30
0.0
 10
-26.4424777484
 20
-21.2892506059
 30
0.0
 10
-26.4585904935
 20
-21.2569268083
 30
0.0
 10
-26.468021005
 20
-21.2386334385
 30
0.0
 10
-26.4744701969
 20
-21.2244140899
 30
0.0
 10
-26.4833025413
 20
-21.2121033407
 30
0.0
 10
-26.4942475305
 20
-21.1950230404
 30
0.0
 10
-26.513790664
 20
-21.1654450809
 30
0.0
 10
-26.5414897029
 20
-21.123009095
 30
0.0
 10
-26.5693259157
 20
-21.0807047778
 30
0.0
 10
-26.5886770058
 20
-21.0509424822
 30
0.0
 10
-26.5999237775
 20
-21.034151853
 30
0.0
 10
-26.6078301983
 20
-21.0209523402
 30
0.0
 10
-26.6177567478
 20
-21.0100707928
 30
0.0
 10
-26.6302873645
 20
-20.9947532307
 30
0.0
 10
-26.6525457101
 20
-20.9683273557
 30
0.0
 10
-26.6841597134
 20
-20.930353295
 30
0.0
 10
-26.7158801237
 20
-20.8925469372
 30
0.0
 10
-26.7379894994
 20
-20.8658862782
 30
0.0
 10
-26.7507542117
 20
-20.8509376624
 30
0.0
 10
-26.7599625136
 20
-20.8389241206
 30
0.0
 10
-26.7705663529
 20
-20.8299758756
 30
0.0
 10
-26.7842179219
 20
-20.8169753286
 30
0.0
 10
-26.8083360624
 20
-20.7947261455
 30
0.0
 10
-26.8426629771
 20
-20.7626515026
 30
0.0
 10
-26.8770660937
 20
-20.7307814821
 30
0.0
 10
-26.9010775516
 20
-20.7082458277
 30
0.0
 10
-26.9148967648
 20
-20.69569545
 30
0.0
 10
-26.924986241
 20
-20.6853660039
 30
0.0
 10
-26.936126262
 20
-20.6785396391
 30
0.0
 10
-26.9506132102
 20
-20.6682154691
 30
0.0
 10
-26.9761358017
 20
-20.6507220653
 30
0.0
 10
-27.0125098481
 20
-20.6253962132
 30
0.0
 10
-27.048906456
 20
-20.600318331
 30
0.0
 10
-27.0743974614
 20
-20.5824777694
 30
0.0
 10
-27.0889340448
 20
-20.572699133
 30
0.0
 10
-27.0999217758
 20
-20.5641989717
 30
0.0
 10
-27.1105831857
 20
-20.5601555616
 30
0.0
 10
-27.1249122918
 20
-20.5532093384
 30
0.0
 10
-27.1499344757
 20
-20.5417824199
 30
0.0
 10
-27.1857140836
 20
-20.5250412051
 30
0.0
 10
-27.2214615523
 20
-20.508579654
 30
0.0
 10
-27.2465287312
 20
-20.4967612064
 30
0.0
 10
-27.2607871309
 20
-20.4904302432
 30
0.0
 10
-27.2716654808
 20
-20.4844991036
 30
0.0
 10
-27.2818384813
 20
-20.4830884152
 30
0.0
 10
-27.2956486501
 20
-20.4796302534
 30
0.0
 10
-27.3197004019
 20
-20.4743179526
 30
0.0
 10
-27.3541315769
 20
-20.4663051961
 30
0.0
 10
-27.3884976689
 20
-20.458578923
 30
0.0
 10
-27.4126405369
 20
-20.4528655454
 30
0.0
 10
-27.4263075231
 20
-20.4500376471
 30
0.0
 10
-27.4369198338
 20
-20.4466931957
 30
0.0
 10
-27.4461483299
 20
-20.4480244107
 30
0.0
 10
-27.458935855
 20
-20.4481679681
 30
0.0
 10
-27.4810873066
 20
-20.4491840182
 30
0.0
 10
-27.5128647907
 20
-20.4501976123
 30
0.0
 10
-27.5445439046
 20
-20.451506022
 30
0.0
 10
-27.5668330746
 20
-20.4521093304
 30
0.0
 10
-27.5794041851
 20
-20.452901482
 30
0.0
 10
-27.5892966807
 20
-20.452242692
 30
0.0
 10
-27.5974153045
 20
-20.4563718151
 30
0.0
 10
-27.60885916
 20
-20.4602068011
 30
0.0
 10
-27.62859471
 20
-20.4677007004
 30
0.0
 10
-27.656962988
 20
-20.4779620573
 30
0.0
 10
-27.685187387
 20
-20.4885094613
 30
0.0
 10
-27.7051243675
 20
-20.4956028946
 30
0.0
 10
-27.7162516894
 20
-20.5000671843
 30
0.0
 10
-27.7253414957
 20
-20.5022654895
 30
0.0
 10
-27.7315866617
 20
-20.5088579933
 30
0.0
 10
-27.7409060888
 20
-20.5161148506
 30
0.0
 10
-27.7567496671
 20
-20.5295327068
 30
0.0
 10
-27.7796506349
 20
-20.5482930398
 30
0.0
 10
-27.8023689771
 20
-20.5673172082
 30
0.0
 10
-27.8184682313
 20
-20.5803656948
 30
0.0
 10
-27.8273858819
 20
-20.58820299
 30
0.0
 10
-27.8348637712
 20
-20.5930146048
 30
0.0
 10
-27.8393240169
 20
-20.6019011376
 30
0.0
 10
-27.8463239282
 20
-20.6123281203
 30
0.0
 10
-27.8580798961
 20
-20.6312412674
 30
0.0
 10
-27.8751589275
 20
-20.6578835793
 30
0.0
 10
-27.8920395107
 20
-20.684763337
 30
0.0
 10
-27.9040733062
 20
-20.7033440599
 30
0.0
 10
-27.9106366313
 20
-20.7142934235
 30
0.0
 10
-27.9164364029
 20
-20.7215771967
 30
0.0
 10
-27.9188836281
 20
-20.732408064
 30
0.0
 10
-27.9233163506
 20
-20.7456116318
 30
0.0
 10
-27.9305250934
 20
-20.7692977268
 30
0.0
 10
-27.9411383272
 20
-20.8028058084
 30
0.0
 10
-27.9515362448
 20
-20.836526199
 30
0.0
 10
-27.9590464302
 20
-20.8599150614
 30
0.0
 10
-27.9630054573
 20
-20.8735857089
 30
0.0
 10
-27.9669060661
 20
-20.8829834909
 30
0.0
 10
-27.9672475746
 20
-20.8956492955
 30
0.0
 10
-27.9689443756
 20
-20.9113971098
 30
0.0
 10
-27.9713353364
 20
-20.9394869188
 30
0.0
 10
-27.9750535996
 20
-20.9793373606
 30
0.0
 10
-27.9793851625
 20
-21.0272775828
 30
0.0
 10
-27.9822977002
 20
-21.0592149325
 30
0.0
 10
-27.9837508655
 20
-21.0751864571
 30
0.0
  0
SPLINE
  5
3E4
100
AcDbEntity
  8
CURVE
100
AcDbSpline
 62
250
  6
CONTINUOUS
 70
0
 71
3
 72
131
 73
127
 74
0
 42
0.0000001
 43
0.0000001
 44
0.0000000001
 40
0.0
 40
0.0
 40
0.0
 40
0.0
 40
0.015625
 40
0.03125
 40
0.046875
 40
0.0546875
 40
0.05859375
 40
0.0625
 40
0.06640625
 40
0.0703125
 40
0.078125
 40
0.09375
 40
0.109375
 40
0.1171875
 40
0.12109375
 40
0.125
 40
0.12890625
 40
0.1328125
 40
0.140625
 40
0.15625
 40
0.171875
 40
0.1796875
 40
0.18359375
 40
0.1875
 40
0.19140625
 40
0.1953125
 40
0.203125
 40
0.21875
 40
0.234375
 40
0.2421875
 40
0.24609375
 40
0.25
 40
0.25390625
 40
0.2578125
 40
0.265625
 40
0.28125
 40
0.296875
 40
0.3046875
 40
0.30859375
 40
0.3125
 40
0.31640625
 40
0.3203125
 40
0.328125
 40
0.34375
 40
0.359375
 40
0.3671875
 40
0.37109375
 40
0.375
 40
0.37890625
 40
0.3828125
 40
0.390625
 40
0.40625
 40
0.421875
 40
0.4296875
 40
0.43359375
 40
0.4375
 40
0.44140625
 40
0.4453125
 40
0.453125
 40
0.46875
 40
0.484375
 40
0.4921875
 40
0.49609375
 40
0.5
 40
0.50390625
 40
0.5078125
 40
0.515625
 40
0.53125
 40
0.546875
 40
0.5546875
 40
0.55859375
 40
0.5625
 40
0.56640625
 40
0.5703125
 40
0.578125
 40
0.59375
 40
0.609375
 40
0.6171875
 40
0.62109375
 40
0.625
 40
0.62890625
 40
0.6328125
 40
0.640625
 40
0.65625
 40
0.671875
 40
0.6796875
 40
0.68359375
 40
0.6875
 40
0.69140625
 40
0.6953125
 40
0.703125
 40
0.71875
 40
0.734375
 40
0.7421875
 40
0.74609375
 40
0.75
 40
0.75390625
 40
0.7578125
 40
0.765625
 40
0.78125
 40
0.796875
 40
0.8046875
 40
0.80859375
 40
0.8125
 40
0.81640625
 40
0.8203125
 40
0.828125
 40
0.84375
 40
0.859375
 40
0.8671875
 40
0.87109375
 40
0.875
 40
0.87890625
 40
0.8828125
 40
0.890625
 40
0.90625
 40
0.921875
 40
0.9296875
 40
0.93359375
 40
0.9375
 40
0.94140625
 40
0.9453125
 40
0.953125
 40
0.96875
 40
0.984375
 40
1.0
 40
1.0
 40
1.0
 40
1.0
 10
-27.9837508655
 20
-21.0751863679
 30
0.0
 10
-27.9823480802
 20
-21.0925157534
 30
0.0
 10
-27.979536297
 20
-21.1271766911
 30
0.0
 10
-27.9753558979
 20
-21.1791550975
 30
0.0
 10
-27.9717635111
 20
-21.222508353
 30
0.0
 10
-27.9694608462
 20
-21.2527816941
 30
0.0
 10
-27.9678142153
 20
-21.2701961215
 30
0.0
 10
-27.9675111361
 20
-21.2829319411
 30
0.0
 10
-27.963645892
 20
-21.2969100769
 30
0.0
 10
-27.9597350874
 20
-21.3151142216
 30
0.0
 10
-27.9523087882
 20
-21.34717375
 30
0.0
 10
-27.9420310092
 20
-21.3928644261
 30
0.0
 10
-27.9315376674
 20
-21.4386044168
 30
0.0
 10
-27.9244131562
 20
-21.4705949048
 30
0.0
 10
-27.9200281133
 20
-21.4889075416
 30
0.0
 10
-27.9176179184
 20
-21.5025528039
 30
0.0
 10
-27.9118503212
 20
-21.5165387484
 30
0.0
 10
-27.9053316124
 20
-21.5350678557
 30
0.0
 10
-27.8933748625
 20
-21.5675490023
 30
0.0
 10
-27.8766067583
 20
-21.6139229914
 30
0.0
 10
-27.859632518
 20
-21.6603024163
 30
0.0
 10
-27.8479643587
 20
-21.6927759527
 30
0.0
 10
-27.8409921504
 20
-21.7113170188
 30
0.0
 10
-27.8366159719
 20
-21.7252662714
 30
0.0
 10
-27.828980227
 20
-21.7390493322
 30
0.0
 10
-27.8199364439
 20
-21.7574848995
 30
0.0
 10
-27.8035775989
 20
-21.7897182077
 30
0.0
 10
-27.780505207
 20
-21.8357957281
 30
0.0
 10
-27.7572570295
 20
-21.8818086132
 30
0.0
 10
-27.7411442845
 20
-21.9141324108
 30
0.0
 10
-27.731713773
 20
-21.9324257806
 30
0.0
 10
-27.7252645811
 20
-21.9466451293
 30
0.0
 10
-27.7164322366
 20
-21.9589558785
 30
0.0
 10
-27.7054872475
 20
-21.9760361788
 30
0.0
 10
-27.685944114
 20
-22.0056141382
 30
0.0
 10
-27.658245075
 20
-22.0480501241
 30
0.0
 10
-27.6304088622
 20
-22.0903544413
 30
0.0
 10
-27.6110577721
 20
-22.1201167369
 30
0.0
 10
-27.5998110005
 20
-22.1369073661
 30
0.0
 10
-27.5919045797
 20
-22.150106879
 30
0.0
 10
-27.5819780302
 20
-22.1609884264
 30
0.0
 10
-27.5694474134
 20
-22.1763059884
 30
0.0
 10
-27.5471890678
 20
-22.2027318634
 30
0.0
 10
-27.5155750646
 20
-22.2407059241
 30
0.0
 10
-27.4838546543
 20
-22.278512282
 30
0.0
 10
-27.4617452785
 20
-22.305172941
 30
0.0
 10
-27.4489805663
 20
-22.3201215567
 30
0.0
 10
-27.4397722643
 20
-22.3321350985
 30
0.0
 10
-27.4291684251
 20
-22.3410833436
 30
0.0
 10
-27.4155168561
 20
-22.3540838906
 30
0.0
 10
-27.3913987155
 20
-22.3763330736
 30
0.0
 10
-27.3570718008
 20
-22.4084077165
 30
0.0
 10
-27.3226686842
 20
-22.440277737
 30
0.0
 10
-27.2986572264
 20
-22.4628133914
 30
0.0
 10
-27.2848380131
 20
-22.4753637692
 30
0.0
 10
-27.2747485369
 20
-22.4856932152
 30
0.0
 10
-27.2636085159
 20
-22.49251958
 30
0.0
 10
-27.2491215678
 20
-22.50284375
 30
0.0
 10
-27.2235989763
 20
-22.5203371538
 30
0.0
 10
-27.1872249299
 20
-22.5456630059
 30
0.0
 10
-27.150828322
 20
-22.5707408881
 30
0.0
 10
-27.1253373165
 20
-22.5885814498
 30
0.0
 10
-27.1108007331
 20
-22.5983600861
 30
0.0
 10
-27.0998130021
 20
-22.6068602474
 30
0.0
 10
-27.0891515922
 20
-22.6109036576
 30
0.0
 10
-27.0748224861
 20
-22.6178498807
 30
0.0
 10
-27.0498003022
 20
-22.6292767993
 30
0.0
 10
-27.0140206943
 20
-22.646018014
 30
0.0
 10
-26.9782732257
 20
-22.6624795651
 30
0.0
 10
-26.9532060468
 20
-22.6742980127
 30
0.0
 10
-26.9389476471
 20
-22.6806289759
 30
0.0
 10
-26.9280692971
 20
-22.6865601156
 30
0.0
 10
-26.9178962967
 20
-22.6879708039
 30
0.0
 10
-26.9040861278
 20
-22.6914289658
 30
0.0
 10
-26.8800343761
 20
-22.6967412666
 30
0.0
 10
-26.8456032011
 20
-22.704754023
 30
0.0
 10
-26.811237109
 20
-22.7124802961
 30
0.0
 10
-26.7870942411
 20
-22.7181936737
 30
0.0
 10
-26.7734272548
 20
-22.721021572
 30
0.0
 10
-26.7628149442
 20
-22.7243660234
 30
0.0
 10
-26.7535864481
 20
-22.7230348085
 30
0.0
 10
-26.7407989229
 20
-22.7228912511
 30
0.0
 10
-26.7186474713
 20
-22.7218752009
 30
0.0
 10
-26.6868699872
 20
-22.7208616068
 30
0.0
 10
-26.6551908734
 20
-22.7195531971
 30
0.0
 10
-26.6329017034
 20
-22.7189498887
 30
0.0
 10
-26.6203305929
 20
-22.7181577371
 30
0.0
 10
-26.6104380973
 20
-22.7188165272
 30
0.0
 10
-26.6023194734
 20
-22.7146874041
 30
0.0
 10
-26.590875618
 20
-22.710852418
 30
0.0
 10
-26.5711400679
 20
-22.7033585187
 30
0.0
 10
-26.54277179
 20
-22.6930971618
 30
0.0
 10
-26.514547391
 20
-22.6825497579
 30
0.0
 10
-26.4946104104
 20
-22.6754563245
 30
0.0
 10
-26.4834830886
 20
-22.6709920348
 30
0.0
 10
-26.4743932823
 20
-22.6687937296
 30
0.0
 10
-26.4681481163
 20
-22.6622012259
 30
0.0
 10
-26.4588286892
 20
-22.6549443686
 30
0.0
 10
-26.4429851109
 20
-22.6415265123
 30
0.0
 10
-26.420084143
 20
-22.6227661793
 30
0.0
 10
-26.3973658009
 20
-22.603742011
 30
0.0
 10
-26.3812665466
 20
-22.5906935243
 30
0.0
 10
-26.372348896
 20
-22.5828562291
 30
0.0
 10
-26.3648710068
 20
-22.5780446144
 30
0.0
 10
-26.3604107611
 20
-22.5691580816
 30
0.0
 10
-26.3534108498
 20
-22.5587310988
 30
0.0
 10
-26.3416548818
 20
-22.5398179517
 30
0.0
 10
-26.3245758504
 20
-22.5131756399
 30
0.0
 10
-26.3076952673
 20
-22.4862958822
 30
0.0
 10
-26.2956614717
 20
-22.4677151593
 30
0.0
 10
-26.2890981466
 20
-22.4567657957
 30
0.0
 10
-26.283298375
 20
-22.4494820224
 30
0.0
 10
-26.2808511499
 20
-22.4386511551
 30
0.0
 10
-26.2764184274
 20
-22.4254475873
 30
0.0
 10
-26.2692096846
 20
-22.4017614923
 30
0.0
 10
-26.2585964508
 20
-22.3682534107
 30
0.0
 10
-26.2481985331
 20
-22.3345330202
 30
0.0
 10
-26.2406883478
 20
-22.3111441577
 30
0.0
 10
-26.2367293207
 20
-22.2974735103
 30
0.0
 10
-26.2328287119
 20
-22.2880757282
 30
0.0
 10
-26.2324872034
 20
-22.2754099237
 30
0.0
 10
-26.2307904023
 20
-22.2596621093
 30
0.0
 10
-26.2283994416
 20
-22.2315723004
 30
0.0
 10
-26.2246811784
 20
-22.1917218586
 30
0.0
 10
-26.2203496155
 20
-22.1437816363
 30
0.0
 10
-26.2174370777
 20
-22.1118442867
 30
0.0
 10
-26.2159839125
 20
-22.095872762
 30
0.0
  0
SPLINE
  5
3E5
100
AcDbEntity
  8
CURVE
100
AcDbSpline
 62
250
  6
CONTINUOUS
 70
0
 71
3
 72
131
 73
127
 74
0
 42
0.0000001
 43
0.0000001
 44
0.0000000001
 40
0.0
 40
0.0
 40
0.0
 40
0.0
 40
0.015625
 40
0.03125
 40
0.046875
 40
0.0546875
 40
0.05859375
 40
0.0625
 40
0.06640625
 40
0.0703125
 40
0.078125
 40
0.09375
 40
0.109375
 40
0.1171875
 40
0.12109375
 40
0.125
 40
0.12890625
 40
0.1328125
 40
0.140625
 40
0.15625
 40
0.171875
 40
0.1796875
 40
0.18359375
 40
0.1875
 40
0.19140625
 40
0.1953125
 40
0.203125
 40
0.21875
 40
0.234375
 40
0.2421875
 40
0.24609375
 40
0.25
 40
0.25390625
 40
0.2578125
 40
0.265625
 40
0.28125
 40
0.296875
 40
0.3046875
 40
0.30859375
 40
0.3125
 40
0.31640625
 40
0.3203125
 40
0.328125
 40
0.34375
 40
0.359375
 40
0.3671875
 40
0.37109375
 40
0.375
 40
0.37890625
 40
0.3828125
 40
0.390625
 40
0.40625
 40
0.421875
 40
0.4296875
 40
0.43359375
 40
0.4375
 40
0.44140625
 40
0.4453125
 40
0.453125
 40
0.46875
 40
0.484375
 40
0.4921875
 40
0.49609375
 40
0.5
 40
0.50390625
 40
0.5078125
 40
0.515625
 40
0.53125
 40
0.546875
 40
0.5546875
 40
0.55859375
 40
0.5625
 40
0.56640625
 40
0.5703125
 40
0.578125
 40
0.59375
 40
0.609375
 40
0.6171875
 40
0.62109375
 40
0.625
 40
0.62890625
 40
0.6328125
 40
0.640625
 40
0.65625
 40
0.671875
 40
0.6796875
 40
0.68359375
 40
0.6875
 40
0.69140625
 40
0.6953125
 40
0.703125
 40
0.71875
 40
0.734375
 40
0.7421875
 40
0.74609375
 40
0.75
 40
0.75390625
 40
0.7578125
 40
0.765625
 40
0.78125
 40
0.796875
 40
0.8046875
 40
0.80859375
 40
0.8125
 40
0.81640625
 40
0.8203125
 40
0.828125
 40
0.84375
 40
0.859375
 40
0.8671875
 40
0.87109375
 40
0.875
 40
0.87890625
 40
0.8828125
 40
0.890625
 40
0.90625
 40
0.921875
 40
0.9296875
 40
0.93359375
 40
0.9375
 40
0.94140625
 40
0.9453125
 40
0.953125
 40
0.96875
 40
0.984375
 40
1.0
 40
1.0
 40
1.0
 40
1.0
 10
7.3715881939
 20
-101.907716517
 30
0.0
 10
7.3701854086
 20
-101.8903871315
 30
0.0
 10
7.3673736254
 20
-101.8557261938
 30
0.0
 10
7.3631932263
 20
-101.8037477874
 30
0.0
 10
7.3596008395
 20
-101.7603945319
 30
0.0
 10
7.3572981746
 20
-101.7301211908
 30
0.0
 10
7.3556515437
 20
-101.7127067634
 30
0.0
 10
7.3553484645
 20
-101.6999709438
 30
0.0
 10
7.3514832204
 20
-101.685992808
 30
0.0
 10
7.3475724158
 20
-101.6677886632
 30
0.0
 10
7.3401461166
 20
-101.6357291349
 30
0.0
 10
7.3298683376
 20
-101.5900384588
 30
0.0
 10
7.3193749958
 20
-101.544298468
 30
0.0
 10
7.3122504846
 20
-101.5123079801
 30
0.0
 10
7.3078654417
 20
-101.4939953433
 30
0.0
 10
7.3054552468
 20
-101.4803500809
 30
0.0
 10
7.2996876496
 20
-101.4663641365
 30
0.0
 10
7.2931689408
 20
-101.4478350292
 30
0.0
 10
7.2812121909
 20
-101.4153538826
 30
0.0
 10
7.2644440867
 20
-101.3689798935
 30
0.0
 10
7.2474698464
 20
-101.3226004686
 30
0.0
 10
7.2358016871
 20
-101.2901269322
 30
0.0
 10
7.2288294788
 20
-101.2715858661
 30
0.0
 10
7.2244533003
 20
-101.2576366135
 30
0.0
 10
7.2168175554
 20
-101.2438535527
 30
0.0
 10
7.2077737723
 20
-101.2254179854
 30
0.0
 10
7.1914149273
 20
-101.1931846771
 30
0.0
 10
7.1683425355
 20
-101.1471071568
 30
0.0
 10
7.145094358
 20
-101.1010942716
 30
0.0
 10
7.1289816129
 20
-101.0687704741
 30
0.0
 10
7.1195511014
 20
-101.0504771043
 30
0.0
 10
7.1131019095
 20
-101.0362577556
 30
0.0
 10
7.104269565
 20
-101.0239470064
 30
0.0
 10
7.0933245759
 20
-101.0068667061
 30
0.0
 10
7.0737814424
 20
-100.9772887467
 30
0.0
 10
7.0460824035
 20
-100.9348527608
 30
0.0
 10
7.0182461907
 20
-100.8925484435
 30
0.0
 10
6.9988951005
 20
-100.862786148
 30
0.0
 10
6.9876483289
 20
-100.8459955188
 30
0.0
 10
6.9797419081
 20
-100.8327960059
 30
0.0
 10
6.9698153586
 20
-100.8219144585
 30
0.0
 10
6.9572847418
 20
-100.8065968964
 30
0.0
 10
6.9350263962
 20
-100.7801710215
 30
0.0
 10
6.903412393
 20
-100.7421969607
 30
0.0
 10
6.8716919827
 20
-100.7043906029
 30
0.0
 10
6.8495826069
 20
-100.6777299439
 30
0.0
 10
6.8368178947
 20
-100.6627813282
 30
0.0
 10
6.8276095927
 20
-100.6507677863
 30
0.0
 10
6.8170057535
 20
-100.6418195413
 30
0.0
 10
6.8033541845
 20
-100.6288189943
 30
0.0
 10
6.7792360439
 20
-100.6065698113
 30
0.0
 10
6.7449091293
 20
-100.5744951684
 30
0.0
 10
6.7105060126
 20
-100.5426251478
 30
0.0
 10
6.6864945548
 20
-100.5200894935
 30
0.0
 10
6.6726753416
 20
-100.5075391157
 30
0.0
 10
6.6625858654
 20
-100.4972096697
 30
0.0
 10
6.6514458443
 20
-100.4903833049
 30
0.0
 10
6.6369588962
 20
-100.4800591349
 30
0.0
 10
6.6114363047
 20
-100.462565731
 30
0.0
 10
6.5750622583
 20
-100.437239879
 30
0.0
 10
6.5386656504
 20
-100.4121619967
 30
0.0
 10
6.5131746449
 20
-100.3943214351
 30
0.0
 10
6.4986380615
 20
-100.3845427988
 30
0.0
 10
6.4876503305
 20
-100.3760426375
 30
0.0
 10
6.4769889207
 20
-100.3719992273
 30
0.0
 10
6.4626598146
 20
-100.3650530041
 30
0.0
 10
6.4376376306
 20
-100.3536260856
 30
0.0
 10
6.4018580227
 20
-100.3368848709
 30
0.0
 10
6.3661105541
 20
-100.3204233197
 30
0.0
 10
6.3410433752
 20
-100.3086048721
 30
0.0
 10
6.3267849755
 20
-100.3022739089
 30
0.0
 10
6.3159066255
 20
-100.2963427693
 30
0.0
 10
6.3057336251
 20
-100.2949320809
 30
0.0
 10
6.2919234562
 20
-100.2914739191
 30
0.0
 10
6.2678717045
 20
-100.2861616183
 30
0.0
 10
6.2334405295
 20
-100.2781488618
 30
0.0
 10
6.1990744374
 20
-100.2704225888
 30
0.0
 10
6.1749315695
 20
-100.2647092112
 30
0.0
 10
6.1612645832
 20
-100.2618813129
 30
0.0
 10
6.1506522726
 20
-100.2585368614
 30
0.0
 10
6.1414237765
 20
-100.2598680764
 30
0.0
 10
6.1286362513
 20
-100.2600116338
 30
0.0
 10
6.1064847997
 20
-100.261027684
 30
0.0
 10
6.0747073156
 20
-100.2620412781
 30
0.0
 10
6.0430282018
 20
-100.2633496878
 30
0.0
 10
6.0207390318
 20
-100.2639529961
 30
0.0
 10
6.0081679213
 20
-100.2647451478
 30
0.0
 10
5.9982754257
 20
-100.2640863577
 30
0.0
 10
5.9901568018
 20
-100.2682154808
 30
0.0
 10
5.9787129464
 20
-100.2720504669
 30
0.0
 10
5.9589773963
 20
-100.2795443662
 30
0.0
 10
5.9306091184
 20
-100.289805723
 30
0.0
 10
5.9023847194
 20
-100.300353127
 30
0.0
 10
5.8824477389
 20
-100.3074465604
 30
0.0
 10
5.871320417
 20
-100.31191085
 30
0.0
 10
5.8622306107
 20
-100.3141091553
 30
0.0
 10
5.8559854447
 20
-100.320701659
 30
0.0
 10
5.8466660176
 20
-100.3279585163
 30
0.0
 10
5.8308224393
 20
-100.3413763726
 30
0.0
 10
5.8079214715
 20
-100.3601367055
 30
0.0
 10
5.7852031293
 20
-100.3791608739
 30
0.0
 10
5.769103875
 20
-100.3922093606
 30
0.0
 10
5.7601862244
 20
-100.4000466558
 30
0.0
 10
5.7527083352
 20
-100.4048582705
 30
0.0
 10
5.7482480895
 20
-100.4137448033
 30
0.0
 10
5.7412481782
 20
-100.424171786
 30
0.0
 10
5.7294922103
 20
-100.4430849331
 30
0.0
 10
5.7124131788
 20
-100.469727245
 30
0.0
 10
5.6955325957
 20
-100.4966070027
 30
0.0
 10
5.6834988001
 20
-100.5151877256
 30
0.0
 10
5.676935475
 20
-100.5261370892
 30
0.0
 10
5.6711357034
 20
-100.5334208624
 30
0.0
 10
5.6686884783
 20
-100.5442517298
 30
0.0
 10
5.6642557558
 20
-100.5574552976
 30
0.0
 10
5.657047013
 20
-100.5811413925
 30
0.0
 10
5.6464337792
 20
-100.6146494742
 30
0.0
 10
5.6360358615
 20
-100.6483698647
 30
0.0
 10
5.6285256762
 20
-100.6717587272
 30
0.0
 10
5.6245666491
 20
-100.6854293746
 30
0.0
 10
5.6206660403
 20
-100.6948271567
 30
0.0
 10
5.6203245318
 20
-100.7074929612
 30
0.0
 10
5.6186277307
 20
-100.7232407756
 30
0.0
 10
5.61623677
 20
-100.7513305845
 30
0.0
 10
5.6125185068
 20
-100.7911810263
 30
0.0
 10
5.6081869439
 20
-100.8391212485
 30
0.0
 10
5.6052744061
 20
-100.8710585982
 30
0.0
 10
5.6038212409
 20
-100.8870301229
 30
0.0
  0
SPLINE
  5
3E6
100
AcDbEntity
  8
CURVE
100
AcDbSpline
 62
250
  6
CONTINUOUS
 70
0
 71
3
 72
131
 73
127
 74
0
 42
0.0000001
 43
0.0000001
 44
0.0000000001
 40
0.0
 40
0.0
 40
0.0
 40
0.0
 40
0.015625
 40
0.03125
 40
0.046875
 40
0.0546875
 40
0.05859375
 40
0.0625
 40
0.06640625
 40
0.0703125
 40
0.078125
 40
0.09375
 40
0.109375
 40
0.1171875
 40
0.12109375
 40
0.125
 40
0.12890625
 40
0.1328125
 40
0.140625
 40
0.15625
 40
0.171875
 40
0.1796875
 40
0.18359375
 40
0.1875
 40
0.19140625
 40
0.1953125
 40
0.203125
 40
0.21875
 40
0.234375
 40
0.2421875
 40
0.24609375
 40
0.25
 40
0.25390625
 40
0.2578125
 40
0.265625
 40
0.28125
 40
0.296875
 40
0.3046875
 40
0.30859375
 40
0.3125
 40
0.31640625
 40
0.3203125
 40
0.328125
 40
0.34375
 40
0.359375
 40
0.3671875
 40
0.37109375
 40
0.375
 40
0.37890625
 40
0.3828125
 40
0.390625
 40
0.40625
 40
0.421875
 40
0.4296875
 40
0.43359375
 40
0.4375
 40
0.44140625
 40
0.4453125
 40
0.453125
 40
0.46875
 40
0.484375
 40
0.4921875
 40
0.49609375
 40
0.5
 40
0.50390625
 40
0.5078125
 40
0.515625
 40
0.53125
 40
0.546875
 40
0.5546875
 40
0.55859375
 40
0.5625
 40
0.56640625
 40
0.5703125
 40
0.578125
 40
0.59375
 40
0.609375
 40
0.6171875
 40
0.62109375
 40
0.625
 40
0.62890625
 40
0.6328125
 40
0.640625
 40
0.65625
 40
0.671875
 40
0.6796875
 40
0.68359375
 40
0.6875
 40
0.69140625
 40
0.6953125
 40
0.703125
 40
0.71875
 40
0.734375
 40
0.7421875
 40
0.74609375
 40
0.75
 40
0.75390625
 40
0.7578125
 40
0.765625
 40
0.78125
 40
0.796875
 40
0.8046875
 40
0.80859375
 40
0.8125
 40
0.81640625
 40
0.8203125
 40
0.828125
 40
0.84375
 40
0.859375
 40
0.8671875
 40
0.87109375
 40
0.875
 40
0.87890625
 40
0.8828125
 40
0.890625
 40
0.90625
 40
0.921875
 40
0.9296875
 40
0.93359375
 40
0.9375
 40
0.94140625
 40
0.9453125
 40
0.953125
 40
0.96875
 40
0.984375
 40
1.0
 40
1.0
 40
1.0
 40
1.0
 10
5.6038212409
 20
-100.8870300336
 30
0.0
 10
5.6052240262
 20
-100.9043594191
 30
0.0
 10
5.6080358094
 20
-100.9390203568
 30
0.0
 10
5.6122162085
 20
-100.9909987632
 30
0.0
 10
5.6158085953
 20
-101.0343520187
 30
0.0
 10
5.6181112602
 20
-101.0646253598
 30
0.0
 10
5.6197578911
 20
-101.0820397872
 30
0.0
 10
5.6200609702
 20
-101.0947756068
 30
0.0
 10
5.6239262143
 20
-101.1087537427
 30
0.0
 10
5.627837019
 20
-101.1269578874
 30
0.0
 10
5.6352633181
 20
-101.1590174157
 30
0.0
 10
5.6455410971
 20
-101.2047080919
 30
0.0
 10
5.656034439
 20
-101.2504480826
 30
0.0
 10
5.6631589502
 20
-101.2824385705
 30
0.0
 10
5.6675439931
 20
-101.3007512073
 30
0.0
 10
5.669954188
 20
-101.3143964697
 30
0.0
 10
5.6757217851
 20
-101.3283824141
 30
0.0
 10
5.682240494
 20
-101.3469115214
 30
0.0
 10
5.6941972439
 20
-101.379392668
 30
0.0
 10
5.7109653481
 20
-101.4257666571
 30
0.0
 10
5.7279395883
 20
-101.472146082
 30
0.0
 10
5.7396077477
 20
-101.5046196185
 30
0.0
 10
5.7465799559
 20
-101.5231606846
 30
0.0
 10
5.7509561344
 20
-101.5371099371
 30
0.0
 10
5.7585918794
 20
-101.5508929979
 30
0.0
 10
5.7676356625
 20
-101.5693285652
 30
0.0
 10
5.7839945075
 20
-101.6015618735
 30
0.0
 10
5.8070668993
 20
-101.6476393938
 30
0.0
 10
5.8303150768
 20
-101.693652279
 30
0.0
 10
5.8464278219
 20
-101.7259760765
 30
0.0
 10
5.8558583334
 20
-101.7442694463
 30
0.0
 10
5.8623075253
 20
-101.758488795
 30
0.0
 10
5.8711398697
 20
-101.7707995442
 30
0.0
 10
5.8820848589
 20
-101.7878798445
 30
0.0
 10
5.9016279924
 20
-101.8174578039
 30
0.0
 10
5.9293270313
 20
-101.8598937898
 30
0.0
 10
5.9571632441
 20
-101.9021981071
 30
0.0
 10
5.9765143342
 20
-101.9319604026
 30
0.0
 10
5.9877611059
 20
-101.9487510318
 30
0.0
 10
5.9956675267
 20
-101.9619505447
 30
0.0
 10
6.0055940762
 20
-101.9728320921
 30
0.0
 10
6.0181246929
 20
-101.9881496542
 30
0.0
 10
6.0403830385
 20
-102.0145755291
 30
0.0
 10
6.0719970418
 20
-102.0525495899
 30
0.0
 10
6.1037174521
 20
-102.0903559477
 30
0.0
 10
6.1258268278
 20
-102.1170166067
 30
0.0
 10
6.1385915401
 20
-102.1319652224
 30
0.0
 10
6.147799842
 20
-102.1439787643
 30
0.0
 10
6.1584036813
 20
-102.1529270093
 30
0.0
 10
6.1720552503
 20
-102.1659275563
 30
0.0
 10
6.1961733908
 20
-102.1881767393
 30
0.0
 10
6.2305003055
 20
-102.2202513822
 30
0.0
 10
6.2649034221
 20
-102.2521214028
 30
0.0
 10
6.28891488
 20
-102.2746570571
 30
0.0
 10
6.3027340932
 20
-102.2872074349
 30
0.0
 10
6.3128235694
 20
-102.2975368809
 30
0.0
 10
6.3239635905
 20
-102.3043632457
 30
0.0
 10
6.3384505386
 20
-102.3146874157
 30
0.0
 10
6.3639731301
 20
-102.3321808196
 30
0.0
 10
6.4003471765
 20
-102.3575066717
 30
0.0
 10
6.4367437844
 20
-102.3825845539
 30
0.0
 10
6.4622347898
 20
-102.4004251155
 30
0.0
 10
6.4767713732
 20
-102.4102037518
 30
0.0
 10
6.4877591042
 20
-102.4187039132
 30
0.0
 10
6.4984205141
 20
-102.4227473233
 30
0.0
 10
6.5127496202
 20
-102.4296935465
 30
0.0
 10
6.5377718041
 20
-102.441120465
 30
0.0
 10
6.573551412
 20
-102.4578616798
 30
0.0
 10
6.6092988807
 20
-102.4743232309
 30
0.0
 10
6.6343660596
 20
-102.4861416785
 30
0.0
 10
6.6486244593
 20
-102.4924726417
 30
0.0
 10
6.6595028093
 20
-102.4984037813
 30
0.0
 10
6.6696758097
 20
-102.4998144697
 30
0.0
 10
6.6834859785
 20
-102.5032726315
 30
0.0
 10
6.7075377303
 20
-102.5085849323
 30
0.0
 10
6.7419689053
 20
-102.5165976888
 30
0.0
 10
6.7763349973
 20
-102.5243239618
 30
0.0
 10
6.8004778653
 20
-102.5300373394
 30
0.0
 10
6.8141448516
 20
-102.5328652377
 30
0.0
 10
6.8247571622
 20
-102.5362096892
 30
0.0
 10
6.8339856583
 20
-102.5348784742
 30
0.0
 10
6.8467731834
 20
-102.5347349168
 30
0.0
 10
6.8689246351
 20
-102.5337188666
 30
0.0
 10
6.9007021192
 20
-102.5327052725
 30
0.0
 10
6.932381233
 20
-102.5313968629
 30
0.0
 10
6.954670403
 20
-102.5307935545
 30
0.0
 10
6.9672415135
 20
-102.5300014028
 30
0.0
 10
6.9771340091
 20
-102.5306601929
 30
0.0
 10
6.9852526329
 20
-102.5265310698
 30
0.0
 10
6.9966964884
 20
-102.5226960837
 30
0.0
 10
7.0164320385
 20
-102.5152021845
 30
0.0
 10
7.0448003164
 20
-102.5049408276
 30
0.0
 10
7.0730247154
 20
-102.4943934236
 30
0.0
 10
7.0929616959
 20
-102.4872999902
 30
0.0
 10
7.1040890178
 20
-102.4828357006
 30
0.0
 10
7.1131788241
 20
-102.4806373953
 30
0.0
 10
7.1194239901
 20
-102.4740448916
 30
0.0
 10
7.1287434172
 20
-102.4667880343
 30
0.0
 10
7.1445869955
 20
-102.453370178
 30
0.0
 10
7.1674879633
 20
-102.4346098451
 30
0.0
 10
7.1902063055
 20
-102.4155856767
 30
0.0
 10
7.2063055597
 20
-102.40253719
 30
0.0
 10
7.2152232103
 20
-102.3946998948
 30
0.0
 10
7.2227010996
 20
-102.3898882801
 30
0.0
 10
7.2271613453
 20
-102.3810017473
 30
0.0
 10
7.2341612566
 20
-102.3705747646
 30
0.0
 10
7.2459172245
 20
-102.3516616175
 30
0.0
 10
7.262996256
 20
-102.3250193056
 30
0.0
 10
7.2798768391
 20
-102.2981395479
 30
0.0
 10
7.2919106346
 20
-102.279558825
 30
0.0
 10
7.2984739597
 20
-102.2686094614
 30
0.0
 10
7.3042737314
 20
-102.2613256882
 30
0.0
 10
7.3067209565
 20
-102.2504948208
 30
0.0
 10
7.311153679
 20
-102.2372912531
 30
0.0
 10
7.3183624218
 20
-102.2136051581
 30
0.0
 10
7.3289756556
 20
-102.1800970765
 30
0.0
 10
7.3393735733
 20
-102.1463766859
 30
0.0
 10
7.3468837586
 20
-102.1229878234
 30
0.0
 10
7.3508427857
 20
-102.109317176
 30
0.0
 10
7.3547433945
 20
-102.0999193939
 30
0.0
 10
7.355084903
 20
-102.0872535894
 30
0.0
 10
7.356781704
 20
-102.071505775
 30
0.0
 10
7.3591726648
 20
-102.0434159661
 30
0.0
 10
7.362890928
 20
-102.0035655243
 30
0.0
 10
7.3672224909
 20
-101.9556253021
 30
0.0
 10
7.3701350286
 20
-101.9236879524
 30
0.0
 10
7.3715881939
 20
-101.9077164277
 30
0.0
  0
SPLINE
  5
3E7
100
AcDbEntity
  8
CURVE
100
AcDbSpline
 62
250
  6
CONTINUOUS
 70
0
 71
3
 72
131
 73
127
 74
0
 42
0.0000001
 43
0.0000001
 44
0.0000000001
 40
0.0
 40
0.0
 40
0.0
 40
0.0
 40
0.015625
 40
0.03125
 40
0.046875
 40
0.0546875
 40
0.05859375
 40
0.0625
 40
0.06640625
 40
0.0703125
 40
0.078125
 40
0.09375
 40
0.109375
 40
0.1171875
 40
0.12109375
 40
0.125
 40
0.12890625
 40
0.1328125
 40
0.140625
 40
0.15625
 40
0.171875
 40
0.1796875
 40
0.18359375
 40
0.1875
 40
0.19140625
 40
0.1953125
 40
0.203125
 40
0.21875
 40
0.234375
 40
0.2421875
 40
0.24609375
 40
0.25
 40
0.25390625
 40
0.2578125
 40
0.265625
 40
0.28125
 40
0.296875
 40
0.3046875
 40
0.30859375
 40
0.3125
 40
0.31640625
 40
0.3203125
 40
0.328125
 40
0.34375
 40
0.359375
 40
0.3671875
 40
0.37109375
 40
0.375
 40
0.37890625
 40
0.3828125
 40
0.390625
 40
0.40625
 40
0.421875
 40
0.4296875
 40
0.43359375
 40
0.4375
 40
0.44140625
 40
0.4453125
 40
0.453125
 40
0.46875
 40
0.484375
 40
0.4921875
 40
0.49609375
 40
0.5
 40
0.50390625
 40
0.5078125
 40
0.515625
 40
0.53125
 40
0.546875
 40
0.5546875
 40
0.55859375
 40
0.5625
 40
0.56640625
 40
0.5703125
 40
0.578125
 40
0.59375
 40
0.609375
 40
0.6171875
 40
0.62109375
 40
0.625
 40
0.62890625
 40
0.6328125
 40
0.640625
 40
0.65625
 40
0.671875
 40
0.6796875
 40
0.68359375
 40
0.6875
 40
0.69140625
 40
0.6953125
 40
0.703125
 40
0.71875
 40
0.734375
 40
0.7421875
 40
0.74609375
 40
0.75
 40
0.75390625
 40
0.7578125
 40
0.765625
 40
0.78125
 40
0.796875
 40
0.8046875
 40
0.80859375
 40
0.8125
 40
0.81640625
 40
0.8203125
 40
0.828125
 40
0.84375
 40
0.859375
 40
0.8671875
 40
0.87109375
 40
0.875
 40
0.87890625
 40
0.8828125
 40
0.890625
 40
0.90625
 40
0.921875
 40
0.9296875
 40
0.93359375
 40
0.9375
 40
0.94140625
 40
0.9453125
 40
0.953125
 40
0.96875
 40
0.984375
 40
1.0
 40
1.0
 40
1.0
 40
1.0
 10
16.2104229587
 20
-46.5923484509
 30
0.0
 10
16.2090201734
 20
-46.5750190654
 30
0.0
 10
16.2062083902
 20
-46.5403581277
 30
0.0
 10
16.2020279911
 20
-46.4883797213
 30
0.0
 10
16.1984356043
 20
-46.4450264658
 30
0.0
 10
16.1961329394
 20
-46.4147531247
 30
0.0
 10
16.1944863085
 20
-46.3973386973
 30
0.0
 10
16.1941832294
 20
-46.3846028777
 30
0.0
 10
16.1903179853
 20
-46.3706247419
 30
0.0
 10
16.1864071806
 20
-46.3524205972
 30
0.0
 10
16.1789808815
 20
-46.3203610688
 30
0.0
 10
16.1687031025
 20
-46.2746703927
 30
0.0
 10
16.1582097606
 20
-46.228930402
 30
0.0
 10
16.1510852494
 20
-46.196939914
 30
0.0
 10
16.1467002065
 20
-46.1786272772
 30
0.0
 10
16.1442900116
 20
-46.1649820149
 30
0.0
 10
16.1385224145
 20
-46.1509960704
 30
0.0
 10
16.1320037056
 20
-46.1324669631
 30
0.0
 10
16.1200469557
 20
-46.0999858165
 30
0.0
 10
16.1032788516
 20
-46.0536118274
 30
0.0
 10
16.0863046113
 20
-46.0072324025
 30
0.0
 10
16.0746364519
 20
-45.9747588661
 30
0.0
 10
16.0676642437
 20
-45.9562178
 30
0.0
 10
16.0632880652
 20
-45.9422685474
 30
0.0
 10
16.0556523202
 20
-45.9284854866
 30
0.0
 10
16.0466085371
 20
-45.9100499193
 30
0.0
 10
16.0302496921
 20
-45.8778166111
 30
0.0
 10
16.0071773003
 20
-45.8317390907
 30
0.0
 10
15.9839291228
 20
-45.7857262056
 30
0.0
 10
15.9678163777
 20
-45.753402408
 30
0.0
 10
15.9583858662
 20
-45.7351090382
 30
0.0
 10
15.9519366743
 20
-45.7208896895
 30
0.0
 10
15.9431043299
 20
-45.7085789403
 30
0.0
 10
15.9321593407
 20
-45.69149864
 30
0.0
 10
15.9126162072
 20
-45.6619206806
 30
0.0
 10
15.8849171683
 20
-45.6194846947
 30
0.0
 10
15.8570809555
 20
-45.5771803775
 30
0.0
 10
15.8377298654
 20
-45.5474180819
 30
0.0
 10
15.8264830937
 20
-45.5306274527
 30
0.0
 10
15.8185766729
 20
-45.5174279398
 30
0.0
 10
15.8086501234
 20
-45.5065463924
 30
0.0
 10
15.7961195067
 20
-45.4912288304
 30
0.0
 10
15.7738611611
 20
-45.4648029554
 30
0.0
 10
15.7422471578
 20
-45.4268288947
 30
0.0
 10
15.7105267475
 20
-45.3890225368
 30
0.0
 10
15.6884173718
 20
-45.3623618778
 30
0.0
 10
15.6756526595
 20
-45.3474132621
 30
0.0
 10
15.6664443576
 20
-45.3353997203
 30
0.0
 10
15.6558405183
 20
-45.3264514752
 30
0.0
 10
15.6421889493
 20
-45.3134509282
 30
0.0
 10
15.6180708088
 20
-45.2912017452
 30
0.0
 10
15.5837438941
 20
-45.2591271023
 30
0.0
 10
15.5493407775
 20
-45.2272570818
 30
0.0
 10
15.5253293196
 20
-45.2047214274
 30
0.0
 10
15.5115101064
 20
-45.1921710496
 30
0.0
 10
15.5014206302
 20
-45.1818416036
 30
0.0
 10
15.4902806092
 20
-45.1750152388
 30
0.0
 10
15.475793661
 20
-45.1646910688
 30
0.0
 10
15.4502710695
 20
-45.147197665
 30
0.0
 10
15.4138970231
 20
-45.1218718129
 30
0.0
 10
15.3775004152
 20
-45.0967939307
 30
0.0
 10
15.3520094098
 20
-45.078953369
 30
0.0
 10
15.3374728264
 20
-45.0691747327
 30
0.0
 10
15.3264850954
 20
-45.0606745714
 30
0.0
 10
15.3158236855
 20
-45.0566311612
 30
0.0
 10
15.3014945794
 20
-45.0496849381
 30
0.0
 10
15.2764723955
 20
-45.0382580195
 30
0.0
 10
15.2406927876
 20
-45.0215168048
 30
0.0
 10
15.2049453189
 20
-45.0050552537
 30
0.0
 10
15.17987814
 20
-44.9932368061
 30
0.0
 10
15.1656197403
 20
-44.9869058429
 30
0.0
 10
15.1547413903
 20
-44.9809747032
 30
0.0
 10
15.1445683899
 20
-44.9795640149
 30
0.0
 10
15.1307582211
 20
-44.976105853
 30
0.0
 10
15.1067064693
 20
-44.9707935522
 30
0.0
 10
15.0722752943
 20
-44.9627807958
 30
0.0
 10
15.0379092023
 20
-44.9550545227
 30
0.0
 10
15.0137663343
 20
-44.9493411451
 30
0.0
 10
15.000099348
 20
-44.9465132468
 30
0.0
 10
14.9894870374
 20
-44.9431687954
 30
0.0
 10
14.9802585413
 20
-44.9445000103
 30
0.0
 10
14.9674710162
 20
-44.9446435677
 30
0.0
 10
14.9453195645
 20
-44.9456596179
 30
0.0
 10
14.9135420804
 20
-44.946673212
 30
0.0
 10
14.8818629666
 20
-44.9479816217
 30
0.0
 10
14.8595737966
 20
-44.9485849301
 30
0.0
 10
14.8470026861
 20
-44.9493770817
 30
0.0
 10
14.8371101905
 20
-44.9487182916
 30
0.0
 10
14.8289915667
 20
-44.9528474147
 30
0.0
 10
14.8175477112
 20
-44.9566824008
 30
0.0
 10
14.7978121611
 20
-44.9641763001
 30
0.0
 10
14.7694438832
 20
-44.974437657
 30
0.0
 10
14.7412194842
 20
-44.9849850609
 30
0.0
 10
14.7212825037
 20
-44.9920784943
 30
0.0
 10
14.7101551818
 20
-44.996542784
 30
0.0
 10
14.7010653755
 20
-44.9987410892
 30
0.0
 10
14.6948202095
 20
-45.005333593
 30
0.0
 10
14.6855007824
 20
-45.0125904503
 30
0.0
 10
14.6696572041
 20
-45.0260083065
 30
0.0
 10
14.6467562363
 20
-45.0447686395
 30
0.0
 10
14.6240378941
 20
-45.0637928078
 30
0.0
 10
14.6079386399
 20
-45.0768412945
 30
0.0
 10
14.5990209893
 20
-45.0846785897
 30
0.0
 10
14.5915431
 20
-45.0894902044
 30
0.0
 10
14.5870828543
 20
-45.0983767372
 30
0.0
 10
14.580082943
 20
-45.10880372
 30
0.0
 10
14.5683269751
 20
-45.1277168671
 30
0.0
 10
14.5512479436
 20
-45.1543591789
 30
0.0
 10
14.5343673605
 20
-45.1812389366
 30
0.0
 10
14.522333565
 20
-45.1998196595
 30
0.0
 10
14.5157702399
 20
-45.2107690231
 30
0.0
 10
14.5099704682
 20
-45.2180527964
 30
0.0
 10
14.5075232431
 20
-45.2288836637
 30
0.0
 10
14.5030905206
 20
-45.2420872315
 30
0.0
 10
14.4958817778
 20
-45.2657733265
 30
0.0
 10
14.485268544
 20
-45.2992814081
 30
0.0
 10
14.4748706263
 20
-45.3330017986
 30
0.0
 10
14.467360441
 20
-45.3563906611
 30
0.0
 10
14.4634014139
 20
-45.3700613085
 30
0.0
 10
14.4595008051
 20
-45.3794590906
 30
0.0
 10
14.4591592966
 20
-45.3921248951
 30
0.0
 10
14.4574624956
 20
-45.4078727095
 30
0.0
 10
14.4550715348
 20
-45.4359625184
 30
0.0
 10
14.4513532716
 20
-45.4758129602
 30
0.0
 10
14.4470217087
 20
-45.5237531825
 30
0.0
 10
14.444109171
 20
-45.5556905321
 30
0.0
 10
14.4426560057
 20
-45.5716620568
 30
0.0
  0
SPLINE
  5
3E8
100
AcDbEntity
  8
CURVE
100
AcDbSpline
 62
250
  6
CONTINUOUS
 70
0
 71
3
 72
131
 73
127
 74
0
 42
0.0000001
 43
0.0000001
 44
0.0000000001
 40
0.0
 40
0.0
 40
0.0
 40
0.0
 40
0.015625
 40
0.03125
 40
0.046875
 40
0.0546875
 40
0.05859375
 40
0.0625
 40
0.06640625
 40
0.0703125
 40
0.078125
 40
0.09375
 40
0.109375
 40
0.1171875
 40
0.12109375
 40
0.125
 40
0.12890625
 40
0.1328125
 40
0.140625
 40
0.15625
 40
0.171875
 40
0.1796875
 40
0.18359375
 40
0.1875
 40
0.19140625
 40
0.1953125
 40
0.203125
 40
0.21875
 40
0.234375
 40
0.2421875
 40
0.24609375
 40
0.25
 40
0.25390625
 40
0.2578125
 40
0.265625
 40
0.28125
 40
0.296875
 40
0.3046875
 40
0.30859375
 40
0.3125
 40
0.31640625
 40
0.3203125
 40
0.328125
 40
0.34375
 40
0.359375
 40
0.3671875
 40
0.37109375
 40
0.375
 40
0.37890625
 40
0.3828125
 40
0.390625
 40
0.40625
 40
0.421875
 40
0.4296875
 40
0.43359375
 40
0.4375
 40
0.44140625
 40
0.4453125
 40
0.453125
 40
0.46875
 40
0.484375
 40
0.4921875
 40
0.49609375
 40
0.5
 40
0.50390625
 40
0.5078125
 40
0.515625
 40
0.53125
 40
0.546875
 40
0.5546875
 40
0.55859375
 40
0.5625
 40
0.56640625
 40
0.5703125
 40
0.578125
 40
0.59375
 40
0.609375
 40
0.6171875
 40
0.62109375
 40
0.625
 40
0.62890625
 40
0.6328125
 40
0.640625
 40
0.65625
 40
0.671875
 40
0.6796875
 40
0.68359375
 40
0.6875
 40
0.69140625
 40
0.6953125
 40
0.703125
 40
0.71875
 40
0.734375
 40
0.7421875
 40
0.74609375
 40
0.75
 40
0.75390625
 40
0.7578125
 40
0.765625
 40
0.78125
 40
0.796875
 40
0.8046875
 40
0.80859375
 40
0.8125
 40
0.81640625
 40
0.8203125
 40
0.828125
 40
0.84375
 40
0.859375
 40
0.8671875
 40
0.87109375
 40
0.875
 40
0.87890625
 40
0.8828125
 40
0.890625
 40
0.90625
 40
0.921875
 40
0.9296875
 40
0.93359375
 40
0.9375
 40
0.94140625
 40
0.9453125
 40
0.953125
 40
0.96875
 40
0.984375
 40
1.0
 40
1.0
 40
1.0
 40
1.0
 10
14.4426560057
 20
-45.5716619676
 30
0.0
 10
14.444058791
 20
-45.5889913531
 30
0.0
 10
14.4468705742
 20
-45.6236522907
 30
0.0
 10
14.4510509733
 20
-45.6756306972
 30
0.0
 10
14.4546433601
 20
-45.7189839526
 30
0.0
 10
14.456946025
 20
-45.7492572938
 30
0.0
 10
14.4585926559
 20
-45.7666717212
 30
0.0
 10
14.4588957351
 20
-45.7794075408
 30
0.0
 10
14.4627609792
 20
-45.7933856766
 30
0.0
 10
14.4666717838
 20
-45.8115898213
 30
0.0
 10
14.474098083
 20
-45.8436493497
 30
0.0
 10
14.484375862
 20
-45.8893400258
 30
0.0
 10
14.4948692038
 20
-45.9350800165
 30
0.0
 10
14.501993715
 20
-45.9670705044
 30
0.0
 10
14.5063787579
 20
-45.9853831413
 30
0.0
 10
14.5087889528
 20
-45.9990284036
 30
0.0
 10
14.51455655
 20
-46.0130143481
 30
0.0
 10
14.5210752588
 20
-46.0315434553
 30
0.0
 10
14.5330320087
 20
-46.0640246019
 30
0.0
 10
14.5498001129
 20
-46.110398591
 30
0.0
 10
14.5667743532
 20
-46.156778016
 30
0.0
 10
14.5784425125
 20
-46.1892515524
 30
0.0
 10
14.5854147208
 20
-46.2077926185
 30
0.0
 10
14.5897908993
 20
-46.2217418711
 30
0.0
 10
14.5974266442
 20
-46.2355249319
 30
0.0
 10
14.6064704273
 20
-46.2539604992
 30
0.0
 10
14.6228292723
 20
-46.2861938074
 30
0.0
 10
14.6459016642
 20
-46.3322713278
 30
0.0
 10
14.6691498416
 20
-46.3782842129
 30
0.0
 10
14.6852625867
 20
-46.4106080105
 30
0.0
 10
14.6946930982
 20
-46.4289013803
 30
0.0
 10
14.7011422901
 20
-46.4431207289
 30
0.0
 10
14.7099746346
 20
-46.4554314781
 30
0.0
 10
14.7209196237
 20
-46.4725117785
 30
0.0
 10
14.7404627572
 20
-46.5020897379
 30
0.0
 10
14.7681617962
 20
-46.5445257238
 30
0.0
 10
14.7959980089
 20
-46.586830041
 30
0.0
 10
14.8153490991
 20
-46.6165923366
 30
0.0
 10
14.8265958707
 20
-46.6333829658
 30
0.0
 10
14.8345022915
 20
-46.6465824786
 30
0.0
 10
14.844428841
 20
-46.657464026
 30
0.0
 10
14.8569594578
 20
-46.6727815881
 30
0.0
 10
14.8792178034
 20
-46.6992074631
 30
0.0
 10
14.9108318066
 20
-46.7371815238
 30
0.0
 10
14.9425522169
 20
-46.7749878816
 30
0.0
 10
14.9646615927
 20
-46.8016485406
 30
0.0
 10
14.9774263049
 20
-46.8165971564
 30
0.0
 10
14.9866346069
 20
-46.8286106982
 30
0.0
 10
14.9972384461
 20
-46.8375589432
 30
0.0
 10
15.0108900151
 20
-46.8505594902
 30
0.0
 10
15.0350081557
 20
-46.8728086733
 30
0.0
 10
15.0693350704
 20
-46.9048833162
 30
0.0
 10
15.103738187
 20
-46.9367533367
 30
0.0
 10
15.1277496448
 20
-46.9592889911
 30
0.0
 10
15.1415688581
 20
-46.9718393688
 30
0.0
 10
15.1516583342
 20
-46.9821688149
 30
0.0
 10
15.1627983553
 20
-46.9889951797
 30
0.0
 10
15.1772853034
 20
-46.9993193497
 30
0.0
 10
15.2028078949
 20
-47.0168127535
 30
0.0
 10
15.2391819413
 20
-47.0421386056
 30
0.0
 10
15.2755785492
 20
-47.0672164878
 30
0.0
 10
15.3010695547
 20
-47.0850570494
 30
0.0
 10
15.3156061381
 20
-47.0948356858
 30
0.0
 10
15.3265938691
 20
-47.1033358471
 30
0.0
 10
15.337255279
 20
-47.1073792572
 30
0.0
 10
15.3515843851
 20
-47.1143254804
 30
0.0
 10
15.376606569
 20
-47.1257523989
 30
0.0
 10
15.4123861769
 20
-47.1424936137
 30
0.0
 10
15.4481336455
 20
-47.1589551648
 30
0.0
 10
15.4732008244
 20
-47.1707736124
 30
0.0
 10
15.4874592241
 20
-47.1771045756
 30
0.0
 10
15.4983375741
 20
-47.1830357152
 30
0.0
 10
15.5085105745
 20
-47.1844464036
 30
0.0
 10
15.5223207434
 20
-47.1879045654
 30
0.0
 10
15.5463724951
 20
-47.1932168662
 30
0.0
 10
15.5808036701
 20
-47.2012296227
 30
0.0
 10
15.6151697622
 20
-47.2089558958
 30
0.0
 10
15.6393126301
 20
-47.2146692734
 30
0.0
 10
15.6529796164
 20
-47.2174971717
 30
0.0
 10
15.663591927
 20
-47.2208416231
 30
0.0
 10
15.6728204231
 20
-47.2195104081
 30
0.0
 10
15.6856079483
 20
-47.2193668507
 30
0.0
 10
15.7077593999
 20
-47.2183508006
 30
0.0
 10
15.739536884
 20
-47.2173372065
 30
0.0
 10
15.7712159978
 20
-47.2160287968
 30
0.0
 10
15.7935051678
 20
-47.2154254884
 30
0.0
 10
15.8060762783
 20
-47.2146333368
 30
0.0
 10
15.8159687739
 20
-47.2152921268
 30
0.0
 10
15.8240873978
 20
-47.2111630037
 30
0.0
 10
15.8355312532
 20
-47.2073280177
 30
0.0
 10
15.8552668033
 20
-47.1998341184
 30
0.0
 10
15.8836350812
 20
-47.1895727615
 30
0.0
 10
15.9118594802
 20
-47.1790253575
 30
0.0
 10
15.9317964607
 20
-47.1719319242
 30
0.0
 10
15.9429237826
 20
-47.1674676345
 30
0.0
 10
15.9520135889
 20
-47.1652693293
 30
0.0
 10
15.9582587549
 20
-47.1586768255
 30
0.0
 10
15.967578182
 20
-47.1514199682
 30
0.0
 10
15.9834217603
 20
-47.138002112
 30
0.0
 10
16.0063227282
 20
-47.119241779
 30
0.0
 10
16.0290410703
 20
-47.1002176106
 30
0.0
 10
16.0451403246
 20
-47.087169124
 30
0.0
 10
16.0540579752
 20
-47.0793318288
 30
0.0
 10
16.0615358644
 20
-47.074520214
 30
0.0
 10
16.0659961101
 20
-47.0656336812
 30
0.0
 10
16.0729960214
 20
-47.0552066985
 30
0.0
 10
16.0847519894
 20
-47.0362935514
 30
0.0
 10
16.1018310208
 20
-47.0096512395
 30
0.0
 10
16.1187116039
 20
-46.9827714818
 30
0.0
 10
16.1307453995
 20
-46.9641907589
 30
0.0
 10
16.1373087246
 20
-46.9532413953
 30
0.0
 10
16.1431084962
 20
-46.9459576221
 30
0.0
 10
16.1455557213
 20
-46.9351267548
 30
0.0
 10
16.1499884438
 20
-46.921923187
 30
0.0
 10
16.1571971866
 20
-46.898237092
 30
0.0
 10
16.1678104204
 20
-46.8647290104
 30
0.0
 10
16.1782083381
 20
-46.8310086198
 30
0.0
 10
16.1857185234
 20
-46.8076197574
 30
0.0
 10
16.1896775505
 20
-46.7939491099
 30
0.0
 10
16.1935781593
 20
-46.7845513279
 30
0.0
 10
16.1939196678
 20
-46.7718855233
 30
0.0
 10
16.1956164689
 20
-46.756137709
 30
0.0
 10
16.1980074296
 20
-46.7280479
 30
0.0
 10
16.2017256928
 20
-46.6881974583
 30
0.0
 10
16.2060572557
 20
-46.640257236
 30
0.0
 10
16.2089697935
 20
-46.6083198863
 30
0.0
 10
16.2104229587
 20
-46.5923483617
 30
0.0
  0
SPLINE
  5
3E9
100
AcDbEntity
  8
0
100
AcDbSpline
 62
7
  6
CONTINUOUS
 70
0
 71
3
 72
11
 73
7
 74
0
 42
0.0000001
 43
0.0000001
 44
0.0000000001
 40
0.0
 40
0.0
 40
0.0
 40
0.0
 40
0.2372132543
 40
0.4999938932
 40
0.7627778561
 40
1.0
 40
1.0
 40
1.0
 40
1.0
 10
-12.6041783747
 20
-73.2258345117
 30
0.0
 10
-12.6041783747
 20
-73.28378759
 30
0.0
 10
-12.6259163528
 20
-73.4060187903
 30
0.0
 10
-12.7016872287
 20
-73.5777815377
 30
0.0
 10
-12.8125542202
 20
-73.7292840019
 30
0.0
 10
-12.9075418548
 20
-73.8092279215
 30
0.0
 10
-12.9577317652
 20
-73.8382069468
 30
0.0
  0
SPLINE
  5
3EA
100
AcDbEntity
  8
ASSI
100
AcDbSpline
 62
7
  6
CONTINUOUS
 70
0
 71
3
 72
9
 73
5
 74
0
 42
0.0000001
 43
0.0000001
 44
0.0000000001
 40
0.0
 40
0.0
 40
0.0
 40
0.0
 40
0.2380304145
 40
1.0
 40
1.0
 40
1.0
 40
1.0
 10
10.1164213917
 20
-57.3559982892
 30
0.0
 10
10.1305238399
 20
-57.2965509261
 30
0.0
 10
10.1813500107
 20
-57.0448206408
 30
0.0
 10
10.2000153186
 20
-56.7871059713
 30
0.0
 10
10.2000153186
 20
-56.5915250436
 30
0.0
  0
SPLINE
  5
3EB
100
AcDbEntity
  8
0
100
AcDbSpline
 62
7
  6
CONTINUOUS
 70
0
 71
3
 72
11
 73
7
 74
0
 42
0.0000001
 43
0.0000001
 44
0.0000000001
 40
0.0
 40
0.0
 40
0.0
 40
0.0
 40
0.2372186022
 40
0.4999999534
 40
0.7627813409
 40
1.0
 40
1.0
 40
1.0
 40
1.0
 10
-12.9577317652
 20
-39.5464553215
 30
0.0
 10
-12.9075422827
 20
-39.5174765433
 30
0.0
 10
-12.7908166806
 20
-39.4751833147
 30
0.0
 10
-12.6041784005
 20
-39.4549170855
 30
0.0
 10
-12.4175401055
 20
-39.4751833058
 30
0.0
 10
-12.3008144786
 20
-39.5174765364
 30
0.0
 10
-12.2506249841
 20
-39.5464553215
 30
0.0
  0
SPLINE
  5
3EC
100
AcDbEntity
  8
ASSI
100
AcDbSpline
 62
7
  6
CONTINUOUS
 70
0
 71
3
 72
11
 73
7
 74
0
 42
0.0000001
 43
0.0000001
 44
0.0000000001
 40
0.0
 40
0.0
 40
0.0
 40
0.0
 40
0.2177723708
 40
0.4509513093
 40
0.7101971511
 40
1.0
 40
1.0
 40
1.0
 40
1.0
 10
0.8112765218
 20
-41.3502635732
 30
0.0
 10
0.8566255767
 20
-41.3240795976
 30
0.0
 10
0.94150305
 20
-41.252755935
 30
0.0
 10
1.0317827177
 20
-41.1050470767
 30
0.0
 10
1.0854922569
 20
-40.9230419752
 30
0.0
 10
1.0960155108
 20
-40.7905618858
 30
0.0
 10
1.0960155108
 20
-40.7208760562
 30
0.0
  0
SPLINE
  5
3ED
100
AcDbEntity
  8
ASSI
100
AcDbSpline
 62
7
  6
CONTINUOUS
 70
0
 71
3
 72
17
 73
13
 74
0
 42
0.0000001
 43
0.0000001
 44
0.0000000001
 40
0.0
 40
0.0
 40
0.0
 40
0.0
 40
0.0428588751
 40
0.0874872587
 40
0.1353202047
 40
0.1872841634
 40
0.3045480812
 40
0.4382184767
 40
0.5825654392
 40
0.7297224723
 40
0.8713177442
 40
1.0
 40
1.0
 40
1.0
 40
1.0
 10
2.2254900841
 20
65.6072637768
 30
0.0
 10
2.2593868162
 20
65.6268353207
 30
0.0
 10
2.3236425923
 20
65.6760190647
 30
0.0
 10
2.4009638342
 20
65.7738017885
 30
0.0
 10
2.4587541917
 20
65.8933878777
 30
0.0
 10
2.510630724
 20
66.0856689159
 30
0.0
 10
2.5171361128
 20
66.3660077508
 30
0.0
 10
2.4445510118
 20
66.7217893548
 30
0.0
 10
2.2983260695
 20
67.0836540807
 30
0.0
 10
2.0901742237
 20
67.4221933568
 30
0.0
 10
1.8372936845
 20
67.7098762346
 30
0.0
 10
1.6397309822
 20
67.8619126122
 30
0.0
 10
1.5379572491
 20
67.9206754902
 30
0.0
  0
SPLINE
  5
3EE
100
AcDbEntity
  8
0
100
AcDbSpline
 62
7
  6
CONTINUOUS
 70
0
 71
3
 72
11
 73
7
 74
0
 42
0.0000001
 43
0.0000001
 44
0.0000000001
 40
0.0
 40
0.0
 40
0.0
 40
0.0
 40
0.2612322637
 40
0.5224623243
 40
0.7720317472
 40
1.0
 40
1.0
 40
1.0
 40
1.0
 10
-22.6804500066
 20
46.1740279172
 30
0.0
 10
-22.6262424301
 20
46.10659177
 30
0.0
 10
-22.5284054951
 20
45.9629087346
 30
0.0
 10
-22.416923659
 20
45.7317422907
 30
0.0
 10
-22.3455869152
 20
45.4966527034
 30
0.0
 10
-22.326896616
 20
45.3383115361
 30
0.0
 10
-22.326896616
 20
45.2628066194
 30
0.0
  0
SPLINE
  5
3EF
100
AcDbEntity
  8
0
100
AcDbSpline
 62
7
  6
CONTINUOUS
 70
0
 71
3
 72
11
 73
7
 74
0
 42
0.0000001
 43
0.0000001
 44
0.0000000001
 40
0.0
 40
0.0
 40
0.0
 40
0.0
 40
0.2898048615
 40
0.5490487385
 40
0.7822272746
 40
1.0
 40
1.0
 40
1.0
 40
1.0
 10
-22.326896616
 20
-34.7512805063
 30
0.0
 10
-22.326896616
 20
-34.8019614558
 30
0.0
 10
-22.3345501638
 20
-34.8983104815
 30
0.0
 10
-22.3736108502
 20
-35.0306782482
 30
0.0
 10
-22.4392704427
 20
-35.1381011187
 30
0.0
 10
-22.5009980586
 20
-35.1899744432
 30
0.0
 10
-22.533979237
 20
-35.2090173675
 30
0.0
  0
SPLINE
  5
3F0
100
AcDbEntity
  8
ASSI
100
AcDbSpline
 62
7
  6
CONTINUOUS
 70
0
 71
3
 72
17
 73
13
 74
0
 42
0.0000001
 43
0.0000001
 44
0.0000000001
 40
0.0
 40
0.0
 40
0.0
 40
0.0
 40
0.1286775573
 40
0.2702704757
 40
0.4174273866
 40
0.5617758268
 40
0.6954484185
 40
0.8127143474
 40
0.8646790217
 40
0.9125124277
 40
0.957141039
 40
1.0
 40
1.0
 40
1.0
 40
1.0
 10
1.0960155108
 20
-37.454994949
 30
0.0
 10
1.0960155108
 20
-37.3374745353
 30
0.0
 10
1.063131195
 20
-37.0903578722
 30
0.0
 10
0.9404247615
 20
-36.7275082924
 30
0.0
 10
0.7513035108
 20
-36.3779642522
 30
0.0
 10
0.5110130973
 20
-36.0703883414
 30
0.0
 10
0.2391687314
 20
-35.8296312261
 30
0.0
 10
-0.0068820052
 20
-35.6950949606
 30
0.0
 10
-0.199352538
 20
-35.6438839645
 30
0.0
 10
-0.3318191895
 20
-35.6341429112
 30
0.0
 10
-0.4551670329
 20
-35.6522195541
 30
0.0
 10
-0.5298910153
 20
-35.6832799434
 30
0.0
 10
-0.5637891483
 20
-35.7028523003
 30
0.0
  0
SPLINE
  5
3F1
100
AcDbEntity
  8
ASSI
100
AcDbSpline
 62
7
  6
CONTINUOUS
 70
0
 71
3
 72
11
 73
7
 74
0
 42
0.0000001
 43
0.0000001
 44
0.0000000001
 40
0.0
 40
0.0
 40
0.0
 40
0.0
 40
0.289808382
 40
0.549056278
 40
0.7822329736
 40
1.0
 40
1.0
 40
1.0
 40
1.0
 10
-1.2904698757
 20
69.5537738635
 30
0.0
 10
-1.350828778
 20
69.5886243373
 30
0.0
 10
-1.4708396678
 20
69.6457634851
 30
0.0
 10
-1.6553436203
 20
69.6902627183
 30
0.0
 10
-1.8284280253
 20
69.6859324363
 30
0.0
 10
-1.9326479859
 20
69.6480795596
 30
0.0
 10
-1.9780027107
 20
69.6218923158
 30
0.0
  0
SPLINE
  5
3F2
100
AcDbEntity
  8
ASSI
100
AcDbSpline
 62
7
  6
CONTINUOUS
 70
0
 71
3
 72
15
 73
11
 74
0
 42
0.0000001
 43
0.0000001
 44
0.0000000001
 40
0.0
 40
0.0
 40
0.0
 40
0.0
 40
0.1176318953
 40
0.2454754195
 40
0.3798974895
 40
0.5165271372
 40
0.650762488
 40
0.7782523104
 40
0.8954061242
 40
1.0
 40
1.0
 40
1.0
 40
1.0
 10
10.2000153186
 20
-56.5915250436
 30
0.0
 10
10.2000153186
 20
-56.3167879811
 30
0.0
 10
10.1417660788
 20
-55.7428616842
 30
0.0
 10
9.9140303445
 20
-54.8823600626
 30
0.0
 10
9.552938872
 20
-54.0204734211
 30
0.0
 10
9.0761564162
 20
-53.1997329979
 30
0.0
 10
8.5071079217
 20
-52.460227113
 30
0.0
 10
7.8732444162
 20
-51.838017137
 30
0.0
 10
7.2054798724
 20
-51.3633677488
 30
0.0
 10
6.7288021914
 20
-51.1480325148
 30
0.0
 10
6.4948737227
 20
-51.0776544235
 30
0.0
  0
SPLINE
  5
3F3
100
AcDbEntity
  8
ASSI
100
AcDbSpline
 62
7
  6
CONTINUOUS
 70
0
 71
3
 72
11
 73
7
 74
0
 42
0.0000001
 43
0.0000001
 44
0.0000000001
 40
0.0
 40
0.0
 40
0.0
 40
0.0
 40
0.2177723708
 40
0.4509513093
 40
0.7101971511
 40
1.0
 40
1.0
 40
1.0
 40
1.0
 10
-0.5637891483
 20
-35.7028523003
 30
0.0
 10
-0.6091382033
 20
-35.729036276
 30
0.0
 10
-0.6940156766
 20
-35.8003599386
 30
0.0
 10
-0.7842953443
 20
-35.9480687969
 30
0.0
 10
-0.8380048835
 20
-36.1300738984
 30
0.0
 10
-0.8485281374
 20
-36.2625539878
 30
0.0
 10
-0.8485281374
 20
-36.3322398174
 30
0.0
  0
SPLINE
  5
3F4
100
AcDbEntity
  8
0
100
AcDbSpline
 62
7
  6
CONTINUOUS
 70
0
 71
3
 72
11
 73
7
 74
0
 42
0.0000001
 43
0.0000001
 44
0.0000000001
 40
0.0
 40
0.0
 40
0.0
 40
0.0
 40
0.2372186591
 40
0.5000000466
 40
0.7627813978
 40
1.0
 40
1.0
 40
1.0
 40
1.0
 10
-12.2506249841
 20
82.9240861974
 30
0.0
 10
-12.3008144786
 20
82.9530649826
 30
0.0
 10
-12.4175401055
 20
82.9953582132
 30
0.0
 10
-12.6041784005
 20
83.0156244334
 30
0.0
 10
-12.7908166806
 20
82.9953582043
 30
0.0
 10
-12.9075422827
 20
82.9530649756
 30
0.0
 10
-12.9577317652
 20
82.9240861974
 30
0.0
  0
SPLINE
  5
3F5
100
AcDbEntity
  8
ASSI
100
AcDbSpline
 62
7
  6
CONTINUOUS
 70
0
 71
3
 72
17
 73
13
 74
0
 42
0.0000001
 43
0.0000001
 44
0.0000000001
 40
0.0
 40
0.0
 40
0.0
 40
0.0
 40
0.1286775573
 40
0.2702704757
 40
0.4174273866
 40
0.5617758268
 40
0.6954484185
 40
0.8127143474
 40
0.8646790217
 40
0.9125124277
 40
0.957141039
 40
1.0
 40
1.0
 40
1.0
 40
1.0
 10
-0.8485281374
 20
-39.5981209246
 30
0.0
 10
-0.8485281374
 20
-39.7156413383
 30
0.0
 10
-0.8156438216
 20
-39.9627580014
 30
0.0
 10
-0.6929373881
 20
-40.3256075812
 30
0.0
 10
-0.5038161374
 20
-40.6751516213
 30
0.0
 10
-0.2635257239
 20
-40.9827275322
 30
0.0
 10
0.008318642
 20
-41.2234846475
 30
0.0
 10
0.2543693786
 20
-41.358020913
 30
0.0
 10
0.4468399115
 20
-41.4092319091
 30
0.0
 10
0.5793065629
 20
-41.4189729624
 30
0.0
 10
0.7026544064
 20
-41.4008963195
 30
0.0
 10
0.7773783887
 20
-41.3698359302
 30
0.0
 10
0.8112765218
 20
-41.3502635732
 30
0.0
  0
SPLINE
  5
3F6
100
AcDbEntity
  8
ASSI
100
AcDbSpline
 62
7
  6
CONTINUOUS
 70
0
 71
3
 72
11
 73
7
 74
0
 42
0.0000001
 43
0.0000001
 44
0.0000000001
 40
0.0
 40
0.0
 40
0.0
 40
0.0
 40
0.289808382
 40
0.549056278
 40
0.7822329736
 40
1.0
 40
1.0
 40
1.0
 40
1.0
 10
1.5379572491
 20
65.675382229
 30
0.0
 10
1.5983161514
 20
65.6405317553
 30
0.0
 10
1.7183270413
 20
65.5833926075
 30
0.0
 10
1.9028309937
 20
65.5388933742
 30
0.0
 10
2.0759153987
 20
65.5432236563
 30
0.0
 10
2.1801353593
 20
65.5810765329
 30
0.0
 10
2.2254900841
 20
65.6072637768
 30
0.0
  0
SPLINE
  5
3F7
100
AcDbEntity
  8
ASSI
100
AcDbSpline
 62
7
  6
CONTINUOUS
 70
0
 71
3
 72
17
 73
13
 74
0
 42
0.0000001
 43
0.0000001
 44
0.0000000001
 40
0.0
 40
0.0
 40
0.0
 40
0.0
 40
0.0428588751
 40
0.0874872587
 40
0.1353202047
 40
0.1872841634
 40
0.3045480812
 40
0.4382184767
 40
0.5825654392
 40
0.7297224723
 40
0.8713177442
 40
1.0
 40
1.0
 40
1.0
 40
1.0
 10
-1.9780027107
 20
69.6218923158
 30
0.0
 10
-2.0118994428
 20
69.6023207719
 30
0.0
 10
-2.0761552188
 20
69.5531370279
 30
0.0
 10
-2.1534764608
 20
69.4553543041
 30
0.0
 10
-2.2112668183
 20
69.3357682148
 30
0.0
 10
-2.2631433506
 20
69.1434871767
 30
0.0
 10
-2.2696487394
 20
68.8631483417
 30
0.0
 10
-2.1970636383
 20
68.5073667378
 30
0.0
 10
-2.0508386961
 20
68.1455020118
 30
0.0
 10
-1.8426868503
 20
67.8069627357
 30
0.0
 10
-1.5898063111
 20
67.5192798579
 30
0.0
 10
-1.3922436088
 20
67.3672434803
 30
0.0
 10
-1.2904698757
 20
67.3084806023
 30
0.0
  0
SPLINE
  5
3F8
100
AcDbEntity
  8
0
100
AcDbSpline
 62
7
  6
CONTINUOUS
 70
0
 71
3
 72
11
 73
7
 74
0
 42
0.0000001
 43
0.0000001
 44
0.0000000001
 40
0.0
 40
0.0
 40
0.0
 40
0.0
 40
0.2898145151
 40
0.5490527894
 40
0.7822328482
 40
1.0
 40
1.0
 40
1.0
 40
1.0
 10
-41.5955564033
 20
100.8848146347
 30
0.0
 10
-41.6394546731
 20
100.9101609455
 30
0.0
 10
-41.7267343879
 20
100.9517176997
 30
0.0
 10
-41.8609198119
 20
100.9840762754
 30
0.0
 10
-41.9867978497
 20
100.9809296048
 30
0.0
 10
-42.0625953273
 20
100.953401082
 30
0.0
 10
-42.0955805634
 20
100.9343558124
 30
0.0
  0
SPLINE
  5
3F9
100
AcDbEntity
  8
0
100
AcDbSpline
 62
7
  6
CONTINUOUS
 70
0
 71
3
 72
11
 73
7
 74
0
 42
0.0000001
 43
0.0000001
 44
0.0000000001
 40
0.0
 40
0.0
 40
0.0
 40
0.0
 40
0.2372225455
 40
0.5000061068
 40
0.7627863441
 40
1.0
 40
1.0
 40
1.0
 40
1.0
 10
11.7910055763
 20
70.0600828385
 30
0.0
 10
11.8913855853
 20
70.0021246793
 30
0.0
 10
12.0813612943
 20
69.8422372536
 30
0.0
 10
12.3030946861
 20
69.5392320414
 30
0.0
 10
12.4546369791
 20
69.1957069168
 30
0.0
 10
12.4981123575
 20
68.9512443422
 30
0.0
 10
12.4981123575
 20
68.8353379683
 30
0.0
  0
SPLINE
  5
3FA
100
AcDbEntity
  8
0
100
AcDbSpline
 62
7
  6
CONTINUOUS
 70
0
 71
3
 72
11
 73
7
 74
0
 42
0.0000001
 43
0.0000001
 44
0.0000000001
 40
0.0
 40
0.0
 40
0.0
 40
0.0
 40
0.2177724354
 40
0.4509525964
 40
0.7101928501
 40
1.0
 40
1.0
 40
1.0
 40
1.0
 10
19.0173857481
 20
-118.2751847169
 30
0.0
 10
18.9926499036
 20
-118.2609025526
 30
0.0
 10
18.94635259
 20
-118.221999027
 30
0.0
 10
18.8971103757
 20
-118.1414304921
 30
0.0
 10
18.8678130438
 20
-118.0421555483
 30
0.0
 10
18.8620733882
 20
-117.9698937519
 30
0.0
 10
18.8620733882
 20
-117.9318827536
 30
0.0
  0
SPLINE
  5
3FB
100
AcDbEntity
  8
0
100
AcDbSpline
 62
7
  6
CONTINUOUS
 70
0
 71
3
 72
11
 73
7
 74
0
 42
0.0000001
 43
0.0000001
 44
0.0000000001
 40
0.0
 40
0.0
 40
0.0
 40
0.0
 40
0.2177670917
 40
0.4509450057
 40
0.7101873158
 40
1.0
 40
1.0
 40
1.0
 40
1.0
 10
-35.7833897939
 20
-86.633903734
 30
0.0
 10
-35.758650858
 20
-86.6481876832
 30
0.0
 10
-35.7018036035
 20
-86.6688352911
 30
0.0
 10
-35.6073944911
 20
-86.6711961619
 30
0.0
 10
-35.5067558527
 20
-86.6469251878
 30
0.0
 10
-35.4412955784
 20
-86.6157581557
 30
0.0
 10
-35.4083720679
 20
-86.5967485333
 30
0.0
  0
SPLINE
  5
3FC
100
AcDbEntity
  8
0
100
AcDbSpline
 62
7
  6
CONTINUOUS
 70
0
 71
3
 72
9
 73
5
 74
0
 42
0.0000001
 43
0.0000001
 44
0.0000000001
 40
0.0
 40
0.0
 40
0.0
 40
0.0
 40
0.4745107853
 40
1.0
 40
1.0
 40
1.0
 40
1.0
 10
-13.1345084605
 20
-73.7360988435
 30
0.0
 10
-13.0812388908
 20
-73.7053416615
 30
0.0
 10
-12.956783862
 20
-73.6616171709
 30
0.0
 10
-12.8264508157
 20
-73.6500580953
 30
0.0
 10
-12.758354279
 20
-73.6518376643
 30
0.0
  0
SPLINE
  5
3FD
100
AcDbEntity
  8
0
100
AcDbSpline
 62
7
  6
CONTINUOUS
 70
0
 71
3
 72
11
 73
7
 74
0
 42
0.0000001
 43
0.0000001
 44
0.0000000001
 40
0.0
 40
0.0
 40
0.0
 40
0.0
 40
0.2177724962
 40
0.4509547994
 40
0.7101910209
 40
1.0
 40
1.0
 40
1.0
 40
1.0
 10
-42.0955805634
 20
100.9343558124
 30
0.0
 10
-42.1285616777
 20
100.9153129226
 30
0.0
 10
-42.1902906033
 20
100.8634397786
 30
0.0
 10
-42.2559455
 20
100.7560151565
 30
0.0
 10
-42.2950112512
 20
100.6236494315
 30
0.0
 10
-42.3026631845
 20
100.5273005772
 30
0.0
 10
-42.3026631845
 20
100.4766189512
 30
0.0
  0
SPLINE
  5
3FE
100
AcDbEntity
  8
0
100
AcDbSpline
 62
7
  6
CONTINUOUS
 70
0
 71
3
 72
11
 73
7
 74
0
 42
0.0000001
 43
0.0000001
 44
0.0000000001
 40
0.0
 40
0.0
 40
0.0
 40
0.0
 40
0.2898071499
 40
0.5490474036
 40
0.7822275646
 40
1.0
 40
1.0
 40
1.0
 40
1.0
 10
-35.9387021538
 20
-86.2906017707
 30
0.0
 10
-35.9387021538
 20
-86.328612769
 30
0.0
 10
-35.9329624982
 20
-86.4008745654
 30
0.0
 10
-35.9036651663
 20
-86.5001495092
 30
0.0
 10
-35.854422952
 20
-86.5807180441
 30
0.0
 10
-35.8081256384
 20
-86.6196215697
 30
0.0
 10
-35.7833897939
 20
-86.633903734
 30
0.0
  0
SPLINE
  5
3FF
100
AcDbEntity
  8
ASSI
100
AcDbSpline
 62
7
  6
CONTINUOUS
 70
0
 71
3
 72
12
 73
8
 74
0
 42
0.0000001
 43
0.0000001
 44
0.0000000001
 40
0.0
 40
0.0
 40
0.0
 40
0.0
 40
0.2858841312
 40
0.556763848
 40
0.6816887381
 40
0.7975884778
 40
1.0
 40
1.0
 40
1.0
 40
1.0
 10
-25.4214684207
 20
-80.7203759645
 30
0.0
 10
-25.3475720465
 20
-80.8600664979
 30
0.0
 10
-25.1786907459
 20
-81.1196427382
 30
0.0
 10
-24.9164612237
 20
-81.3940803515
 30
0.0
 10
-24.688216575
 20
-81.5626054468
 30
0.0
 10
-24.4739765737
 20
-81.6816013589
 30
0.0
 10
-24.3003580957
 20
-81.7333966288
 30
0.0
 10
-24.18864477
 20
-81.7396773301
 30
0.0
  0
SPLINE
  5
400
100
AcDbEntity
  8
ASSI
100
AcDbSpline
 62
7
  6
CONTINUOUS
 70
0
 71
3
 72
12
 73
8
 74
0
 42
0.0000001
 43
0.0000001
 44
0.0000000001
 40
0.0
 40
0.0
 40
0.0
 40
0.0
 40
0.2858841312
 40
0.556763848
 40
0.6816887381
 40
0.7975884778
 40
1.0
 40
1.0
 40
1.0
 40
1.0
 10
13.1158511539
 20
-102.9713413009
 30
0.0
 10
13.1897475281
 20
-103.1110318342
 30
0.0
 10
13.3586288287
 20
-103.3706080746
 30
0.0
 10
13.6208583509
 20
-103.6450456878
 30
0.0
 10
13.8491029997
 20
-103.8135707831
 30
0.0
 10
14.0633430009
 20
-103.9325666952
 30
0.0
 10
14.236961479
 20
-103.9843619652
 30
0.0
 10
14.3486748047
 20
-103.9906426665
 30
0.0
  0
SPLINE
  5
401
100
AcDbEntity
  8
ASSI
100
AcDbSpline
 62
7
  6
CONTINUOUS
 70
0
 71
3
 72
12
 73
8
 74
0
 42
0.0000001
 43
0.0000001
 44
0.0000000001
 40
0.0
 40
0.0
 40
0.0
 40
0.0
 40
0.2858841312
 40
0.556763848
 40
0.6816887381
 40
0.7975884778
 40
1.0
 40
1.0
 40
1.0
 40
1.0
 10
-25.4214684207
 20
5.8254733755
 30
0.0
 10
-25.3475720465
 20
5.6857828422
 30
0.0
 10
-25.1786907459
 20
5.4262066018
 30
0.0
 10
-24.9164612237
 20
5.1517689886
 30
0.0
 10
-24.688216575
 20
4.9832438933
 30
0.0
 10
-24.4739765737
 20
4.8642479812
 30
0.0
 10
-24.3003580957
 20
4.8124527112
 30
0.0
 10
-24.18864477
 20
4.8061720099
 30
0.0
  0
SPLINE
  5
402
100
AcDbEntity
  8
ASSI
100
AcDbSpline
 62
7
  6
CONTINUOUS
 70
0
 71
3
 72
12
 73
8
 74
0
 42
0.0000001
 43
0.0000001
 44
0.0000000001
 40
0.0
 40
0.0
 40
0.0
 40
0.0
 40
0.2858841312
 40
0.556763848
 40
0.6816887381
 40
0.7975884778
 40
1.0
 40
1.0
 40
1.0
 40
1.0
 10
13.1158511539
 20
-16.4254919608
 30
0.0
 10
13.1897475281
 20
-16.5651824942
 30
0.0
 10
13.3586288287
 20
-16.8247587346
 30
0.0
 10
13.6208583509
 20
-17.0991963478
 30
0.0
 10
13.8491029997
 20
-17.2677214431
 30
0.0
 10
14.0633430009
 20
-17.3867173552
 30
0.0
 10
14.236961479
 20
-17.4385126251
 30
0.0
 10
14.3486748047
 20
-17.4447933264
 30
0.0
  0
SPLINE
  5
403
100
AcDbEntity
  8
0
100
AcDbSpline
 62
7
  6
CONTINUOUS
 70
0
 71
3
 72
9
 73
5
 74
0
 42
0.0000001
 43
0.0000001
 44
0.0000000001
 40
0.0
 40
0.0
 40
0.0
 40
0.0
 40
0.2736089186
 40
1.0
 40
1.0
 40
1.0
 40
1.0
 10
10.9071220998
 20
-100.683149194
 30
0.0
 10
10.9435744774
 20
-100.70419634
 30
0.0
 10
11.0798661347
 20
-100.7750688152
 30
0.0
 10
11.2318985126
 20
-100.8203801139
 30
0.0
 10
11.3434710245
 20
-100.826652785
 30
0.0
  0
SPLINE
  5
404
100
AcDbEntity
  8
0
100
AcDbSpline
 62
7
  6
CONTINUOUS
 70
0
 71
3
 72
13
 73
9
 74
0
 42
0.0000001
 43
0.0000001
 44
0.0000000001
 40
0.0
 40
0.0
 40
0.0
 40
0.0
 40
0.1142548352
 40
0.2375328926
 40
0.4999939348
 40
0.762458297
 40
0.8857402309
 40
1.0
 40
1.0
 40
1.0
 40
1.0
 10
-22.6804500066
 20
-80.0654005958
 30
0.0
 10
-22.6804500066
 20
-80.1492425381
 30
0.0
 10
-22.6651038561
 20
-80.323725183
 30
0.0
 10
-22.58169282
 20
-80.6819246459
 30
0.0
 10
-22.3880013286
 20
-81.1212867226
 30
0.0
 10
-22.1043462572
 20
-81.5087111087
 30
0.0
 10
-21.8358376641
 20
-81.7600552351
 30
0.0
 10
-21.6924010527
 20
-81.8605930938
 30
0.0
 10
-21.6197898348
 20
-81.902517901
 30
0.0
  0
SPLINE
  5
405
100
AcDbEntity
  8
ASSI
100
AcDbSpline
 62
7
  6
CONTINUOUS
 70
0
 71
3
 72
9
 73
5
 74
0
 42
0.0000001
 43
0.0000001
 44
0.0000000001
 40
0.0
 40
0.0
 40
0.0
 40
0.0
 40
0.5372627393
 40
1.0
 40
1.0
 40
1.0
 40
1.0
 10
1.8915106397
 20
65.8795195257
 30
0.0
 10
1.9706979591
 20
65.8337977599
 30
0.0
 10
2.1276261132
 20
65.7632246293
 30
0.0
 10
2.3007182356
 20
65.7421570246
 30
0.0
 10
2.3791422443
 20
65.7493730583
 30
0.0
  0
SPLINE
  5
406
100
AcDbEntity
  8
ASSI
100
AcDbSpline
 62
7
  6
CONTINUOUS
 70
0
 71
3
 72
15
 73
11
 74
0
 42
0.0000001
 43
0.0000001
 44
0.0000000001
 40
0.0
 40
0.0
 40
0.0
 40
0.0
 40
0.1235169451
 40
0.2587436437
 40
0.400282786
 40
0.5418066222
 40
0.6769893672
 40
0.7405257979
 40
0.80059776
 40
1.0
 40
1.0
 40
1.0
 40
1.0
 10
-0.4949747468
 20
-39.3939836279
 30
0.0
 10
-0.4949747468
 20
-39.4978952053
 30
0.0
 10
-0.469227492
 20
-39.7158164956
 30
0.0
 10
-0.3709902141
 20
-40.0393196161
 30
0.0
 10
-0.2174278193
 20
-40.3574709742
 30
0.0
 10
-0.0185067868
 20
-40.6492861223
 30
0.0
 10
0.1781036675
 20
-40.8590994664
 30
0.0
 10
0.3478903908
 20
-40.9964621237
 30
0.0
 10
0.5737053214
 20
-41.145028551
 30
0.0
 10
0.7978824516
 20
-41.2235247317
 30
0.0
 10
0.9649286975
 20
-41.2081543316
 30
0.0
  0
SPLINE
  5
407
100
AcDbEntity
  8
0
100
AcDbSpline
 62
7
  6
CONTINUOUS
 70
0
 71
3
 72
11
 73
7
 74
0
 42
0.0000001
 43
0.0000001
 44
0.0000000001
 40
0.0
 40
0.0
 40
0.0
 40
0.0
 40
0.228725388
 40
0.4801287095
 40
0.7419206126
 40
1.0
 40
1.0
 40
1.0
 40
1.0
 10
-13.3112851558
 20
83.1282234941
 30
0.0
 10
-13.2393347928
 20
83.169766732
 30
0.0
 10
-13.0768270069
 20
83.2374935701
 30
0.0
 10
-12.8117530667
 20
83.2925898761
 30
0.0
 10
-12.5306042645
 20
83.303483692
 30
0.0
 10
-12.3421440988
 20
83.2800211723
 30
0.0
 10
-12.2505554109
 20
83.2600300541
 30
0.0
  0
SPLINE
  5
408
100
AcDbEntity
  8
ASSI
100
AcDbSpline
 62
7
  6
CONTINUOUS
 70
0
 71
3
 72
9
 73
5
 74
0
 42
0.0000001
 43
0.0000001
 44
0.0000000001
 40
0.0
 40
0.0
 40
0.0
 40
0.0
 40
0.4627444608
 40
1.0
 40
1.0
 40
1.0
 40
1.0
 10
-0.3638997847
 20
-35.640834069
 30
0.0
 10
-0.4093473691
 20
-35.7051329724
 30
0.0
 10
-0.4776291174
 20
-35.8655333915
 30
0.0
 10
-0.4949747468
 20
-36.0366849596
 30
0.0
 10
-0.4949747468
 20
-36.1281025207
 30
0.0
  0
SPLINE
  5
409
100
AcDbEntity
  8
ASSI
100
AcDbSpline
 62
7
  6
CONTINUOUS
 70
0
 71
3
 72
15
 73
11
 74
0
 42
0.0000001
 43
0.0000001
 44
0.0000000001
 40
0.0
 40
0.0
 40
0.0
 40
0.0
 40
0.1994008579
 40
0.2594719241
 40
0.3230073554
 40
0.4581881462
 40
0.5997107174
 40
0.7412500206
 40
0.8764788422
 40
1.0
 40
1.0
 40
1.0
 40
1.0
 10
-1.7781133738
 20
69.6839105806
 30
0.0
 10
-1.8749335051
 20
69.5469301152
 30
0.0
 10
-1.9190296217
 20
69.3135512427
 30
0.0
 10
-1.9032655089
 20
69.0437218
 30
0.0
 10
-1.869193803
 20
68.82801498
 30
0.0
 10
-1.7857915011
 20
68.5528570797
 30
0.0
 10
-1.6325323117
 20
68.2346995635
 30
0.0
 10
-1.433789228
 20
67.9426513007
 30
0.0
 10
-1.2027506277
 20
67.695832896
 30
0.0
 10
-1.0269041384
 20
67.5645756422
 30
0.0
 10
-0.9369164851
 20
67.512617899
 30
0.0
  0
SPLINE
  5
40A
100
AcDbEntity
  8
ASSI
100
AcDbSpline
 62
7
  6
CONTINUOUS
 70
0
 71
3
 72
11
 73
7
 74
0
 42
0.0000001
 43
0.0000001
 44
0.0000000001
 40
0.0
 40
0.0
 40
0.0
 40
0.0
 40
0.2358423012
 40
0.4970719313
 40
0.7598863133
 40
1.0
 40
1.0
 40
1.0
 40
1.0
 10
13.2052191387
 20
-3.4212556996
 30
0.0
 10
13.2052191387
 20
-3.505390293
 30
0.0
 10
13.2358226393
 20
-3.682847733
 30
0.0
 10
13.3433877028
 20
-3.9337565407
 30
0.0
 10
13.5018762271
 20
-4.1579086086
 30
0.0
 10
13.6379368708
 20
-4.2787805399
 30
0.0
 10
13.7103342007
 20
-4.3245624489
 30
0.0
  0
SPLINE
  5
40B
100
AcDbEntity
  8
ASSI
100
AcDbSpline
 62
7
  6
CONTINUOUS
 70
0
 71
3
 72
11
 73
7
 74
0
 42
0.0000001
 43
0.0000001
 44
0.0000000001
 40
0.0
 40
0.0
 40
0.0
 40
0.0
 40
0.2358423012
 40
0.4970719313
 40
0.7598863133
 40
1.0
 40
1.0
 40
1.0
 40
1.0
 10
13.2052191387
 20
-27.9153640034
 30
0.0
 10
13.2052191387
 20
-27.9994985968
 30
0.0
 10
13.2358226393
 20
-28.1769560368
 30
0.0
 10
13.3433877028
 20
-28.4278648445
 30
0.0
 10
13.5018762271
 20
-28.6520169124
 30
0.0
 10
13.6379368708
 20
-28.7728888437
 30
0.0
 10
13.7103342007
 20
-28.8186707527
 30
0.0
  0
SPLINE
  5
40C
100
AcDbEntity
  8
ASSI
100
AcDbSpline
 62
7
  6
CONTINUOUS
 70
0
 71
3
 72
11
 73
7
 74
0
 42
0.0000001
 43
0.0000001
 44
0.0000000001
 40
0.0
 40
0.0
 40
0.0
 40
0.0
 40
0.2358423012
 40
0.4970719313
 40
0.7598863133
 40
1.0
 40
1.0
 40
1.0
 40
1.0
 10
-24.9785470454
 20
18.6255723401
 30
0.0
 10
-24.9785470454
 20
18.5414377467
 30
0.0
 10
-24.9479435447
 20
18.3639803067
 30
0.0
 10
-24.8403784813
 20
18.113071499
 30
0.0
 10
-24.6818899569
 20
17.8889194311
 30
0.0
 10
-24.5458293133
 20
17.7680474998
 30
0.0
 10
-24.4734319833
 20
17.7222655908
 30
0.0
  0
SPLINE
  5
40D
100
AcDbEntity
  8
ASSI
100
AcDbSpline
 62
7
  6
CONTINUOUS
 70
0
 71
3
 72
11
 73
7
 74
0
 42
0.0000001
 43
0.0000001
 44
0.0000000001
 40
0.0
 40
0.0
 40
0.0
 40
0.0
 40
0.2358423012
 40
0.4970719313
 40
0.7598863133
 40
1.0
 40
1.0
 40
1.0
 40
1.0
 10
-24.9785470454
 20
-5.8685359637
 30
0.0
 10
-24.9785470454
 20
-5.9526705571
 30
0.0
 10
-24.9479435447
 20
-6.1301279971
 30
0.0
 10
-24.8403784813
 20
-6.3810368048
 30
0.0
 10
-24.6818899569
 20
-6.6051888727
 30
0.0
 10
-24.5458293133
 20
-6.726060804
 30
0.0
 10
-24.4734319833
 20
-6.771842713
 30
0.0
  0
SPLINE
  5
40E
100
AcDbEntity
  8
ASSI
100
AcDbSpline
 62
7
  6
CONTINUOUS
 70
0
 71
3
 72
11
 73
7
 74
0
 42
0.0000001
 43
0.0000001
 44
0.0000000001
 40
0.0
 40
0.0
 40
0.0
 40
0.0
 40
0.2358423012
 40
0.4970719313
 40
0.7598863133
 40
1.0
 40
1.0
 40
1.0
 40
1.0
 10
-5.8866639534
 20
-93.2319208637
 30
0.0
 10
-5.8866639534
 20
-93.3160554571
 30
0.0
 10
-5.8560604527
 20
-93.4935128971
 30
0.0
 10
-5.7484953892
 20
-93.7444217047
 30
0.0
 10
-5.5900068649
 20
-93.9685737727
 30
0.0
 10
-5.4539462212
 20
-94.089445704
 30
0.0
 10
-5.3815488913
 20
-94.135227613
 30
0.0
  0
SPLINE
  5
40F
100
AcDbEntity
  8
0
100
AcDbSpline
 62
7
  6
CONTINUOUS
 70
0
 71
3
 72
9
 73
5
 74
0
 42
0.0000001
 43
0.0000001
 44
0.0000000001
 40
0.0
 40
0.0
 40
0.0
 40
0.0
 40
0.5000091576
 40
1.0
 40
1.0
 40
1.0
 40
1.0
 10
41.5841905004
 20
87.5756889929
 30
0.0
 10
41.8758880645
 20
87.4072664753
 30
0.0
 10
42.3641024105
 20
86.8960412674
 30
0.0
 10
42.5627136908
 20
86.2176186615
 30
0.0
 10
42.5627136908
 20
85.8808022398
 30
0.0
  0
SPLINE
  5
410
100
AcDbEntity
  8
0
100
AcDbSpline
 62
7
  6
CONTINUOUS
 70
0
 71
3
 72
11
 73
7
 74
0
 42
0.0000001
 43
0.0000001
 44
0.0000000001
 40
0.0
 40
0.0
 40
0.0
 40
0.0
 40
0.2505995375
 40
0.5008493708
 40
0.7505342847
 40
1.0
 40
1.0
 40
1.0
 40
1.0
 10
-13.3024439596
 20
118.425191378
 30
0.0
 10
-13.1890375527
 20
118.490670816
 30
0.0
 10
-12.9427363281
 20
118.5903748603
 30
0.0
 10
-12.5481531091
 20
118.6331879825
 30
0.0
 10
-12.1571724638
 20
118.5707068453
 30
0.0
 10
-11.9152647858
 20
118.4656039695
 30
0.0
 10
-11.8023714792
 20
118.4004207892
 30
0.0
  0
SPLINE
  5
411
100
AcDbEntity
  8
0
100
AcDbSpline
 62
7
  6
CONTINUOUS
 70
0
 71
3
 72
11
 73
7
 74
0
 42
0.0000001
 43
0.0000001
 44
0.0000000001
 40
0.0
 40
0.0
 40
0.0
 40
0.0
 40
0.2177724962
 40
0.4509547994
 40
0.7101910209
 40
1.0
 40
1.0
 40
1.0
 40
1.0
 10
-42.4705986835
 20
101.5838644032
 30
0.0
 10
-42.5283156335
 20
101.5505393461
 30
0.0
 10
-42.6363412533
 20
101.4597613442
 30
0.0
 10
-42.7512373226
 20
101.2717682555
 30
0.0
 10
-42.8196023872
 20
101.0401282367
 30
0.0
 10
-42.8329932704
 20
100.8715177417
 30
0.0
 10
-42.8329932704
 20
100.7828248962
 30
0.0
  0
SPLINE
  5
412
100
AcDbEntity
  8
0
100
AcDbSpline
 62
7
  6
CONTINUOUS
 70
0
 71
3
 72
11
 73
7
 74
0
 42
0.0000001
 43
0.0000001
 44
0.0000000001
 40
0.0
 40
0.0
 40
0.0
 40
0.0
 40
0.2177670917
 40
0.4509450057
 40
0.7101873158
 40
1.0
 40
1.0
 40
1.0
 40
1.0
 10
19.547715834
 20
-118.5813906619
 30
0.0
 10
19.5724547698
 20
-118.5956746111
 30
0.0
 10
19.6293020244
 20
-118.616322219
 30
0.0
 10
19.7237111367
 20
-118.6186830898
 30
0.0
 10
19.8243497752
 20
-118.5944121157
 30
0.0
 10
19.8898100495
 20
-118.5632450836
 30
0.0
 10
19.9227335599
 20
-118.5442354612
 30
0.0
  0
SPLINE
  5
413
100
AcDbEntity
  8
0
100
AcDbSpline
 62
7
  6
CONTINUOUS
 70
0
 71
3
 72
11
 73
7
 74
0
 42
0.0000001
 43
0.0000001
 44
0.0000000001
 40
0.0
 40
0.0
 40
0.0
 40
0.0
 40
0.2177724354
 40
0.4509525964
 40
0.7101928501
 40
1.0
 40
1.0
 40
1.0
 40
1.0
 10
-36.3137198798
 20
-86.327697789
 30
0.0
 10
-36.3384557243
 20
-86.3134156247
 30
0.0
 10
-36.3847530379
 20
-86.2745120991
 30
0.0
 10
-36.4339952522
 20
-86.1939435642
 30
0.0
 10
-36.4632925841
 20
-86.0946686204
 30
0.0
 10
-36.4690322397
 20
-86.022406824
 30
0.0
 10
-36.4690322397
 20
-85.9843958257
 30
0.0
  0
SPLINE
  5
414
100
AcDbEntity
  8
0
100
AcDbSpline
 62
7
  6
CONTINUOUS
 70
0
 71
3
 72
11
 73
7
 74
0
 42
0.0000001
 43
0.0000001
 44
0.0000000001
 40
0.0
 40
0.0
 40
0.0
 40
0.0
 40
0.2897992591
 40
0.5490418735
 40
0.7822227529
 40
1.0
 40
1.0
 40
1.0
 40
1.0
 10
42.1965971673
 20
-105.6835857714
 30
0.0
 10
42.2514664017
 20
-105.6519049632
 30
0.0
 10
42.3509938377
 20
-105.5833897895
 30
0.0
 10
42.4698835369
 20
-105.4583542972
 30
0.0
 10
42.5451397674
 20
-105.3201133541
 30
0.0
 10
42.5627136908
 20
-105.2208549761
 30
0.0
 10
42.5627136908
 20
-105.1732425298
 30
0.0
  0
SPLINE
  5
415
100
AcDbEntity
  8
0
100
AcDbSpline
 62
7
  6
CONTINUOUS
 70
0
 71
3
 72
13
 73
9
 74
0
 42
0.0000001
 43
0.0000001
 44
0.0000000001
 40
0.0
 40
0.0
 40
0.0
 40
0.0
 40
0.1142597691
 40
0.237541703
 40
0.5000060652
 40
0.7624671074
 40
0.8857451648
 40
1.0
 40
1.0
 40
1.0
 40
1.0
 10
11.7910055763
 20
70.672435546
 30
0.0
 10
11.8757186639
 20
70.623523271
 30
0.0
 10
12.0430613772
 20
70.5062291025
 30
0.0
 10
12.3563214025
 20
70.2129942884
 30
0.0
 10
12.6872523191
 20
69.7609991714
 30
0.0
 10
12.9132257257
 20
69.2484100818
 30
0.0
 10
13.0105386011
 20
68.8305107084
 30
0.0
 10
13.0284424434
 20
68.6269476228
 30
0.0
 10
13.0284424434
 20
68.5291320233
 30
0.0
  0
SPLINE
  5
416
100
AcDbEntity
  8
0
100
AcDbSpline
 62
250
  6
CONTINUOUS
 70
0
 71
3
 72
11
 73
7
 74
0
 42
0.0000001
 43
0.0000001
 44
0.0000000001
 40
0.0
 40
0.0
 40
0.0
 40
0.0
 40
0.2177672127
 40
0.4509438741
 40
0.710193207
 40
1.0
 40
1.0
 40
1.0
 40
1.0
 10
-13.3024439596
 20
118.425191378
 30
0.0
 10
-13.244719717
 20
118.458520639
 30
0.0
 10
-13.1120754606
 20
118.5066954274
 30
0.0
 10
-12.891785998
 20
118.512207332
 30
0.0
 10
-12.65696267
 20
118.4555719025
 30
0.0
 10
-12.5042216848
 20
118.3828492254
 30
0.0
 10
-12.4274016794
 20
118.3384943171
 30
0.0
  0
SPLINE
  5
417
100
AcDbEntity
  8
0
100
AcDbSpline
 62
7
  6
CONTINUOUS
 70
0
 71
3
 72
11
 73
7
 74
0
 42
0.0000001
 43
0.0000001
 44
0.0000000001
 40
0.0
 40
0.0
 40
0.0
 40
0.0
 40
0.2898071499
 40
0.5490474036
 40
0.7822275646
 40
1.0
 40
1.0
 40
1.0
 40
1.0
 10
19.392403474
 20
-118.2380886986
 30
0.0
 10
19.392403474
 20
-118.2760996969
 30
0.0
 10
19.3981431296
 20
-118.3483614933
 30
0.0
 10
19.4274404616
 20
-118.4476364371
 30
0.0
 10
19.4766826759
 20
-118.528204972
 30
0.0
 10
19.5229799895
 20
-118.5671084976
 30
0.0
 10
19.547715834
 20
-118.5813906619
 30
0.0
  0
SPLINE
  5
418
100
AcDbEntity
  8
0
100
AcDbSpline
 62
250
  6
CONTINUOUS
 70
0
 71
3
 72
13
 73
9
 74
0
 42
0.0000001
 43
0.0000001
 44
0.0000000001
 40
0.0
 40
0.0
 40
0.0
 40
0.0
 40
0.1142590655
 40
0.2375417041
 40
0.5000060652
 40
0.7624671063
 40
0.8857458684
 40
1.0
 40
1.0
 40
1.0
 40
1.0
 10
40.9591603002
 20
87.5137625208
 30
0.0
 10
41.0438728693
 20
87.4648505451
 30
0.0
 10
41.2112157257
 20
87.347556558
 30
0.0
 10
41.5244754797
 20
87.0543214568
 30
0.0
 10
41.8554081053
 20
86.6023267594
 30
0.0
 10
42.081380294
 20
86.0897363997
 30
0.0
 10
42.1786935536
 20
85.6718371177
 30
0.0
 10
42.1965971673
 20
85.4682739988
 30
0.0
 10
42.1965971673
 20
85.3704589981
 30
0.0
  0
SPLINE
  5
419
100
AcDbEntity
  8
0
100
AcDbSpline
 62
250
  6
CONTINUOUS
 70
0
 71
3
 72
11
 73
7
 74
0
 42
0.0000001
 43
0.0000001
 44
0.0000000001
 40
0.0
 40
0.0
 40
0.0
 40
0.0
 40
0.2897992591
 40
0.5490418735
 40
0.7822227529
 40
1.0
 40
1.0
 40
1.0
 40
1.0
 10
42.1965971673
 20
85.3704589981
 30
0.0
 10
42.2514664017
 20
85.4021398063
 30
0.0
 10
42.3509938377
 20
85.4706549801
 30
0.0
 10
42.4698835369
 20
85.5956904723
 30
0.0
 10
42.5451397674
 20
85.7339314154
 30
0.0
 10
42.5627136908
 20
85.8331897934
 30
0.0
 10
42.5627136908
 20
85.8808022398
 30
0.0
  0
SPLINE
  5
41A
100
AcDbEntity
  8
0
100
AcDbSpline
 62
250
  6
CONTINUOUS
 70
0
 71
3
 72
11
 73
7
 74
0
 42
0.0000001
 43
0.0000001
 44
0.0000000001
 40
0.0
 40
0.0
 40
0.0
 40
0.0
 40
0.2898088062
 40
0.5490551687
 40
0.7822327652
 40
1.0
 40
1.0
 40
1.0
 40
1.0
 10
40.9591603002
 20
87.5137625208
 30
0.0
 10
41.0140292198
 20
87.5454431473
 30
0.0
 10
41.1231237695
 20
87.5973850486
 30
0.0
 10
41.2908447701
 20
87.6378411637
 30
0.0
 10
41.4481851942
 20
87.6339086684
 30
0.0
 10
41.5429288745
 20
87.5995083357
 30
0.0
 10
41.5841603002
 20
87.5757064284
 30
0.0
  0
SPLINE
  5
41B
100
AcDbEntity
  8
0
100
AcDbSpline
 62
250
  6
CONTINUOUS
 70
0
 71
3
 72
11
 73
7
 74
0
 42
0.0000001
 43
0.0000001
 44
0.0000000001
 40
0.0
 40
0.0
 40
0.0
 40
0.0
 40
0.2898088062
 40
0.5490551687
 40
0.7822327652
 40
1.0
 40
1.0
 40
1.0
 40
1.0
 10
-12.4274016794
 20
118.3384943171
 30
0.0
 10
-12.3725327598
 20
118.3701749435
 30
0.0
 10
-12.2634382101
 20
118.4221168449
 30
0.0
 10
-12.0957172095
 20
118.46257296
 30
0.0
 10
-11.9383767853
 20
118.4586404647
 30
0.0
 10
-11.8436331051
 20
118.4242401319
 30
0.0
 10
-11.8024016794
 20
118.4004382247
 30
0.0
  0
SPLINE
  5
41C
100
AcDbEntity
  8
0
100
AcDbSpline
 62
7
  6
CONTINUOUS
 70
0
 71
3
 72
11
 73
7
 74
0
 42
0.0000001
 43
0.0000001
 44
0.0000000001
 40
0.0
 40
0.0
 40
0.0
 40
0.0
 40
0.2898145151
 40
0.5490527894
 40
0.7822328482
 40
1.0
 40
1.0
 40
1.0
 40
1.0
 10
-41.5955564033
 20
101.4971673423
 30
0.0
 10
-41.6723783754
 20
101.5415233862
 30
0.0
 10
-41.8251178764
 20
101.614247706
 30
0.0
 10
-42.0599423684
 20
101.6708752135
 30
0.0
 10
-42.2802289345
 20
101.6653685399
 30
0.0
 10
-42.4128745204
 20
101.6171936251
 30
0.0
 10
-42.4705986835
 20
101.5838644032
 30
0.0
  0
ENDSEC
  0
SECTION
  2
OBJECTS
  0
DICTIONARY
  5
C
100
AcDbDictionary
280
0
281
1
  3
ACAD_GROUP
350
D
  3
ACAD_MLINESTYLE
350
17
  3
ACAD_LAYOUT
350
1A
  3
ACAD_PLOTSETTINGS
350
19
  3
ACAD_PLOTSTYLENAME
350
E
  0
DICTIONARY
  5
D
102
{ACAD_REACTORS
330
C
102
}
100
AcDbDictionary
280
0
281
1
  0
ACDBDICTIONARYWDFLT
  5
E
102
{ACAD_REACTORS
330
C
102
}
100
AcDbDictionary
281
1
  3
Normal
350
F
100
AcDbDictionaryWithDefault
340
F
  0
DICTIONARY
  5
17
102
{ACAD_REACTORS
330
C
102
}
100
AcDbDictionary
280
0
281
1
  3
Standard
350
18
  0
DICTIONARY
  5
19
102
{ACAD_REACTORS
330
C
102
}
100
AcDbDictionary
281
1
  0
DICTIONARY
  5
1A
102
{ACAD_REACTORS
330
C
102
}
100
AcDbDictionary
281
1
  3
Model
350
41D
  3
Layout1
350
41E
  0
ACDBPLACEHOLDER
  5
F
102
{ACAD_REACTORS
330
E
102
}
  0
MLINESTYLE
  5
18
102
{ACAD_REACTORS
330
17
102
}
100
AcDbMlineStyle
  2
STANDARD
 70
0
  3

 62
256
 51
90.0
 52
90.0
 71
2
 49
0.5
 62
256
  6
BYLAYER
 49
-0.5
 62
256
  6
BYLAYER
  0
LAYOUT
  5
41D
102
{ACAD_REACTORS
330
1A
102
}
100
AcDbPlotSettings
  1

  2
none_device
  4
ISO_A4_(297.00_x_210.00_MM)
  6

 40
0.0
 41
0.0
 42
0.0
 43
0.0
 44
297.0
 45
210.0
 46
0.0
 47
0.0
 48
0.0
 49
0.0
140
0.0
141
0.0
142
1.0
143
1.0
 70
1024
 72
1
 73
0
 74
0
  7

 75
0
147
1.0
148
0.0
149
0.0
100
AcDbLayout
  1
Model
 70
0
 71
0
 10
0.0
 20
0.0
 11
297.0
 21
210.0
 12
0.0
 22
0.0
 32
0.0
 14
0.0
 24
0.0
 34
0.0
 15
0.0
 25
0.0
 35
0.0
146
0.0
 13
0.0
 23
0.0
 33
0.0
 16
1.0
 26
0.0
 36
0.0
 17
0.0
 27
1.0
 37
0.0
 76
0
330
20F
345
0
346
0
  0
LAYOUT
  5
41E
102
{ACAD_REACTORS
330
1A
102
}
100
AcDbPlotSettings
  1

  2
none_device
  4
ISO_A4_(297.00_x_210.00_MM)
  6

 40
0.0
 41
0.0
 42
0.0
 43
0.0
 44
297.0
 45
210.0
 46
0.0
 47
0.0
 48
0.0
 49
0.0
140
0.0
141
0.0
142
1.0
143
1.0
 70
0
 72
1
 73
0
 74
0
  7

 75
0
147
1.0
148
0.0
149
0.0
100
AcDbLayout
  1
Layout1
 70
0
 71
1
 10
0.0
 20
0.0
 11
297.0
 21
210.0
 12
0.0
 22
0.0
 32
0.0
 14
0.0
 24
0.0
 34
0.0
 15
0.0
 25
0.0
 35
0.0
146
0.0
 13
0.0
 23
0.0
 33
0.0
 16
1.0
 26
0.0
 36
0.0
 17
0.0
 27
1.0
 37
0.0
 76
0
330
210
345
0
346
0
  0
ENDSEC
  0
EOF
