  0
SECTION
  2
HEADER
  9
$ACADVER
  1
AC1024
  9
$DWGCODEPAGE
  3
ANSI_1252
  9
$EXTMAX
 10
297.0
 20
210.0
 30
0.0
  9
$EXTMIN
 10
0.0
 20
0.0
 30
0.0
  9
$LIMMIN
 10
0.0
 20
0.0
  9
$LIMMAX
 10
297.0
 20
210.0
  9
$VIEWCTR
 10
148.5
 20
105.0
  9
$VIEWSIZE
 40
210.0
  9
$CLAYER
  8
0
  9
$LTSCALE
 40
16.335
  9
$CELTYPE
  6
BYLAYER
  9
$DIMSCALE
 40
1.0
  9
$DIMASZ
 40
3.0
  9
$DIMEXO
 40
0.5
  9
$DIMDLI
 40
11.286
  9
$DIMEXE
 40
1.5
  9
$DIMCEN
 40
2.673
  9
$DIMLFAC
 40
1.0
  9
$DIMBLK
  1
_FILLED
  9
$DIMALT
 70
0
  9
$DIMALTF
 40
0.0393700787
  9
$DIMTXT
 40
3.0
  9
$DIMTOL
 70
1
  9
$DIMLIM
 70
0
  9
$DIMTFAC
 40
1.0
  9
$DIMTP
 40
0.01
  9
$DIMTM
 40
0.01
  9
$DIMGAP
 40
0.625
  9
$DIMDSEP
 70
44
  9
$AUNITS
 70
0
  9
$PDMODE
 70
3
  9
$PDSIZE
 40
3.0
  9
$HANDSEED
  5
51C
  9
$TILEMODE
 70
1
  9
$MEASUREMENT
 70
1
  9
$INSUNITS
 70
4
  0
ENDSEC
  0
SECTION
  2
CLASSES
  0
CLASS
  1
ACDBDICTIONARYWDFLT
  2
AcDbDictionaryWithDefault
  3
AutoCAD 2000
 90
0
 91
1
280
0
281
0
  0
CLASS
  1
ACDBPLACEHOLDER
  2
AcDbPlaceHolder
  3
AutoCAD 2000
 90
0
 91
1
280
0
281
0
  0
CLASS
  1
LAYOUT
  2
AcDbLayout
  3
AutoCAD 2000
 90
0
 91
0
280
0
281
0
  0
ENDSEC
  0
SECTION
  2
TABLES
  0
TABLE
  2
VPORT
  5
8
100
AcDbSymbolTable
 70
2
  0
VPORT
  5
1F4
100
AcDbSymbolTableRecord
100
AcDbViewportTableRecord
  2
*ACTIVE
 70
0
 10
0.0
 20
0.0
 11
1.0
 21
1.0
 12
148.5
 22
105.0
 13
0.0
 23
0.0
 14
1.0
 24
1.0
 15
0.0
 25
0.0
 16
0.0
 26
0.0
 36
1.0
 17
0.0
 27
0.0
 37
0.0
 40
210.0
 41
1.4142857143
 42
50.0
 43
0.0
 44
0.0
 50
0.0
 51
0.0
 71
0
 72
100
 73
1
 74
1
 75
0
 76
0
 77
0
 78
0
  0
ENDTAB
  0
TABLE
  2
LTYPE
  5
5
100
AcDbSymbolTable
 70
6
  0
LTYPE
  5
14
100
AcDbSymbolTableRecord
100
AcDbLinetypeTableRecord
  2
BYBLOCK
 70
0
  3

 72
65
 73
0
 40
0.0
  0
LTYPE
  5
15
100
AcDbSymbolTableRecord
100
AcDbLinetypeTableRecord
  2
BYLAYER
 70
0
  3

 72
65
 73
0
 40
0.0
  0
LTYPE
  5
16
100
AcDbSymbolTableRecord
100
AcDbLinetypeTableRecord
  2
CONTINUOUS
 70
64
  3
Solid line
 72
65
 73
0
 40
0.0
  0
LTYPE
  5
1F5
100
AcDbSymbolTableRecord
100
AcDbLinetypeTableRecord
  2
CENTER
 70
64
  3
____ _ ____ _ ____ _ ____ _ ____ _ ____ _ ____
 72
65
 73
4
 40
0.6
 49
0.375
 74
0
 49
-0.075
 74
0
 49
0.075
 74
0
 49
-0.075
 74
0
  0
LTYPE
  5
1F6
100
AcDbSymbolTableRecord
100
AcDbLinetypeTableRecord
  2
HIDDEN
 70
64
  3
- - - - - - - - - - - - - - - - - - - -
 72
65
 73
2
 40
0.2
 49
0.1
 74
0
 49
-0.1
 74
0
  0
LTYPE
  5
1F7
100
AcDbSymbolTableRecord
100
AcDbLinetypeTableRecord
  2
PHANTOM
 70
64
  3
_____ _ _ _____ _ _ _____ _ _ _____
 72
65
 73
6
 40
0.8
 49
0.45
 74
0
 49
-0.05
 74
0
 49
0.1
 74
0
 49
-0.05
 74
0
 49
0.1
 74
0
 49
-0.05
 74
0
  0
LTYPE
  5
1F8
100
AcDbSymbolTableRecord
100
AcDbLinetypeTableRecord
  2
DOT
 70
64
  3
. . . . . . . . . . . . . . . . . . . .
 72
65
 73
2
 40
0.2
 49
0.1
 74
0
 49
-0.1
 74
0
  0
LTYPE
  5
1F9
100
AcDbSymbolTableRecord
100
AcDbLinetypeTableRecord
  2
DASHED
 70
64
  3
- - - - - - - - - - - - - - - - - - - -
 72
65
 73
2
 40
0.2
 49
0.1
 74
0
 49
-0.1
 74
0
  0
ENDTAB
  0
TABLE
  2
LAYER
  5
2
100
AcDbSymbolTable
 70
36
  0
LAYER
  5
10
100
AcDbSymbolTableRecord
100
AcDbLayerTableRecord
  2
0
 70
0
 62
7
  6
CONTINUOUS
370
-3
390
F
  0
LAYER
  5
1FA
100
AcDbSymbolTableRecord
100
AcDbLayerTableRecord
  2
DEFAULT_1
 70
0
 62
7
  6
CENTER
370
-3
390
F
  0
LAYER
  5
1FB
100
AcDbSymbolTableRecord
100
AcDbLayerTableRecord
  2
DEFAULT_2
 70
0
 62
7
  6
HIDDEN
370
-3
390
F
  0
LAYER
  5
1FC
100
AcDbSymbolTableRecord
100
AcDbLayerTableRecord
  2
DEFAULT_3
 70
0
 62
7
  6
PHANTOM
370
-3
390
F
  0
LAYER
  5
1FD
100
AcDbSymbolTableRecord
100
AcDbLayerTableRecord
  2
ASSI
 70
0
 62
7
  6
CONTINUOUS
370
-3
390
F
  0
LAYER
  5
1FE
100
AcDbSymbolTableRecord
100
AcDbLayerTableRecord
  2
COLOR5
 70
0
 62
7
  6
CONTINUOUS
370
-3
390
F
  0
LAYER
  5
1FF
100
AcDbSymbolTableRecord
100
AcDbLayerTableRecord
  2
COORDINATE
 70
0
 62
7
  6
CONTINUOUS
370
-3
390
F
  0
LAYER
  5
200
100
AcDbSymbolTableRecord
100
AcDbLayerTableRecord
  2
COORD_ORIGINE
 70
0
 62
7
  6
CONTINUOUS
370
-3
390
F
  0
LAYER
  5
201
100
AcDbSymbolTableRecord
100
AcDbLayerTableRecord
  2
COPY_PUBLISH
 70
0
 62
7
  6
CONTINUOUS
370
-3
390
F
  0
LAYER
  5
202
100
AcDbSymbolTableRecord
100
AcDbLayerTableRecord
  2
COSMETICI
 70
0
 62
7
  6
CONTINUOUS
370
-3
390
F
  0
LAYER
  5
203
100
AcDbSymbolTableRecord
100
AcDbLayerTableRecord
  2
CURVE
 70
0
 62
7
  6
CONTINUOUS
370
-3
390
F
  0
LAYER
  5
204
100
AcDbSymbolTableRecord
100
AcDbLayerTableRecord
  2
DRAFT
 70
0
 62
7
  6
CONTINUOUS
370
-3
390
F
  0
LAYER
  5
205
100
AcDbSymbolTableRecord
100
AcDbLayerTableRecord
  2
IMPORT_IGES
 70
0
 62
7
  6
CONTINUOUS
370
-3
390
F
  0
LAYER
  5
206
100
AcDbSymbolTableRecord
100
AcDbLayerTableRecord
  2
NOTE
 70
0
 62
7
  6
CONTINUOUS
370
-3
390
F
  0
LAYER
  5
207
100
AcDbSymbolTableRecord
100
AcDbLayerTableRecord
  2
PIANI
 70
0
 62
7
  6
CONTINUOUS
370
-3
390
F
  0
LAYER
  5
208
100
AcDbSymbolTableRecord
100
AcDbLayerTableRecord
  2
PIANI_ORIGINE
 70
0
 62
7
  6
CONTINUOUS
370
-3
390
F
  0
LAYER
  5
209
100
AcDbSymbolTableRecord
100
AcDbLayerTableRecord
  2
PUNTI
 70
0
 62
7
  6
CONTINUOUS
370
-3
390
F
  0
LAYER
  5
20A
100
AcDbSymbolTableRecord
100
AcDbLayerTableRecord
  2
RACCORDO
 70
0
 62
7
  6
CONTINUOUS
370
-3
390
F
  0
LAYER
  5
20B
100
AcDbSymbolTableRecord
100
AcDbLayerTableRecord
  2
SIMBOLI
 70
0
 62
7
  6
CONTINUOUS
370
-3
390
F
  0
LAYER
  5
20C
100
AcDbSymbolTableRecord
100
AcDbLayerTableRecord
  2
SMUSSO
 70
0
 62
7
  6
CONTINUOUS
370
-3
390
F
  0
LAYER
  5
20D
100
AcDbSymbolTableRecord
100
AcDbLayerTableRecord
  2
SNAPLINE
 70
0
 62
7
  6
CONTINUOUS
370
-3
390
F
  0
LAYER
  5
20E
100
AcDbSymbolTableRecord
100
AcDbLayerTableRecord
  2
SUPERFICI
 70
0
 62
7
  6
CONTINUOUS
370
-3
390
F
  0
LAYER
  5
20F
100
AcDbSymbolTableRecord
100
AcDbLayerTableRecord
  2
TRASH
 70
0
 62
7
  6
CONTINUOUS
370
-3
390
F
  0
LAYER
  5
210
100
AcDbSymbolTableRecord
100
AcDbLayerTableRecord
  2
XSEC_DATUMS
 70
0
 62
7
  6
CONTINUOUS
370
-3
390
F
  0
ENDTAB
  0
TABLE
  2
STYLE
  5
3
100
AcDbSymbolTable
 70
1
  0
STYLE
  5
11
100
AcDbSymbolTableRecord
100
AcDbTextStyleTableRecord
  2
STANDARD
 70
0
 40
0.0
 41
0.8
 50
0.0
 71
0
 42
0.2
  3
txt
  4

  0
STYLE
  5
211
100
AcDbSymbolTableRecord
100
AcDbTextStyleTableRecord
  2
TEXTSTYLE_1
 70
0
 40
0.0
 41
0.8
 50
0.0
 71
0
 42
0.2
  3
gdt
  4

  0
ENDTAB
  0
TABLE
  2
VIEW
  5
6
100
AcDbSymbolTable
 70
0
  0
ENDTAB
  0
TABLE
  2
UCS
  5
7
100
AcDbSymbolTable
 70
0
  0
ENDTAB
  0
TABLE
  2
APPID
  5
9
100
AcDbSymbolTable
 70
1
  0
APPID
  5
212
100
AcDbSymbolTableRecord
100
AcDbRegAppTableRecord
  2
ACAD
 70
0
  0
ENDTAB
  0
TABLE
  2
BLOCK_RECORD
  5
1
100
AcDbSymbolTable
 70
0
  0
BLOCK_RECORD
  5
213
100
AcDbSymbolTableRecord
100
AcDbBlockTableRecord
  2
*Model_Space
  0
BLOCK_RECORD
  5
214
100
AcDbSymbolTableRecord
100
AcDbBlockTableRecord
  2
*Paper_Space
  0
BLOCK_RECORD
  5
215
100
AcDbSymbolTableRecord
100
AcDbBlockTableRecord
  2
_FILLED
  0
ENDTAB
  0
TABLE
  2
DIMSTYLE
  5
A
100
AcDbSymbolTable
 70
1
100
AcDbDimStyleTable
 71
0
  0
DIMSTYLE
105
216
100
AcDbSymbolTableRecord
100
AcDbDimStyleTableRecord
  2
STANDARD
 70
0
  3

  4

 40
1.0
 41
3.0
 42
0.5
 43
0.38
 44
1.5
 45
0.0
 46
0.0
 47
0.01
 48
0.01
140
3.0
141
0.09
142
0.0
143
25.4
144
1.0
145
0.0
146
1.0
147
0.625
 71
1
 72
0
 73
0
 74
0
 75
0
 76
0
 77
1
 78
8
 79
2
170
0
171
1
172
0
173
0
174
0
175
0
176
0
177
0
178
0
270
2
179
2
271
2
272
2
273
2
274
2
275
0
280
0
281
0
282
0
283
1
284
8
285
0
286
0
287
3
288
0
340
11
278
44
341
215
342
215
343
215
344
215
  0
ENDTAB
  0
ENDSEC
  0
SECTION
  2
BLOCKS
  0
BLOCK
  5
20
100
AcDbEntity
  8
0
100
AcDbBlockBegin
  2
*Model_Space
 70
0
 10
0.0
 20
0.0
 30
0.0
  3
*Model_Space
  1

  0
ENDBLK
  5
21
100
AcDbEntity
  8
0
100
AcDbBlockEnd
  0
BLOCK
  5
1C
100
AcDbEntity
  8
0
100
AcDbBlockBegin
  2
*Paper_Space
 70
0
 10
0.0
 20
0.0
 30
0.0
  3
*Paper_Space
  1

  0
ENDBLK
  5
1D
100
AcDbEntity
  8
0
100
AcDbBlockEnd
  0
BLOCK
  5
217
100
AcDbEntity
  8
0
100
AcDbBlockBegin
  2
_FILLED
 70
64
 10
0.0
 20
0.0
  3
_FILLED
  1

  0
SOLID
  5
218
100
AcDbEntity
  8
0
  6
BYBLOCK
 62
0
100
AcDbTrace
 10
0.0
 20
0.0
 11
-1.0
 21
0.3166666667
 12
-1.0
 22
-0.3166666667
 13
-1.0
 23
-0.3166666667
  0
ENDBLK
  5
219
100
AcDbEntity
  8
0
  6
BYBLOCK
 62
0
100
AcDbBlockEnd
  0
ENDSEC
  0
SECTION
  2
ENTITIES
  0
LINE
  5
21A
100
AcDbEntity
  8
ASSI
100
AcDbLine
 62
7
  6
CONTINUOUS
 10
-2.9729735157
 20
-101.4737914588
 11
12.9604323259
 21
-106.1822773483
  0
LINE
  5
21B
100
AcDbEntity
  8
0
100
AcDbLine
 62
7
  6
CONTINUOUS
 10
-2.9729735157
 20
-101.4737914588
 11
12.9604323259
 21
-106.1822773483
  0
LINE
  5
21C
100
AcDbEntity
  8
ASSI
100
AcDbLine
 62
7
  6
CONTINUOUS
 10
-15.6600239755
 20
-102.5144448713
 11
-96.9773038119
 21
-55.5628666386
  0
LINE
  5
21D
100
AcDbEntity
  8
0
100
AcDbLine
 62
7
  6
CONTINUOUS
 10
-15.6600239755
 20
-102.5144448713
 11
-96.9773038119
 21
-55.5628666386
  0
LINE
  5
21E
100
AcDbEntity
  8
0
100
AcDbLine
 62
7
  6
CONTINUOUS
 10
-43.6996691495
 20
84.2514765474
 11
-43.8371682258
 21
84.0892067069
  0
LINE
  5
21F
100
AcDbEntity
  8
0
100
AcDbLine
 62
7
  6
CONTINUOUS
 10
-43.8371682258
 20
84.0892067069
 11
-43.8567053217
 21
84.0780011268
  0
LINE
  5
220
100
AcDbEntity
  8
ASSI
100
AcDbLine
 62
7
  6
CONTINUOUS
 10
-2.9729735157
 20
-93.3090886908
 11
12.9604323259
 21
-98.0175745804
  0
LINE
  5
221
100
AcDbEntity
  8
0
100
AcDbLine
 62
7
  6
CONTINUOUS
 10
-2.9729735157
 20
-93.3090886908
 11
12.9604323259
 21
-98.0175745804
  0
LINE
  5
222
100
AcDbEntity
  8
ASSI
100
AcDbLine
 62
7
  6
CONTINUOUS
 10
-35.9004800051
 20
104.4851300374
 11
-100.4004800051
 21
-7.2321469348
  0
LINE
  5
223
100
AcDbEntity
  8
0
100
AcDbLine
 62
7
  6
CONTINUOUS
 10
-35.9004800051
 20
104.4851300374
 11
-100.4004800051
 21
-7.2321469348
  0
LINE
  5
224
100
AcDbEntity
  8
ASSI
100
AcDbLine
 62
7
  6
CONTINUOUS
 10
-35.2183732239
 20
104.0912873409
 11
-99.7183732239
 21
-7.6259896313
  0
LINE
  5
225
100
AcDbEntity
  8
0
100
AcDbLine
 62
7
  6
CONTINUOUS
 10
-83.8079562559
 20
12.5398009675
 11
-83.813124077
 21
12.5308500388
  0
LINE
  5
226
100
AcDbEntity
  8
0
100
AcDbLine
 62
7
  6
CONTINUOUS
 10
-86.5223198774
 20
7.8383852697
 11
-86.5274834141
 21
7.8294417619
  0
LINE
  5
227
100
AcDbEntity
  8
0
100
AcDbLine
 62
7
  6
CONTINUOUS
 10
-43.3268697086
 20
85.4564039069
 11
-44.3789201595
 21
83.714197752
  0
LINE
  5
228
100
AcDbEntity
  8
0
100
AcDbLine
 62
7
  6
CONTINUOUS
 10
-44.9563866656
 20
82.7579073952
 11
-46.0084369254
 21
81.0157015569
  0
LINE
  5
229
100
AcDbEntity
  8
0
100
AcDbLine
 62
7
  6
CONTINUOUS
 10
-44.8283660975
 20
80.1615112434
 11
-44.8238125762
 21
80.1690519206
  0
LINE
  5
22A
100
AcDbEntity
  8
0
100
AcDbLine
 62
7
  6
CONTINUOUS
 10
-42.0231844434
 20
84.806920348
 11
-42.0170676646
 21
84.8170497953
  0
LINE
  5
22B
100
AcDbEntity
  8
ASSI
100
AcDbLine
 62
250
  6
CONTINUOUS
 10
-6.629795299
 20
-93.4752034684
 11
-12.3156737695
 21
-90.1922485003
  0
LINE
  5
22C
100
AcDbEntity
  8
0
100
AcDbLine
 62
250
  6
CONTINUOUS
 10
-6.629795299
 20
-93.4752034684
 11
-12.3156737695
 21
-90.1922485003
  0
LINE
  5
22D
100
AcDbEntity
  8
ASSI
100
AcDbLine
 62
250
  6
CONTINUOUS
 10
-15.659589093
 20
-81.7307558459
 11
-10.659589093
 21
-84.6171352042
  0
LINE
  5
22E
100
AcDbEntity
  8
0
100
AcDbLine
 62
250
  6
CONTINUOUS
 10
-15.659589093
 20
-81.7307558459
 11
-10.659589093
 21
-84.6171352042
  0
LINE
  5
22F
100
AcDbEntity
  8
ASSI
100
AcDbLine
 62
250
  6
CONTINUOUS
 10
-96.9768689294
 20
-34.7791776132
 11
-15.659589093
 21
-81.7307558459
  0
LINE
  5
230
100
AcDbEntity
  8
0
100
AcDbLine
 62
250
  6
CONTINUOUS
 10
-96.9768689294
 20
-34.7791776132
 11
-15.659589093
 21
-81.7307558459
  0
LINE
  5
231
100
AcDbEntity
  8
0
100
AcDbLine
 62
7
  6
CONTINUOUS
 10
-86.9574063546
 20
10.9067386617
 11
-86.9500985035
 21
10.8870606134
  0
LINE
  5
232
100
AcDbEntity
  8
0
100
AcDbLine
 62
7
  6
CONTINUOUS
 10
-85.5443134817
 20
12.1489628228
 11
-85.7106624767
 21
12.634062687
  0
LINE
  5
233
100
AcDbEntity
  8
0
100
AcDbLine
 62
7
  6
CONTINUOUS
 10
-85.044058719
 20
10.4243247654
 11
-85.0513665701
 21
10.4440028137
  0
LINE
  5
234
100
AcDbEntity
  8
ASSI
100
AcDbLine
 62
7
  6
CONTINUOUS
 10
-96.9768689294
 20
-34.7791776132
 11
-89.4047909908
 21
-21.6639539182
  0
LINE
  5
235
100
AcDbEntity
  8
0
100
AcDbLine
 62
7
  6
CONTINUOUS
 10
-96.9768689294
 20
-34.7791776132
 11
-89.4047909908
 21
-21.6639539182
  0
LINE
  5
236
100
AcDbEntity
  8
ASSI
100
AcDbLine
 62
250
  6
CONTINUOUS
 10
-8.0875111543
 20
-68.6155321509
 11
-3.0875111543
 21
-71.5019115092
  0
LINE
  5
237
100
AcDbEntity
  8
0
100
AcDbLine
 62
250
  6
CONTINUOUS
 10
-8.0875111543
 20
-68.6155321509
 11
-3.0875111543
 21
-71.5019115092
  0
LINE
  5
238
100
AcDbEntity
  8
ASSI
100
AcDbLine
 62
7
  6
CONTINUOUS
 10
10.6833041259
 20
-75.4114906857
 11
5.6833041259
 21
-72.5251113274
  0
LINE
  5
239
100
AcDbEntity
  8
0
100
AcDbLine
 62
7
  6
CONTINUOUS
 10
10.6833041259
 20
-75.4114906857
 11
5.6833041259
 21
-72.5251113274
  0
LINE
  5
23A
100
AcDbEntity
  8
ASSI
100
AcDbLine
 62
7
  6
CONTINUOUS
 10
-99.6756062709
 20
-11.6921969216
 11
-90.1296647249
 21
-17.2039039315
  0
LINE
  5
23B
100
AcDbEntity
  8
0
100
AcDbLine
 62
7
  6
CONTINUOUS
 10
-99.6756062709
 20
-11.6921969216
 11
-90.1296647249
 21
-17.2039039315
  0
LINE
  5
23C
100
AcDbEntity
  8
ASSI
100
AcDbLine
 62
7
  6
CONTINUOUS
 10
5.6833041259
 20
-72.5251113274
 11
-3.8626374202
 21
-67.0134043175
  0
LINE
  5
23D
100
AcDbEntity
  8
0
100
AcDbLine
 62
7
  6
CONTINUOUS
 10
5.6833041259
 20
-72.5251113274
 11
-3.8626374202
 21
-67.0134043175
  0
LINE
  5
23E
100
AcDbEntity
  8
ASSI
100
AcDbLine
 62
7
  6
CONTINUOUS
 10
-99.2006062709
 20
-10.8117396219
 11
6.1583041259
 21
-71.6446540277
  0
LINE
  5
23F
100
AcDbEntity
  8
0
100
AcDbLine
 62
7
  6
CONTINUOUS
 10
-45.0378595482
 20
82.1219978937
 11
-45.0388062958
 21
82.0989535093
  0
LINE
  5
240
100
AcDbEntity
  8
0
100
AcDbLine
 62
7
  6
CONTINUOUS
 10
13.630407947
 20
-48.3695240153
 11
13.5403995264
 21
-48.3865829278
  0
LINE
  5
241
100
AcDbEntity
  8
ASSI
100
AcDbLine
 62
250
  6
CONTINUOUS
 10
14.90817786
 20
-73.8093628522
 11
9.90817786
 21
-70.9229834939
  0
LINE
  5
242
100
AcDbEntity
  8
0
100
AcDbLine
 62
250
  6
CONTINUOUS
 10
14.90817786
 20
-73.8093628522
 11
9.90817786
 21
-70.9229834939
  0
LINE
  5
243
100
AcDbEntity
  8
ASSI
100
AcDbLine
 62
250
  6
CONTINUOUS
 10
9.2010710788
 20
-70.5147089006
 11
9.1760710788
 21
-70.5002770038
  0
LINE
  5
244
100
AcDbEntity
  8
0
100
AcDbLine
 62
7
  6
CONTINUOUS
 10
-87.8126938472
 20
8.7184848395
 11
-87.1056515098
 21
8.1524514683
  0
LINE
  5
245
100
AcDbEntity
  8
0
100
AcDbLine
 62
7
  6
CONTINUOUS
 10
-87.0854283977
 20
11.0284843584
 11
-86.9574063546
 21
10.9067386617
  0
LINE
  5
246
100
AcDbEntity
  8
0
100
AcDbLine
 62
7
  6
CONTINUOUS
 10
-84.9160366759
 20
10.3025790688
 11
-85.044058719
 21
10.4243247654
  0
LINE
  5
247
100
AcDbEntity
  8
0
100
AcDbLine
 62
7
  6
CONTINUOUS
 10
12.842143819
 20
-46.811480524
 11
13.7502734023
 21
-47.1739292051
  0
LINE
  5
248
100
AcDbEntity
  8
ASSI
100
AcDbLine
 62
7
  6
CONTINUOUS
 10
22.9650709257
 20
-59.8544147258
 11
26.8835640134
 21
-62.1169035244
  0
LINE
  5
249
100
AcDbEntity
  8
0
100
AcDbLine
 62
7
  6
CONTINUOUS
 10
22.9650709257
 20
-59.8544147258
 11
26.8835640134
 21
-62.1169035244
  0
LINE
  5
24A
100
AcDbEntity
  8
0
100
AcDbLine
 62
7
  6
CONTINUOUS
 10
-86.4297705576
 20
11.1890529944
 11
-86.6672390583
 21
11.3769873922
  0
LINE
  5
24B
100
AcDbEntity
  8
0
100
AcDbLine
 62
7
  6
CONTINUOUS
 10
15.0117139996
 20
-44.7078582516
 11
15.0181395197
 21
-44.7099803569
  0
LINE
  5
24C
100
AcDbEntity
  8
0
100
AcDbLine
 62
7
  6
CONTINUOUS
 10
15.4963662352
 20
-44.8868200043
 11
16.0321152109
 21
-45.0958512998
  0
LINE
  5
24D
100
AcDbEntity
  8
0
100
AcDbLine
 62
7
  6
CONTINUOUS
 10
-86.8364719926
 20
9.8233382995
 11
-87.407883104
 21
10.1059489387
  0
LINE
  5
24E
100
AcDbEntity
  8
0
100
AcDbLine
 62
7
  6
CONTINUOUS
 10
13.7065768652
 20
-48.2086607316
 11
13.6213033803
 21
-48.1661154998
  0
LINE
  5
24F
100
AcDbEntity
  8
0
100
AcDbLine
 62
7
  6
CONTINUOUS
 10
-86.8534493028
 20
9.8089199292
 11
-86.8694215966
 21
9.8168927893
  0
LINE
  5
250
100
AcDbEntity
  8
0
100
AcDbLine
 62
7
  6
CONTINUOUS
 10
13.6973097311
 20
-48.2278786964
 11
13.6203566327
 21
-48.1891598842
  0
LINE
  5
251
100
AcDbEntity
  8
0
100
AcDbLine
 62
7
  6
CONTINUOUS
 10
13.6813506881
 20
-50.0650591582
 11
13.5335632853
 21
-49.9797450564
  0
LINE
  5
252
100
AcDbEntity
  8
0
100
AcDbLine
 62
7
  6
CONTINUOUS
 10
-86.8755996432
 20
7.9952471961
 11
-86.8757325368
 21
7.9953239198
  0
LINE
  5
253
100
AcDbEntity
  8
0
100
AcDbLine
 62
7
  6
CONTINUOUS
 10
-86.7255996608
 20
7.9086558255
 11
-86.8755996432
 21
7.9952471961
  0
LINE
  5
254
100
AcDbEntity
  8
0
100
AcDbLine
 62
7
  6
CONTINUOUS
 10
16.3888765164
 20
-49.6073876433
 11
16.5213349969
 21
-49.6838527281
  0
LINE
  5
255
100
AcDbEntity
  8
0
100
AcDbLine
 62
7
  6
CONTINUOUS
 10
-84.9685622493
 20
9.3766965044
 11
-86.3231114567
 21
10.1587746304
  0
LINE
  5
256
100
AcDbEntity
  8
0
100
AcDbLine
 62
7
  6
CONTINUOUS
 10
-84.7904595113
 20
9.2738716763
 11
-84.9685622493
 21
9.3766965044
  0
LINE
  5
257
100
AcDbEntity
  8
0
100
AcDbLine
 62
7
  6
CONTINUOUS
 10
-84.4664797438
 20
9.0868418978
 11
-84.7904595113
 21
9.2738716763
  0
LINE
  5
258
100
AcDbEntity
  8
ASSI
100
AcDbLine
 62
7
  6
CONTINUOUS
 10
26.5004339895
 20
-53.7309862824
 11
31.5540173088
 21
-56.6488619547
  0
LINE
  5
259
100
AcDbEntity
  8
0
100
AcDbLine
 62
7
  6
CONTINUOUS
 10
26.5004339895
 20
-53.7309862824
 11
31.5540173088
 21
-56.6488619547
  0
LINE
  5
25A
100
AcDbEntity
  8
0
100
AcDbLine
 62
7
  6
CONTINUOUS
 10
-85.7231100442
 20
11.1980042983
 11
-84.3685622493
 21
10.4159269879
  0
LINE
  5
25B
100
AcDbEntity
  8
0
100
AcDbLine
 62
7
  6
CONTINUOUS
 10
-84.3685622493
 20
10.4159269879
 11
-84.1904595113
 21
10.3131021598
  0
LINE
  5
25C
100
AcDbEntity
  8
0
100
AcDbLine
 62
7
  6
CONTINUOUS
 10
-84.1904595113
 20
10.3131021598
 11
-83.8664797438
 21
10.1260723812
  0
LINE
  5
25D
100
AcDbEntity
  8
0
100
AcDbLine
 62
7
  6
CONTINUOUS
 10
16.4310849008
 20
-45.3017659949
 11
16.2832974981
 21
-45.2164518932
  0
LINE
  5
25E
100
AcDbEntity
  8
0
100
AcDbLine
 62
7
  6
CONTINUOUS
 10
-84.1258654304
 20
12.7585403594
 11
-84.1257325368
 21
12.7584636357
  0
LINE
  5
25F
100
AcDbEntity
  8
0
100
AcDbLine
 62
7
  6
CONTINUOUS
 10
-83.975865448
 20
12.6719489888
 11
-84.1258654304
 21
12.7585403594
  0
LINE
  5
260
100
AcDbEntity
  8
0
100
AcDbLine
 62
7
  6
CONTINUOUS
 10
-86.6957325928
 20
10.3739845537
 11
-88.4088292243
 21
11.3630676492
  0
LINE
  5
261
100
AcDbEntity
  8
0
100
AcDbLine
 62
7
  6
CONTINUOUS
 10
-87.8088301069
 20
12.4022986424
 11
-86.0957328544
 21
11.4132151881
  0
LINE
  5
262
100
AcDbEntity
  8
0
100
AcDbLine
 62
7
  6
CONTINUOUS
 10
-85.7003199919
 20
11.8420168437
 11
-85.6853436814
 21
11.8320869492
  0
LINE
  5
263
100
AcDbEntity
  8
0
100
AcDbLine
 62
7
  6
CONTINUOUS
 10
-86.2197212118
 20
12.163905606
 11
-85.6893083866
 21
11.8104522004
  0
LINE
  5
264
100
AcDbEntity
  8
0
100
AcDbLine
 62
7
  6
CONTINUOUS
 10
14.8219947027
 20
-46.1989066866
 11
14.8969474849
 21
-46.2489162822
  0
LINE
  5
265
100
AcDbEntity
  8
0
100
AcDbLine
 62
7
  6
CONTINUOUS
 10
14.8024576068
 20
-46.2101122667
 11
14.884732082
 21
-46.2653307032
  0
LINE
  5
266
100
AcDbEntity
  8
0
100
AcDbLine
 62
7
  6
CONTINUOUS
 10
12.8545704063
 20
-49.4631343085
 11
13.3035114187
 21
-49.8225407842
  0
LINE
  5
267
100
AcDbEntity
  8
0
100
AcDbLine
 62
7
  6
CONTINUOUS
 10
-85.2208049097
 20
13.2083467318
 11
-84.3770477176
 21
12.8791409528
  0
LINE
  5
268
100
AcDbEntity
  8
0
100
AcDbLine
 62
7
  6
CONTINUOUS
 10
-86.9500985035
 20
10.8870606134
 11
-86.6685929393
 21
10.7754005053
  0
LINE
  5
269
100
AcDbEntity
  8
0
100
AcDbLine
 62
7
  6
CONTINUOUS
 10
-86.6842881743
 20
10.4004634947
 11
-86.6915036549
 21
10.4035821393
  0
LINE
  5
26A
100
AcDbEntity
  8
0
100
AcDbLine
 62
7
  6
CONTINUOUS
 10
13.9971554583
 20
-46.7650900404
 11
13.2355665643
 21
-46.1599686215
  0
LINE
  5
26B
100
AcDbEntity
  8
0
100
AcDbLine
 62
7
  6
CONTINUOUS
 10
-10.6207161875
 20
13.2696853229
 11
-12.4385516178
 21
12.7118630247
  0
LINE
  5
26C
100
AcDbEntity
  8
0
100
AcDbLine
 62
250
  6
CONTINUOUS
 10
-12.4385516178
 20
12.7118630247
 11
-12.4385206243
 21
12.7118725352
  0
LINE
  5
26D
100
AcDbEntity
  8
0
100
AcDbLine
 62
7
  6
CONTINUOUS
 10
-9.5847244062
 20
11.3678199176
 11
-11.1104814866
 21
10.8996249935
  0
LINE
  5
26E
100
AcDbEntity
  8
0
100
AcDbLine
 62
7
  6
CONTINUOUS
 10
-19.1718654985
 20
-4.710030285
 11
-19.6455228482
 21
-4.4365993256
  0
LINE
  5
26F
100
AcDbEntity
  8
0
100
AcDbLine
 62
250
  6
CONTINUOUS
 10
-16.8010443714
 20
2.4737450451
 11
-16.8010264106
 21
2.4737040795
  0
LINE
  5
270
100
AcDbEntity
  8
0
100
AcDbLine
 62
250
  6
CONTINUOUS
 10
-14.8253440566
 20
2.3296313828
 11
-14.8252864312
 21
2.3294999444
  0
LINE
  5
271
100
AcDbEntity
  8
0
100
AcDbLine
 62
7
  6
CONTINUOUS
 10
-43.6698572923
 20
84.1611633944
 11
-43.6996691495
 21
84.2514765474
  0
LINE
  5
272
100
AcDbEntity
  8
0
100
AcDbLine
 62
250
  6
CONTINUOUS
 10
-17.8926442177
 20
3.2638800624
 11
-17.8926372261
 21
3.2638496507
  0
LINE
  5
273
100
AcDbEntity
  8
0
100
AcDbLine
 62
7
  6
CONTINUOUS
 10
-17.4666079691
 20
1.4107247848
 11
-17.8926442177
 21
3.2638800624
  0
LINE
  5
274
100
AcDbEntity
  8
0
100
AcDbLine
 62
7
  6
CONTINUOUS
 10
-15.3015543334
 20
1.4647039068
 11
-15.6591377604
 21
3.0201058639
  0
LINE
  5
275
100
AcDbEntity
  8
ASSI
100
AcDbLine
 62
7
  6
CONTINUOUS
 10
-6.629795299
 20
-101.6399062363
 11
-6.629795299
 21
-93.4752034684
  0
LINE
  5
276
100
AcDbEntity
  8
0
100
AcDbLine
 62
7
  6
CONTINUOUS
 10
-6.629795299
 20
-101.6399062363
 11
-6.629795299
 21
-93.4752034684
  0
LINE
  5
277
100
AcDbEntity
  8
ASSI
100
AcDbLine
 62
250
  6
CONTINUOUS
 10
-2.9729735157
 20
-101.4737914588
 11
-2.9729735157
 21
-93.3090886908
  0
LINE
  5
278
100
AcDbEntity
  8
0
100
AcDbLine
 62
250
  6
CONTINUOUS
 10
-2.9729735157
 20
-101.4737914588
 11
-2.9729735157
 21
-93.3090886908
  0
LINE
  5
279
100
AcDbEntity
  8
ASSI
100
AcDbLine
 62
250
  6
CONTINUOUS
 10
-7.275593843
 20
-101.9611548197
 11
-6.9333689818
 21
-93.608423637
  0
LINE
  5
27A
100
AcDbEntity
  8
0
100
AcDbLine
 62
250
  6
CONTINUOUS
 10
-7.275593843
 20
-101.9611548197
 11
-6.9333689818
 21
-93.608423637
  0
LINE
  5
27B
100
AcDbEntity
  8
0
100
AcDbLine
 62
7
  6
CONTINUOUS
 10
14.989306397
 20
-46.1269495113
 11
14.959493779
 21
-46.0366368461
  0
LINE
  5
27C
100
AcDbEntity
  8
0
100
AcDbLine
 62
7
  6
CONTINUOUS
 10
56.5719947027
 20
26.1142144543
 11
56.5524576068
 21
26.1030088742
  0
LINE
  5
27D
100
AcDbEntity
  8
ASSI
100
AcDbLine
 62
7
  6
CONTINUOUS
 10
99.9353780892
 20
-55.3039433168
 11
44.1789577297
 21
-23.1108849933
  0
LINE
  5
27E
100
AcDbEntity
  8
0
100
AcDbLine
 62
7
  6
CONTINUOUS
 10
99.9353780892
 20
-55.3039433168
 11
44.1789577297
 21
-23.1108849933
  0
LINE
  5
27F
100
AcDbEntity
  8
ASSI
100
AcDbLine
 62
250
  6
CONTINUOUS
 10
12.9604323259
 20
-98.0175745804
 11
12.9604323259
 21
-106.1822773483
  0
LINE
  5
280
100
AcDbEntity
  8
0
100
AcDbLine
 62
250
  6
CONTINUOUS
 10
12.9604323259
 20
-98.0175745804
 11
12.9604323259
 21
-106.1822773483
  0
LINE
  5
281
100
AcDbEntity
  8
ASSI
100
AcDbLine
 62
250
  6
CONTINUOUS
 10
16.7821815191
 20
-97.7775687652
 11
16.7821815191
 21
-105.9422715331
  0
LINE
  5
282
100
AcDbEntity
  8
0
100
AcDbLine
 62
250
  6
CONTINUOUS
 10
16.7821815191
 20
-97.7775687652
 11
16.7821815191
 21
-105.9422715331
  0
LINE
  5
283
100
AcDbEntity
  8
0
100
AcDbLine
 62
7
  6
CONTINUOUS
 10
13.6213033803
 20
-48.1661154998
 11
13.6203566327
 21
-48.1891598842
  0
LINE
  5
284
100
AcDbEntity
  8
0
100
AcDbLine
 62
7
  6
CONTINUOUS
 10
55.380407947
 20
23.9435971256
 11
55.2903995264
 21
23.9265382131
  0
LINE
  5
285
100
AcDbEntity
  8
0
100
AcDbLine
 62
250
  6
CONTINUOUS
 10
-10.0955464831
 20
10.5228920364
 11
-10.0954315034
 21
10.5229047963
  0
LINE
  5
286
100
AcDbEntity
  8
0
100
AcDbLine
 62
250
  6
CONTINUOUS
 10
-11.2084335601
 20
12.1617123664
 11
-11.2083688359
 21
12.1617195487
  0
LINE
  5
287
100
AcDbEntity
  8
ASSI
100
AcDbLine
 62
7
  6
CONTINUOUS
 10
-9.3706585526
 20
23.1166453033
 11
-9.3461510725
 21
23.1030587128
  0
LINE
  5
288
100
AcDbEntity
  8
0
100
AcDbLine
 62
7
  6
CONTINUOUS
 10
-9.3706585526
 20
23.1166453033
 11
-9.3461510725
 21
23.1030587128
  0
LINE
  5
289
100
AcDbEntity
  8
ASSI
100
AcDbLine
 62
7
  6
CONTINUOUS
 10
-9.3704335627
 20
23.1170365798
 11
-9.3461510725
 21
23.1030587128
  0
LINE
  5
28A
100
AcDbEntity
  8
0
100
AcDbLine
 62
7
  6
CONTINUOUS
 10
-9.3704335627
 20
23.1170365798
 11
-9.3461510725
 21
23.1030587128
  0
LINE
  5
28B
100
AcDbEntity
  8
0
100
AcDbLine
 62
7
  6
CONTINUOUS
 10
-6.1730777072
 20
17.8073300389
 11
-6.6467792969
 21
18.080786537
  0
LINE
  5
28C
100
AcDbEntity
  8
ASSI
100
AcDbLine
 62
7
  6
CONTINUOUS
 10
-15.659589093
 20
-81.7307558459
 11
-8.0875111543
 21
-68.6155321509
  0
LINE
  5
28D
100
AcDbEntity
  8
0
100
AcDbLine
 62
7
  6
CONTINUOUS
 10
-15.659589093
 20
-81.7307558459
 11
-8.0875111543
 21
-68.6155321509
  0
LINE
  5
28E
100
AcDbEntity
  8
0
100
AcDbLine
 62
7
  6
CONTINUOUS
 10
56.709493779
 20
26.2764842949
 11
56.5719947027
 21
26.1142144543
  0
LINE
  5
28F
100
AcDbEntity
  8
0
100
AcDbLine
 62
7
  6
CONTINUOUS
 10
-87.0572873938
 20
9.5286201631
 11
-87.5606426728
 21
9.4301116832
  0
LINE
  5
290
100
AcDbEntity
  8
0
100
AcDbLine
 62
7
  6
CONTINUOUS
 10
-87.1945109724
 20
9.5016202178
 11
-87.3755917552
 21
9.4661682199
  0
LINE
  5
291
100
AcDbEntity
  8
0
100
AcDbLine
 62
7
  6
CONTINUOUS
 10
-85.3342260153
 20
9.954076035
 11
-85.3132093834
 21
9.9576400073
  0
LINE
  5
292
100
AcDbEntity
  8
0
100
AcDbLine
 62
7
  6
CONTINUOUS
 10
-86.6672390583
 20
11.3769873922
 11
-86.6882557006
 21
11.3734234181
  0
LINE
  5
293
100
AcDbEntity
  8
ASSI
100
AcDbLine
 62
250
  6
CONTINUOUS
 10
31.5540173088
 20
-59.5062020642
 11
31.5540173088
 21
-56.6488619547
  0
LINE
  5
294
100
AcDbEntity
  8
0
100
AcDbLine
 62
250
  6
CONTINUOUS
 10
31.5540173088
 20
-59.5062020642
 11
31.5540173088
 21
-56.6488619547
  0
LINE
  5
295
100
AcDbEntity
  8
ASSI
100
AcDbLine
 62
7
  6
CONTINUOUS
 10
-10.659589093
 20
-84.6171352042
 11
-3.0875111543
 21
-71.5019115092
  0
LINE
  5
296
100
AcDbEntity
  8
0
100
AcDbLine
 62
7
  6
CONTINUOUS
 10
-10.659589093
 20
-84.6171352042
 11
-3.0875111543
 21
-71.5019115092
  0
LINE
  5
297
100
AcDbEntity
  8
0
100
AcDbLine
 62
7
  6
CONTINUOUS
 10
57.0822932199
 20
27.4814116543
 11
56.030242769
 21
25.7392054995
  0
LINE
  5
298
100
AcDbEntity
  8
0
100
AcDbLine
 62
7
  6
CONTINUOUS
 10
55.4527762629
 20
24.7829151427
 11
54.4007260031
 21
23.0407093044
  0
LINE
  5
299
100
AcDbEntity
  8
0
100
AcDbLine
 62
7
  6
CONTINUOUS
 10
55.580796831
 20
22.1865189909
 11
55.5853503523
 21
22.194059668
  0
LINE
  5
29A
100
AcDbEntity
  8
0
100
AcDbLine
 62
7
  6
CONTINUOUS
 10
58.3859784851
 20
26.8319280954
 11
58.3920952639
 21
26.8420575428
  0
LINE
  5
29B
100
AcDbEntity
  8
0
100
AcDbLine
 62
7
  6
CONTINUOUS
 10
15.3322932199
 20
-44.8317094866
 11
14.280242769
 21
-46.5739156415
  0
LINE
  5
29C
100
AcDbEntity
  8
0
100
AcDbLine
 62
7
  6
CONTINUOUS
 10
13.7027762629
 20
-47.5302059983
 11
12.6507260031
 21
-49.2724118366
  0
LINE
  5
29D
100
AcDbEntity
  8
0
100
AcDbLine
 62
7
  6
CONTINUOUS
 10
13.830796831
 20
-50.1266021501
 11
13.8353503523
 21
-50.1190614729
  0
LINE
  5
29E
100
AcDbEntity
  8
0
100
AcDbLine
 62
7
  6
CONTINUOUS
 10
16.6359784851
 20
-45.4811930455
 11
16.6420952639
 21
-45.4710635982
  0
LINE
  5
29F
100
AcDbEntity
  8
0
100
AcDbLine
 62
7
  6
CONTINUOUS
 10
-44.6620074702
 20
83.5230233531
 11
-45.4235963642
 21
84.128144772
  0
LINE
  5
2A0
100
AcDbEntity
  8
0
100
AcDbLine
 62
7
  6
CONTINUOUS
 10
-45.8045925222
 20
80.824979085
 11
-45.3556515098
 21
80.4655726093
  0
LINE
  5
2A1
100
AcDbEntity
  8
ASSI
100
AcDbLine
 62
7
  6
CONTINUOUS
 10
9.1760710788
 20
-70.5002770038
 11
73.6760710788
 21
41.2169999684
  0
LINE
  5
2A2
100
AcDbEntity
  8
ASSI
100
AcDbLine
 62
7
  6
CONTINUOUS
 10
9.2010710788
 20
-70.5147089006
 11
73.7010710788
 21
41.2025680716
  0
LINE
  5
2A3
100
AcDbEntity
  8
ASSI
100
AcDbLine
 62
7
  6
CONTINUOUS
 10
9.90817786
 20
-70.9229834939
 11
74.40817786
 21
40.7942934783
  0
LINE
  5
2A4
100
AcDbEntity
  8
0
100
AcDbLine
 62
7
  6
CONTINUOUS
 10
9.90817786
 20
-70.9229834939
 11
74.40817786
 21
40.7942934783
  0
LINE
  5
2A5
100
AcDbEntity
  8
ASSI
100
AcDbLine
 62
7
  6
CONTINUOUS
 10
14.90817786
 20
-73.8093628522
 11
77.65817786
 21
34.8768252099
  0
LINE
  5
2A6
100
AcDbEntity
  8
0
100
AcDbLine
 62
7
  6
CONTINUOUS
 10
14.90817786
 20
-73.8093628522
 11
77.65817786
 21
34.8768252099
  0
LINE
  5
2A7
100
AcDbEntity
  8
0
100
AcDbLine
 62
7
  6
CONTINUOUS
 10
14.959493779
 20
-46.0366368461
 11
14.8219947027
 21
-46.1989066866
  0
LINE
  5
2A8
100
AcDbEntity
  8
0
100
AcDbLine
 62
7
  6
CONTINUOUS
 10
14.8219947027
 20
-46.1989066866
 11
14.8024576068
 21
-46.2101122667
  0
LINE
  5
2A9
100
AcDbEntity
  8
0
100
AcDbLine
 62
7
  6
CONTINUOUS
 10
56.7617139996
 20
27.6052628894
 11
56.7681395197
 21
27.6031407841
  0
LINE
  5
2AA
100
AcDbEntity
  8
0
100
AcDbLine
 62
7
  6
CONTINUOUS
 10
57.2463662352
 20
27.4263011366
 11
57.7821152109
 21
27.2172698412
  0
LINE
  5
2AB
100
AcDbEntity
  8
0
100
AcDbLine
 62
7
  6
CONTINUOUS
 10
54.592143819
 20
25.501640617
 11
55.5002734023
 21
25.1391919358
  0
LINE
  5
2AC
100
AcDbEntity
  8
0
100
AcDbLine
 62
7
  6
CONTINUOUS
 10
55.4565768652
 20
24.1044604093
 11
55.3713033803
 21
24.1470056411
  0
LINE
  5
2AD
100
AcDbEntity
  8
0
100
AcDbLine
 62
7
  6
CONTINUOUS
 10
55.4473097311
 20
24.0852424445
 11
55.3703566327
 21
24.1239612567
  0
LINE
  5
2AE
100
AcDbEntity
  8
0
100
AcDbLine
 62
7
  6
CONTINUOUS
 10
55.4313506881
 20
22.2480619828
 11
55.2835632853
 21
22.3333760845
  0
LINE
  5
2AF
100
AcDbEntity
  8
0
100
AcDbLine
 62
7
  6
CONTINUOUS
 10
-44.9778122404
 20
80.2230542353
 11
-45.1255996432
 21
80.3083683371
  0
LINE
  5
2B0
100
AcDbEntity
  8
0
100
AcDbLine
 62
7
  6
CONTINUOUS
 10
58.1388765164
 20
22.7057334977
 11
58.2713349969
 21
22.6292684129
  0
LINE
  5
2B1
100
AcDbEntity
  8
0
100
AcDbLine
 62
7
  6
CONTINUOUS
 10
-42.2702864121
 20
80.6807257502
 11
-42.1378279316
 21
80.6042606654
  0
LINE
  5
2B2
100
AcDbEntity
  8
0
100
AcDbLine
 62
7
  6
CONTINUOUS
 10
-43.8371682258
 20
84.0892067069
 11
-43.7622162667
 21
84.0391966269
  0
LINE
  5
2B3
100
AcDbEntity
  8
0
100
AcDbLine
 62
7
  6
CONTINUOUS
 10
-43.8567053217
 20
84.0780011268
 11
-43.7744308465
 21
84.0227826903
  0
LINE
  5
2B4
100
AcDbEntity
  8
0
100
AcDbLine
 62
7
  6
CONTINUOUS
 10
55.3713033803
 20
24.1470056411
 11
55.3703566327
 21
24.1239612567
  0
LINE
  5
2B5
100
AcDbEntity
  8
0
100
AcDbLine
 62
7
  6
CONTINUOUS
 10
-44.9525860633
 20
82.0794526618
 11
-45.0378595482
 21
82.1219978937
  0
LINE
  5
2B6
100
AcDbEntity
  8
0
100
AcDbLine
 62
7
  6
CONTINUOUS
 10
-44.961853223
 20
82.0602342094
 11
-45.0388062958
 21
82.0989535093
  0
LINE
  5
2B7
100
AcDbEntity
  8
0
100
AcDbLine
 62
7
  6
CONTINUOUS
 10
58.1810849008
 20
27.011355146
 11
58.0332974981
 21
27.0966692478
  0
LINE
  5
2B8
100
AcDbEntity
  8
0
100
AcDbLine
 62
7
  6
CONTINUOUS
 10
-42.2280780277
 20
84.9863473986
 11
-42.3758654304
 21
85.0716615003
  0
LINE
  5
2B9
100
AcDbEntity
  8
0
100
AcDbLine
 62
7
  6
CONTINUOUS
 10
56.5719947027
 20
26.1142144543
 11
56.6469474849
 21
26.0642048588
  0
LINE
  5
2BA
100
AcDbEntity
  8
0
100
AcDbLine
 62
7
  6
CONTINUOUS
 10
56.5524576068
 20
26.1030088742
 11
56.634732082
 21
26.0477904377
  0
LINE
  5
2BB
100
AcDbEntity
  8
0
100
AcDbLine
 62
7
  6
CONTINUOUS
 10
55.7471554583
 20
25.5480311006
 11
54.9855665643
 21
26.1531525194
  0
LINE
  5
2BC
100
AcDbEntity
  8
0
100
AcDbLine
 62
7
  6
CONTINUOUS
 10
54.6045704063
 20
22.8499868325
 11
55.0535114187
 21
22.4905803567
  0
LINE
  5
2BD
100
AcDbEntity
  8
ASSI
100
AcDbLine
 62
7
  6
CONTINUOUS
 10
31.5131523301
 20
-59.5299957144
 11
20.7328143024
 21
-65.5538014464
  0
LINE
  5
2BE
100
AcDbEntity
  8
0
100
AcDbLine
 62
7
  6
CONTINUOUS
 10
31.5131523301
 20
-59.5299957144
 11
20.7328143024
 21
-65.5538014464
  0
LINE
  5
2BF
100
AcDbEntity
  8
0
100
AcDbLine
 62
7
  6
CONTINUOUS
 10
-43.6474489289
 20
85.5802551419
 11
-43.6410234088
 21
85.5781330366
  0
LINE
  5
2C0
100
AcDbEntity
  8
0
100
AcDbLine
 62
7
  6
CONTINUOUS
 10
-43.1627966933
 20
85.4012933891
 11
-42.6270477176
 21
85.1922620937
  0
LINE
  5
2C1
100
AcDbEntity
  8
0
100
AcDbLine
 62
7
  6
CONTINUOUS
 10
-45.8170191095
 20
83.4766328695
 11
-44.9088895262
 21
83.1141841884
  0
LINE
  5
2C2
100
AcDbEntity
  8
0
100
AcDbLine
 62
7
  6
CONTINUOUS
 10
56.7393056361
 20
26.1861711419
 11
56.709493779
 21
26.2764842949
  0
LINE
  5
2C3
100
AcDbEntity
  8
ASSI
100
AcDbLine
 62
7
  6
CONTINUOUS
 10
77.65817786
 20
34.8768252099
 11
77.65817786
 21
38.9181468954
  0
LINE
  5
2C4
100
AcDbEntity
  8
0
100
AcDbLine
 62
7
  6
CONTINUOUS
 10
77.65817786
 20
34.8768252099
 11
77.65817786
 21
38.9181468954
  0
LINE
  5
2C5
100
AcDbEntity
  8
ASSI
100
AcDbLine
 62
250
  6
CONTINUOUS
 10
77.65817786
 20
38.9181468954
 11
74.40817786
 21
40.7942934783
  0
LINE
  5
2C6
100
AcDbEntity
  8
0
100
AcDbLine
 62
250
  6
CONTINUOUS
 10
77.65817786
 20
38.9181468954
 11
74.40817786
 21
40.7942934783
  0
LINE
  5
2C7
100
AcDbEntity
  8
ASSI
100
AcDbLine
 62
250
  6
CONTINUOUS
 10
73.7010710788
 20
41.2025680716
 11
73.6760710788
 21
41.2169999684
  0
LINE
  5
2C8
100
AcDbEntity
  8
ASSI
100
AcDbLine
 62
7
  6
CONTINUOUS
 10
73.1583041259
 20
44.402749959
 11
-32.2006062709
 21
105.2356643648
  0
LINE
  5
2C9
100
AcDbEntity
  8
ASSI
100
AcDbLine
 62
7
  6
CONTINUOUS
 10
75.1833041259
 20
44.3884296576
 11
73.6833041259
 21
45.2543434651
  0
LINE
  5
2CA
100
AcDbEntity
  8
0
100
AcDbLine
 62
7
  6
CONTINUOUS
 10
75.1833041259
 20
44.3884296576
 11
73.6833041259
 21
45.2543434651
  0
LINE
  5
2CB
100
AcDbEntity
  8
ASSI
100
AcDbLine
 62
7
  6
CONTINUOUS
 10
73.6833041259
 20
45.2543434651
 11
-31.6756062709
 21
106.0872578709
  0
LINE
  5
2CC
100
AcDbEntity
  8
0
100
AcDbLine
 62
7
  6
CONTINUOUS
 10
73.6833041259
 20
45.2543434651
 11
-31.6756062709
 21
106.0872578709
  0
LINE
  5
2CD
100
AcDbEntity
  8
0
100
AcDbLine
 62
7
  6
CONTINUOUS
 10
-45.0287552852
 20
81.9185889214
 11
-45.1187634021
 21
81.9015304656
  0
LINE
  5
2CE
100
AcDbEntity
  8
ASSI
100
AcDbLine
 62
7
  6
CONTINUOUS
 10
16.7821815191
 20
-97.7775687652
 11
99.6876486934
 21
-58.2918321739
  0
LINE
  5
2CF
100
AcDbEntity
  8
0
100
AcDbLine
 62
7
  6
CONTINUOUS
 10
16.7821815191
 20
-97.7775687652
 11
99.6876486934
 21
-58.2918321739
  0
LINE
  5
2D0
100
AcDbEntity
  8
ASSI
100
AcDbLine
 62
250
  6
CONTINUOUS
 10
99.6876486934
 20
-58.2918321739
 11
99.6876486934
 21
-66.4565349418
  0
LINE
  5
2D1
100
AcDbEntity
  8
0
100
AcDbLine
 62
250
  6
CONTINUOUS
 10
99.6876486934
 20
-58.2918321739
 11
99.6876486934
 21
-66.4565349418
  0
LINE
  5
2D2
100
AcDbEntity
  8
ASSI
100
AcDbLine
 62
7
  6
CONTINUOUS
 10
100.9605043551
 20
-56.7329043935
 11
100.9605043551
 21
-64.8976071614
  0
LINE
  5
2D3
100
AcDbEntity
  8
0
100
AcDbLine
 62
7
  6
CONTINUOUS
 10
100.9605043551
 20
-56.7329043935
 11
100.9605043551
 21
-64.8976071614
  0
LINE
  5
2D4
100
AcDbEntity
  8
ASSI
100
AcDbLine
 62
7
  6
CONTINUOUS
 10
16.7821815191
 20
-105.9422715331
 11
99.6876486934
 21
-66.4565349418
  0
LINE
  5
2D5
100
AcDbEntity
  8
0
100
AcDbLine
 62
7
  6
CONTINUOUS
 10
16.7821815191
 20
-105.9422715331
 11
99.6876486934
 21
-66.4565349418
  0
ARC
  5
2D6
100
AcDbEntity
  8
0
100
AcDbCircle
 62
7
  6
CONTINUOUS
 10
-115.6805598207
 20
-5.5673782494
 40
34.3296788375
100
AcDbArc
 50
29.2331149075
 51
29.4179493876
  0
ARC
  5
2D7
100
AcDbEntity
  8
TRASH
100
AcDbCircle
 62
7
  6
CONTINUOUS
 10
-99.1267811584
 20
-2.001179244
 40
17.8450957911
100
AcDbArc
 50
45.7228726257
 51
45.8625016318
  0
ARC
  5
2D8
100
AcDbEntity
  8
0
100
AcDbCircle
 62
7
  6
CONTINUOUS
 10
-74.0658633929
 20
6.3382283928
 40
12.8654753711
100
AcDbArc
 50
151.6483645374
 51
154.5214051539
  0
ARC
  5
2D9
100
AcDbEntity
  8
0
100
AcDbCircle
 62
7
  6
CONTINUOUS
 10
-76.3830461436
 20
2.5509785126
 40
12.7525218846
100
AcDbArc
 50
145.443850278
 51
148.3433629691
  0
ARC
  5
2DA
100
AcDbEntity
  8
0
100
AcDbCircle
 62
7
  6
CONTINUOUS
 10
-78.5406492722
 20
4.50557264
 40
10.8388855423
100
AcDbArc
 50
131.4150092257
 51
134.9736438804
  0
ARC
  5
2DB
100
AcDbEntity
  8
0
100
AcDbCircle
 62
7
  6
CONTINUOUS
 10
-77.0931475386
 20
7.3182074668
 40
10.6784171957
100
AcDbArc
 50
164.9827347897
 51
168.5932309156
  0
ARC
  5
2DC
100
AcDbEntity
  8
0
100
AcDbCircle
 62
7
  6
CONTINUOUS
 10
-86.4385611101
 20
5.1596232761
 40
6.6763465744
100
AcDbArc
 50
92.2938254777
 51
93.1902289431
  0
ARC
  5
2DD
100
AcDbEntity
  8
0
100
AcDbCircle
 62
7
  6
CONTINUOUS
 10
-81.507617762
 20
13.7684067086
 40
6.6130029658
100
AcDbArc
 50
206.8034815737
 51
207.7085085906
  0
ARC
  5
2DE
100
AcDbEntity
  8
0
100
AcDbCircle
 62
7
  6
CONTINUOUS
 10
-86.466077586
 20
10.934164682
 40
3.3600514447
100
AcDbArc
 50
322.1613370714
 51
337.8386628771
  0
ARC
  5
2DF
100
AcDbEntity
  8
0
100
AcDbCircle
 62
7
  6
CONTINUOUS
 10
-85.071688183
 20
10.1292159344
 40
3.246703174
100
AcDbArc
 50
139.3503616328
 51
160.6496383157
  0
ARC
  5
2E0
100
AcDbEntity
  8
0
100
AcDbCircle
 62
7
  6
CONTINUOUS
 10
-86.9297768906
 20
11.2018474927
 40
3.246703174
100
AcDbArc
 50
319.3503616328
 51
340.6496383157
  0
ARC
  5
2E1
100
AcDbEntity
  8
TRASH
100
AcDbCircle
 62
7
  6
CONTINUOUS
 10
-87.7543642882
 20
13.1023691782
 40
2.8142824471
100
AcDbArc
 50
316.8504290675
 51
316.9896495611
  0
ARC
  5
2E2
100
AcDbEntity
  8
TRASH
100
AcDbCircle
 62
7
  6
CONTINUOUS
 10
-87.7199522615
 20
13.0701078875
 40
2.7671127698
100
AcDbArc
 50
316.6907256412
 51
316.8504773542
  0
ARC
  5
2E3
100
AcDbEntity
  8
TRASH
100
AcDbCircle
 62
7
  6
CONTINUOUS
 10
-88.9260179408
 20
10.9467358213
 40
2.7495507366
100
AcDbArc
 50
343.0109689627
 51
343.3178795117
  0
ARC
  5
2E4
100
AcDbEntity
  8
TRASH
100
AcDbCircle
 62
7
  6
CONTINUOUS
 10
-88.7754611464
 20
10.9019029743
 40
2.5924607835
100
AcDbArc
 50
343.3118426773
 51
344.816815557
  0
ARC
  5
2E5
100
AcDbEntity
  8
TRASH
100
AcDbCircle
 62
7
  6
CONTINUOUS
 10
-87.5444010732
 20
12.9030635608
 40
2.5247894006
100
AcDbArc
 50
315.1713565649
 51
316.7164793279
  0
ARC
  5
2E6
100
AcDbEntity
  8
ASSI
100
AcDbCircle
 62
7
  6
CONTINUOUS
 10
-84.7524816581
 20
9.9449788997
 40
2.2631099721
100
AcDbArc
 50
327.7619358035
 51
329.9992880399
  0
ARC
  5
2E7
100
AcDbEntity
  8
0
100
AcDbCircle
 62
7
  6
CONTINUOUS
 10
-84.7524816581
 20
9.9449788997
 40
2.2631099721
100
AcDbArc
 50
327.7619358035
 51
329.9992880399
  0
ARC
  5
2E8
100
AcDbEntity
  8
0
100
AcDbCircle
 62
7
  6
CONTINUOUS
 10
-85.0650436787
 20
11.1414802749
 40
1.870375134
100
AcDbArc
 50
47.9792982848
 51
48.3044083676
  0
ARC
  5
2E9
100
AcDbEntity
  8
0
100
AcDbCircle
 62
7
  6
CONTINUOUS
 10
-85.9449746428
 20
9.6171736374
 40
1.8703121864
100
AcDbArc
 50
251.6925260696
 51
252.0176434468
  0
ARC
  5
2EA
100
AcDbEntity
  8
0
100
AcDbCircle
 62
7
  6
CONTINUOUS
 10
-85.9489018438
 20
9.6056825418
 40
1.8581691242
100
AcDbArc
 50
245.8880812731
 51
251.6961917816
  0
ARC
  5
2EB
100
AcDbEntity
  8
0
100
AcDbCircle
 62
7
  6
CONTINUOUS
 10
-85.0540482999
 20
11.1543660342
 40
1.8534396817
100
AcDbArc
 50
48.2932448131
 51
54.1162378213
  0
ARC
  5
2EC
100
AcDbEntity
  8
0
100
AcDbCircle
 62
7
  6
CONTINUOUS
 10
-85.0461691862
 20
11.1636358677
 40
1.8413797382
100
AcDbArc
 50
60.0138718086
 51
68.6920579236
  0
ARC
  5
2ED
100
AcDbEntity
  8
0
100
AcDbCircle
 62
7
  6
CONTINUOUS
 10
-85.0466924325
 20
11.1643276516
 40
1.8410571173
100
AcDbArc
 50
54.1199988454
 51
54.6129904116
  0
ARC
  5
2EE
100
AcDbEntity
  8
0
100
AcDbCircle
 62
7
  6
CONTINUOUS
 10
-85.9565155608
 20
9.5871541229
 40
1.8381738886
100
AcDbArc
 50
231.3067525361
 51
239.9953197939
  0
ARC
  5
2EF
100
AcDbEntity
  8
0
100
AcDbCircle
 62
7
  6
CONTINUOUS
 10
-85.9570872104
 20
9.5866106303
 40
1.837417391
100
AcDbArc
 50
240.0070665344
 51
245.8781003876
  0
ARC
  5
2F0
100
AcDbEntity
  8
0
100
AcDbCircle
 62
7
  6
CONTINUOUS
 10
-85.0444928903
 20
11.1674610941
 40
1.8372288029
100
AcDbArc
 50
54.6123240205
 51
59.9947440599
  0
ARC
  5
2F1
100
AcDbEntity
  8
0
100
AcDbCircle
 62
250
  6
CONTINUOUS
 10
-86.7181161883
 20
10.0856859818
 40
1.7513787529
100
AcDbArc
 50
231.3193218502
 51
239.9815167438
  0
ARC
  5
2F2
100
AcDbEntity
  8
0
100
AcDbCircle
 62
250
  6
CONTINUOUS
 10
-85.8554281538
 20
11.5807778134
 40
1.7469160199
100
AcDbArc
 50
60.0042250359
 51
68.6981525166
  0
ARC
  5
2F3
100
AcDbEntity
  8
0
100
AcDbCircle
 62
7
  6
CONTINUOUS
 10
-86.4927410138
 20
10.9495569829
 40
1.7042819575
100
AcDbArc
 50
322.3081829717
 51
337.689911662
  0
ARC
  5
2F4
100
AcDbEntity
  8
0
100
AcDbCircle
 62
7
  6
CONTINUOUS
 10
-85.5087240597
 20
10.3815064442
 40
1.7042819575
100
AcDbArc
 50
142.3081831336
 51
157.6899116624
  0
ARC
  5
2F5
100
AcDbEntity
  8
TRASH
100
AcDbCircle
 62
7
  6
CONTINUOUS
 10
-85.3541450705
 20
10.2922853026
 40
1.4004147117
100
AcDbArc
 50
140.1813431726
 51
159.8196659665
  0
ARC
  5
2F6
100
AcDbEntity
  8
ASSI
100
AcDbCircle
 62
7
  6
CONTINUOUS
 10
-84.4499313011
 20
9.0215380988
 40
1.3015357554
100
AcDbArc
 50
239.7966874454
 51
240.0031914726
  0
ARC
  5
2F7
100
AcDbEntity
  8
ASSI
100
AcDbCircle
 62
7
  6
CONTINUOUS
 10
-83.8015336318
 20
10.1447410424
 40
1.3015354835
100
AcDbArc
 50
60.0031917126
 51
60.2096552355
  0
ARC
  5
2F8
100
AcDbEntity
  8
0
100
AcDbCircle
 62
7
  6
CONTINUOUS
 10
-86.16494712
 20
11.4749838619
 40
1.2449250017
100
AcDbArc
 50
51.3916302161
 51
68.5980023653
  0
ARC
  5
2F9
100
AcDbEntity
  8
0
100
AcDbCircle
 62
7
  6
CONTINUOUS
 10
-86.7838172471
 20
10.4029325906
 40
1.2449250017
100
AcDbArc
 50
231.391630249
 51
248.5980023654
  0
ARC
  5
2FA
100
AcDbEntity
  8
0
100
AcDbCircle
 62
7
  6
CONTINUOUS
 10
-49.7813753166
 20
-97.4377420844
 40
81.7582313404
100
AcDbArc
 50
38.6001141431
 51
38.9262111063
  0
ARC
  5
2FB
100
AcDbEntity
  8
ASSI
100
AcDbCircle
 62
7
  6
CONTINUOUS
 10
1.8064979894
 20
-119.4089312928
 40
19.6700100637
100
AcDbArc
 50
115.3972104668
 51
117.4983316732
  0
ARC
  5
2FC
100
AcDbEntity
  8
0
100
AcDbCircle
 62
7
  6
CONTINUOUS
 10
1.8064979894
 20
-119.4089312928
 40
19.6700100637
100
AcDbArc
 50
115.3972104668
 51
117.4983316732
  0
ARC
  5
2FD
100
AcDbEntity
  8
TRASH
100
AcDbCircle
 62
7
  6
CONTINUOUS
 10
1.5279721683
 20
-59.3749648061
 40
17.2699136417
100
AcDbArc
 50
44.9501120294
 51
45.0941584953
  0
ARC
  5
2FE
100
AcDbEntity
  8
0
100
AcDbCircle
 62
7
  6
CONTINUOUS
 10
9.9383156653
 20
-57.9412185773
 40
12.22588067
100
AcDbArc
 50
74.4380264901
 51
76.6207687927
  0
ARC
  5
2FF
100
AcDbEntity
  8
0
100
AcDbCircle
 62
7
  6
CONTINUOUS
 10
-8.0313753143
 20
-25.1246209415
 40
81.7582313374
100
AcDbArc
 50
38.6001141431
 51
38.9262111063
  0
ARC
  5
300
100
AcDbEntity
  8
SMUSSO
100
AcDbCircle
 62
7
  6
CONTINUOUS
 10
-10.9864123622
 20
10.5636061589
 40
8.6798686598
100
AcDbArc
 50
56.0725031743
 51
60.0023612449
  0
ARC
  5
301
100
AcDbEntity
  8
SMUSSO
100
AcDbCircle
 62
7
  6
CONTINUOUS
 10
-15.3061247933
 20
3.0806769335
 40
8.679834204
100
AcDbArc
 50
240.0040211839
 51
243.9334824555
  0
ARC
  5
302
100
AcDbEntity
  8
TRASH
100
AcDbCircle
 62
7
  6
CONTINUOUS
 10
11.5561656977
 20
-46.9765637815
 40
2.6866755141
100
AcDbArc
 50
341.5550357821
 51
343.5792766975
  0
ARC
  5
303
100
AcDbEntity
  8
0
100
AcDbCircle
 62
7
  6
CONTINUOUS
 10
12.4326551776
 20
-49.0094160756
 40
0.0679300426
100
AcDbArc
 50
222.1631638218
 51
231.0681732026
  0
ARC
  5
304
100
AcDbEntity
  8
0
100
AcDbCircle
 62
7
  6
CONTINUOUS
 10
-108.4405382467
 20
32.8503713078
 40
81.7582313425
100
AcDbArc
 50
38.6001141431
 51
38.9262111063
  0
ARC
  5
305
100
AcDbEntity
  8
0
100
AcDbCircle
 62
7
  6
CONTINUOUS
 10
-86.8143644686
 20
47.2672219283
 40
37.1116988345
100
AcDbArc
 50
270.5874822969
 51
270.7584548052
  0
ARC
  5
306
100
AcDbEntity
  8
TRASH
100
AcDbCircle
 62
7
  6
CONTINUOUS
 10
-81.5937089137
 20
28.3698622753
 40
17.8484649136
100
AcDbArc
 50
254.1395239607
 51
254.2791278519
  0
ARC
  5
307
100
AcDbEntity
  8
TRASH
100
AcDbCircle
 62
7
  6
CONTINUOUS
 10
-57.1311907581
 20
70.9131485894
 40
17.2699136388
100
AcDbArc
 50
44.9501120294
 51
45.0941584953
  0
ARC
  5
308
100
AcDbEntity
  8
0
100
AcDbCircle
 62
7
  6
CONTINUOUS
 10
-12.9048678555
 20
41.7430266154
 40
51.6651147889
100
AcDbArc
 50
127.985745163
 51
128.1181442184
  0
ARC
  5
309
100
AcDbEntity
  8
0
100
AcDbCircle
 62
7
  6
CONTINUOUS
 10
-0.076624069
 20
75.5175991467
 40
44.6824516285
100
AcDbArc
 50
169.4406667338
 51
169.5950183762
  0
ARC
  5
30A
100
AcDbEntity
  8
0
100
AcDbCircle
 62
7
  6
CONTINUOUS
 10
-33.3260750799
 20
88.7760839087
 40
13.0951363539
100
AcDbArc
 50
207.3595840769
 51
207.4757968002
  0
ARC
  5
30B
100
AcDbEntity
  8
0
100
AcDbCircle
 62
7
  6
CONTINUOUS
 10
-44.4766581684
 20
70.9560680606
 40
12.7585040637
100
AcDbArc
 50
89.4428287099
 51
89.5610747035
  0
ARC
  5
30C
100
AcDbEntity
  8
0
100
AcDbCircle
 62
7
  6
CONTINUOUS
 10
-48.7208472632
 20
72.3468948162
 40
12.2258806699
100
AcDbArc
 50
74.4380264901
 51
76.6207687927
  0
ARC
  5
30D
100
AcDbEntity
  8
0
100
AcDbCircle
 62
7
  6
CONTINUOUS
 10
-38.1483561683
 20
82.0168753609
 40
7.5349572104
100
AcDbArc
 50
172.2967569058
 51
173.2323562701
  0
ARC
  5
30E
100
AcDbEntity
  8
0
100
AcDbCircle
 62
7
  6
CONTINUOUS
 10
-40.5984111705
 20
78.024903392
 40
7.5064108172
100
AcDbArc
 50
124.3719099337
 51
125.3057597652
  0
ARC
  5
30F
100
AcDbEntity
  8
0
100
AcDbCircle
 62
7
  6
CONTINUOUS
 10
-44.7133438062
 20
83.2459907694
 40
3.3570424575
100
AcDbArc
 50
328.8660897061
 51
336.7163111846
  0
ARC
  5
310
100
AcDbEntity
  8
0
100
AcDbCircle
 62
7
  6
CONTINUOUS
 10
-44.7088221565
 20
83.242463272
 40
3.3513483126
100
AcDbArc
 50
321.0247358289
 51
328.8777413256
  0
ARC
  5
311
100
AcDbEntity
  8
TRASH
100
AcDbCircle
 62
7
  6
CONTINUOUS
 10
-47.1029972308
 20
83.3115496119
 40
2.6866755141
100
AcDbArc
 50
341.5550357821
 51
343.5792766975
  0
ARC
  5
312
100
AcDbEntity
  8
TRASH
100
AcDbCircle
 62
7
  6
CONTINUOUS
 10
-45.7220859838
 20
85.2399167622
 40
2.4976340631
100
AcDbArc
 50
313.9504786586
 51
314.8228345246
  0
ARC
  5
313
100
AcDbEntity
  8
0
100
AcDbCircle
 62
7
  6
CONTINUOUS
 10
-45.3787449699
 20
83.6298422999
 40
2.2774413737
100
AcDbArc
 50
323.1243908315
 51
334.6185418621
  0
ARC
  5
314
100
AcDbEntity
  8
0
100
AcDbCircle
 62
7
  6
CONTINUOUS
 10
-44.0700193972
 20
82.8743164345
 40
2.2774413737
100
AcDbArc
 50
143.1243908095
 51
154.6185418622
  0
ARC
  5
315
100
AcDbEntity
  8
ASSI
100
AcDbCircle
 62
7
  6
CONTINUOUS
 10
-43.0024816582
 20
82.2581000407
 40
2.2631099722
100
AcDbArc
 50
327.7619358035
 51
329.9992880399
  0
ARC
  5
316
100
AcDbEntity
  8
0
100
AcDbCircle
 62
7
  6
CONTINUOUS
 10
-43.0024816582
 20
82.2581000407
 40
2.2631099722
100
AcDbArc
 50
327.7619358035
 51
329.9992880399
  0
ARC
  5
317
100
AcDbEntity
  8
0
100
AcDbCircle
 62
7
  6
CONTINUOUS
 10
-43.3230300681
 20
83.4458442784
 40
1.8822275523
100
AcDbArc
 50
46.3186128649
 51
46.6418906139
  0
ARC
  5
318
100
AcDbEntity
  8
0
100
AcDbCircle
 62
7
  6
CONTINUOUS
 10
-44.1983920449
 20
81.9205641524
 40
1.8599985637
100
AcDbArc
 50
250.0234762705
 51
250.3493245884
  0
ARC
  5
319
100
AcDbEntity
  8
0
100
AcDbCircle
 62
7
  6
CONTINUOUS
 10
-43.3063664441
 20
83.4644336274
 40
1.8572712672
100
AcDbArc
 50
46.6219342284
 51
54.3904397232
  0
ARC
  5
31A
100
AcDbEntity
  8
0
100
AcDbCircle
 62
7
  6
CONTINUOUS
 10
-44.2014103592
 20
81.9124419018
 40
1.8513338462
100
AcDbArc
 50
245.3137335572
 51
250.02539088
  0
ARC
  5
31B
100
AcDbEntity
  8
0
100
AcDbCircle
 62
7
  6
CONTINUOUS
 10
-43.2967016572
 20
83.4756281628
 40
1.8426246019
100
AcDbArc
 50
60.0170741887
 51
68.68938827
  0
ARC
  5
31C
100
AcDbEntity
  8
0
100
AcDbCircle
 62
7
  6
CONTINUOUS
 10
-44.2049421646
 20
81.9044570099
 40
1.8426036553
100
AcDbArc
 50
244.833523864
 51
245.3098200421
  0
ARC
  5
31D
100
AcDbEntity
  8
0
100
AcDbCircle
 62
7
  6
CONTINUOUS
 10
-43.2960897665
 20
83.4783925023
 40
1.8399389812
100
AcDbArc
 50
54.3975178743
 51
54.6876369111
  0
ARC
  5
31E
100
AcDbEntity
  8
0
100
AcDbCircle
 62
7
  6
CONTINUOUS
 10
-44.2068637641
 20
81.8997270492
 40
1.8375260022
100
AcDbArc
 50
231.3045368211
 51
240.0009586747
  0
ARC
  5
31F
100
AcDbEntity
  8
0
100
AcDbCircle
 62
7
  6
CONTINUOUS
 10
-43.2940829911
 20
83.4812358215
 40
1.8364588123
100
AcDbArc
 50
54.6874503478
 51
60.000408883
  0
ARC
  5
320
100
AcDbEntity
  8
0
100
AcDbCircle
 62
7
  6
CONTINUOUS
 10
-44.2077500043
 20
81.8985553882
 40
1.8360682059
100
AcDbArc
 50
240.0066287625
 51
244.8345113651
  0
ARC
  5
321
100
AcDbEntity
  8
0
100
AcDbCircle
 62
7
  6
CONTINUOUS
 10
-44.6667348179
 20
82.2454609175
 40
1.8200199532
100
AcDbArc
 50
222.5073319184
 51
231.3039936221
  0
ARC
  5
322
100
AcDbEntity
  8
0
100
AcDbCircle
 62
7
  6
CONTINUOUS
 10
-43.8215195941
 20
83.7122713444
 40
1.8129194424
100
AcDbArc
 50
68.6941046806
 51
74.1662412226
  0
ARC
  5
323
100
AcDbEntity
  8
0
100
AcDbCircle
 62
7
  6
CONTINUOUS
 10
-44.6902975218
 20
82.2167258654
 40
1.7828619175
100
AcDbArc
 50
231.3176601995
 51
254.2380791257
  0
ARC
  5
324
100
AcDbEntity
  8
TRASH
100
AcDbCircle
 62
7
  6
CONTINUOUS
 10
-43.6045687066
 20
82.6055030321
 40
1.4000029191
100
AcDbArc
 50
139.0522374968
 51
158.6944673134
  0
ARC
  5
325
100
AcDbEntity
  8
ASSI
100
AcDbCircle
 62
7
  6
CONTINUOUS
 10
-42.6999313676
 20
81.334659125
 40
1.3015356228
100
AcDbArc
 50
239.8036340234
 51
240.0031914844
  0
ARC
  5
326
100
AcDbEntity
  8
ASSI
100
AcDbCircle
 62
7
  6
CONTINUOUS
 10
-42.0515336292
 20
82.4578621879
 40
1.3015354782
100
AcDbArc
 50
60.0031917116
 51
60.2086215803
  0
ARC
  5
327
100
AcDbEntity
  8
ASSI
100
AcDbCircle
 62
7
  6
CONTINUOUS
 10
-42.0434289668
 20
82.0125481798
 40
1.1056663286
100
AcDbArc
 50
21.5036159655
 51
22.0108574806
  0
ARC
  5
328
100
AcDbEntity
  8
0
100
AcDbCircle
 62
7
  6
CONTINUOUS
 10
-42.0434289668
 20
82.0125481798
 40
1.1056663286
100
AcDbArc
 50
21.5036159655
 51
22.0108574806
  0
ARC
  5
329
100
AcDbEntity
  8
0
100
AcDbCircle
 62
7
  6
CONTINUOUS
 10
-42.8013413662
 20
81.7909072817
 40
0.9708248144
100
AcDbArc
 50
317.2825412227
 51
317.6140840401
  0
ARC
  5
32A
100
AcDbEntity
  8
0
100
AcDbCircle
 62
7
  6
CONTINUOUS
 10
-42.795985437
 20
81.7859554958
 40
0.9635305606
100
AcDbArc
 50
316.7294764467
 51
317.2828231987
  0
ARC
  5
32B
100
AcDbEntity
  8
0
100
AcDbCircle
 62
7
  6
CONTINUOUS
 10
-44.4721370135
 20
82.5907911523
 40
0.9450957521
100
AcDbArc
 50
226.8279512855
 51
231.5378151551
  0
ARC
  5
32C
100
AcDbEntity
  8
0
100
AcDbCircle
 62
7
  6
CONTINUOUS
 10
-44.0224670546
 20
83.3726483636
 40
0.9362357952
100
AcDbArc
 50
64.8356216121
 51
69.8314684777
  0
ARC
  5
32D
100
AcDbEntity
  8
0
100
AcDbCircle
 62
7
  6
CONTINUOUS
 10
-46.2265077508
 20
81.2786973179
 40
0.0679300426
100
AcDbArc
 50
222.1631638217
 51
231.0681732027
  0
ARC
  5
32E
100
AcDbEntity
  8
0
100
AcDbCircle
 62
7
  6
CONTINUOUS
 10
-31.4182872452
 20
170.640276995
 40
88.8791677765
100
AcDbArc
 50
260.7984214025
 51
261.1023889561
  0
ARC
  5
32F
100
AcDbEntity
  8
TRASH
100
AcDbCircle
 62
7
  6
CONTINUOUS
 10
-39.4200803137
 20
101.2244318209
 40
18.4612475759
100
AcDbArc
 50
253.3691960789
 51
253.5043711344
  0
ARC
  5
330
100
AcDbEntity
  8
0
100
AcDbCircle
 62
7
  6
CONTINUOUS
 10
45.7542950798
 20
-88.5450867868
 40
51.6651148
100
AcDbArc
 50
127.985745163
 51
128.1181442184
  0
ARC
  5
331
100
AcDbEntity
  8
0
100
AcDbCircle
 62
7
  6
CONTINUOUS
 10
25.3330878535
 20
-41.5120294823
 40
13.0951363595
100
AcDbArc
 50
207.359584077
 51
207.4757968002
  0
ARC
  5
332
100
AcDbEntity
  8
0
100
AcDbCircle
 62
7
  6
CONTINUOUS
 10
14.1825047601
 20
-59.3320453291
 40
12.7585040598
100
AcDbArc
 50
89.4428287099
 51
89.5610747035
  0
ARC
  5
333
100
AcDbEntity
  8
0
100
AcDbCircle
 62
7
  6
CONTINUOUS
 10
20.51080676
 20
-48.2712380326
 40
7.5349572103
100
AcDbArc
 50
172.2967569058
 51
173.2323562701
  0
ARC
  5
334
100
AcDbEntity
  8
0
100
AcDbCircle
 62
7
  6
CONTINUOUS
 10
18.0607517579
 20
-52.2632100015
 40
7.5064108171
100
AcDbArc
 50
124.3719099338
 51
125.3057597653
  0
ARC
  5
335
100
AcDbEntity
  8
0
100
AcDbCircle
 62
7
  6
CONTINUOUS
 10
13.9458191223
 20
-47.042122624
 40
3.3570424575
100
AcDbArc
 50
328.8660897061
 51
336.7163111846
  0
ARC
  5
336
100
AcDbEntity
  8
0
100
AcDbCircle
 62
7
  6
CONTINUOUS
 10
13.9503407719
 20
-47.0456501215
 40
3.3513483126
100
AcDbArc
 50
321.0247358289
 51
328.8777413256
  0
ARC
  5
337
100
AcDbEntity
  8
TRASH
100
AcDbCircle
 62
7
  6
CONTINUOUS
 10
12.9370769446
 20
-45.0481966313
 40
2.4976340631
100
AcDbArc
 50
313.9504786586
 51
314.8228345246
  0
ARC
  5
338
100
AcDbEntity
  8
0
100
AcDbCircle
 62
7
  6
CONTINUOUS
 10
13.2804179586
 20
-46.6582710936
 40
2.2774413738
100
AcDbArc
 50
323.1243908315
 51
334.6185418621
  0
ARC
  5
339
100
AcDbEntity
  8
0
100
AcDbCircle
 62
7
  6
CONTINUOUS
 10
14.5891435313
 20
-47.413796959
 40
2.2774413737
100
AcDbArc
 50
143.1243908095
 51
154.6185418622
  0
ARC
  5
33A
100
AcDbEntity
  8
ASSI
100
AcDbCircle
 62
7
  6
CONTINUOUS
 10
15.6566812703
 20
-48.0300133528
 40
2.2631099722
100
AcDbArc
 50
327.7619358035
 51
329.9992880399
  0
ARC
  5
33B
100
AcDbEntity
  8
0
100
AcDbCircle
 62
7
  6
CONTINUOUS
 10
15.6566812703
 20
-48.0300133528
 40
2.2631099722
100
AcDbArc
 50
327.7619358035
 51
329.9992880399
  0
ARC
  5
33C
100
AcDbEntity
  8
0
100
AcDbCircle
 62
7
  6
CONTINUOUS
 10
15.3361328604
 20
-46.8422691151
 40
1.8822275523
100
AcDbArc
 50
46.318612865
 51
46.641890614
  0
ARC
  5
33D
100
AcDbEntity
  8
0
100
AcDbCircle
 62
7
  6
CONTINUOUS
 10
14.460770884
 20
-48.36754924
 40
1.859998565
100
AcDbArc
 50
250.0234762707
 51
250.3493245884
  0
ARC
  5
33E
100
AcDbEntity
  8
0
100
AcDbCircle
 62
7
  6
CONTINUOUS
 10
15.3527964844
 20
-46.8236797661
 40
1.8572712672
100
AcDbArc
 50
46.6219342284
 51
54.3904397232
  0
ARC
  5
33F
100
AcDbEntity
  8
0
100
AcDbCircle
 62
7
  6
CONTINUOUS
 10
14.4577525693
 20
-48.3756714916
 40
1.8513338462
100
AcDbArc
 50
245.3137335572
 51
250.02539088
  0
ARC
  5
340
100
AcDbEntity
  8
0
100
AcDbCircle
 62
7
  6
CONTINUOUS
 10
15.3624612713
 20
-46.8124852307
 40
1.8426246019
100
AcDbArc
 50
60.0170741887
 51
68.68938827
  0
ARC
  5
341
100
AcDbEntity
  8
0
100
AcDbCircle
 62
7
  6
CONTINUOUS
 10
14.4542207646
 20
-48.3836563821
 40
1.8426036569
100
AcDbArc
 50
244.8335238641
 51
245.3098200418
  0
ARC
  5
342
100
AcDbEntity
  8
0
100
AcDbCircle
 62
7
  6
CONTINUOUS
 10
15.363073162
 20
-46.8097208912
 40
1.8399389812
100
AcDbArc
 50
54.3975178745
 51
54.6876369113
  0
ARC
  5
343
100
AcDbEntity
  8
0
100
AcDbCircle
 62
7
  6
CONTINUOUS
 10
14.4522991644
 20
-48.3883863443
 40
1.8375260022
100
AcDbArc
 50
231.3045368211
 51
240.0009586747
  0
ARC
  5
344
100
AcDbEntity
  8
0
100
AcDbCircle
 62
7
  6
CONTINUOUS
 10
15.3650799374
 20
-46.806877572
 40
1.8364588123
100
AcDbArc
 50
54.6874503478
 51
60.000408883
  0
ARC
  5
345
100
AcDbEntity
  8
0
100
AcDbCircle
 62
7
  6
CONTINUOUS
 10
14.4514129242
 20
-48.3895580053
 40
1.8360682059
100
AcDbArc
 50
240.0066287625
 51
244.8345113652
  0
ARC
  5
346
100
AcDbEntity
  8
0
100
AcDbCircle
 62
7
  6
CONTINUOUS
 10
13.9924281106
 20
-48.042652476
 40
1.8200199532
100
AcDbArc
 50
222.5073319184
 51
231.3039936221
  0
ARC
  5
347
100
AcDbEntity
  8
0
100
AcDbCircle
 62
7
  6
CONTINUOUS
 10
14.8376433344
 20
-46.5758420491
 40
1.8129194424
100
AcDbArc
 50
68.6941046806
 51
74.1662412227
  0
ARC
  5
348
100
AcDbEntity
  8
0
100
AcDbCircle
 62
7
  6
CONTINUOUS
 10
13.9688654067
 20
-48.0713875281
 40
1.7828619175
100
AcDbArc
 50
231.3176601995
 51
254.2380791257
  0
ARC
  5
349
100
AcDbEntity
  8
TRASH
100
AcDbCircle
 62
7
  6
CONTINUOUS
 10
15.0545942219
 20
-47.6826103614
 40
1.4000029191
100
AcDbArc
 50
139.0522374968
 51
158.6944673134
  0
ARC
  5
34A
100
AcDbEntity
  8
ASSI
100
AcDbCircle
 62
7
  6
CONTINUOUS
 10
15.9592315595
 20
-48.9534542708
 40
1.3015356201
100
AcDbArc
 50
239.8036340233
 51
240.0031914846
  0
ARC
  5
34B
100
AcDbEntity
  8
ASSI
100
AcDbCircle
 62
7
  6
CONTINUOUS
 10
16.6076293043
 20
-47.830251197
 40
1.3015354683
100
AcDbArc
 50
60.003191711
 51
60.2086215812
  0
ARC
  5
34C
100
AcDbEntity
  8
ASSI
100
AcDbCircle
 62
7
  6
CONTINUOUS
 10
16.6157339626
 20
-48.2755652133
 40
1.1056663276
100
AcDbArc
 50
21.5036159652
 51
22.0108574808
  0
ARC
  5
34D
100
AcDbEntity
  8
0
100
AcDbCircle
 62
7
  6
CONTINUOUS
 10
16.6157339626
 20
-48.2755652133
 40
1.1056663276
100
AcDbArc
 50
21.5036159652
 51
22.0108574808
  0
ARC
  5
34E
100
AcDbEntity
  8
0
100
AcDbCircle
 62
7
  6
CONTINUOUS
 10
15.8578215604
 20
-48.49720611
 40
0.9708248169
100
AcDbArc
 50
317.282541223
 51
317.6140840395
  0
ARC
  5
34F
100
AcDbEntity
  8
0
100
AcDbCircle
 62
7
  6
CONTINUOUS
 10
15.8631774911
 20
-48.5021578974
 40
0.9635305611
100
AcDbArc
 50
316.7294764468
 51
317.2828231985
  0
ARC
  5
350
100
AcDbEntity
  8
0
100
AcDbCircle
 62
7
  6
CONTINUOUS
 10
14.187025915
 20
-47.6973222412
 40
0.9450957521
100
AcDbArc
 50
226.8279512855
 51
231.5378151551
  0
ARC
  5
351
100
AcDbEntity
  8
0
100
AcDbCircle
 62
7
  6
CONTINUOUS
 10
14.6366958738
 20
-46.9154650299
 40
0.9362357952
100
AcDbArc
 50
64.8356216121
 51
69.8314684777
  0
ARC
  5
352
100
AcDbEntity
  8
TRASH
100
AcDbCircle
 62
7
  6
CONTINUOUS
 10
19.239082621
 20
-29.063681552
 40
18.4612475974
100
AcDbArc
 50
253.3691960789
 51
253.5043711343
  0
ARC
  5
353
100
AcDbEntity
  8
TRASH
100
AcDbCircle
 62
7
  6
CONTINUOUS
 10
43.2779721757
 20
12.9381563422
 40
17.2699136313
100
AcDbArc
 50
44.9501120294
 51
45.0941584953
  0
ARC
  5
354
100
AcDbEntity
  8
0
100
AcDbCircle
 62
7
  6
CONTINUOUS
 10
55.93250476
 20
12.9810758001
 40
12.7585040716
100
AcDbArc
 50
89.4428287099
 51
89.5610747034
  0
ARC
  5
355
100
AcDbEntity
  8
0
100
AcDbCircle
 62
7
  6
CONTINUOUS
 10
51.6883156653
 20
14.3719025636
 40
12.22588067
100
AcDbArc
 50
74.4380264901
 51
76.6207687927
  0
ARC
  5
356
100
AcDbEntity
  8
0
100
AcDbCircle
 62
7
  6
CONTINUOUS
 10
55.6958191223
 20
25.2709985169
 40
3.3570424575
100
AcDbArc
 50
328.8660897061
 51
336.7163111846
  0
ARC
  5
357
100
AcDbEntity
  8
0
100
AcDbCircle
 62
7
  6
CONTINUOUS
 10
55.7003407719
 20
25.2674710194
 40
3.3513483126
100
AcDbArc
 50
321.0247358289
 51
328.8777413256
  0
ARC
  5
358
100
AcDbEntity
  8
TRASH
100
AcDbCircle
 62
7
  6
CONTINUOUS
 10
53.3061656977
 20
25.3365573594
 40
2.6866755141
100
AcDbArc
 50
341.5550357821
 51
343.5792766975
  0
ARC
  5
359
100
AcDbEntity
  8
0
100
AcDbCircle
 62
7
  6
CONTINUOUS
 10
56.3391435313
 20
24.899324182
 40
2.2774413737
100
AcDbArc
 50
143.1243908095
 51
154.6185418622
  0
ARC
  5
35A
100
AcDbEntity
  8
0
100
AcDbCircle
 62
7
  6
CONTINUOUS
 10
56.210770884
 20
23.9455719011
 40
1.859998565
100
AcDbArc
 50
250.0234762707
 51
250.3493245884
  0
ARC
  5
35B
100
AcDbEntity
  8
0
100
AcDbCircle
 62
7
  6
CONTINUOUS
 10
56.2077525693
 20
23.9374496493
 40
1.8513338462
100
AcDbArc
 50
245.3137335572
 51
250.02539088
  0
ARC
  5
35C
100
AcDbEntity
  8
0
100
AcDbCircle
 62
7
  6
CONTINUOUS
 10
56.2042207647
 20
23.9294647592
 40
1.8426036573
100
AcDbArc
 50
244.8335238641
 51
245.3098200418
  0
ARC
  5
35D
100
AcDbEntity
  8
0
100
AcDbCircle
 62
7
  6
CONTINUOUS
 10
56.2022991644
 20
23.9247347966
 40
1.8375260022
100
AcDbArc
 50
231.3045368211
 51
240.0009586747
  0
ARC
  5
35E
100
AcDbEntity
  8
0
100
AcDbCircle
 62
7
  6
CONTINUOUS
 10
56.2014129242
 20
23.9235631356
 40
1.8360682059
100
AcDbArc
 50
240.0066287625
 51
244.8345113651
  0
ARC
  5
35F
100
AcDbEntity
  8
0
100
AcDbCircle
 62
7
  6
CONTINUOUS
 10
55.7424281106
 20
24.2704686649
 40
1.8200199532
100
AcDbArc
 50
222.5073319184
 51
231.3039936221
  0
ARC
  5
360
100
AcDbEntity
  8
0
100
AcDbCircle
 62
7
  6
CONTINUOUS
 10
55.7188654067
 20
24.2417336129
 40
1.7828619175
100
AcDbArc
 50
231.3176601995
 51
254.2380791257
  0
ARC
  5
361
100
AcDbEntity
  8
0
100
AcDbCircle
 62
7
  6
CONTINUOUS
 10
55.937025915
 20
24.6157988998
 40
0.9450957521
100
AcDbArc
 50
226.8279512855
 51
231.5378151551
  0
ARC
  5
362
100
AcDbEntity
  8
0
100
AcDbCircle
 62
7
  6
CONTINUOUS
 10
56.3866958738
 20
25.397656111
 40
0.9362357952
100
AcDbArc
 50
64.8356216121
 51
69.8314684777
  0
ARC
  5
363
100
AcDbEntity
  8
0
100
AcDbCircle
 62
7
  6
CONTINUOUS
 10
54.1826551776
 20
23.3037050653
 40
0.0679300426
100
AcDbArc
 50
222.1631638217
 51
231.0681732027
  0
ARC
  5
364
100
AcDbEntity
  8
0
100
AcDbCircle
 62
7
  6
CONTINUOUS
 10
58.5825388595
 20
-54.7705142468
 40
44.6824516285
100
AcDbArc
 50
169.4406667338
 51
169.5950183762
  0
ARC
  5
365
100
AcDbEntity
  8
RACCORDO
100
AcDbCircle
 62
250
  6
CONTINUOUS
 10
90.4143652056
 20
-64.8233356111
 40
5.9179678752
100
AcDbArc
 50
298.9566103839
 51
299.9985043554
  0
ARC
  5
366
100
AcDbEntity
  8
0
100
AcDbCircle
 62
7
  6
CONTINUOUS
 10
87.5042950891
 20
-16.2319656577
 40
51.665114815
100
AcDbArc
 50
127.9857451631
 51
128.1181442184
  0
ARC
  5
367
100
AcDbEntity
  8
0
100
AcDbCircle
 62
7
  6
CONTINUOUS
 10
100.332538864
 20
17.5426068933
 40
44.682451633
100
AcDbArc
 50
169.4406667338
 51
169.5950183762
  0
ARC
  5
368
100
AcDbEntity
  8
0
100
AcDbCircle
 62
7
  6
CONTINUOUS
 10
62.2608067602
 20
24.0418831084
 40
7.5349572104
100
AcDbArc
 50
172.2967569058
 51
173.2323562701
  0
ARC
  5
369
100
AcDbEntity
  8
0
100
AcDbCircle
 62
7
  6
CONTINUOUS
 10
59.810751758
 20
20.0499111394
 40
7.5064108172
100
AcDbArc
 50
124.3719099337
 51
125.3057597652
  0
ARC
  5
36A
100
AcDbEntity
  8
ASSI
100
AcDbCircle
 62
7
  6
CONTINUOUS
 10
57.4066812703
 20
24.2831077881
 40
2.2631099722
100
AcDbArc
 50
327.7619358035
 51
329.9992880399
  0
ARC
  5
36B
100
AcDbEntity
  8
0
100
AcDbCircle
 62
7
  6
CONTINUOUS
 10
57.4066812703
 20
24.2831077881
 40
2.2631099722
100
AcDbArc
 50
327.7619358035
 51
329.9992880399
  0
ARC
  5
36C
100
AcDbEntity
  8
0
100
AcDbCircle
 62
7
  6
CONTINUOUS
 10
57.0861328619
 20
25.4708520275
 40
1.88222755
100
AcDbArc
 50
46.3186128648
 51
46.6418906142
  0
ARC
  5
36D
100
AcDbEntity
  8
0
100
AcDbCircle
 62
7
  6
CONTINUOUS
 10
57.1027964844
 20
25.4894413748
 40
1.8572712672
100
AcDbArc
 50
46.6219342284
 51
54.3904397232
  0
ARC
  5
36E
100
AcDbEntity
  8
0
100
AcDbCircle
 62
7
  6
CONTINUOUS
 10
57.1124612713
 20
25.5006359103
 40
1.8426246019
100
AcDbArc
 50
60.0170741887
 51
68.68938827
  0
ARC
  5
36F
100
AcDbEntity
  8
0
100
AcDbCircle
 62
7
  6
CONTINUOUS
 10
57.113073162
 20
25.5034002498
 40
1.8399389812
100
AcDbArc
 50
54.3975178745
 51
54.6876369113
  0
ARC
  5
370
100
AcDbEntity
  8
0
100
AcDbCircle
 62
7
  6
CONTINUOUS
 10
57.1150799374
 20
25.506243569
 40
1.8364588123
100
AcDbArc
 50
54.6874503478
 51
60.000408883
  0
ARC
  5
371
100
AcDbEntity
  8
TRASH
100
AcDbCircle
 62
7
  6
CONTINUOUS
 10
56.8045942219
 20
24.6305107795
 40
1.4000029191
100
AcDbArc
 50
139.0522374968
 51
158.6944673134
  0
ARC
  5
372
100
AcDbEntity
  8
ASSI
100
AcDbCircle
 62
7
  6
CONTINUOUS
 10
57.7092315595
 20
23.3596668701
 40
1.30153562
100
AcDbArc
 50
239.8036340233
 51
240.0031914847
  0
ARC
  5
373
100
AcDbEntity
  8
ASSI
100
AcDbCircle
 62
7
  6
CONTINUOUS
 10
58.3576293022
 20
24.4828699404
 40
1.3015354724
100
AcDbArc
 50
60.0031917113
 51
60.2086215809
  0
ARC
  5
374
100
AcDbEntity
  8
ASSI
100
AcDbCircle
 62
7
  6
CONTINUOUS
 10
58.365733962
 20
24.0375559274
 40
1.1056663283
100
AcDbArc
 50
21.5036159654
 51
22.0108574807
  0
ARC
  5
375
100
AcDbEntity
  8
0
100
AcDbCircle
 62
7
  6
CONTINUOUS
 10
58.365733962
 20
24.0375559274
 40
1.1056663283
100
AcDbArc
 50
21.5036159654
 51
22.0108574807
  0
ARC
  5
376
100
AcDbEntity
  8
0
100
AcDbCircle
 62
7
  6
CONTINUOUS
 10
57.6078215607
 20
23.8159150306
 40
0.9708248165
100
AcDbArc
 50
317.282541223
 51
317.6140840397
  0
ARC
  5
377
100
AcDbEntity
  8
0
100
AcDbCircle
 62
7
  6
CONTINUOUS
 10
57.6131774913
 20
23.8109632434
 40
0.9635305608
100
AcDbArc
 50
316.7294764467
 51
317.2828231985
  0
ARC
  5
378
100
AcDbEntity
  8
0
100
AcDbCircle
 62
7
  6
CONTINUOUS
 10
40.5967148219
 20
168.4639406749
 40
120.0233913252
100
AcDbArc
 50
225.3414683295
 51
225.6388172884
  0
ARC
  5
379
100
AcDbEntity
  8
0
100
AcDbCircle
 62
7
  6
CONTINUOUS
 10
99.2558777463
 20
38.1758272773
 40
120.0233913194
100
AcDbArc
 50
225.3414683295
 51
225.6388172884
  0
ARC
  5
37A
100
AcDbEntity
  8
0
100
AcDbCircle
 62
7
  6
CONTINUOUS
 10
141.0058777449
 20
110.4889484169
 40
120.0233913174
100
AcDbArc
 50
225.3414683295
 51
225.6388172884
  0
ARC
  5
37B
100
AcDbEntity
  8
0
100
AcDbCircle
 62
7
  6
CONTINUOUS
 10
68.9908756843
 20
112.6652847489
 40
88.8791677831
100
AcDbArc
 50
260.7984214025
 51
261.1023889561
  0
ARC
  5
37C
100
AcDbEntity
  8
0
100
AcDbCircle
 62
7
  6
CONTINUOUS
 10
27.2408756842
 20
40.3521636075
 40
88.8791677826
100
AcDbArc
 50
260.7984214025
 51
261.1023889561
  0
ARC
  5
37D
100
AcDbEntity
  8
TRASH
100
AcDbCircle
 62
7
  6
CONTINUOUS
 10
60.9890826231
 20
43.2494395962
 40
18.4612476049
100
AcDbArc
 50
253.369196079
 51
253.5043711343
  0
ARC
  5
37E
100
AcDbEntity
  8
0
100
AcDbCircle
 62
7
  6
CONTINUOUS
 10
67.0830878486
 20
30.8010916561
 40
13.0951363539
100
AcDbArc
 50
207.3595840769
 51
207.4757968002
  0
ARC
  5
37F
100
AcDbEntity
  8
TRASH
100
AcDbCircle
 62
7
  6
CONTINUOUS
 10
54.6870769447
 20
27.2649245097
 40
2.4976340631
100
AcDbArc
 50
313.9504786586
 51
314.8228345246
  0
ARC
  5
380
100
AcDbEntity
  8
0
100
AcDbCircle
 62
7
  6
CONTINUOUS
 10
55.0304179586
 20
25.6548500474
 40
2.2774413737
100
AcDbArc
 50
323.1243908315
 51
334.6185418621
  0
ARC
  5
381
100
AcDbEntity
  8
0
100
AcDbCircle
 62
7
  6
CONTINUOUS
 10
56.5876433344
 20
25.7372790919
 40
1.8129194424
100
AcDbArc
 50
68.6941046806
 51
74.1662412227
  0
SPLINE
  5
382
100
AcDbEntity
  8
0
100
AcDbSpline
 62
7
  6
CONTINUOUS
 70
0
 71
3
 72
23
 73
19
 74
0
 42
0.0000001
 43
0.0000001
 44
0.0000000001
 40
0.0
 40
0.0
 40
0.0
 40
0.0
 40
0.0573404565
 40
0.1158718228
 40
0.1759368609
 40
0.2376977307
 40
0.3011264226
 40
0.3660115994
 40
0.4319890241
 40
0.4985832389
 40
0.5652575039
 40
0.6314673375
 40
0.696714029
 40
0.7605961159
 40
0.8228541725
 40
0.8834044997
 40
0.9423545568
 40
1.0
 40
1.0
 40
1.0
 40
1.0
 10
-43.6474462839
 20
85.5802605226
 30
0.0
 10
-43.7670290741
 20
85.613472911
 30
0.0
 10
-44.0160608148
 20
85.6563648989
 30
0.0
 10
-44.3988628885
 20
85.6483337057
 30
0.0
 10
-44.7833340494
 20
85.5699280531
 30
0.0
 10
-45.1588215554
 20
85.4242778943
 30
0.0
 10
-45.5155649218
 20
85.2161409334
 30
0.0
 10
-45.8443890469
 20
84.9516127274
 30
0.0
 10
-46.1368605699
 20
84.6380549751
 30
0.0
 10
-46.3854083534
 20
84.2839656909
 30
0.0
 10
-46.5835077291
 20
83.8988131766
 30
0.0
 10
-46.7258440906
 20
83.4928121418
 30
0.0
 10
-46.8084397465
 20
83.0766724386
 30
0.0
 10
-46.828720509
 20
82.6613469303
 30
0.0
 10
-46.7855690384
 20
82.2578461247
 30
0.0
 10
-46.6793001168
 20
81.8770397359
 30
0.0
 10
-46.5120070903
 20
81.5297974321
 30
0.0
 10
-46.3607070409
 20
81.3254912487
 30
0.0
 10
-46.2768549898
 20
81.2330995277
 30
0.0
  0
SPLINE
  5
383
100
AcDbEntity
  8
0
100
AcDbSpline
 62
7
  6
CONTINUOUS
 70
0
 71
3
 72
13
 73
9
 74
0
 42
0.0000001
 43
0.0000001
 44
0.0000000001
 40
0.0
 40
0.0
 40
0.0
 40
0.0
 40
0.2695221156
 40
0.5268720043
 40
0.6501920859
 40
0.7697603054
 40
0.886075448
 40
1.0
 40
1.0
 40
1.0
 40
1.0
 10
-42.1034250607
 20
81.1345160512
 30
0.0
 10
-42.2768653824
 20
80.9202964665
 30
0.0
 10
-42.6699243691
 20
80.5418125878
 30
0.0
 10
-43.2632544202
 20
80.22058137
 30
0.0
 10
-43.7586477282
 20
80.0854781833
 30
0.0
 10
-44.1257492219
 20
80.0470175411
 30
0.0
 10
-44.4844250636
 20
80.0713162538
 30
0.0
 10
-44.7141602388
 20
80.129711905
 30
0.0
 10
-44.8238809993
 20
80.1688911735
 30
0.0
  0
SPLINE
  5
384
100
AcDbEntity
  8
0
100
AcDbSpline
 62
7
  6
CONTINUOUS
 70
0
 71
3
 72
13
 73
9
 74
0
 42
0.0000001
 43
0.0000001
 44
0.0000000001
 40
0.0
 40
0.0
 40
0.0
 40
0.0
 40
0.2688460589
 40
0.5264931445
 40
0.6501018717
 40
0.7699094282
 40
0.8862923606
 40
1.0
 40
1.0
 40
1.0
 40
1.0
 10
-41.6297024129
 20
81.9190055327
 30
0.0
 10
-41.5202291584
 20
82.173463135
 30
0.0
 10
-41.3669000825
 20
82.7008742197
 30
0.0
 10
-41.3556354506
 20
83.3801144996
 30
0.0
 10
-41.4630161478
 20
83.8869878205
 30
0.0
 10
-41.5968013546
 20
84.2345685793
 30
0.0
 10
-41.7818935881
 20
84.5459461851
 30
0.0
 10
-41.9383455155
 20
84.7261395296
 30
0.0
 10
-42.0230742873
 20
84.8070553298
 30
0.0
  0
SPLINE
  5
385
100
AcDbEntity
  8
0
100
AcDbSpline
 62
7
  6
CONTINUOUS
 70
0
 71
3
 72
15
 73
11
 74
0
 42
0.0000001
 43
0.0000001
 44
0.0000000001
 40
0.0
 40
0.0
 40
0.0
 40
0.0
 40
0.1058219772
 40
0.2267694613
 40
0.3590710781
 40
0.497569291
 40
0.6364665587
 40
0.769889428
 40
0.8924551313
 40
1.0
 40
1.0
 40
1.0
 40
1.0
 10
-41.6297024129
 20
81.9190055327
 30
0.0
 10
-41.6141452624
 20
81.885860723
 30
0.0
 10
-41.5937981267
 20
81.8086139865
 30
0.0
 10
-41.5941259571
 20
81.6833394374
 30
0.0
 10
-41.6248751985
 20
81.5501896155
 30
0.0
 10
-41.6856274214
 20
81.4209620702
 30
0.0
 10
-41.771974333
 20
81.3067550415
 30
0.0
 10
-41.8761060008
 20
81.2166383211
 30
0.0
 10
-41.9877219276
 20
81.1565247848
 30
0.0
 10
-42.066301924
 20
81.1370624697
 30
0.0
 10
-42.1034250607
 20
81.1345160512
 30
0.0
  0
SPLINE
  5
386
100
AcDbEntity
  8
0
100
AcDbSpline
 62
7
  6
CONTINUOUS
 70
0
 71
3
 72
17
 73
13
 74
0
 42
0.0000001
 43
0.0000001
 44
0.0000000001
 40
0.0
 40
0.0
 40
0.0
 40
0.0
 40
0.1461664425
 40
0.2912428988
 40
0.4324976881
 40
0.5669519163
 40
0.6918860369
 40
0.8054309376
 40
0.8578867691
 40
0.907553857
 40
0.954757402
 40
1.0
 40
1.0
 40
1.0
 40
1.0
 10
-41.5196327783
 20
82.2115562441
 30
0.0
 10
-41.5023820186
 20
82.1082048441
 30
0.0
 10
-41.4895306092
 20
81.8980987028
 30
0.0
 10
-41.532324183
 20
81.5891280525
 30
0.0
 10
-41.631102871
 20
81.3020744884
 30
0.0
 10
-41.7769309068
 20
81.0523471712
 30
0.0
 10
-41.9580697679
 20
80.8529560275
 30
0.0
 10
-42.1324036277
 20
80.7339164569
 30
0.0
 10
-42.2760010686
 20
80.6753041359
 30
0.0
 10
-42.380525472
 20
80.6501474391
 30
0.0
 10
-42.482621663
 20
80.6429234565
 30
0.0
 10
-42.5489503548
 20
80.6501994898
 30
0.0
 10
-42.5806924687
 20
80.6568567333
 30
0.0
  0
SPLINE
  5
387
100
AcDbEntity
  8
0
100
AcDbSpline
 62
7
  6
CONTINUOUS
 70
0
 71
3
 72
14
 73
10
 74
0
 42
0.0000001
 43
0.0000001
 44
0.0000000001
 40
0.0
 40
0.0
 40
0.0
 40
0.0
 40
0.4131623625
 40
0.722518707
 40
0.8347561626
 40
0.9176584793
 40
0.9481302784
 40
0.9715270761
 40
1.0
 40
1.0
 40
1.0
 40
1.0
 10
-44.977812435
 20
80.2230547622
 30
0.0
 10
-44.9582352427
 20
80.2117549205
 30
0.0
 10
-44.9235511675
 20
80.192758052
 30
0.0
 10
-44.8821590355
 20
80.1733222005
 30
0.0
 10
-44.8561812232
 20
80.1638810855
 30
0.0
 10
-44.8443049082
 20
80.160571745
 30
0.0
 10
-44.8368102631
 20
80.159509588
 30
0.0
 10
-44.8324602579
 20
80.1593814131
 30
0.0
 10
-44.8291692707
 20
80.1601763698
 30
0.0
 10
-44.8283665473
 20
80.1615113847
 30
0.0
  0
SPLINE
  5
388
100
AcDbEntity
  8
0
100
AcDbSpline
 62
7
  6
CONTINUOUS
 70
0
 71
3
 72
9
 73
5
 74
0
 42
0.0000001
 43
0.0000001
 44
0.0000000001
 40
0.0
 40
0.0
 40
0.0
 40
0.0
 40
0.1979451195
 40
1.0
 40
1.0
 40
1.0
 40
1.0
 10
-42.0170679989
 20
84.817050128
 30
0.0
 10
-42.0167367622
 20
84.8175969692
 30
0.0
 10
-42.0156300597
 20
84.8207178489
 30
0.0
 10
-42.0167698776
 20
84.8241079402
 30
0.0
 10
-42.017799188
 20
84.8264852078
 30
0.0
  0
SPLINE
  5
389
100
AcDbEntity
  8
0
100
AcDbSpline
 62
7
  6
CONTINUOUS
 70
0
 71
3
 72
14
 73
10
 74
0
 42
0.0000001
 43
0.0000001
 44
0.0000000001
 40
0.0
 40
0.0
 40
0.0
 40
0.0
 40
0.0508190973
 40
0.1244003992
 40
0.2207143551
 40
0.3389479892
 40
0.4778436654
 40
0.6357093144
 40
1.0
 40
1.0
 40
1.0
 40
1.0
 10
-42.017799188
 20
84.8264852078
 30
0.0
 10
-42.0195903903
 20
84.8306221201
 30
0.0
 10
-42.0259156046
 20
84.8398286207
 30
0.0
 10
-42.0390667912
 20
84.8543194988
 30
0.0
 10
-42.057896307
 20
84.8716642779
 30
0.0
 10
-42.0822264064
 20
84.8914519296
 30
0.0
 10
-42.111887761
 20
84.9132798973
 30
0.0
 10
-42.1604438255
 20
84.9461758102
 30
0.0
 10
-42.2000908102
 20
84.9701925291
 30
0.0
 10
-42.2280784621
 20
84.9863472349
 30
0.0
  0
SPLINE
  5
38A
100
AcDbEntity
  8
0
100
AcDbSpline
 62
7
  6
CONTINUOUS
 70
0
 71
3
 72
9
 73
5
 74
0
 42
0.0000001
 43
0.0000001
 44
0.0000000001
 40
0.0
 40
0.0
 40
0.0
 40
0.0
 40
0.2535566355
 40
1.0
 40
1.0
 40
1.0
 40
1.0
 10
-44.7969707132
 20
82.39001742
 30
0.0
 10
-44.861400822
 20
82.2660316234
 30
0.0
 10
-45.1068549779
 20
81.7726180623
 30
0.0
 10
-45.3174904996
 20
81.2617239175
 30
0.0
 10
-45.4519114248
 20
80.8729652345
 30
0.0
  0
SPLINE
  5
38B
100
AcDbEntity
  8
0
100
AcDbSpline
 62
7
  6
CONTINUOUS
 70
0
 71
3
 72
9
 73
5
 74
0
 42
0.0000001
 43
0.0000001
 44
0.0000000001
 40
0.0
 40
0.0
 40
0.0
 40
0.0
 40
0.5054931214
 40
1.0
 40
1.0
 40
1.0
 40
1.0
 10
-44.1657879219
 20
82.4571904487
 30
0.0
 10
-44.2562996605
 20
82.4582978702
 30
0.0
 10
-44.4353595829
 20
82.4601450892
 30
0.0
 10
-44.6144191255
 20
82.4621637721
 30
0.0
 10
-44.7029586045
 20
82.4636050847
 30
0.0
  0
LINE
  5
38C
100
AcDbEntity
  8
0
100
AcDbLine
 62
7
  6
CONTINUOUS
 10
-44.1657879219
 20
82.4571904487
 11
-44.1461121351
 21
82.4593703307
  0
LINE
  5
38D
100
AcDbEntity
  8
0
100
AcDbLine
 62
7
  6
CONTINUOUS
 10
-43.5569280958
 20
82.2631958613
 11
-44.1461121351
 21
82.4593703307
  0
LINE
  5
38E
100
AcDbEntity
  8
0
100
AcDbLine
 62
7
  6
CONTINUOUS
 10
-43.7723651635
 20
83.1087023436
 11
-43.7653350174
 21
83.0902971302
  0
SPLINE
  5
38F
100
AcDbEntity
  8
0
100
AcDbSpline
 62
7
  6
CONTINUOUS
 70
0
 71
3
 72
9
 73
5
 74
0
 42
0.0000001
 43
0.0000001
 44
0.0000000001
 40
0.0
 40
0.0
 40
0.0
 40
0.0
 40
0.4946978773
 40
1.0
 40
1.0
 40
1.0
 40
1.0
 10
-44.024307263
 20
83.5874582165
 30
0.0
 10
-43.9825279403
 20
83.5086354266
 30
0.0
 10
-43.8987546163
 20
83.3489403968
 30
0.0
 10
-43.8149261874
 20
83.189275017
 30
0.0
 10
-43.7723651635
 20
83.1087023436
 30
0.0
  0
SPLINE
  5
390
100
AcDbEntity
  8
0
100
AcDbSpline
 62
7
  6
CONTINUOUS
 70
0
 71
3
 72
9
 73
5
 74
0
 42
0.0000001
 43
0.0000001
 44
0.0000000001
 40
0.0
 40
0.0
 40
0.0
 40
0.0
 40
0.2465347701
 40
1.0
 40
1.0
 40
1.0
 40
1.0
 10
-42.9601770968
 20
84.9993024064
 30
0.0
 10
-43.05346225
 20
84.8995485764
 30
0.0
 10
-43.4241423762
 20
84.4877700917
 30
0.0
 10
-43.7642839399
 20
84.0486401986
 30
0.0
 10
-44.0024080665
 20
83.7058214041
 30
0.0
  0
SPLINE
  5
391
100
AcDbEntity
  8
0
100
AcDbSpline
 62
7
  6
CONTINUOUS
 70
0
 71
3
 72
11
 73
7
 74
0
 42
0.0000001
 43
0.0000001
 44
0.0000000001
 40
0.0
 40
0.0
 40
0.0
 40
0.0
 40
0.1983072619
 40
0.4295750346
 40
0.6990386961
 40
1.0
 40
1.0
 40
1.0
 40
1.0
 10
-42.8071818483
 20
85.0633332818
 30
0.0
 10
-42.817927302
 20
85.0674959783
 30
0.0
 10
-42.8437370325
 20
85.0702357646
 30
0.0
 10
-42.8833515246
 20
85.0587650209
 30
0.0
 10
-42.9235989919
 20
85.0345640961
 30
0.0
 10
-42.9482317672
 20
85.0120760616
 30
0.0
 10
-42.9601770968
 20
84.9993024064
 30
0.0
  0
SPLINE
  5
392
100
AcDbEntity
  8
0
100
AcDbSpline
 62
7
  6
CONTINUOUS
 70
0
 71
3
 72
11
 73
7
 74
0
 42
0.0000001
 43
0.0000001
 44
0.0000000001
 40
0.0
 40
0.0
 40
0.0
 40
0.0
 40
0.3021973104
 40
0.5712403714
 40
0.8014545149
 40
1.0
 40
1.0
 40
1.0
 40
1.0
 10
-45.4519114248
 20
80.8729652345
 30
0.0
 10
-45.4575636811
 20
80.8566183474
 30
0.0
 10
-45.4657996708
 20
80.8247569409
 30
0.0
 10
-45.4680662551
 20
80.7785484672
 30
0.0
 10
-45.4591718807
 20
80.7389173449
 30
0.0
 10
-45.4442005846
 20
80.7181868267
 30
0.0
 10
-45.4353531073
 20
80.7110551765
 30
0.0
  0
LINE
  5
393
100
AcDbEntity
  8
0
100
AcDbLine
 62
7
  6
CONTINUOUS
 10
-42.4930281482
 20
84.9416041521
 11
-42.8071818483
 21
85.0633332818
  0
LINE
  5
394
100
AcDbEntity
  8
0
100
AcDbLine
 62
7
  6
CONTINUOUS
 10
-45.4353531073
 20
80.7110551765
 11
-45.174595365
 21
80.5009018021
  0
LINE
  5
395
100
AcDbEntity
  8
0
100
AcDbLine
 62
7
  6
CONTINUOUS
 10
-43.6410234088
 20
85.5781330366
 11
-43.3268697086
 21
85.4564039069
  0
LINE
  5
396
100
AcDbEntity
  8
0
100
AcDbLine
 62
7
  6
CONTINUOUS
 10
-46.0084369254
 20
81.0157015569
 11
-46.2691946677
 21
81.2258549313
  0
SPLINE
  5
397
100
AcDbEntity
  8
0
100
AcDbSpline
 62
7
  6
CONTINUOUS
 70
0
 71
3
 72
11
 73
7
 74
0
 42
0.0000001
 43
0.0000001
 44
0.0000000001
 40
0.0
 40
0.0
 40
0.0
 40
0.0
 40
0.2015719519
 40
0.4347253686
 40
0.7027546548
 40
1.0
 40
1.0
 40
1.0
 40
1.0
 10
-46.2768599644
 20
81.2330996722
 30
0.0
 10
-46.2841433411
 20
81.2411291891
 30
0.0
 10
-46.2957620535
 20
81.262246119
 30
0.0
 10
-46.3019883579
 20
81.2999830214
 30
0.0
 10
-46.2987973418
 20
81.3431087473
 30
0.0
 10
-46.2909770185
 20
81.3726565657
 30
0.0
 10
-46.2857529852
 20
81.3877649893
 30
0.0
  0
SPLINE
  5
398
100
AcDbEntity
  8
0
100
AcDbSpline
 62
7
  6
CONTINUOUS
 70
0
 71
3
 72
15
 73
11
 74
0
 42
0.0000001
 43
0.0000001
 44
0.0000000001
 40
0.0
 40
0.0
 40
0.0
 40
0.0
 40
0.1453877307
 40
0.2890883824
 40
0.4288004734
 40
0.5621152609
 40
0.6868569076
 40
0.8014730195
 40
0.9054880448
 40
1.0
 40
1.0
 40
1.0
 40
1.0
 10
-41.5538024773
 20
82.1120998894
 30
0.0
 10
-41.546218186
 20
82.0180334057
 30
0.0
 10
-41.5483795156
 20
81.8291833934
 30
0.0
 10
-41.600855128
 20
81.5544555519
 30
0.0
 10
-41.6975799733
 20
81.3003196508
 30
0.0
 10
-41.8315850619
 20
81.0779395344
 30
0.0
 10
-41.9942055908
 20
80.8967374815
 30
0.0
 10
-42.1757717372
 20
80.7642526527
 30
0.0
 10
-42.3656337843
 20
80.6859006781
 30
0.0
 10
-42.4961757863
 20
80.67187956
 30
0.0
 10
-42.5573980946
 20
80.6758057903
 30
0.0
  0
SPLINE
  5
399
100
AcDbEntity
  8
0
100
AcDbSpline
 62
7
  6
CONTINUOUS
 70
0
 71
3
 72
10
 73
6
 74
0
 42
0.0000001
 43
0.0000001
 44
0.0000000001
 40
0.0
 40
0.0
 40
0.0
 40
0.0
 40
0.3440078085
 40
0.6273316478
 40
1.0
 40
1.0
 40
1.0
 40
1.0
 10
-44.8283665473
 20
80.1615113847
 30
0.0
 10
-44.8276148774
 20
80.1627614921
 30
0.0
 10
-44.828510348
 20
80.165873428
 30
0.0
 10
-44.8308706085
 20
80.1692123624
 30
0.0
 10
-44.8327361202
 20
80.1713390209
 30
0.0
 10
-44.8338328154
 20
80.1724767163
 30
0.0
  0
SPLINE
  5
39A
100
AcDbEntity
  8
0
100
AcDbSpline
 62
7
  6
CONTINUOUS
 70
0
 71
3
 72
9
 73
5
 74
0
 42
0.0000001
 43
0.0000001
 44
0.0000000001
 40
0.0
 40
0.0
 40
0.0
 40
0.0
 40
0.4985480076
 40
1.0
 40
1.0
 40
1.0
 40
1.0
 10
-43.1628005852
 20
85.4012847168
 30
0.0
 10
-43.0362069623
 20
85.3518908794
 30
0.0
 10
-42.7927618256
 20
85.2233281307
 30
0.0
 10
-42.5854370166
 20
85.0423118737
 30
0.0
 10
-42.4930281482
 20
84.9416041521
 30
0.0
  0
SPLINE
  5
39B
100
AcDbEntity
  8
0
100
AcDbSpline
 62
7
  6
CONTINUOUS
 70
0
 71
3
 72
9
 73
5
 74
0
 42
0.0000001
 43
0.0000001
 44
0.0000000001
 40
0.0
 40
0.0
 40
0.0
 40
0.0
 40
0.2410749222
 40
1.0
 40
1.0
 40
1.0
 40
1.0
 10
-46.1276285926
 20
83.8505252287
 30
0.0
 10
-46.1036550941
 20
83.8213342925
 30
0.0
 10
-46.0035284492
 20
83.7008087948
 30
0.0
 10
-45.9008092178
 20
83.5824456118
 30
0.0
 10
-45.8216870746
 20
83.4936744529
 30
0.0
  0
LINE
  5
39C
100
AcDbEntity
  8
0
100
AcDbLine
 62
7
  6
CONTINUOUS
 10
-45.8216870746
 20
83.4936744529
 11
-45.8170191095
 21
83.4766328695
  0
SPLINE
  5
39D
100
AcDbEntity
  8
0
100
AcDbSpline
 62
7
  6
CONTINUOUS
 70
0
 71
3
 72
9
 73
5
 74
0
 42
0.0000001
 43
0.0000001
 44
0.0000000001
 40
0.0
 40
0.0
 40
0.0
 40
0.0
 40
0.2544247872
 40
1.0
 40
1.0
 40
1.0
 40
1.0
 10
-45.6153150175
 20
83.0268781862
 30
0.0
 10
-45.6337395571
 20
83.0644071006
 30
0.0
 10
-45.7046979925
 20
83.2126261585
 30
0.0
 10
-45.7704780789
 20
83.3633024403
 30
0.0
 10
-45.8170191095
 20
83.4766328695
 30
0.0
  0
SPLINE
  5
39E
100
AcDbEntity
  8
0
100
AcDbSpline
 62
7
  6
CONTINUOUS
 70
0
 71
3
 72
9
 73
5
 74
0
 42
0.0000001
 43
0.0000001
 44
0.0000000001
 40
0.0
 40
0.0
 40
0.0
 40
0.0
 40
0.2460238333
 40
1.0
 40
1.0
 40
1.0
 40
1.0
 10
-46.2857529852
 20
81.3877649893
 30
0.0
 10
-46.2414480551
 20
81.5158992531
 30
0.0
 10
-46.0513237892
 20
82.0332098244
 30
0.0
 10
-45.8224030298
 20
82.536130486
 30
0.0
 10
-45.6308114189
 20
82.9048188195
 30
0.0
  0
SPLINE
  5
39F
100
AcDbEntity
  8
0
100
AcDbSpline
 62
7
  6
CONTINUOUS
 70
0
 71
3
 72
9
 73
5
 74
0
 42
0.0000001
 43
0.0000001
 44
0.0000000001
 40
0.0
 40
0.0
 40
0.0
 40
0.0
 40
0.2530352311
 40
1.0
 40
1.0
 40
1.0
 40
1.0
 10
-44.8362485668
 20
84.2206226851
 30
0.0
 10
-44.7562804078
 20
84.3357499474
 30
0.0
 10
-44.4322894382
 20
84.7851383767
 30
0.0
 10
-44.076656488
 20
85.2118653616
 30
0.0
 10
-43.7940186572
 20
85.5141021612
 30
0.0
  0
SPLINE
  5
3A0
100
AcDbEntity
  8
0
100
AcDbSpline
 62
7
  6
CONTINUOUS
 70
0
 71
3
 72
9
 73
5
 74
0
 42
0.0000001
 43
0.0000001
 44
0.0000000001
 40
0.0
 40
0.0
 40
0.0
 40
0.0
 40
0.2451805553
 40
1.0
 40
1.0
 40
1.0
 40
1.0
 10
-45.4235963642
 20
84.128144772
 30
0.0
 10
-45.3838737184
 20
84.1312255293
 30
0.0
 10
-45.2217744746
 20
84.1426240911
 30
0.0
 10
-45.0593127838
 20
84.1492138089
 30
0.0
 10
-44.9366637252
 20
84.1507313465
 30
0.0
  0
LINE
  5
3A1
100
AcDbEntity
  8
0
100
AcDbLine
 62
7
  6
CONTINUOUS
 10
-45.4408816087
 20
84.1245848894
 11
-45.4235963642
 21
84.128144772
  0
SPLINE
  5
3A2
100
AcDbEntity
  8
0
100
AcDbSpline
 62
7
  6
CONTINUOUS
 70
0
 71
3
 72
9
 73
5
 74
0
 42
0.0000001
 43
0.0000001
 44
0.0000000001
 40
0.0
 40
0.0
 40
0.0
 40
0.0
 40
0.3497726617
 40
1.0
 40
1.0
 40
1.0
 40
1.0
 10
-42.0307752468
 20
84.8143683137
 30
0.0
 10
-42.0291307185
 20
84.8141003144
 30
0.0
 10
-42.0246233233
 20
84.8135229298
 30
0.0
 10
-42.0186727964
 20
84.8144007553
 30
0.0
 10
-42.0170679989
 20
84.817050128
 30
0.0
  0
SPLINE
  5
3A3
100
AcDbEntity
  8
0
100
AcDbSpline
 62
7
  6
CONTINUOUS
 70
0
 71
3
 72
11
 73
7
 74
0
 42
0.0000001
 43
0.0000001
 44
0.0000000001
 40
0.0
 40
0.0
 40
0.0
 40
0.0
 40
0.2977310926
 40
0.566434769
 40
0.7995493328
 40
1.0
 40
1.0
 40
1.0
 40
1.0
 10
-43.7940186572
 20
85.5141021612
 30
0.0
 10
-43.7826519663
 20
85.5262570532
 30
0.0
 10
-43.7592184528
 20
85.5478073029
 30
0.0
 10
-43.7210073697
 20
85.5715973754
 30
0.0
 10
-43.6832550069
 20
85.5839932874
 30
0.0
 10
-43.6582424286
 20
85.5832570315
 30
0.0
 10
-43.647446606
 20
85.5802598684
 30
0.0
  0
SPLINE
  5
3A4
100
AcDbEntity
  8
0
100
AcDbSpline
 62
250
  6
CONTINUOUS
 70
0
 71
3
 72
23
 73
19
 74
0
 42
0.0000001
 43
0.0000001
 44
0.0000000001
 40
0.0
 40
0.0
 40
0.0
 40
0.0
 40
0.056248573
 40
0.1140257619
 40
0.1737030849
 40
0.2354210551
 40
0.2990949916
 40
0.3644435204
 40
0.4310297946
 40
0.4983088508
 40
0.5656775208
 40
0.6325252227
 40
0.6982848414
 40
0.7624830124
 40
0.8247884863
 40
0.8850556611
 40
0.9433576746
 40
1.0
 40
1.0
 40
1.0
 40
1.0
 10
-43.7940186572
 20
85.5141021612
 30
0.0
 10
-43.9047354829
 20
85.5431328764
 30
0.0
 10
-44.1356698253
 20
85.5794685367
 30
0.0
 10
-44.4908300094
 20
85.5672548815
 30
0.0
 10
-44.8489926262
 20
85.4898173752
 30
0.0
 10
-45.2002619303
 20
85.34959784
 30
0.0
 10
-45.5352805125
 20
85.1506836063
 30
0.0
 10
-45.845104217
 20
84.8986139019
 30
0.0
 10
-46.1214753572
 20
84.6002827123
 30
0.0
 10
-46.3570032062
 20
84.2637762036
 30
0.0
 10
-46.5453648916
 20
83.8981766614
 30
0.0
 10
-46.6814716368
 20
83.5133276304
 30
0.0
 10
-46.7616012441
 20
83.1195769922
 30
0.0
 10
-46.7834806699
 20
82.7275042985
 30
0.0
 10
-46.7463463409
 20
82.3476782387
 30
0.0
 10
-46.6509002133
 20
81.9903595924
 30
0.0
 10
-46.4995213087
 20
81.665516411
 30
0.0
 10
-46.3619877426
 20
81.4742133635
 30
0.0
 10
-46.2857529852
 20
81.3877649893
 30
0.0
  0
SPLINE
  5
3A5
100
AcDbEntity
  8
0
100
AcDbSpline
 62
250
  6
CONTINUOUS
 70
0
 71
3
 72
23
 73
19
 74
0
 42
0.0000001
 43
0.0000001
 44
0.0000000001
 40
0.0
 40
0.0
 40
0.0
 40
0.0
 40
0.056248573
 40
0.1140257619
 40
0.1737030849
 40
0.2354210551
 40
0.2990949916
 40
0.3644435204
 40
0.4310297946
 40
0.4983088508
 40
0.5656775208
 40
0.6325252227
 40
0.6982848414
 40
0.7624830124
 40
0.8247884863
 40
0.8850556611
 40
0.9433576746
 40
1.0
 40
1.0
 40
1.0
 40
1.0
 10
-45.4519114248
 20
80.8729652345
 30
0.0
 10
-45.3411945991
 20
80.8439345193
 30
0.0
 10
-45.1102602568
 20
80.8075988591
 30
0.0
 10
-44.7551000727
 20
80.8198125143
 30
0.0
 10
-44.3969374559
 20
80.8972500205
 30
0.0
 10
-44.0456681518
 20
81.0374695557
 30
0.0
 10
-43.7106495695
 20
81.2363837894
 30
0.0
 10
-43.400825865
 20
81.4884534938
 30
0.0
 10
-43.1244547248
 20
81.7867846834
 30
0.0
 10
-42.8889268758
 20
82.1232911921
 30
0.0
 10
-42.7005651905
 20
82.4888907343
 30
0.0
 10
-42.5644584453
 20
82.8737397654
 30
0.0
 10
-42.4843288379
 20
83.2674904035
 30
0.0
 10
-42.4624494121
 20
83.6595630972
 30
0.0
 10
-42.4995837411
 20
84.039389157
 30
0.0
 10
-42.5950298687
 20
84.3967078034
 30
0.0
 10
-42.7464087733
 20
84.7215509847
 30
0.0
 10
-42.8839423394
 20
84.9128540322
 30
0.0
 10
-42.9601770968
 20
84.9993024064
 30
0.0
  0
SPLINE
  5
3A6
100
AcDbEntity
  8
0
100
AcDbSpline
 62
250
  6
CONTINUOUS
 70
0
 71
3
 72
13
 73
9
 74
0
 42
0.0000001
 43
0.0000001
 44
0.0000000001
 40
0.0
 40
0.0
 40
0.0
 40
0.0
 40
0.2674874519
 40
0.5262535805
 40
0.6505676489
 40
0.7707699874
 40
0.8870274355
 40
1.0
 40
1.0
 40
1.0
 40
1.0
 10
-42.7230450499
 20
82.0239552193
 30
0.0
 10
-42.5735822162
 20
82.271467179
 30
0.0
 10
-42.3440576178
 20
82.8007595784
 30
0.0
 10
-42.2515375562
 20
83.5087620386
 30
0.0
 10
-42.3082300498
 20
84.0519371618
 30
0.0
 10
-42.4125990437
 20
84.429742159
 30
0.0
 10
-42.5766930877
 20
84.7721719074
 30
0.0
 10
-42.7250962297
 20
84.9729202744
 30
0.0
 10
-42.8071818483
 20
85.0633332818
 30
0.0
  0
SPLINE
  5
3A7
100
AcDbEntity
  8
0
100
AcDbSpline
 62
250
  6
CONTINUOUS
 70
0
 71
3
 72
13
 73
9
 74
0
 42
0.0000001
 43
0.0000001
 44
0.0000000001
 40
0.0
 40
0.0
 40
0.0
 40
0.0
 40
0.112972512
 40
0.2289783665
 40
0.3488159524
 40
0.4727914792
 40
0.7314095564
 40
1.0
 40
1.0
 40
1.0
 40
1.0
 10
-45.4353531073
 20
80.7110551765
 30
0.0
 10
-45.3184902156
 20
80.6785799361
 30
0.0
 10
-45.0743047612
 20
80.6367826202
 30
0.0
 10
-44.6978453163
 20
80.6455857982
 30
0.0
 10
-44.3175645085
 20
80.7243582906
 30
0.0
 10
-43.8132245875
 20
80.9217882368
 30
0.0
 10
-43.2317430132
 20
81.3295796157
 30
0.0
 10
-42.8721094905
 20
81.7771030027
 30
0.0
 10
-42.7230450499
 20
82.0239552193
 30
0.0
  0
SPLINE
  5
3A8
100
AcDbEntity
  8
0
100
AcDbSpline
 62
7
  6
CONTINUOUS
 70
0
 71
3
 72
9
 73
5
 74
0
 42
0.0000001
 43
0.0000001
 44
0.0000000001
 40
0.0
 40
0.0
 40
0.0
 40
0.0
 40
0.2503152013
 40
1.0
 40
1.0
 40
1.0
 40
1.0
 10
-44.9441561153
 20
82.7343300919
 30
0.0
 10
-44.9525783451
 20
82.6833335699
 30
0.0
 10
-44.9853542653
 20
82.4794602645
 30
0.0
 10
-45.0156212982
 20
82.2751938547
 30
0.0
 10
-45.0378595482
 20
82.1219978937
 30
0.0
  0
LINE
  5
3A9
100
AcDbEntity
  8
0
100
AcDbLine
 62
7
  6
CONTINUOUS
 10
-44.9441561153
 20
82.7343300919
 11
-44.5259063976
 21
82.5520575759
  0
LINE
  5
3AA
100
AcDbEntity
  8
0
100
AcDbLine
 62
7
  6
CONTINUOUS
 10
-45.6153150175
 20
83.0268781862
 11
-45.1651564024
 21
82.8306530747
  0
SPLINE
  5
3AB
100
AcDbEntity
  8
0
100
AcDbSpline
 62
7
  6
CONTINUOUS
 70
0
 71
3
 72
12
 73
8
 74
0
 42
0.0000001
 43
0.0000001
 44
0.0000000001
 40
0.0
 40
0.0
 40
0.0
 40
0.0
 40
0.124642868
 40
0.2501230215
 40
0.5024506071
 40
0.7543477826
 40
1.0
 40
1.0
 40
1.0
 40
1.0
 10
-41.4567500822
 20
82.4354938838
 30
0.0
 10
-41.4231249384
 20
82.3941311402
 30
0.0
 10
-41.3613753578
 20
82.3062743529
 30
0.0
 10
-41.2625027266
 20
82.1149094613
 30
0.0
 10
-41.1872211861
 20
81.852972641
 30
0.0
 10
-41.1758195226
 20
81.5296763707
 30
0.0
 10
-41.2180089642
 20
81.3187809847
 30
0.0
 10
-41.2507061519
 20
81.2189407238
 30
0.0
  0
SPLINE
  5
3AC
100
AcDbEntity
  8
0
100
AcDbSpline
 62
7
  6
CONTINUOUS
 70
0
 71
3
 72
14
 73
10
 74
0
 42
0.0000001
 43
0.0000001
 44
0.0000000001
 40
0.0
 40
0.0
 40
0.0
 40
0.0
 40
0.3093799849
 40
0.4507654735
 40
0.5810365515
 40
0.6996680281
 40
0.807318167
 40
0.9061560514
 40
1.0
 40
1.0
 40
1.0
 40
1.0
 10
-41.2507061519
 20
81.2189407238
 30
0.0
 10
-41.2896943333
 20
81.0998910293
 30
0.0
 10
-41.372012081
 20
80.9325514406
 30
0.0
 10
-41.5254892681
 20
80.7530595466
 30
0.0
 10
-41.6487202784
 20
80.6525423258
 30
0.0
 10
-41.7777452256
 20
80.5852671938
 30
0.0
 10
-41.9069408126
 20
80.5531932878
 30
0.0
 10
-42.030217668
 20
80.5575405019
 30
0.0
 10
-42.1049190232
 20
80.5852635067
 30
0.0
 10
-42.1378259619
 20
80.6042638982
 30
0.0
  0
SPLINE
  5
3AD
100
AcDbEntity
  8
0
100
AcDbSpline
 62
7
  6
CONTINUOUS
 70
0
 71
3
 72
9
 73
5
 74
0
 42
0.0000001
 43
0.0000001
 44
0.0000000001
 40
0.0
 40
0.0
 40
0.0
 40
0.0
 40
0.2552283238
 40
1.0
 40
1.0
 40
1.0
 40
1.0
 10
-42.0944142772
 20
81.1255093974
 30
0.0
 10
-42.1008139396
 20
81.1187113416
 30
0.0
 10
-42.1262752011
 20
81.0924443349
 30
0.0
 10
-42.1532898417
 20
81.0676736045
 30
0.0
 10
-42.1742426296
 20
81.0502600049
 30
0.0
  0
SPLINE
  5
3AE
100
AcDbEntity
  8
TRASH
100
AcDbSpline
 62
7
  6
CONTINUOUS
 70
0
 71
3
 72
9
 73
5
 74
0
 42
0.0000001
 43
0.0000001
 44
0.0000000001
 40
0.0
 40
0.0
 40
0.0
 40
0.0
 40
0.506712436
 40
1.0
 40
1.0
 40
1.0
 40
1.0
 10
-44.6620012801
 20
83.5230238907
 30
0.0
 10
-44.5485576688
 20
83.5070196346
 30
0.0
 10
-44.3245230882
 20
83.476567415
 30
0.0
 10
-44.0997819619
 20
83.4511809404
 30
0.0
 10
-43.9886484112
 20
83.4417662737
 30
0.0
  0
SPLINE
  5
3AF
100
AcDbEntity
  8
0
100
AcDbSpline
 62
7
  6
CONTINUOUS
 70
0
 71
3
 72
9
 73
5
 74
0
 42
0.0000001
 43
0.0000001
 44
0.0000000001
 40
0.0
 40
0.0
 40
0.0
 40
0.0
 40
0.2497259292
 40
1.0
 40
1.0
 40
1.0
 40
1.0
 10
-43.8567053217
 20
84.0780011268
 30
0.0
 10
-43.8982192532
 20
84.04802116
 30
0.0
 10
-44.0643105437
 20
83.9277691975
 30
0.0
 10
-44.2296730897
 20
83.8064907632
 30
0.0
 10
-44.352590389
 20
83.7139688726
 30
0.0
  0
LINE
  5
3B0
100
AcDbEntity
  8
0
100
AcDbLine
 62
7
  6
CONTINUOUS
 10
-43.98864351
 20
83.4417703352
 11
-44.352590389
 21
83.7139688726
  0
LINE
  5
3B1
100
AcDbEntity
  8
0
100
AcDbLine
 62
7
  6
CONTINUOUS
 10
-44.5449082793
 20
83.8577909967
 11
-44.9366637252
 21
84.1507313465
  0
LINE
  5
3B2
100
AcDbEntity
  8
0
100
AcDbLine
 62
7
  6
CONTINUOUS
 10
-44.3789201595
 20
83.714197752
 11
-44.5449082793
 21
83.8577909967
  0
LINE
  5
3B3
100
AcDbEntity
  8
0
100
AcDbLine
 62
7
  6
CONTINUOUS
 10
-44.7037548872
 20
83.5354396207
 11
-45.4408816087
 21
84.1245848894
  0
LINE
  5
3B4
100
AcDbEntity
  8
0
100
AcDbLine
 62
7
  6
CONTINUOUS
 10
-45.8918362707
 20
84.2409628738
 11
-44.7037370328
 21
83.5354810035
  0
SPLINE
  5
3B5
100
AcDbEntity
  8
0
100
AcDbSpline
 62
7
  6
CONTINUOUS
 70
0
 71
3
 72
9
 73
5
 74
0
 42
0.0000001
 43
0.0000001
 44
0.0000000001
 40
0.0
 40
0.0
 40
0.0
 40
0.0
 40
0.2502620434
 40
1.0
 40
1.0
 40
1.0
 40
1.0
 10
-44.9397277416
 20
83.1447102579
 30
0.0
 10
-45.0387738368
 20
83.2036729009
 30
0.0
 10
-45.4346292974
 20
83.4391321919
 30
0.0
 10
-45.8306701385
 20
83.6742796139
 30
0.0
 10
-46.1276285926
 20
83.8505252287
 30
0.0
  0
SPLINE
  5
3B6
100
AcDbEntity
  8
0
100
AcDbSpline
 62
7
  6
CONTINUOUS
 70
0
 71
3
 72
9
 73
5
 74
0
 42
0.0000001
 43
0.0000001
 44
0.0000000001
 40
0.0
 40
0.0
 40
0.0
 40
0.0
 40
0.5001672605
 40
1.0
 40
1.0
 40
1.0
 40
1.0
 10
-45.8216870746
 20
83.4936744529
 30
0.0
 10
-45.6746461272
 20
83.4354650759
 30
0.0
 10
-45.3807296253
 20
83.3189156921
 30
0.0
 10
-45.0865451657
 20
83.203043948
 30
0.0
 10
-44.939602562
 20
83.1448735024
 30
0.0
  0
LINE
  5
3B7
100
AcDbEntity
  8
0
100
AcDbLine
 62
7
  6
CONTINUOUS
 10
-45.1651564024
 20
82.8306530747
 11
-44.9563866656
 21
82.7579073952
  0
SPLINE
  5
3B8
100
AcDbEntity
  8
TRASH
100
AcDbSpline
 62
7
  6
CONTINUOUS
 70
0
 71
3
 72
9
 73
5
 74
0
 42
0.0000001
 43
0.0000001
 44
0.0000000001
 40
0.0
 40
0.0
 40
0.0
 40
0.0
 40
0.4936438145
 40
1.0
 40
1.0
 40
1.0
 40
1.0
 10
-44.5259063971
 20
82.552057576
 30
0.0
 10
-44.585262289
 20
82.64695999
 30
0.0
 10
-44.7113934026
 20
82.8355012994
 30
0.0
 10
-44.8421555769
 20
83.0207486961
 30
0.0
 10
-44.9088900311
 20
83.1141817674
 30
0.0
  0
SPLINE
  5
3B9
100
AcDbEntity
  8
0
100
AcDbSpline
 62
7
  6
CONTINUOUS
 70
0
 71
3
 72
15
 73
11
 74
0
 42
0.0000001
 43
0.0000001
 44
0.0000000001
 40
0.0
 40
0.0
 40
0.0
 40
0.0
 40
0.1343560002
 40
0.2665657646
 40
0.3960419241
 40
0.5224336898
 40
0.6456694862
 40
0.7659692382
 40
0.8838357763
 40
1.0
 40
1.0
 40
1.0
 40
1.0
 10
-88.4088268135
 20
11.3630673615
 30
0.0
 10
-88.4507557139
 20
11.2408969901
 30
0.0
 10
-88.5187699589
 20
10.9929601111
 30
0.0
 10
-88.571055888
 20
10.6147434542
 30
0.0
 10
-88.5716160688
 20
10.2404386604
 30
0.0
 10
-88.5199486975
 20
9.8783298652
 30
0.0
 10
-88.4166201056
 20
9.5365232979
 30
0.0
 10
-88.2632637196
 20
9.2229564921
 30
0.0
 10
-88.0629129013
 20
8.9454302153
 30
0.0
 10
-87.8998742754
 20
8.7882784417
 30
0.0
 10
-87.8126938472
 20
8.7184848395
 30
0.0
  0
SPLINE
  5
3BA
100
AcDbEntity
  8
0
100
AcDbSpline
 62
7
  6
CONTINUOUS
 70
0
 71
3
 72
15
 73
11
 74
0
 42
0.0000001
 43
0.0000001
 44
0.0000000001
 40
0.0
 40
0.0
 40
0.0
 40
0.0
 40
0.1161645796
 40
0.2340317672
 40
0.3543320302
 40
0.4775681241
 40
0.603959805
 40
0.7334355136
 40
0.8656446391
 40
1.0
 40
1.0
 40
1.0
 40
1.0
 10
-85.2208049097
 20
13.2083467318
 30
0.0
 10
-85.3248304366
 20
13.2489340061
 30
0.0
 10
-85.5424278051
 20
13.3115243731
 30
0.0
 10
-85.8829108051
 20
13.3462385755
 30
0.0
 10
-86.2311032995
 20
13.3222460911
 30
0.0
 10
-86.5787351896
 20
13.2408205947
 30
0.0
 10
-86.9181177726
 20
13.1045153907
 30
0.0
 10
-87.2419500849
 20
12.9168929032
 30
0.0
 10
-87.5433107378
 20
12.6825283457
 30
0.0
 10
-87.7240002908
 20
12.4996807046
 30
0.0
 10
-87.8088276723
 20
12.4022961164
 30
0.0
  0
SPLINE
  5
3BB
100
AcDbEntity
  8
0
100
AcDbSpline
 62
7
  6
CONTINUOUS
 70
0
 71
3
 72
13
 73
9
 74
0
 42
0.0000001
 43
0.0000001
 44
0.0000000001
 40
0.0
 40
0.0
 40
0.0
 40
0.0
 40
0.2692031717
 40
0.5267127238
 40
0.6501769222
 40
0.7698597869
 40
0.8861987062
 40
1.0
 40
1.0
 40
1.0
 40
1.0
 10
-83.3542488032
 20
9.6666997566
 30
0.0
 10
-83.2500888256
 20
9.922659806
 30
0.0
 10
-83.1077702973
 20
10.4513266263
 30
0.0
 10
-83.1113508729
 20
11.1283721311
 30
0.0
 10
-83.2304099811
 20
11.630256664
 30
0.0
 10
-83.3724549794
 20
11.9727288826
 30
0.0
 10
-83.5652375948
 20
12.277753838
 30
0.0
 10
-83.7262310007
 20
12.4527890756
 30
0.0
 10
-83.8130163022
 20
12.5309875943
 30
0.0
  0
SPLINE
  5
3BC
100
AcDbEntity
  8
0
100
AcDbSpline
 62
7
  6
CONTINUOUS
 70
0
 71
3
 72
13
 73
9
 74
0
 42
0.0000001
 43
0.0000001
 44
0.0000000001
 40
0.0
 40
0.0
 40
0.0
 40
0.0
 40
0.1138019076
 40
0.2301406344
 40
0.349822821
 40
0.4732862018
 40
0.7307949127
 40
1.0
 40
1.0
 40
1.0
 40
1.0
 10
-86.5223851172
 20
7.8382231551
 30
0.0
 10
-86.411274248
 20
7.8021587791
 30
0.0
 10
-86.1791996686
 20
7.7502410331
 30
0.0
 10
-85.8186573899
 20
7.7357832324
 30
0.0
 10
-85.451052893
 20
7.783990551
 30
0.0
 10
-84.9568872809
 20
7.9318078527
 30
0.0
 10
-84.36876535
 20
8.2672154981
 30
0.0
 10
-83.9820921219
 20
8.6547924107
 30
0.0
 10
-83.8125063726
 20
8.8729743641
 30
0.0
  0
SPLINE
  5
3BD
100
AcDbEntity
  8
0
100
AcDbSpline
 62
7
  6
CONTINUOUS
 70
0
 71
3
 72
15
 73
11
 74
0
 42
0.0000001
 43
0.0000001
 44
0.0000000001
 40
0.0
 40
0.0
 40
0.0
 40
0.0
 40
0.1066851019
 40
0.2284443172
 40
0.3613084497
 40
0.5000068809
 40
0.6387041818
 40
0.7715651404
 40
0.8933197751
 40
1.0
 40
1.0
 40
1.0
 40
1.0
 10
-83.8125063726
 20
8.8729743641
 30
0.0
 10
-83.7756984086
 20
8.8758035156
 30
0.0
 10
-83.6978617724
 20
8.8960499505
 30
0.0
 10
-83.587869873
 20
8.957593463
 30
0.0
 10
-83.4858126424
 20
9.0492867255
 30
0.0
 10
-83.4018471862
 20
9.1650401209
 30
0.0
 10
-83.3435848536
 20
9.2956320042
 30
0.0
 10
-83.3152062011
 20
9.4298600324
 30
0.0
 10
-83.3169063893
 20
9.555883289
 30
0.0
 10
-83.3382934963
 20
9.6334111114
 30
0.0
 10
-83.3542488032
 20
9.6666997566
 30
0.0
  0
SPLINE
  5
3BE
100
AcDbEntity
  8
0
100
AcDbSpline
 62
7
  6
CONTINUOUS
 70
0
 71
3
 72
14
 73
10
 74
0
 42
0.0000001
 43
0.0000001
 44
0.0000000001
 40
0.0
 40
0.0
 40
0.0
 40
0.0
 40
0.4078813901
 40
0.7179373106
 40
0.8313732475
 40
0.9155180944
 40
0.9465762503
 40
0.9705104005
 40
1.0
 40
1.0
 40
1.0
 40
1.0
 10
-83.9758678375
 20
12.6719481606
 30
0.0
 10
-83.950275324
 20
12.6571741984
 30
0.0
 10
-83.9058467343
 20
12.6300805703
 30
0.0
 10
-83.856579452
 20
12.5952653504
 30
0.0
 10
-83.8286945025
 20
12.5712052905
 30
0.0
 10
-83.817090418
 20
12.5593991734
 30
0.0
 10
-83.810996818
 20
12.5512287818
 30
0.0
 10
-83.808020345
 20
12.5461044018
 30
0.0
 10
-83.8068854102
 20
12.5416498588
 30
0.0
 10
-83.8079565967
 20
12.5398012908
 30
0.0
  0
SPLINE
  5
3BF
100
AcDbEntity
  8
0
100
AcDbSpline
 62
7
  6
CONTINUOUS
 70
0
 71
3
 72
10
 73
6
 74
0
 42
0.0000001
 43
0.0000001
 44
0.0000000001
 40
0.0
 40
0.0
 40
0.0
 40
0.0
 40
0.3578619366
 40
0.6387248675
 40
1.0
 40
1.0
 40
1.0
 40
1.0
 10
-86.5274838647
 20
7.8294418955
 30
0.0
 10
-86.5284373076
 20
7.8277844086
 30
0.0
 10
-86.5322154786
 20
7.8264932539
 30
0.0
 10
-86.5374123399
 20
7.8263188985
 30
0.0
 10
-86.540878659
 20
7.8266058602
 30
0.0
 10
-86.5427935141
 20
7.8268502463
 30
0.0
  0
SPLINE
  5
3C0
100
AcDbEntity
  8
0
100
AcDbSpline
 62
7
  6
CONTINUOUS
 70
0
 71
3
 72
12
 73
8
 74
0
 42
0.0000001
 43
0.0000001
 44
0.0000000001
 40
0.0
 40
0.0
 40
0.0
 40
0.0
 40
0.0631974397
 40
0.1452550734
 40
0.3644819389
 40
0.6522848128
 40
1.0
 40
1.0
 40
1.0
 40
1.0
 10
-86.5427935141
 20
7.8268502463
 30
0.0
 10
-86.5469948527
 20
7.8273864481
 30
0.0
 10
-86.5565442423
 20
7.8294112793
 30
0.0
 10
-86.5799464434
 20
7.8364521872
 30
0.0
 10
-86.6165996948
 20
7.8513185128
 30
0.0
 10
-86.6681262287
 20
7.8763871497
 30
0.0
 10
-86.7054181112
 20
7.8970076944
 30
0.0
 10
-86.72560014
 20
7.9086583098
 30
0.0
  0
SPLINE
  5
3C1
100
AcDbEntity
  8
0
100
AcDbSpline
 62
7
  6
CONTINUOUS
 70
0
 71
3
 72
9
 73
5
 74
0
 42
0.0000001
 43
0.0000001
 44
0.0000000001
 40
0.0
 40
0.0
 40
0.0
 40
0.0
 40
0.2471681797
 40
1.0
 40
1.0
 40
1.0
 40
1.0
 10
-85.6815011821
 20
11.8531440001
 30
0.0
 10
-85.6900202176
 20
11.807232875
 30
0.0
 10
-85.7237144067
 20
11.6213402226
 30
0.0
 10
-85.7545962987
 20
11.434951116
 30
0.0
 10
-85.7773504574
 20
11.2945587348
 30
0.0
  0
LINE
  5
3C2
100
AcDbEntity
  8
0
100
AcDbLine
 62
7
  6
CONTINUOUS
 10
-85.680120545
 20
11.872619717
 11
-85.6815011821
 21
11.8531440001
  0
LINE
  5
3C3
100
AcDbEntity
  8
0
100
AcDbLine
 62
7
  6
CONTINUOUS
 10
-86.8696630611
 20
9.7951873252
 11
-86.8856497262
 21
9.7843824419
  0
SPLINE
  5
3C4
100
AcDbEntity
  8
0
100
AcDbSpline
 62
7
  6
CONTINUOUS
 70
0
 71
3
 72
9
 73
5
 74
0
 42
0.0000001
 43
0.0000001
 44
0.0000000001
 40
0.0
 40
0.0
 40
0.0
 40
0.0
 40
0.2527844159
 40
1.0
 40
1.0
 40
1.0
 40
1.0
 10
-86.4338463183
 20
10.1574739324
 30
0.0
 10
-86.4708501545
 20
10.1272879151
 30
0.0
 10
-86.6171120578
 20
10.0077253242
 30
0.0
 10
-86.7623430484
 20
9.8868840599
 30
0.0
 10
-86.8696630611
 20
9.7951873252
 30
0.0
  0
LINE
  5
3C5
100
AcDbEntity
  8
0
100
AcDbLine
 62
7
  6
CONTINUOUS
 10
-85.9057322192
 20
9.917848239
 11
-85.8822149333
 21
9.9363089545
  0
SPLINE
  5
3C6
100
AcDbEntity
  8
0
100
AcDbSpline
 62
7
  6
CONTINUOUS
 70
0
 71
3
 72
9
 73
5
 74
0
 42
0.0000001
 43
0.0000001
 44
0.0000000001
 40
0.0
 40
0.0
 40
0.0
 40
0.0
 40
0.4994995182
 40
1.0
 40
1.0
 40
1.0
 40
1.0
 10
-85.8822149333
 20
9.9363089545
 30
0.0
 10
-85.7909388273
 20
9.9378834947
 30
0.0
 10
-85.6082381681
 20
9.943009627
 30
0.0
 10
-85.4256171849
 20
9.9502166235
 30
0.0
 10
-85.3342260153
 20
9.954076035
 30
0.0
  0
SPLINE
  5
3C7
100
AcDbEntity
  8
0
100
AcDbSpline
 62
7
  6
CONTINUOUS
 70
0
 71
3
 72
9
 73
5
 74
0
 42
0.0000001
 43
0.0000001
 44
0.0000000001
 40
0.0
 40
0.0
 40
0.0
 40
0.0
 40
0.2503395791
 40
1.0
 40
1.0
 40
1.0
 40
1.0
 10
-85.0513665701
 20
10.4440028137
 30
0.0
 10
-85.0725495176
 20
10.4845572485
 30
0.0
 10
-85.1574116823
 20
10.6464243105
 30
0.0
 10
-85.2435176113
 20
10.8076583085
 30
0.0
 10
-85.3099614186
 20
10.9274812878
 30
0.0
  0
LINE
  5
3C8
100
AcDbEntity
  8
0
100
AcDbLine
 62
7
  6
CONTINUOUS
 10
-85.3099614186
 20
10.9274812878
 11
-85.3057324807
 21
10.9570788734
  0
SPLINE
  5
3C9
100
AcDbEntity
  8
0
100
AcDbSpline
 62
7
  6
CONTINUOUS
 70
0
 71
3
 72
18
 73
14
 74
0
 42
0.0000001
 43
0.0000001
 44
0.0000000001
 40
0.0
 40
0.0
 40
0.0
 40
0.0
 40
0.1532362046
 40
0.3046768461
 40
0.4507144807
 40
0.5873386056
 40
0.6510853088
 40
0.7112412467
 40
0.8198159391
 40
0.8687443894
 40
0.914520182
 40
0.9579351479
 40
1.0
 40
1.0
 40
1.0
 40
1.0
 10
-83.2863574675
 20
9.8486329105
 30
0.0
 10
-83.2601540237
 20
9.7507900165
 30
0.0
 10
-83.2309672183
 20
9.5493983735
 30
0.0
 10
-83.2546600482
 20
9.2501294273
 30
0.0
 10
-83.3387522244
 20
8.973465911
 30
0.0
 10
-83.4527479281
 20
8.7723290468
 30
0.0
 10
-83.5639992722
 20
8.6402621819
 30
0.0
 10
-83.6774647595
 20
8.5363001609
 30
0.0
 10
-83.8034000406
 20
8.4610123734
 30
0.0
 10
-83.93355413
 20
8.4249116478
 30
0.0
 10
-84.0252737383
 20
8.4180764888
 30
0.0
 10
-84.1118441751
 20
8.4306308525
 30
0.0
 10
-84.1649053966
 20
8.4518514508
 30
0.0
 10
-84.1892730592
 20
8.4652438034
 30
0.0
  0
LINE
  5
3CA
100
AcDbEntity
  8
0
100
AcDbLine
 62
7
  6
CONTINUOUS
 10
-86.2013723659
 20
12.1733468593
 11
-86.2197212118
 21
12.163905606
  0
SPLINE
  5
3CB
100
AcDbEntity
  8
0
100
AcDbSpline
 62
7
  6
CONTINUOUS
 70
0
 71
3
 72
9
 73
5
 74
0
 42
0.0000001
 43
0.0000001
 44
0.0000000001
 40
0.0
 40
0.0
 40
0.0
 40
0.0
 40
0.2489617228
 40
1.0
 40
1.0
 40
1.0
 40
1.0
 10
-86.7057759623
 20
11.8306201885
 30
0.0
 10
-86.6664633359
 20
11.8597248213
 30
0.0
 10
-86.5073675997
 20
11.9750198336
 30
0.0
 10
-86.3440702062
 20
12.0844667877
 30
0.0
 10
-86.2197212118
 20
12.163905606
 30
0.0
  0
SPLINE
  5
3CC
100
AcDbEntity
  8
0
100
AcDbSpline
 62
7
  6
CONTINUOUS
 70
0
 71
3
 72
9
 73
5
 74
0
 42
0.0000001
 43
0.0000001
 44
0.0000000001
 40
0.0
 40
0.0
 40
0.0
 40
0.0
 40
0.2510765717
 40
1.0
 40
1.0
 40
1.0
 40
1.0
 10
-87.407883104
 20
10.1059489387
 30
0.0
 10
-87.4056691721
 20
10.1552287159
 30
0.0
 10
-87.3953761841
 20
10.3514292724
 30
0.0
 10
-87.3789649216
 20
10.5473429937
 30
0.0
 10
-87.3622718723
 20
10.6935354144
 30
0.0
  0
LINE
  5
3CD
100
AcDbEntity
  8
0
100
AcDbLine
 62
7
  6
CONTINUOUS
 10
-87.407883104
 20
10.1059489387
 11
-87.4068732011
 21
10.0850932183
  0
SPLINE
  5
3CE
100
AcDbEntity
  8
0
100
AcDbSpline
 62
250
  6
CONTINUOUS
 70
0
 71
3
 72
15
 73
11
 74
0
 42
0.0000001
 43
0.0000001
 44
0.0000000001
 40
0.0
 40
0.0
 40
0.0
 40
0.0
 40
0.137325895
 40
0.2717943924
 40
0.4025747608
 40
0.5291722796
 40
0.6515406488
 40
0.7701216562
 40
0.8858313275
 40
1.0
 40
1.0
 40
1.0
 40
1.0
 10
-84.1904595113
 20
10.3131021598
 30
0.0
 10
-84.1436105184
 20
10.4484470092
 30
0.0
 10
-84.0692322871
 20
10.7231293325
 30
0.0
 10
-84.0183992343
 20
11.1413599929
 30
0.0
 10
-84.0305733693
 20
11.5515144967
 30
0.0
 10
-84.105731172
 20
11.9422229831
 30
0.0
 10
-84.2421045742
 20
12.302633936
 30
0.0
 10
-84.4363534214
 20
12.6225163802
 30
0.0
 10
-84.6831490719
 20
12.892423881
 30
0.0
 10
-84.8789639785
 20
13.0341769864
 30
0.0
 10
-84.9820817067
 20
13.0937158703
 30
0.0
  0
SPLINE
  5
3CF
100
AcDbEntity
  8
0
100
AcDbSpline
 62
250
  6
CONTINUOUS
 70
0
 71
3
 72
23
 73
19
 74
0
 42
0.0000001
 43
0.0000001
 44
0.0000000001
 40
0.0
 40
0.0
 40
0.0
 40
0.0
 40
0.0686481964
 40
0.1358517535
 40
0.2012051311
 40
0.2644787539
 40
0.3256583729
 40
0.3849682358
 40
0.4428668993
 40
0.5000050241
 40
0.5571428278
 40
0.6150405749
 40
0.6743490555
 40
0.7355270079
 40
0.7987988792
 40
0.8641506103
 40
0.9313527885
 40
1.0
 40
1.0
 40
1.0
 40
1.0
 10
-84.3685622493
 20
10.4159269879
 30
0.0
 10
-84.3257674549
 20
10.543743165
 30
0.0
 10
-84.2582789075
 20
10.8028694785
 30
0.0
 10
-84.2138815135
 20
11.196782084
 30
0.0
 10
-84.228362364
 20
11.5825650993
 30
0.0
 10
-84.301595839
 20
11.9497016637
 30
0.0
 10
-84.4319038695
 20
12.2881804723
 30
0.0
 10
-84.6160825312
 20
12.5885453315
 30
0.0
 10
-84.8493337827
 20
12.8421624158
 30
0.0
 10
-85.1252321506
 20
13.0415473842
 30
0.0
 10
-85.4358443309
 20
13.1808066849
 30
0.0
 10
-85.7720999981
 20
13.2560159455
 30
0.0
 10
-86.1243048926
 20
13.265352087
 30
0.0
 10
-86.482582917
 20
13.2089763445
 30
0.0
 10
-86.837142871
 20
13.0888418311
 30
0.0
 10
-87.178475796
 20
12.9085007266
 30
0.0
 10
-87.4974111603
 20
12.6731024925
 30
0.0
 10
-87.6880742311
 20
12.4850964307
 30
0.0
 10
-87.7773678327
 20
12.3841286094
 30
0.0
  0
SPLINE
  5
3D0
100
AcDbEntity
  8
0
100
AcDbSpline
 62
250
  6
CONTINUOUS
 70
0
 71
3
 72
23
 73
19
 74
0
 42
0.0000001
 43
0.0000001
 44
0.0000000001
 40
0.0
 40
0.0
 40
0.0
 40
0.0
 40
0.0686481964
 40
0.1358517535
 40
0.2012051311
 40
0.2644787539
 40
0.3256583729
 40
0.3849682358
 40
0.4428668993
 40
0.5000050241
 40
0.5571428278
 40
0.6150405749
 40
0.6743490555
 40
0.7355270079
 40
0.7987988792
 40
0.8641506103
 40
0.9313527885
 40
1.0
 40
1.0
 40
1.0
 40
1.0
 10
-88.3773678327
 20
11.3448981259
 30
0.0
 10
-88.4201626272
 20
11.2170819488
 30
0.0
 10
-88.4876511745
 20
10.9579556353
 30
0.0
 10
-88.5320485686
 20
10.5640430298
 30
0.0
 10
-88.5175677181
 20
10.1782600146
 30
0.0
 10
-88.4443342431
 20
9.8111234501
 30
0.0
 10
-88.3140262126
 20
9.4726446415
 30
0.0
 10
-88.1298475508
 20
9.1722797823
 30
0.0
 10
-87.8965962994
 20
8.918662698
 30
0.0
 10
-87.6206979315
 20
8.7192777296
 30
0.0
 10
-87.3100857512
 20
8.5800184289
 30
0.0
 10
-86.973830084
 20
8.5048091683
 30
0.0
 10
-86.6216251895
 20
8.4954730268
 30
0.0
 10
-86.2633471651
 20
8.5518487693
 30
0.0
 10
-85.9087872111
 20
8.6719832827
 30
0.0
 10
-85.567454286
 20
8.8523243872
 30
0.0
 10
-85.2485189217
 20
9.0877226213
 30
0.0
 10
-85.057855851
 20
9.2757286831
 30
0.0
 10
-84.9685622493
 20
9.3766965044
 30
0.0
  0
SPLINE
  5
3D1
100
AcDbEntity
  8
0
100
AcDbSpline
 62
250
  6
CONTINUOUS
 70
0
 71
3
 72
15
 73
11
 74
0
 42
0.0000001
 43
0.0000001
 44
0.0000000001
 40
0.0
 40
0.0
 40
0.0
 40
0.0
 40
0.1141704729
 40
0.2298808123
 40
0.3484616368
 40
0.4708293291
 40
0.5974262195
 40
0.7282057862
 40
0.862673692
 40
1.0
 40
1.0
 40
1.0
 40
1.0
 10
-87.5942948094
 20
8.5692300609
 30
0.0
 10
-87.4911775182
 20
8.5096914293
 30
0.0
 10
-87.2705158244
 20
8.4109757977
 30
0.0
 10
-86.9133799207
 20
8.3321809542
 30
0.0
 10
-86.5392369914
 20
8.3238819827
 30
0.0
 10
-86.1589321294
 20
8.3859707176
 30
0.0
 10
-85.7829962851
 20
8.516224834
 30
0.0
 10
-85.4217112022
 20
8.7107490357
 30
0.0
 10
-85.0849349589
 20
8.9638789932
 30
0.0
 10
-84.8842457146
 20
9.1656288613
 30
0.0
 10
-84.7904595113
 20
9.2738716763
 30
0.0
  0
SPLINE
  5
3D2
100
AcDbEntity
  8
0
100
AcDbSpline
 62
7
  6
CONTINUOUS
 70
0
 71
3
 72
10
 73
6
 74
0
 42
0.0000001
 43
0.0000001
 44
0.0000000001
 40
0.0
 40
0.0
 40
0.0
 40
0.0
 40
0.3574592193
 40
0.6349878592
 40
1.0
 40
1.0
 40
1.0
 40
1.0
 10
-86.5324701882
 20
7.8415282171
 30
0.0
 10
-86.5313946268
 20
7.8403147243
 30
0.0
 10
-86.5295765157
 20
7.8380357317
 30
0.0
 10
-86.5272525756
 20
7.8342526069
 30
0.0
 10
-86.5266582419
 20
7.8308771771
 30
0.0
 10
-86.5274838647
 20
7.8294418955
 30
0.0
  0
SPLINE
  5
3D3
100
AcDbEntity
  8
0
100
AcDbSpline
 62
7
  6
CONTINUOUS
 70
0
 71
3
 72
9
 73
5
 74
0
 42
0.0000001
 43
0.0000001
 44
0.0000000001
 40
0.0
 40
0.0
 40
0.0
 40
0.0
 40
0.4994995182
 40
1.0
 40
1.0
 40
1.0
 40
1.0
 10
-86.1192501403
 20
11.3947544726
 30
0.0
 10
-86.2105262463
 20
11.3931799324
 30
0.0
 10
-86.3932269054
 20
11.3880538001
 30
0.0
 10
-86.5758478886
 20
11.3808468036
 30
0.0
 10
-86.6672390583
 20
11.3769873922
 30
0.0
  0
LINE
  5
3D4
100
AcDbEntity
  8
0
100
AcDbLine
 62
7
  6
CONTINUOUS
 10
-86.1192501403
 20
11.3947544726
 11
-85.7537740108
 21
11.12311518
  0
LINE
  5
3D5
100
AcDbEntity
  8
0
100
AcDbLine
 62
7
  6
CONTINUOUS
 10
-86.7057759623
 20
11.8306201885
 11
-86.3123754218
 21
11.5382809808
  0
LINE
  5
3D6
100
AcDbEntity
  8
0
100
AcDbLine
 62
7
  6
CONTINUOUS
 10
-86.4716180197
 20
11.200887276
 11
-86.6882557006
 21
11.3734234181
  0
LINE
  5
3D7
100
AcDbEntity
  8
0
100
AcDbLine
 62
7
  6
CONTINUOUS
 10
-86.4716010473
 20
11.2009288859
 11
-86.8573408894
 21
11.423528343
  0
LINE
  5
3D8
100
AcDbEntity
  8
0
100
AcDbLine
 62
7
  6
CONTINUOUS
 10
-86.6998884845
 20
10.8055567772
 11
-87.0854283977
 21
11.0284843584
  0
SPLINE
  5
3D9
100
AcDbEntity
  8
0
100
AcDbSpline
 62
7
  6
CONTINUOUS
 70
0
 71
3
 72
9
 73
5
 74
0
 42
0.0000001
 43
0.0000001
 44
0.0000000001
 40
0.0
 40
0.0
 40
0.0
 40
0.0
 40
0.500585407
 40
1.0
 40
1.0
 40
1.0
 40
1.0
 10
-86.9574063546
 20
10.9067386617
 30
0.0
 10
-86.9144376803
 20
10.8898278625
 30
0.0
 10
-86.828665783
 20
10.8558801555
 30
0.0
 10
-86.7426344223
 20
10.8225942115
 30
0.0
 10
-86.699766247
 20
10.8057229648
 30
0.0
  0
SPLINE
  5
3DA
100
AcDbEntity
  8
0
100
AcDbSpline
 62
7
  6
CONTINUOUS
 70
0
 71
3
 72
9
 73
5
 74
0
 42
0.0000001
 43
0.0000001
 44
0.0000000001
 40
0.0
 40
0.0
 40
0.0
 40
0.0
 40
0.2503395791
 40
1.0
 40
1.0
 40
1.0
 40
1.0
 10
-86.9500985035
 20
10.8870606134
 30
0.0
 10
-86.928915556
 20
10.8465061786
 30
0.0
 10
-86.8440533913
 20
10.6846391166
 30
0.0
 10
-86.7579474623
 20
10.5234051186
 30
0.0
 10
-86.6915036549
 20
10.4035821393
 30
0.0
  0
LINE
  5
3DB
100
AcDbEntity
  8
0
100
AcDbLine
 62
7
  6
CONTINUOUS
 10
-86.273497495
 20
10.2229277004
 11
-86.6842881743
 21
10.4004634947
  0
LINE
  5
3DC
100
AcDbEntity
  8
0
100
AcDbLine
 62
7
  6
CONTINUOUS
 10
-86.9123756645
 20
10.4990506374
 11
-87.3622718723
 21
10.6935354144
  0
LINE
  5
3DD
100
AcDbEntity
  8
0
100
AcDbLine
 62
7
  6
CONTINUOUS
 10
-86.6915036549
 20
10.4035821393
 11
-86.6957325928
 21
10.3739845537
  0
SPLINE
  5
3DE
100
AcDbEntity
  8
0
100
AcDbSpline
 62
7
  6
CONTINUOUS
 70
0
 71
3
 72
10
 73
6
 74
0
 42
0.0000001
 43
0.0000001
 44
0.0000000001
 40
0.0
 40
0.0
 40
0.0
 40
0.0
 40
0.3651245329
 40
0.6426230144
 40
1.0
 40
1.0
 40
1.0
 40
1.0
 10
-83.8079565967
 20
12.5398012908
 30
0.0
 10
-83.8087873451
 20
12.5383676516
 30
0.0
 10
-83.8120080668
 20
12.5371922112
 30
0.0
 10
-83.8164483599
 20
12.5373112162
 30
0.0
 10
-83.8193317687
 20
12.5377452722
 30
0.0
 10
-83.8209208156
 20
12.5380694927
 30
0.0
  0
LINE
  5
3DF
100
AcDbEntity
  8
0
100
AcDbLine
 62
7
  6
CONTINUOUS
 10
-86.8694218193
 20
9.8168855384
 11
-87.4068732011
 21
10.0850932183
  0
SPLINE
  5
3E0
100
AcDbEntity
  8
TRASH
100
AcDbSpline
 62
7
  6
CONTINUOUS
 70
0
 71
3
 72
9
 73
5
 74
0
 42
0.0000001
 43
0.0000001
 44
0.0000000001
 40
0.0
 40
0.0
 40
0.0
 40
0.0
 40
0.4934628355
 40
1.0
 40
1.0
 40
1.0
 40
1.0
 10
-86.2734962853
 20
10.2229339872
 30
0.0
 10
-86.3350470601
 20
10.3161820394
 30
0.0
 10
-86.4653204258
 20
10.5014694018
 30
0.0
 10
-86.5999196515
 20
10.6835346191
 30
0.0
 10
-86.6685904043
 20
10.7753948441
 30
0.0
  0
SPLINE
  5
3E1
100
AcDbEntity
  8
TRASH
100
AcDbSpline
 62
7
  6
CONTINUOUS
 70
0
 71
3
 72
9
 73
5
 74
0
 42
0.0000001
 43
0.0000001
 44
0.0000000001
 40
0.0
 40
0.0
 40
0.0
 40
0.0
 40
0.5065386847
 40
1.0
 40
1.0
 40
1.0
 40
1.0
 10
-86.4297686679
 20
11.1890546382
 30
0.0
 10
-86.3158792677
 20
11.1755126464
 30
0.0
 10
-86.0909063031
 20
11.1499704677
 30
0.0
 10
-85.8653046076
 20
11.1297986248
 30
0.0
 10
-85.7537740106
 20
11.1231151795
 30
0.0
  0
LINE
  5
3E2
100
AcDbEntity
  8
0
100
AcDbLine
 62
7
  6
CONTINUOUS
 10
-86.0957328544
 20
11.4132151881
 11
-86.1192501403
 21
11.3947544726
  0
LINE
  5
3E3
100
AcDbEntity
  8
0
100
AcDbLine
 62
7
  6
CONTINUOUS
 10
-86.2013723659
 20
12.1733468593
 11
-85.7003199919
 21
11.8420168437
  0
SPLINE
  5
3E4
100
AcDbEntity
  8
RACCORDO
100
AcDbSpline
 62
7
  6
CONTINUOUS
 70
0
 71
3
 72
17
 73
13
 74
0
 42
0.0000001
 43
0.0000001
 44
0.0000000001
 40
0.0
 40
0.0
 40
0.0
 40
0.0
 40
0.0605645081
 40
0.1216456344
 40
0.2454307261
 40
0.3718529977
 40
0.4999854122
 40
0.62811925
 40
0.7545473356
 40
0.8783421785
 40
0.9394301792
 40
1.0
 40
1.0
 40
1.0
 40
1.0
 10
-34.650310435
 20
18.3193052962
 30
0.0
 10
-34.6710827502
 20
18.3518752507
 30
0.0
 10
-34.7076594954
 20
18.4207387854
 30
0.0
 10
-34.7593298529
 20
18.569021693
 30
0.0
 10
-34.782490877
 20
18.7691168879
 30
0.0
 10
-34.7454146225
 20
19.0101840829
 30
0.0
 10
-34.649013277
 20
19.2371156475
 30
0.0
 10
-34.5007156364
 20
19.4340946404
 30
0.0
 10
-34.3105017466
 20
19.5867772435
 30
0.0
 10
-34.1256324874
 20
19.6668028003
 30
0.0
 10
-33.971370475
 20
19.6962179115
 30
0.0
 10
-33.8934370829
 20
19.6989858993
 30
0.0
 10
-33.8548409491
 20
19.6972855198
 30
0.0
  0
SPLINE
  5
3E5
100
AcDbEntity
  8
RACCORDO
100
AcDbSpline
 62
250
  6
CONTINUOUS
 70
0
 71
3
 72
21
 73
17
 74
0
 42
0.0000001
 43
0.0000001
 44
0.0000000001
 40
0.0
 40
0.0
 40
0.0
 40
0.0
 40
0.0562160549
 40
0.1137127464
 40
0.1731601903
 40
0.2348756114
 40
0.298859448
 40
0.3648180467
 40
0.5000002015
 40
0.6351823681
 40
0.7011409771
 40
0.7651248114
 40
0.8268402484
 40
0.886287588
 40
0.9437844477
 40
1.0
 40
1.0
 40
1.0
 40
1.0
 10
-33.8732552718
 20
19.4507809959
 30
0.0
 10
-33.8999799585
 20
19.4625721888
 30
0.0
 10
-33.9569573149
 20
19.4803045427
 30
0.0
 10
-34.0472910633
 20
19.4876305696
 30
0.0
 10
-34.1400116933
 20
19.475903606
 30
0.0
 10
-34.2319059466
 20
19.4456465435
 30
0.0
 10
-34.3199340641
 20
19.39801012
 30
0.0
 10
-34.4290014691
 20
19.3129953776
 30
0.0
 10
-34.5396773201
 20
19.1740334241
 30
0.0
 10
-34.6046656449
 20
19.0086971779
 30
0.0
 10
-34.6237417779
 20
18.8717325048
 30
0.0
 10
-34.6209707012
 20
18.7716800868
 30
0.0
 10
-34.6012173122
 20
18.6769707352
 30
0.0
 10
-34.5650016179
 20
18.5908135873
 30
0.0
 10
-34.5134840285
 20
18.516250022
 30
0.0
 10
-34.469634389
 20
18.4757770033
 30
0.0
 10
-34.446058701
 20
18.4585313435
 30
0.0
  0
SPLINE
  5
3E6
100
AcDbEntity
  8
RACCORDO
100
AcDbSpline
 62
7
  6
CONTINUOUS
 70
0
 71
3
 72
17
 73
13
 74
0
 42
0.0000001
 43
0.0000001
 44
0.0000000001
 40
0.0
 40
0.0
 40
0.0
 40
0.0
 40
0.0605710736
 40
0.1216591387
 40
0.2454566664
 40
0.3718869271
 40
0.5000220306
 40
0.6281531912
 40
0.7545733088
 40
0.8783557
 40
0.9394367747
 40
1.0
 40
1.0
 40
1.0
 40
1.0
 10
0.7050255158
 20
-2.0944198961
 30
0.0
 10
0.6842513076
 20
-2.0618461919
 30
0.0
 10
0.6476715195
 20
-1.9929744145
 30
0.0
 10
0.5960005461
 20
-1.8446740566
 30
0.0
 10
0.5728477451
 20
-1.6445596885
 30
0.0
 10
0.6099422468
 20
-1.4034800691
 30
0.0
 10
0.7063622507
 20
-1.1765508106
 30
0.0
 10
0.8546711632
 20
-0.979586864
 30
0.0
 10
1.0448833732
 20
-0.8269264165
 30
0.0
 10
1.2297399329
 20
-0.7469172637
 30
0.0
 10
1.3839864425
 20
-0.7175103756
 30
0.0
 10
1.4619111182
 20
-0.7147437122
 30
0.0
 10
1.5005030252
 20
-0.7164442651
 30
0.0
  0
SPLINE
  5
3E7
100
AcDbEntity
  8
RACCORDO
100
AcDbSpline
 62
250
  6
CONTINUOUS
 70
0
 71
3
 72
21
 73
17
 74
0
 42
0.0000001
 43
0.0000001
 44
0.0000000001
 40
0.0
 40
0.0
 40
0.0
 40
0.0
 40
0.0562159476
 40
0.1137124817
 40
0.1731598193
 40
0.2348750822
 40
0.2988587991
 40
0.364817306
 40
0.4999993847
 40
0.6351816244
 40
0.7011403246
 40
0.7651242814
 40
0.8268398791
 40
0.8862873318
 40
0.9437843571
 40
1.0
 40
1.0
 40
1.0
 40
1.0
 10
1.4820881305
 20
-0.9629506749
 30
0.0
 10
1.4553637317
 20
-0.9511589912
 30
0.0
 10
1.3983866506
 20
-0.9334261425
 30
0.0
 10
1.3080532443
 20
-0.9260990998
 30
0.0
 10
1.2153327045
 20
-0.9378248597
 30
0.0
 10
1.1234383386
 20
-0.9680808543
 30
0.0
 10
1.0354099087
 20
-1.0157162342
 30
0.0
 10
0.9263418637
 20
-1.1007298529
 30
0.0
 10
0.8156648954
 20
-1.239690789
 30
0.0
 10
0.7506751563
 20
-1.4050264547
 30
0.0
 10
0.7315977129
 20
-1.5419910406
 30
0.0
 10
0.7343676811
 20
-1.6420436476
 30
0.0
 10
0.7541200316
 20
-1.7367533898
 30
0.0
 10
0.7903346417
 20
-1.8229111934
 30
0.0
 10
0.8418513877
 20
-1.8974755849
 30
0.0
 10
0.8857006757
 20
-1.9379490919
 30
0.0
 10
0.90927604
 20
-1.9551952578
 30
0.0
  0
SPLINE
  5
3E8
100
AcDbEntity
  8
0
100
AcDbSpline
 62
7
  6
CONTINUOUS
 70
0
 71
3
 72
23
 73
19
 74
0
 42
0.0000001
 43
0.0000001
 44
0.0000000001
 40
0.0
 40
0.0
 40
0.0
 40
0.0
 40
0.0573404565
 40
0.1158718228
 40
0.1759368609
 40
0.2376977307
 40
0.3011264226
 40
0.3660115994
 40
0.4319890241
 40
0.4985832389
 40
0.5652575039
 40
0.6314673375
 40
0.696714029
 40
0.7605961159
 40
0.8228541725
 40
0.8834044997
 40
0.9423545568
 40
1.0
 40
1.0
 40
1.0
 40
1.0
 10
15.0117166446
 20
-44.7078528709
 30
0.0
 10
14.8921338543
 20
-44.6746404825
 30
0.0
 10
14.6431021137
 20
-44.6317484946
 30
0.0
 10
14.2603000399
 20
-44.6397796878
 30
0.0
 10
13.8758288791
 20
-44.7181853404
 30
0.0
 10
13.5003413731
 20
-44.8638354992
 30
0.0
 10
13.1435980067
 20
-45.0719724601
 30
0.0
 10
12.8147738816
 20
-45.3365006661
 30
0.0
 10
12.5223023586
 20
-45.6500584184
 30
0.0
 10
12.2737545751
 20
-46.0041477026
 30
0.0
 10
12.0756551994
 20
-46.3893002169
 30
0.0
 10
11.9333188378
 20
-46.7953012517
 30
0.0
 10
11.850723182
 20
-47.2114409548
 30
0.0
 10
11.8304424194
 20
-47.6267664632
 30
0.0
 10
11.8735938901
 20
-48.0302672688
 30
0.0
 10
11.9798628117
 20
-48.4110736576
 30
0.0
 10
12.1471558382
 20
-48.7583159613
 30
0.0
 10
12.2984558875
 20
-48.9626221448
 30
0.0
 10
12.3823079386
 20
-49.0550138658
 30
0.0
  0
SPLINE
  5
3E9
100
AcDbEntity
  8
0
100
AcDbSpline
 62
7
  6
CONTINUOUS
 70
0
 71
3
 72
13
 73
9
 74
0
 42
0.0000001
 43
0.0000001
 44
0.0000000001
 40
0.0
 40
0.0
 40
0.0
 40
0.0
 40
0.2695221156
 40
0.5268720043
 40
0.6501920859
 40
0.7697603054
 40
0.886075448
 40
1.0
 40
1.0
 40
1.0
 40
1.0
 10
16.5557378678
 20
-49.1535973423
 30
0.0
 10
16.3822975461
 20
-49.367816927
 30
0.0
 10
15.9892385594
 20
-49.7463008057
 30
0.0
 10
15.3959085083
 20
-50.0675320235
 30
0.0
 10
14.9005152003
 20
-50.2026352102
 30
0.0
 10
14.5334137066
 20
-50.2410958524
 30
0.0
 10
14.1747378649
 20
-50.2167971397
 30
0.0
 10
13.9450026897
 20
-50.1584014885
 30
0.0
 10
13.8352819292
 20
-50.11922222
 30
0.0
  0
SPLINE
  5
3EA
100
AcDbEntity
  8
0
100
AcDbSpline
 62
7
  6
CONTINUOUS
 70
0
 71
3
 72
13
 73
9
 74
0
 42
0.0000001
 43
0.0000001
 44
0.0000000001
 40
0.0
 40
0.0
 40
0.0
 40
0.0
 40
0.2688460589
 40
0.5264931445
 40
0.6501018717
 40
0.7699094282
 40
0.8862923606
 40
1.0
 40
1.0
 40
1.0
 40
1.0
 10
17.0294605156
 20
-48.3691078608
 30
0.0
 10
17.1389337701
 20
-48.1146502585
 30
0.0
 10
17.292262846
 20
-47.5872391738
 30
0.0
 10
17.3035274779
 20
-46.9079988939
 30
0.0
 10
17.1961467807
 20
-46.401125573
 30
0.0
 10
17.0623615739
 20
-46.0535448142
 30
0.0
 10
16.8772693404
 20
-45.7421672084
 30
0.0
 10
16.720817413
 20
-45.5619738639
 30
0.0
 10
16.6360886412
 20
-45.4810580637
 30
0.0
  0
SPLINE
  5
3EB
100
AcDbEntity
  8
0
100
AcDbSpline
 62
7
  6
CONTINUOUS
 70
0
 71
3
 72
15
 73
11
 74
0
 42
0.0000001
 43
0.0000001
 44
0.0000000001
 40
0.0
 40
0.0
 40
0.0
 40
0.0
 40
0.1058219772
 40
0.2267694613
 40
0.3590710781
 40
0.497569291
 40
0.6364665587
 40
0.769889428
 40
0.8924551313
 40
1.0
 40
1.0
 40
1.0
 40
1.0
 10
17.0294605156
 20
-48.3691078608
 30
0.0
 10
17.0450176661
 20
-48.4022526705
 30
0.0
 10
17.0653648018
 20
-48.479499407
 30
0.0
 10
17.0650369714
 20
-48.6047739561
 30
0.0
 10
17.03428773
 20
-48.737923778
 30
0.0
 10
16.9735355071
 20
-48.8671513233
 30
0.0
 10
16.8871885955
 20
-48.981358352
 30
0.0
 10
16.7830569277
 20
-49.0714750724
 30
0.0
 10
16.6714410009
 20
-49.1315886087
 30
0.0
 10
16.5928610044
 20
-49.1510509238
 30
0.0
 10
16.5557378678
 20
-49.1535973423
 30
0.0
  0
SPLINE
  5
3EC
100
AcDbEntity
  8
0
100
AcDbSpline
 62
7
  6
CONTINUOUS
 70
0
 71
3
 72
17
 73
13
 74
0
 42
0.0000001
 43
0.0000001
 44
0.0000000001
 40
0.0
 40
0.0
 40
0.0
 40
0.0
 40
0.1461664425
 40
0.2912428988
 40
0.4324976881
 40
0.5669519163
 40
0.6918860369
 40
0.8054309376
 40
0.8578867691
 40
0.907553857
 40
0.954757402
 40
1.0
 40
1.0
 40
1.0
 40
1.0
 10
17.1395301502
 20
-48.0765571494
 30
0.0
 10
17.1567809099
 20
-48.1799085494
 30
0.0
 10
17.1696323193
 20
-48.3900146907
 30
0.0
 10
17.1268387455
 20
-48.698985341
 30
0.0
 10
17.0280600575
 20
-48.9860389051
 30
0.0
 10
16.8822320217
 20
-49.2357662223
 30
0.0
 10
16.7010931605
 20
-49.435157366
 30
0.0
 10
16.5267593008
 20
-49.5541969365
 30
0.0
 10
16.3831618598
 20
-49.6128092576
 30
0.0
 10
16.2786374565
 20
-49.6379659544
 30
0.0
 10
16.1765412655
 20
-49.6451899369
 30
0.0
 10
16.1102125737
 20
-49.6379139037
 30
0.0
 10
16.0784704598
 20
-49.6312566602
 30
0.0
  0
SPLINE
  5
3ED
100
AcDbEntity
  8
0
100
AcDbSpline
 62
7
  6
CONTINUOUS
 70
0
 71
3
 72
14
 73
10
 74
0
 42
0.0000001
 43
0.0000001
 44
0.0000000001
 40
0.0
 40
0.0
 40
0.0
 40
0.0
 40
0.4131623625
 40
0.722518707
 40
0.8347561626
 40
0.9176584793
 40
0.9481302784
 40
0.9715270761
 40
1.0
 40
1.0
 40
1.0
 40
1.0
 10
13.6813504935
 20
-50.0650586313
 30
0.0
 10
13.7009276858
 20
-50.076358473
 30
0.0
 10
13.735611761
 20
-50.0953553415
 30
0.0
 10
13.777003893
 20
-50.114791193
 30
0.0
 10
13.8029817053
 20
-50.124232308
 30
0.0
 10
13.8148580203
 20
-50.1275416485
 30
0.0
 10
13.8223526654
 20
-50.1286038055
 30
0.0
 10
13.8267026706
 20
-50.1287319804
 30
0.0
 10
13.8299936578
 20
-50.1279370236
 30
0.0
 10
13.8307963812
 20
-50.1266020088
 30
0.0
  0
SPLINE
  5
3EE
100
AcDbEntity
  8
0
100
AcDbSpline
 62
7
  6
CONTINUOUS
 70
0
 71
3
 72
9
 73
5
 74
0
 42
0.0000001
 43
0.0000001
 44
0.0000000001
 40
0.0
 40
0.0
 40
0.0
 40
0.0
 40
0.1979451195
 40
1.0
 40
1.0
 40
1.0
 40
1.0
 10
16.6420949296
 20
-45.4710632655
 30
0.0
 10
16.6424261663
 20
-45.4705164243
 30
0.0
 10
16.6435328688
 20
-45.4673955446
 30
0.0
 10
16.6423930509
 20
-45.4640054533
 30
0.0
 10
16.6413637404
 20
-45.4616281856
 30
0.0
  0
SPLINE
  5
3EF
100
AcDbEntity
  8
0
100
AcDbSpline
 62
7
  6
CONTINUOUS
 70
0
 71
3
 72
14
 73
10
 74
0
 42
0.0000001
 43
0.0000001
 44
0.0000000001
 40
0.0
 40
0.0
 40
0.0
 40
0.0
 40
0.0508190973
 40
0.1244003992
 40
0.2207143551
 40
0.3389479892
 40
0.4778436654
 40
0.6357093144
 40
1.0
 40
1.0
 40
1.0
 40
1.0
 10
16.6413637404
 20
-45.4616281856
 30
0.0
 10
16.6395725382
 20
-45.4574912733
 30
0.0
 10
16.6332473239
 20
-45.4482847727
 30
0.0
 10
16.6200961373
 20
-45.4337938947
 30
0.0
 10
16.6012666215
 20
-45.4164491156
 30
0.0
 10
16.5769365221
 20
-45.3966614639
 30
0.0
 10
16.5472751674
 20
-45.3748334962
 30
0.0
 10
16.498719103
 20
-45.3419375833
 30
0.0
 10
16.4590721182
 20
-45.3179208643
 30
0.0
 10
16.4310844663
 20
-45.3017661586
 30
0.0
  0
SPLINE
  5
3F0
100
AcDbEntity
  8
0
100
AcDbSpline
 62
7
  6
CONTINUOUS
 70
0
 71
3
 72
9
 73
5
 74
0
 42
0.0000001
 43
0.0000001
 44
0.0000000001
 40
0.0
 40
0.0
 40
0.0
 40
0.0
 40
0.2535566355
 40
1.0
 40
1.0
 40
1.0
 40
1.0
 10
13.8621922153
 20
-47.8980959735
 30
0.0
 10
13.7977621065
 20
-48.0220817701
 30
0.0
 10
13.5523079506
 20
-48.5154953312
 30
0.0
 10
13.3416724289
 20
-49.026389476
 30
0.0
 10
13.2072515037
 20
-49.415148159
 30
0.0
  0
SPLINE
  5
3F1
100
AcDbEntity
  8
0
100
AcDbSpline
 62
7
  6
CONTINUOUS
 70
0
 71
3
 72
9
 73
5
 74
0
 42
0.0000001
 43
0.0000001
 44
0.0000000001
 40
0.0
 40
0.0
 40
0.0
 40
0.0
 40
0.5054931214
 40
1.0
 40
1.0
 40
1.0
 40
1.0
 10
14.4933750066
 20
-47.8309229447
 30
0.0
 10
14.402863268
 20
-47.8298155233
 30
0.0
 10
14.2238033456
 20
-47.8279683043
 30
0.0
 10
14.044743803
 20
-47.8259496214
 30
0.0
 10
13.956204324
 20
-47.8245083088
 30
0.0
  0
LINE
  5
3F2
100
AcDbEntity
  8
0
100
AcDbLine
 62
7
  6
CONTINUOUS
 10
14.4933750066
 20
-47.8309229447
 11
14.5130507934
 21
-47.8287430628
  0
LINE
  5
3F3
100
AcDbEntity
  8
0
100
AcDbLine
 62
7
  6
CONTINUOUS
 10
15.1022348327
 20
-48.0249175322
 11
14.5130507934
 21
-47.8287430628
  0
LINE
  5
3F4
100
AcDbEntity
  8
0
100
AcDbLine
 62
7
  6
CONTINUOUS
 10
14.886797765
 20
-47.1794110499
 11
14.8938279111
 21
-47.1978162633
  0
SPLINE
  5
3F5
100
AcDbEntity
  8
0
100
AcDbSpline
 62
7
  6
CONTINUOUS
 70
0
 71
3
 72
9
 73
5
 74
0
 42
0.0000001
 43
0.0000001
 44
0.0000000001
 40
0.0
 40
0.0
 40
0.0
 40
0.0
 40
0.4946978773
 40
1.0
 40
1.0
 40
1.0
 40
1.0
 10
14.6348556655
 20
-46.700655177
 30
0.0
 10
14.6766349882
 20
-46.7794779669
 30
0.0
 10
14.7604083122
 20
-46.9391729967
 30
0.0
 10
14.8442367411
 20
-47.0988383764
 30
0.0
 10
14.886797765
 20
-47.1794110499
 30
0.0
  0
SPLINE
  5
3F6
100
AcDbEntity
  8
0
100
AcDbSpline
 62
7
  6
CONTINUOUS
 70
0
 71
3
 72
9
 73
5
 74
0
 42
0.0000001
 43
0.0000001
 44
0.0000000001
 40
0.0
 40
0.0
 40
0.0
 40
0.0
 40
0.2465347701
 40
1.0
 40
1.0
 40
1.0
 40
1.0
 10
15.6989858317
 20
-45.2888109871
 30
0.0
 10
15.6057006785
 20
-45.3885648171
 30
0.0
 10
15.2350205523
 20
-45.8003433018
 30
0.0
 10
14.8948789886
 20
-46.2394731949
 30
0.0
 10
14.656754862
 20
-46.5822919894
 30
0.0
  0
SPLINE
  5
3F7
100
AcDbEntity
  8
0
100
AcDbSpline
 62
7
  6
CONTINUOUS
 70
0
 71
3
 72
11
 73
7
 74
0
 42
0.0000001
 43
0.0000001
 44
0.0000000001
 40
0.0
 40
0.0
 40
0.0
 40
0.0
 40
0.1983072619
 40
0.4295750346
 40
0.6990386961
 40
1.0
 40
1.0
 40
1.0
 40
1.0
 10
15.8519810801
 20
-45.2247801116
 30
0.0
 10
15.8412356265
 20
-45.2206174152
 30
0.0
 10
15.815425896
 20
-45.2178776289
 30
0.0
 10
15.7758114039
 20
-45.2293483726
 30
0.0
 10
15.7355639366
 20
-45.2535492974
 30
0.0
 10
15.7109311613
 20
-45.2760373319
 30
0.0
 10
15.6989858317
 20
-45.2888109871
 30
0.0
  0
SPLINE
  5
3F8
100
AcDbEntity
  8
0
100
AcDbSpline
 62
7
  6
CONTINUOUS
 70
0
 71
3
 72
11
 73
7
 74
0
 42
0.0000001
 43
0.0000001
 44
0.0000000001
 40
0.0
 40
0.0
 40
0.0
 40
0.0
 40
0.3021973104
 40
0.5712403714
 40
0.8014545149
 40
1.0
 40
1.0
 40
1.0
 40
1.0
 10
13.2072515037
 20
-49.415148159
 30
0.0
 10
13.2015992474
 20
-49.4314950461
 30
0.0
 10
13.1933632577
 20
-49.4633564526
 30
0.0
 10
13.1910966734
 20
-49.5095649263
 30
0.0
 10
13.1999910478
 20
-49.5491960486
 30
0.0
 10
13.2149623439
 20
-49.5699265668
 30
0.0
 10
13.2238098212
 20
-49.577058217
 30
0.0
  0
LINE
  5
3F9
100
AcDbEntity
  8
0
100
AcDbLine
 62
7
  6
CONTINUOUS
 10
16.1661347803
 20
-45.3465092414
 11
15.8519810801
 21
-45.2247801116
  0
LINE
  5
3FA
100
AcDbEntity
  8
0
100
AcDbLine
 62
7
  6
CONTINUOUS
 10
13.2238098212
 20
-49.577058217
 11
13.4845675635
 21
-49.7872115914
  0
LINE
  5
3FB
100
AcDbEntity
  8
0
100
AcDbLine
 62
7
  6
CONTINUOUS
 10
15.0181395197
 20
-44.7099803569
 11
15.3322932199
 21
-44.8317094866
  0
LINE
  5
3FC
100
AcDbEntity
  8
0
100
AcDbLine
 62
7
  6
CONTINUOUS
 10
12.6507260031
 20
-49.2724118366
 11
12.3899682608
 21
-49.0622584622
  0
SPLINE
  5
3FD
100
AcDbEntity
  8
0
100
AcDbSpline
 62
7
  6
CONTINUOUS
 70
0
 71
3
 72
11
 73
7
 74
0
 42
0.0000001
 43
0.0000001
 44
0.0000000001
 40
0.0
 40
0.0
 40
0.0
 40
0.0
 40
0.2015719519
 40
0.4347253686
 40
0.7027546548
 40
1.0
 40
1.0
 40
1.0
 40
1.0
 10
12.3823029641
 20
-49.0550137213
 30
0.0
 10
12.3750195874
 20
-49.0469842044
 30
0.0
 10
12.363400875
 20
-49.0258672745
 30
0.0
 10
12.3571745706
 20
-48.988130372
 30
0.0
 10
12.3603655867
 20
-48.9450046462
 30
0.0
 10
12.36818591
 20
-48.9154568278
 30
0.0
 10
12.3734099433
 20
-48.9003484042
 30
0.0
  0
SPLINE
  5
3FE
100
AcDbEntity
  8
0
100
AcDbSpline
 62
7
  6
CONTINUOUS
 70
0
 71
3
 72
15
 73
11
 74
0
 42
0.0000001
 43
0.0000001
 44
0.0000000001
 40
0.0
 40
0.0
 40
0.0
 40
0.0
 40
0.1453877307
 40
0.2890883824
 40
0.4288004734
 40
0.5621152609
 40
0.6868569076
 40
0.8014730195
 40
0.9054880448
 40
1.0
 40
1.0
 40
1.0
 40
1.0
 10
17.1053604512
 20
-48.1760135041
 30
0.0
 10
17.1129447425
 20
-48.2700799878
 30
0.0
 10
17.1107834129
 20
-48.4589300001
 30
0.0
 10
17.0583078005
 20
-48.7336578416
 30
0.0
 10
16.9615829552
 20
-48.9877937427
 30
0.0
 10
16.8275778666
 20
-49.2101738591
 30
0.0
 10
16.6649573377
 20
-49.391375912
 30
0.0
 10
16.4833911913
 20
-49.5238607408
 30
0.0
 10
16.2935291442
 20
-49.6022127154
 30
0.0
 10
16.1629871422
 20
-49.6162338335
 30
0.0
 10
16.1017648339
 20
-49.6123076032
 30
0.0
  0
SPLINE
  5
3FF
100
AcDbEntity
  8
0
100
AcDbSpline
 62
7
  6
CONTINUOUS
 70
0
 71
3
 72
10
 73
6
 74
0
 42
0.0000001
 43
0.0000001
 44
0.0000000001
 40
0.0
 40
0.0
 40
0.0
 40
0.0
 40
0.3440078085
 40
0.6273316478
 40
1.0
 40
1.0
 40
1.0
 40
1.0
 10
13.8307963812
 20
-50.1266020088
 30
0.0
 10
13.8315480511
 20
-50.1253519014
 30
0.0
 10
13.8306525805
 20
-50.1222399655
 30
0.0
 10
13.82829232
 20
-50.1189010311
 30
0.0
 10
13.8264268083
 20
-50.1167743726
 30
0.0
 10
13.8253301131
 20
-50.1156366772
 30
0.0
  0
SPLINE
  5
400
100
AcDbEntity
  8
0
100
AcDbSpline
 62
7
  6
CONTINUOUS
 70
0
 71
3
 72
9
 73
5
 74
0
 42
0.0000001
 43
0.0000001
 44
0.0000000001
 40
0.0
 40
0.0
 40
0.0
 40
0.0
 40
0.4985480076
 40
1.0
 40
1.0
 40
1.0
 40
1.0
 10
15.4963623433
 20
-44.8868286767
 30
0.0
 10
15.6229559662
 20
-44.9362225141
 30
0.0
 10
15.8664011029
 20
-45.0647852628
 30
0.0
 10
16.0737259119
 20
-45.2458015198
 30
0.0
 10
16.1661347803
 20
-45.3465092414
 30
0.0
  0
SPLINE
  5
401
100
AcDbEntity
  8
0
100
AcDbSpline
 62
7
  6
CONTINUOUS
 70
0
 71
3
 72
9
 73
5
 74
0
 42
0.0000001
 43
0.0000001
 44
0.0000000001
 40
0.0
 40
0.0
 40
0.0
 40
0.0
 40
0.2410749222
 40
1.0
 40
1.0
 40
1.0
 40
1.0
 10
12.5315343359
 20
-46.4375881648
 30
0.0
 10
12.5555078344
 20
-46.466779101
 30
0.0
 10
12.6556344793
 20
-46.5873045987
 30
0.0
 10
12.7583537107
 20
-46.7056677817
 30
0.0
 10
12.8374758538
 20
-46.7944389405
 30
0.0
  0
LINE
  5
402
100
AcDbEntity
  8
0
100
AcDbLine
 62
7
  6
CONTINUOUS
 10
12.8374758538
 20
-46.7944389405
 11
12.842143819
 21
-46.811480524
  0
SPLINE
  5
403
100
AcDbEntity
  8
0
100
AcDbSpline
 62
7
  6
CONTINUOUS
 70
0
 71
3
 72
9
 73
5
 74
0
 42
0.0000001
 43
0.0000001
 44
0.0000000001
 40
0.0
 40
0.0
 40
0.0
 40
0.0
 40
0.2544247872
 40
1.0
 40
1.0
 40
1.0
 40
1.0
 10
13.043847911
 20
-47.2612352073
 30
0.0
 10
13.0254233714
 20
-47.2237062928
 30
0.0
 10
12.954464936
 20
-47.075487235
 30
0.0
 10
12.8886848496
 20
-46.9248109532
 30
0.0
 10
12.842143819
 20
-46.811480524
 30
0.0
  0
SPLINE
  5
404
100
AcDbEntity
  8
0
100
AcDbSpline
 62
7
  6
CONTINUOUS
 70
0
 71
3
 72
9
 73
5
 74
0
 42
0.0000001
 43
0.0000001
 44
0.0000000001
 40
0.0
 40
0.0
 40
0.0
 40
0.0
 40
0.2460238333
 40
1.0
 40
1.0
 40
1.0
 40
1.0
 10
12.3734099433
 20
-48.9003484042
 30
0.0
 10
12.4177148734
 20
-48.7722141404
 30
0.0
 10
12.6078391393
 20
-48.2549035691
 30
0.0
 10
12.8367598987
 20
-47.7519829075
 30
0.0
 10
13.0283515096
 20
-47.383294574
 30
0.0
  0
SPLINE
  5
405
100
AcDbEntity
  8
0
100
AcDbSpline
 62
7
  6
CONTINUOUS
 70
0
 71
3
 72
9
 73
5
 74
0
 42
0.0000001
 43
0.0000001
 44
0.0000000001
 40
0.0
 40
0.0
 40
0.0
 40
0.0
 40
0.2530352311
 40
1.0
 40
1.0
 40
1.0
 40
1.0
 10
13.8229143617
 20
-46.0674907084
 30
0.0
 10
13.9028825207
 20
-45.9523634461
 30
0.0
 10
14.2268734903
 20
-45.5029750168
 30
0.0
 10
14.5825064405
 20
-45.0762480319
 30
0.0
 10
14.8651442713
 20
-44.7740112323
 30
0.0
  0
SPLINE
  5
406
100
AcDbEntity
  8
0
100
AcDbSpline
 62
7
  6
CONTINUOUS
 70
0
 71
3
 72
9
 73
5
 74
0
 42
0.0000001
 43
0.0000001
 44
0.0000000001
 40
0.0
 40
0.0
 40
0.0
 40
0.0
 40
0.2451805553
 40
1.0
 40
1.0
 40
1.0
 40
1.0
 10
13.2355665643
 20
-46.1599686215
 30
0.0
 10
13.2752892101
 20
-46.1568878642
 30
0.0
 10
13.4373884539
 20
-46.1454893024
 30
0.0
 10
13.5998501446
 20
-46.1388995846
 30
0.0
 10
13.7224992033
 20
-46.137382047
 30
0.0
  0
LINE
  5
407
100
AcDbEntity
  8
0
100
AcDbLine
 62
7
  6
CONTINUOUS
 10
13.2182813197
 20
-46.1635285041
 11
13.2355665643
 21
-46.1599686215
  0
SPLINE
  5
408
100
AcDbEntity
  8
0
100
AcDbSpline
 62
7
  6
CONTINUOUS
 70
0
 71
3
 72
9
 73
5
 74
0
 42
0.0000001
 43
0.0000001
 44
0.0000000001
 40
0.0
 40
0.0
 40
0.0
 40
0.0
 40
0.3497726617
 40
1.0
 40
1.0
 40
1.0
 40
1.0
 10
16.6283876817
 20
-45.4737450798
 30
0.0
 10
16.63003221
 20
-45.4740130791
 30
0.0
 10
16.6345396051
 20
-45.4745904637
 30
0.0
 10
16.6404901321
 20
-45.4737126382
 30
0.0
 10
16.6420949296
 20
-45.4710632655
 30
0.0
  0
SPLINE
  5
409
100
AcDbEntity
  8
0
100
AcDbSpline
 62
7
  6
CONTINUOUS
 70
0
 71
3
 72
11
 73
7
 74
0
 42
0.0000001
 43
0.0000001
 44
0.0000000001
 40
0.0
 40
0.0
 40
0.0
 40
0.0
 40
0.2977310926
 40
0.566434769
 40
0.7995493328
 40
1.0
 40
1.0
 40
1.0
 40
1.0
 10
14.8651442713
 20
-44.7740112323
 30
0.0
 10
14.8765109622
 20
-44.7618563403
 30
0.0
 10
14.8999444757
 20
-44.7403060906
 30
0.0
 10
14.9381555588
 20
-44.7165160181
 30
0.0
 10
14.9759079216
 20
-44.7041201061
 30
0.0
 10
15.0009204999
 20
-44.704856362
 30
0.0
 10
15.0117163225
 20
-44.7078535251
 30
0.0
  0
SPLINE
  5
40A
100
AcDbEntity
  8
0
100
AcDbSpline
 62
250
  6
CONTINUOUS
 70
0
 71
3
 72
23
 73
19
 74
0
 42
0.0000001
 43
0.0000001
 44
0.0000000001
 40
0.0
 40
0.0
 40
0.0
 40
0.0
 40
0.056248573
 40
0.1140257619
 40
0.1737030849
 40
0.2354210551
 40
0.2990949916
 40
0.3644435204
 40
0.4310297946
 40
0.4983088508
 40
0.5656775208
 40
0.6325252227
 40
0.6982848414
 40
0.7624830124
 40
0.8247884863
 40
0.8850556611
 40
0.9433576746
 40
1.0
 40
1.0
 40
1.0
 40
1.0
 10
14.8651442713
 20
-44.7740112323
 30
0.0
 10
14.7544274456
 20
-44.7449805171
 30
0.0
 10
14.5234931032
 20
-44.7086448568
 30
0.0
 10
14.1683329191
 20
-44.720858512
 30
0.0
 10
13.8101703023
 20
-44.7982960183
 30
0.0
 10
13.4589009982
 20
-44.9385155535
 30
0.0
 10
13.123882416
 20
-45.1374297872
 30
0.0
 10
12.8140587114
 20
-45.3894994916
 30
0.0
 10
12.5376875713
 20
-45.6878306812
 30
0.0
 10
12.3021597223
 20
-46.0243371899
 30
0.0
 10
12.1137980369
 20
-46.3899367321
 30
0.0
 10
11.9776912917
 20
-46.7747857631
 30
0.0
 10
11.8975616844
 20
-47.1685364012
 30
0.0
 10
11.8756822585
 20
-47.560609095
 30
0.0
 10
11.9128165876
 20
-47.9404351548
 30
0.0
 10
12.0082627152
 20
-48.2977538011
 30
0.0
 10
12.1596416198
 20
-48.6225969825
 30
0.0
 10
12.2971751859
 20
-48.81390003
 30
0.0
 10
12.3734099433
 20
-48.9003484042
 30
0.0
  0
SPLINE
  5
40B
100
AcDbEntity
  8
0
100
AcDbSpline
 62
250
  6
CONTINUOUS
 70
0
 71
3
 72
23
 73
19
 74
0
 42
0.0000001
 43
0.0000001
 44
0.0000000001
 40
0.0
 40
0.0
 40
0.0
 40
0.0
 40
0.056248573
 40
0.1140257619
 40
0.1737030849
 40
0.2354210551
 40
0.2990949916
 40
0.3644435204
 40
0.4310297946
 40
0.4983088508
 40
0.5656775208
 40
0.6325252227
 40
0.6982848414
 40
0.7624830124
 40
0.8247884863
 40
0.8850556611
 40
0.9433576746
 40
1.0
 40
1.0
 40
1.0
 40
1.0
 10
13.2072515037
 20
-49.415148159
 30
0.0
 10
13.3179683293
 20
-49.4441788742
 30
0.0
 10
13.5489026717
 20
-49.4805145344
 30
0.0
 10
13.9040628558
 20
-49.4683008792
 30
0.0
 10
14.2622254726
 20
-49.390863373
 30
0.0
 10
14.6134947767
 20
-49.2506438378
 30
0.0
 10
14.948513359
 20
-49.0517296041
 30
0.0
 10
15.2583370635
 20
-48.7996598997
 30
0.0
 10
15.5347082037
 20
-48.5013287101
 30
0.0
 10
15.7702360526
 20
-48.1648222014
 30
0.0
 10
15.958597738
 20
-47.7992226592
 30
0.0
 10
16.0947044832
 20
-47.4143736281
 30
0.0
 10
16.1748340906
 20
-47.02062299
 30
0.0
 10
16.1967135164
 20
-46.6285502963
 30
0.0
 10
16.1595791874
 20
-46.2487242365
 30
0.0
 10
16.0641330598
 20
-45.8914055901
 30
0.0
 10
15.9127541552
 20
-45.5665624088
 30
0.0
 10
15.7752205891
 20
-45.3752593613
 30
0.0
 10
15.6989858317
 20
-45.2888109871
 30
0.0
  0
SPLINE
  5
40C
100
AcDbEntity
  8
0
100
AcDbSpline
 62
250
  6
CONTINUOUS
 70
0
 71
3
 72
13
 73
9
 74
0
 42
0.0000001
 43
0.0000001
 44
0.0000000001
 40
0.0
 40
0.0
 40
0.0
 40
0.0
 40
0.2674874519
 40
0.5262535805
 40
0.6505676489
 40
0.7707699874
 40
0.8870274355
 40
1.0
 40
1.0
 40
1.0
 40
1.0
 10
15.9361178785
 20
-48.2641581742
 30
0.0
 10
16.0855807123
 20
-48.0166462145
 30
0.0
 10
16.3151053107
 20
-47.4873538151
 30
0.0
 10
16.4076253723
 20
-46.7793513549
 30
0.0
 10
16.3509328787
 20
-46.2361762317
 30
0.0
 10
16.2465638848
 20
-45.8583712345
 30
0.0
 10
16.0824698408
 20
-45.5159414861
 30
0.0
 10
15.9340666988
 20
-45.3151931191
 30
0.0
 10
15.8519810801
 20
-45.2247801116
 30
0.0
  0
SPLINE
  5
40D
100
AcDbEntity
  8
0
100
AcDbSpline
 62
250
  6
CONTINUOUS
 70
0
 71
3
 72
13
 73
9
 74
0
 42
0.0000001
 43
0.0000001
 44
0.0000000001
 40
0.0
 40
0.0
 40
0.0
 40
0.0
 40
0.112972512
 40
0.2289783665
 40
0.3488159524
 40
0.4727914792
 40
0.7314095564
 40
1.0
 40
1.0
 40
1.0
 40
1.0
 10
13.2238098212
 20
-49.577058217
 30
0.0
 10
13.3406727129
 20
-49.6095334573
 30
0.0
 10
13.5848581673
 20
-49.6513307733
 30
0.0
 10
13.9613176122
 20
-49.6425275953
 30
0.0
 10
14.34159842
 20
-49.5637551029
 30
0.0
 10
14.8459383409
 20
-49.3663251567
 30
0.0
 10
15.4274199153
 20
-48.9585337778
 30
0.0
 10
15.787053438
 20
-48.5110103908
 30
0.0
 10
15.9361178785
 20
-48.2641581742
 30
0.0
  0
SPLINE
  5
40E
100
AcDbEntity
  8
0
100
AcDbSpline
 62
7
  6
CONTINUOUS
 70
0
 71
3
 72
9
 73
5
 74
0
 42
0.0000001
 43
0.0000001
 44
0.0000000001
 40
0.0
 40
0.0
 40
0.0
 40
0.0
 40
0.2503152013
 40
1.0
 40
1.0
 40
1.0
 40
1.0
 10
13.7150068132
 20
-47.5537833016
 30
0.0
 10
13.7065845834
 20
-47.6047798235
 30
0.0
 10
13.6738086632
 20
-47.808653129
 30
0.0
 10
13.6435416303
 20
-48.0129195388
 30
0.0
 10
13.6213033803
 20
-48.1661154998
 30
0.0
  0
LINE
  5
40F
100
AcDbEntity
  8
0
100
AcDbLine
 62
7
  6
CONTINUOUS
 10
13.7150068132
 20
-47.5537833016
 11
14.1332565309
 21
-47.7360558176
  0
LINE
  5
410
100
AcDbEntity
  8
0
100
AcDbLine
 62
7
  6
CONTINUOUS
 10
13.043847911
 20
-47.2612352073
 11
13.4940065261
 21
-47.4574603188
  0
SPLINE
  5
411
100
AcDbEntity
  8
0
100
AcDbSpline
 62
7
  6
CONTINUOUS
 70
0
 71
3
 72
12
 73
8
 74
0
 42
0.0000001
 43
0.0000001
 44
0.0000000001
 40
0.0
 40
0.0
 40
0.0
 40
0.0
 40
0.124642868
 40
0.2501230215
 40
0.5024506071
 40
0.7543477826
 40
1.0
 40
1.0
 40
1.0
 40
1.0
 10
17.2024128463
 20
-47.8526195097
 30
0.0
 10
17.2360379901
 20
-47.8939822533
 30
0.0
 10
17.2977875706
 20
-47.9818390406
 30
0.0
 10
17.3966602019
 20
-48.1732039322
 30
0.0
 10
17.4719417424
 20
-48.4351407525
 30
0.0
 10
17.4833434059
 20
-48.7584370228
 30
0.0
 10
17.4411539643
 20
-48.9693324088
 30
0.0
 10
17.4084567766
 20
-49.0691726696
 30
0.0
  0
SPLINE
  5
412
100
AcDbEntity
  8
0
100
AcDbSpline
 62
7
  6
CONTINUOUS
 70
0
 71
3
 72
14
 73
10
 74
0
 42
0.0000001
 43
0.0000001
 44
0.0000000001
 40
0.0
 40
0.0
 40
0.0
 40
0.0
 40
0.3093799849
 40
0.4507654735
 40
0.5810365515
 40
0.6996680281
 40
0.807318167
 40
0.9061560514
 40
1.0
 40
1.0
 40
1.0
 40
1.0
 10
17.4084567766
 20
-49.0691726696
 30
0.0
 10
17.3694685952
 20
-49.1882223642
 30
0.0
 10
17.2871508475
 20
-49.3555619529
 30
0.0
 10
17.1336736603
 20
-49.5350538469
 30
0.0
 10
17.0104426501
 20
-49.6355710677
 30
0.0
 10
16.8814177029
 20
-49.7028461996
 30
0.0
 10
16.7522221159
 20
-49.7349201057
 30
0.0
 10
16.6289452605
 20
-49.7305728916
 30
0.0
 10
16.5542439053
 20
-49.7028498868
 30
0.0
 10
16.5213369666
 20
-49.6838494953
 30
0.0
  0
SPLINE
  5
413
100
AcDbEntity
  8
0
100
AcDbSpline
 62
7
  6
CONTINUOUS
 70
0
 71
3
 72
9
 73
5
 74
0
 42
0.0000001
 43
0.0000001
 44
0.0000000001
 40
0.0
 40
0.0
 40
0.0
 40
0.0
 40
0.2552283238
 40
1.0
 40
1.0
 40
1.0
 40
1.0
 10
16.5647486513
 20
-49.1626039961
 30
0.0
 10
16.5583489889
 20
-49.1694020519
 30
0.0
 10
16.5328877273
 20
-49.1956690586
 30
0.0
 10
16.5058730868
 20
-49.220439789
 30
0.0
 10
16.4849202989
 20
-49.2378533886
 30
0.0
  0
SPLINE
  5
414
100
AcDbEntity
  8
TRASH
100
AcDbSpline
 62
7
  6
CONTINUOUS
 70
0
 71
3
 72
9
 73
5
 74
0
 42
0.0000001
 43
0.0000001
 44
0.0000000001
 40
0.0
 40
0.0
 40
0.0
 40
0.0
 40
0.506712436
 40
1.0
 40
1.0
 40
1.0
 40
1.0
 10
13.9971616484
 20
-46.7650895028
 30
0.0
 10
14.1106052597
 20
-46.7810937589
 30
0.0
 10
14.3346398403
 20
-46.8115459785
 30
0.0
 10
14.5593809665
 20
-46.8369324531
 30
0.0
 10
14.6705145173
 20
-46.8463471198
 30
0.0
  0
SPLINE
  5
415
100
AcDbEntity
  8
0
100
AcDbSpline
 62
7
  6
CONTINUOUS
 70
0
 71
3
 72
9
 73
5
 74
0
 42
0.0000001
 43
0.0000001
 44
0.0000000001
 40
0.0
 40
0.0
 40
0.0
 40
0.0
 40
0.2497259292
 40
1.0
 40
1.0
 40
1.0
 40
1.0
 10
14.8024576068
 20
-46.2101122667
 30
0.0
 10
14.7609436753
 20
-46.2400922335
 30
0.0
 10
14.5948523848
 20
-46.360344196
 30
0.0
 10
14.4294898388
 20
-46.4816226303
 30
0.0
 10
14.3065725394
 20
-46.5741445209
 30
0.0
  0
LINE
  5
416
100
AcDbEntity
  8
0
100
AcDbLine
 62
7
  6
CONTINUOUS
 10
14.6705194185
 20
-46.8463430583
 11
14.3065725394
 21
-46.5741445209
  0
LINE
  5
417
100
AcDbEntity
  8
0
100
AcDbLine
 62
7
  6
CONTINUOUS
 10
14.1142546492
 20
-46.4303223968
 11
13.7224992033
 21
-46.137382047
  0
LINE
  5
418
100
AcDbEntity
  8
0
100
AcDbLine
 62
7
  6
CONTINUOUS
 10
14.280242769
 20
-46.5739156415
 11
14.1142546492
 21
-46.4303223968
  0
LINE
  5
419
100
AcDbEntity
  8
0
100
AcDbLine
 62
7
  6
CONTINUOUS
 10
13.9554080413
 20
-46.7526737728
 11
13.2182813197
 21
-46.1635285041
  0
LINE
  5
41A
100
AcDbEntity
  8
0
100
AcDbLine
 62
7
  6
CONTINUOUS
 10
12.7673266577
 20
-46.0471505197
 11
13.9554258957
 21
-46.75263239
  0
SPLINE
  5
41B
100
AcDbEntity
  8
0
100
AcDbSpline
 62
7
  6
CONTINUOUS
 70
0
 71
3
 72
9
 73
5
 74
0
 42
0.0000001
 43
0.0000001
 44
0.0000000001
 40
0.0
 40
0.0
 40
0.0
 40
0.0
 40
0.2502620434
 40
1.0
 40
1.0
 40
1.0
 40
1.0
 10
13.7194351869
 20
-47.1434031356
 30
0.0
 10
13.6203890917
 20
-47.0844404926
 30
0.0
 10
13.2245336311
 20
-46.8489812016
 30
0.0
 10
12.82849279
 20
-46.6138337796
 30
0.0
 10
12.5315343359
 20
-46.4375881648
 30
0.0
  0
SPLINE
  5
41C
100
AcDbEntity
  8
0
100
AcDbSpline
 62
7
  6
CONTINUOUS
 70
0
 71
3
 72
9
 73
5
 74
0
 42
0.0000001
 43
0.0000001
 44
0.0000000001
 40
0.0
 40
0.0
 40
0.0
 40
0.0
 40
0.5001672605
 40
1.0
 40
1.0
 40
1.0
 40
1.0
 10
12.8374758538
 20
-46.7944389405
 30
0.0
 10
12.9845168013
 20
-46.8526483176
 30
0.0
 10
13.2784333032
 20
-46.9691977014
 30
0.0
 10
13.5726177628
 20
-47.0850694455
 30
0.0
 10
13.7195603665
 20
-47.1432398911
 30
0.0
  0
LINE
  5
41D
100
AcDbEntity
  8
0
100
AcDbLine
 62
7
  6
CONTINUOUS
 10
13.4940065261
 20
-47.4574603188
 11
13.7027762629
 21
-47.5302059983
  0
SPLINE
  5
41E
100
AcDbEntity
  8
TRASH
100
AcDbSpline
 62
7
  6
CONTINUOUS
 70
0
 71
3
 72
9
 73
5
 74
0
 42
0.0000001
 43
0.0000001
 44
0.0000000001
 40
0.0
 40
0.0
 40
0.0
 40
0.0
 40
0.4936438145
 40
1.0
 40
1.0
 40
1.0
 40
1.0
 10
14.1332565314
 20
-47.7360558175
 30
0.0
 10
14.0739006395
 20
-47.6411534035
 30
0.0
 10
13.9477695259
 20
-47.4526120941
 30
0.0
 10
13.8170073516
 20
-47.2673646973
 30
0.0
 10
13.7502728973
 20
-47.1739316261
 30
0.0
  0
SPLINE
  5
41F
100
AcDbEntity
  8
0
100
AcDbSpline
 62
7
  6
CONTINUOUS
 70
0
 71
3
 72
23
 73
19
 74
0
 42
0.0000001
 43
0.0000001
 44
0.0000000001
 40
0.0
 40
0.0
 40
0.0
 40
0.0
 40
0.0573404565
 40
0.1158718228
 40
0.1759368609
 40
0.2376977307
 40
0.3011264226
 40
0.3660115994
 40
0.4319890241
 40
0.4985832389
 40
0.5652575039
 40
0.6314673375
 40
0.696714029
 40
0.7605961159
 40
0.8228541725
 40
0.8834044997
 40
0.9423545568
 40
1.0
 40
1.0
 40
1.0
 40
1.0
 10
56.7617166446
 20
27.6052682701
 30
0.0
 10
56.6421338543
 20
27.6384806585
 30
0.0
 10
56.3931021137
 20
27.6813726463
 30
0.0
 10
56.0103000399
 20
27.6733414532
 30
0.0
 10
55.6258288791
 20
27.5949358006
 30
0.0
 10
55.2503413731
 20
27.4492856418
 30
0.0
 10
54.8935980067
 20
27.2411486809
 30
0.0
 10
54.5647738816
 20
26.9766204749
 30
0.0
 10
54.2723023586
 20
26.6630627225
 30
0.0
 10
54.0237545751
 20
26.3089734384
 30
0.0
 10
53.8256551994
 20
25.9238209241
 30
0.0
 10
53.6833188378
 20
25.5178198893
 30
0.0
 10
53.600723182
 20
25.1016801861
 30
0.0
 10
53.5804424194
 20
24.6863546777
 30
0.0
 10
53.6235938901
 20
24.2828538721
 30
0.0
 10
53.7298628117
 20
23.9020474834
 30
0.0
 10
53.8971558382
 20
23.5548051796
 30
0.0
 10
54.0484558875
 20
23.3504989962
 30
0.0
 10
54.1323079386
 20
23.2581072751
 30
0.0
  0
SPLINE
  5
420
100
AcDbEntity
  8
0
100
AcDbSpline
 62
7
  6
CONTINUOUS
 70
0
 71
3
 72
13
 73
9
 74
0
 42
0.0000001
 43
0.0000001
 44
0.0000000001
 40
0.0
 40
0.0
 40
0.0
 40
0.0
 40
0.2695221156
 40
0.5268720043
 40
0.6501920859
 40
0.7697603054
 40
0.886075448
 40
1.0
 40
1.0
 40
1.0
 40
1.0
 10
58.3057378678
 20
23.1595237986
 30
0.0
 10
58.1322975461
 20
22.9453042139
 30
0.0
 10
57.7392385594
 20
22.5668203352
 30
0.0
 10
57.1459085083
 20
22.2455891174
 30
0.0
 10
56.6505152003
 20
22.1104859308
 30
0.0
 10
56.2834137066
 20
22.0720252886
 30
0.0
 10
55.9247378649
 20
22.0963240013
 30
0.0
 10
55.6950026897
 20
22.1547196525
 30
0.0
 10
55.5852819292
 20
22.193898921
 30
0.0
  0
SPLINE
  5
421
100
AcDbEntity
  8
0
100
AcDbSpline
 62
7
  6
CONTINUOUS
 70
0
 71
3
 72
13
 73
9
 74
0
 42
0.0000001
 43
0.0000001
 44
0.0000000001
 40
0.0
 40
0.0
 40
0.0
 40
0.0
 40
0.2688460589
 40
0.5264931445
 40
0.6501018717
 40
0.7699094282
 40
0.8862923606
 40
1.0
 40
1.0
 40
1.0
 40
1.0
 10
58.7794605156
 20
23.9440132801
 30
0.0
 10
58.8889337701
 20
24.1984708825
 30
0.0
 10
59.042262846
 20
24.7258819671
 30
0.0
 10
59.0535274779
 20
25.4051222471
 30
0.0
 10
58.9461467807
 20
25.9119955679
 30
0.0
 10
58.8123615739
 20
26.2595763267
 30
0.0
 10
58.6272693404
 20
26.5709539326
 30
0.0
 10
58.470817413
 20
26.7511472771
 30
0.0
 10
58.3860886412
 20
26.8320630773
 30
0.0
  0
SPLINE
  5
422
100
AcDbEntity
  8
0
100
AcDbSpline
 62
7
  6
CONTINUOUS
 70
0
 71
3
 72
15
 73
11
 74
0
 42
0.0000001
 43
0.0000001
 44
0.0000000001
 40
0.0
 40
0.0
 40
0.0
 40
0.0
 40
0.1058219772
 40
0.2267694613
 40
0.3590710781
 40
0.497569291
 40
0.6364665587
 40
0.769889428
 40
0.8924551313
 40
1.0
 40
1.0
 40
1.0
 40
1.0
 10
58.7794605156
 20
23.9440132801
 30
0.0
 10
58.7950176661
 20
23.9108684704
 30
0.0
 10
58.8153648018
 20
23.8336217339
 30
0.0
 10
58.8150369714
 20
23.7083471848
 30
0.0
 10
58.78428773
 20
23.575197363
 30
0.0
 10
58.7235355071
 20
23.4459698176
 30
0.0
 10
58.6371885955
 20
23.3317627889
 30
0.0
 10
58.5330569277
 20
23.2416460686
 30
0.0
 10
58.4214410009
 20
23.1815325323
 30
0.0
 10
58.3428610044
 20
23.1620702171
 30
0.0
 10
58.3057378678
 20
23.1595237986
 30
0.0
  0
SPLINE
  5
423
100
AcDbEntity
  8
0
100
AcDbSpline
 62
7
  6
CONTINUOUS
 70
0
 71
3
 72
17
 73
13
 74
0
 42
0.0000001
 43
0.0000001
 44
0.0000000001
 40
0.0
 40
0.0
 40
0.0
 40
0.0
 40
0.1461664425
 40
0.2912428988
 40
0.4324976881
 40
0.5669519163
 40
0.6918860369
 40
0.8054309376
 40
0.8578867691
 40
0.907553857
 40
0.954757402
 40
1.0
 40
1.0
 40
1.0
 40
1.0
 10
58.8895301502
 20
24.2365639916
 30
0.0
 10
58.9067809099
 20
24.1332125916
 30
0.0
 10
58.9196323193
 20
23.9231064502
 30
0.0
 10
58.8768387455
 20
23.6141357999
 30
0.0
 10
58.7780600575
 20
23.3270822359
 30
0.0
 10
58.6322320217
 20
23.0773549186
 30
0.0
 10
58.4510931605
 20
22.877963775
 30
0.0
 10
58.2767593008
 20
22.7589242044
 30
0.0
 10
58.1331618598
 20
22.7003118833
 30
0.0
 10
58.0286374565
 20
22.6751551866
 30
0.0
 10
57.9265412655
 20
22.667931204
 30
0.0
 10
57.8602125737
 20
22.6752072373
 30
0.0
 10
57.8284704598
 20
22.6818644807
 30
0.0
  0
SPLINE
  5
424
100
AcDbEntity
  8
0
100
AcDbSpline
 62
7
  6
CONTINUOUS
 70
0
 71
3
 72
14
 73
10
 74
0
 42
0.0000001
 43
0.0000001
 44
0.0000000001
 40
0.0
 40
0.0
 40
0.0
 40
0.0
 40
0.4131623625
 40
0.722518707
 40
0.8347561626
 40
0.9176584793
 40
0.9481302784
 40
0.9715270761
 40
1.0
 40
1.0
 40
1.0
 40
1.0
 10
55.4313504935
 20
22.2480625096
 30
0.0
 10
55.4509276858
 20
22.236762668
 30
0.0
 10
55.485611761
 20
22.2177657994
 30
0.0
 10
55.5270038929
 20
22.1983299479
 30
0.0
 10
55.5529817053
 20
22.188888833
 30
0.0
 10
55.5648580203
 20
22.1855794924
 30
0.0
 10
55.5723526654
 20
22.1845173355
 30
0.0
 10
55.5767026706
 20
22.1843891605
 30
0.0
 10
55.5799936578
 20
22.1851841173
 30
0.0
 10
55.5807963812
 20
22.1865191322
 30
0.0
  0
SPLINE
  5
425
100
AcDbEntity
  8
0
100
AcDbSpline
 62
7
  6
CONTINUOUS
 70
0
 71
3
 72
9
 73
5
 74
0
 42
0.0000001
 43
0.0000001
 44
0.0000000001
 40
0.0
 40
0.0
 40
0.0
 40
0.0
 40
0.1979451195
 40
1.0
 40
1.0
 40
1.0
 40
1.0
 10
58.3920949296
 20
26.8420578754
 30
0.0
 10
58.3924261663
 20
26.8426047166
 30
0.0
 10
58.3935328688
 20
26.8457255964
 30
0.0
 10
58.3923930509
 20
26.8491156877
 30
0.0
 10
58.3913637404
 20
26.8514929553
 30
0.0
  0
SPLINE
  5
426
100
AcDbEntity
  8
0
100
AcDbSpline
 62
7
  6
CONTINUOUS
 70
0
 71
3
 72
14
 73
10
 74
0
 42
0.0000001
 43
0.0000001
 44
0.0000000001
 40
0.0
 40
0.0
 40
0.0
 40
0.0
 40
0.0508190973
 40
0.1244003992
 40
0.2207143551
 40
0.3389479892
 40
0.4778436654
 40
0.6357093144
 40
1.0
 40
1.0
 40
1.0
 40
1.0
 10
58.3913637404
 20
26.8514929553
 30
0.0
 10
58.3895725382
 20
26.8556298676
 30
0.0
 10
58.3832473239
 20
26.8648363682
 30
0.0
 10
58.3700961373
 20
26.8793272463
 30
0.0
 10
58.3512666215
 20
26.8966720253
 30
0.0
 10
58.3269365221
 20
26.916459677
 30
0.0
 10
58.2972751674
 20
26.9382876448
 30
0.0
 10
58.248719103
 20
26.9711835576
 30
0.0
 10
58.2090721182
 20
26.9952002766
 30
0.0
 10
58.1810844663
 20
27.0113549823
 30
0.0
  0
SPLINE
  5
427
100
AcDbEntity
  8
0
100
AcDbSpline
 62
7
  6
CONTINUOUS
 70
0
 71
3
 72
9
 73
5
 74
0
 42
0.0000001
 43
0.0000001
 44
0.0000000001
 40
0.0
 40
0.0
 40
0.0
 40
0.0
 40
0.2535566355
 40
1.0
 40
1.0
 40
1.0
 40
1.0
 10
55.6121922153
 20
24.4150251674
 30
0.0
 10
55.5477621065
 20
24.2910393709
 30
0.0
 10
55.3023079506
 20
23.7976258097
 30
0.0
 10
55.0916724289
 20
23.2867316649
 30
0.0
 10
54.9572515037
 20
22.897972982
 30
0.0
  0
SPLINE
  5
428
100
AcDbEntity
  8
0
100
AcDbSpline
 62
7
  6
CONTINUOUS
 70
0
 71
3
 72
9
 73
5
 74
0
 42
0.0000001
 43
0.0000001
 44
0.0000000001
 40
0.0
 40
0.0
 40
0.0
 40
0.0
 40
0.5054931214
 40
1.0
 40
1.0
 40
1.0
 40
1.0
 10
56.2433750066
 20
24.4821981962
 30
0.0
 10
56.152863268
 20
24.4833056176
 30
0.0
 10
55.9738033456
 20
24.4851528367
 30
0.0
 10
55.794743803
 20
24.4871715196
 30
0.0
 10
55.706204324
 20
24.4886128321
 30
0.0
  0
LINE
  5
429
100
AcDbEntity
  8
0
100
AcDbLine
 62
7
  6
CONTINUOUS
 10
56.2433750066
 20
24.4821981962
 11
56.2630507934
 21
24.4843780781
  0
LINE
  5
42A
100
AcDbEntity
  8
0
100
AcDbLine
 62
7
  6
CONTINUOUS
 10
56.8522348327
 20
24.2882036087
 11
56.2630507934
 21
24.4843780781
  0
LINE
  5
42B
100
AcDbEntity
  8
0
100
AcDbLine
 62
7
  6
CONTINUOUS
 10
56.636797765
 20
25.1337100911
 11
56.6438279111
 21
25.1153048776
  0
SPLINE
  5
42C
100
AcDbEntity
  8
0
100
AcDbSpline
 62
7
  6
CONTINUOUS
 70
0
 71
3
 72
9
 73
5
 74
0
 42
0.0000001
 43
0.0000001
 44
0.0000000001
 40
0.0
 40
0.0
 40
0.0
 40
0.0
 40
0.4946978773
 40
1.0
 40
1.0
 40
1.0
 40
1.0
 10
56.3848556655
 20
25.612465964
 30
0.0
 10
56.4266349882
 20
25.5336431741
 30
0.0
 10
56.5104083122
 20
25.3739481443
 30
0.0
 10
56.5942367411
 20
25.2142827645
 30
0.0
 10
56.636797765
 20
25.1337100911
 30
0.0
  0
SPLINE
  5
42D
100
AcDbEntity
  8
0
100
AcDbSpline
 62
7
  6
CONTINUOUS
 70
0
 71
3
 72
9
 73
5
 74
0
 42
0.0000001
 43
0.0000001
 44
0.0000000001
 40
0.0
 40
0.0
 40
0.0
 40
0.0
 40
0.2465347701
 40
1.0
 40
1.0
 40
1.0
 40
1.0
 10
57.4489858317
 20
27.0243101539
 30
0.0
 10
57.3557006785
 20
26.9245563238
 30
0.0
 10
56.9850205523
 20
26.5127778391
 30
0.0
 10
56.6448789886
 20
26.073647946
 30
0.0
 10
56.406754862
 20
25.7308291516
 30
0.0
  0
SPLINE
  5
42E
100
AcDbEntity
  8
0
100
AcDbSpline
 62
7
  6
CONTINUOUS
 70
0
 71
3
 72
11
 73
7
 74
0
 42
0.0000001
 43
0.0000001
 44
0.0000000001
 40
0.0
 40
0.0
 40
0.0
 40
0.0
 40
0.1983072619
 40
0.4295750346
 40
0.6990386961
 40
1.0
 40
1.0
 40
1.0
 40
1.0
 10
57.6019810801
 20
27.0883410293
 30
0.0
 10
57.5912356265
 20
27.0925037257
 30
0.0
 10
57.565425896
 20
27.0952435121
 30
0.0
 10
57.5258114039
 20
27.0837727684
 30
0.0
 10
57.4855639366
 20
27.0595718436
 30
0.0
 10
57.4609311613
 20
27.0370838091
 30
0.0
 10
57.4489858317
 20
27.0243101539
 30
0.0
  0
SPLINE
  5
42F
100
AcDbEntity
  8
0
100
AcDbSpline
 62
7
  6
CONTINUOUS
 70
0
 71
3
 72
11
 73
7
 74
0
 42
0.0000001
 43
0.0000001
 44
0.0000000001
 40
0.0
 40
0.0
 40
0.0
 40
0.0
 40
0.3021973104
 40
0.5712403714
 40
0.8014545149
 40
1.0
 40
1.0
 40
1.0
 40
1.0
 10
54.9572515037
 20
22.897972982
 30
0.0
 10
54.9515992474
 20
22.8816260948
 30
0.0
 10
54.9433632577
 20
22.8497646883
 30
0.0
 10
54.9410966734
 20
22.8035562146
 30
0.0
 10
54.9499910478
 20
22.7639250924
 30
0.0
 10
54.9649623439
 20
22.7431945741
 30
0.0
 10
54.9738098212
 20
22.736062924
 30
0.0
  0
LINE
  5
430
100
AcDbEntity
  8
0
100
AcDbLine
 62
7
  6
CONTINUOUS
 10
57.9161347803
 20
26.9666118996
 11
57.6019810801
 21
27.0883410293
  0
LINE
  5
431
100
AcDbEntity
  8
0
100
AcDbLine
 62
7
  6
CONTINUOUS
 10
54.9738098212
 20
22.736062924
 11
55.2345675635
 21
22.5259095496
  0
LINE
  5
432
100
AcDbEntity
  8
0
100
AcDbLine
 62
7
  6
CONTINUOUS
 10
56.7681395197
 20
27.6031407841
 11
57.0822932199
 21
27.4814116543
  0
LINE
  5
433
100
AcDbEntity
  8
0
100
AcDbLine
 62
7
  6
CONTINUOUS
 10
54.4007260031
 20
23.0407093044
 11
54.1399682608
 21
23.2508626787
  0
SPLINE
  5
434
100
AcDbEntity
  8
0
100
AcDbSpline
 62
7
  6
CONTINUOUS
 70
0
 71
3
 72
11
 73
7
 74
0
 42
0.0000001
 43
0.0000001
 44
0.0000000001
 40
0.0
 40
0.0
 40
0.0
 40
0.0
 40
0.2015719519
 40
0.4347253686
 40
0.7027546548
 40
1.0
 40
1.0
 40
1.0
 40
1.0
 10
54.1323029641
 20
23.2581074197
 30
0.0
 10
54.1250195874
 20
23.2661369366
 30
0.0
 10
54.113400875
 20
23.2872538665
 30
0.0
 10
54.1071745706
 20
23.3249907689
 30
0.0
 10
54.1103655867
 20
23.3681164948
 30
0.0
 10
54.11818591
 20
23.3976643132
 30
0.0
 10
54.1234099433
 20
23.4127727367
 30
0.0
  0
SPLINE
  5
435
100
AcDbEntity
  8
0
100
AcDbSpline
 62
7
  6
CONTINUOUS
 70
0
 71
3
 72
15
 73
11
 74
0
 42
0.0000001
 43
0.0000001
 44
0.0000000001
 40
0.0
 40
0.0
 40
0.0
 40
0.0
 40
0.1453877307
 40
0.2890883824
 40
0.4288004734
 40
0.5621152609
 40
0.6868569076
 40
0.8014730195
 40
0.9054880448
 40
1.0
 40
1.0
 40
1.0
 40
1.0
 10
58.8553604512
 20
24.1371076368
 30
0.0
 10
58.8629447425
 20
24.0430411532
 30
0.0
 10
58.8607834129
 20
23.8541911409
 30
0.0
 10
58.8083078005
 20
23.5794632993
 30
0.0
 10
58.7115829552
 20
23.3253273982
 30
0.0
 10
58.5775778666
 20
23.1029472819
 30
0.0
 10
58.4149573377
 20
22.921745229
 30
0.0
 10
58.2333911913
 20
22.7892604002
 30
0.0
 10
58.0435291442
 20
22.7109084256
 30
0.0
 10
57.9129871422
 20
22.6968873074
 30
0.0
 10
57.8517648339
 20
22.7008135378
 30
0.0
  0
SPLINE
  5
436
100
AcDbEntity
  8
0
100
AcDbSpline
 62
7
  6
CONTINUOUS
 70
0
 71
3
 72
10
 73
6
 74
0
 42
0.0000001
 43
0.0000001
 44
0.0000000001
 40
0.0
 40
0.0
 40
0.0
 40
0.0
 40
0.3440078085
 40
0.6273316478
 40
1.0
 40
1.0
 40
1.0
 40
1.0
 10
55.5807963812
 20
22.1865191322
 30
0.0
 10
55.5815480511
 20
22.1877692396
 30
0.0
 10
55.5806525805
 20
22.1908811755
 30
0.0
 10
55.57829232
 20
22.1942201098
 30
0.0
 10
55.5764268083
 20
22.1963467684
 30
0.0
 10
55.5753301131
 20
22.1974844637
 30
0.0
  0
SPLINE
  5
437
100
AcDbEntity
  8
0
100
AcDbSpline
 62
7
  6
CONTINUOUS
 70
0
 71
3
 72
9
 73
5
 74
0
 42
0.0000001
 43
0.0000001
 44
0.0000000001
 40
0.0
 40
0.0
 40
0.0
 40
0.0
 40
0.4985480076
 40
1.0
 40
1.0
 40
1.0
 40
1.0
 10
57.2463623433
 20
27.4262924642
 30
0.0
 10
57.3729559662
 20
27.3768986269
 30
0.0
 10
57.6164011029
 20
27.2483358782
 30
0.0
 10
57.8237259119
 20
27.0673196212
 30
0.0
 10
57.9161347803
 20
26.9666118996
 30
0.0
  0
SPLINE
  5
438
100
AcDbEntity
  8
0
100
AcDbSpline
 62
7
  6
CONTINUOUS
 70
0
 71
3
 72
9
 73
5
 74
0
 42
0.0000001
 43
0.0000001
 44
0.0000000001
 40
0.0
 40
0.0
 40
0.0
 40
0.0
 40
0.2410749222
 40
1.0
 40
1.0
 40
1.0
 40
1.0
 10
54.2815343359
 20
25.8755329762
 30
0.0
 10
54.3055078344
 20
25.84634204
 30
0.0
 10
54.4056344793
 20
25.7258165423
 30
0.0
 10
54.5083537107
 20
25.6074533592
 30
0.0
 10
54.5874758538
 20
25.5186822004
 30
0.0
  0
LINE
  5
439
100
AcDbEntity
  8
0
100
AcDbLine
 62
7
  6
CONTINUOUS
 10
54.5874758538
 20
25.5186822004
 11
54.592143819
 21
25.501640617
  0
SPLINE
  5
43A
100
AcDbEntity
  8
0
100
AcDbSpline
 62
7
  6
CONTINUOUS
 70
0
 71
3
 72
9
 73
5
 74
0
 42
0.0000001
 43
0.0000001
 44
0.0000000001
 40
0.0
 40
0.0
 40
0.0
 40
0.0
 40
0.2544247872
 40
1.0
 40
1.0
 40
1.0
 40
1.0
 10
54.793847911
 20
25.0518859337
 30
0.0
 10
54.7754233714
 20
25.0894148481
 30
0.0
 10
54.704464936
 20
25.237633906
 30
0.0
 10
54.6386848496
 20
25.3883101878
 30
0.0
 10
54.592143819
 20
25.501640617
 30
0.0
  0
SPLINE
  5
43B
100
AcDbEntity
  8
0
100
AcDbSpline
 62
7
  6
CONTINUOUS
 70
0
 71
3
 72
9
 73
5
 74
0
 42
0.0000001
 43
0.0000001
 44
0.0000000001
 40
0.0
 40
0.0
 40
0.0
 40
0.0
 40
0.2460238333
 40
1.0
 40
1.0
 40
1.0
 40
1.0
 10
54.1234099433
 20
23.4127727367
 30
0.0
 10
54.1677148734
 20
23.5409070005
 30
0.0
 10
54.3578391393
 20
24.0582175718
 30
0.0
 10
54.5867598987
 20
24.5611382335
 30
0.0
 10
54.7783515096
 20
24.929826567
 30
0.0
  0
SPLINE
  5
43C
100
AcDbEntity
  8
0
100
AcDbSpline
 62
7
  6
CONTINUOUS
 70
0
 71
3
 72
9
 73
5
 74
0
 42
0.0000001
 43
0.0000001
 44
0.0000000001
 40
0.0
 40
0.0
 40
0.0
 40
0.0
 40
0.2530352311
 40
1.0
 40
1.0
 40
1.0
 40
1.0
 10
55.5729143617
 20
26.2456304325
 30
0.0
 10
55.6528825207
 20
26.3607576948
 30
0.0
 10
55.9768734903
 20
26.8101461242
 30
0.0
 10
56.3325064405
 20
27.2368731091
 30
0.0
 10
56.6151442713
 20
27.5391099087
 30
0.0
  0
SPLINE
  5
43D
100
AcDbEntity
  8
0
100
AcDbSpline
 62
7
  6
CONTINUOUS
 70
0
 71
3
 72
9
 73
5
 74
0
 42
0.0000001
 43
0.0000001
 44
0.0000000001
 40
0.0
 40
0.0
 40
0.0
 40
0.0
 40
0.2451805553
 40
1.0
 40
1.0
 40
1.0
 40
1.0
 10
54.9855665643
 20
26.1531525194
 30
0.0
 10
55.0252892101
 20
26.1562332767
 30
0.0
 10
55.1873884539
 20
26.1676318385
 30
0.0
 10
55.3498501446
 20
26.1742215563
 30
0.0
 10
55.4724992033
 20
26.1757390939
 30
0.0
  0
LINE
  5
43E
100
AcDbEntity
  8
0
100
AcDbLine
 62
7
  6
CONTINUOUS
 10
54.9682813197
 20
26.1495926369
 11
54.9855665643
 21
26.1531525194
  0
SPLINE
  5
43F
100
AcDbEntity
  8
0
100
AcDbSpline
 62
7
  6
CONTINUOUS
 70
0
 71
3
 72
9
 73
5
 74
0
 42
0.0000001
 43
0.0000001
 44
0.0000000001
 40
0.0
 40
0.0
 40
0.0
 40
0.0
 40
0.3497726617
 40
1.0
 40
1.0
 40
1.0
 40
1.0
 10
58.3783876817
 20
26.8393760612
 30
0.0
 10
58.38003221
 20
26.8391080619
 30
0.0
 10
58.3845396051
 20
26.8385306772
 30
0.0
 10
58.3904901321
 20
26.8394085027
 30
0.0
 10
58.3920949296
 20
26.8420578754
 30
0.0
  0
SPLINE
  5
440
100
AcDbEntity
  8
0
100
AcDbSpline
 62
7
  6
CONTINUOUS
 70
0
 71
3
 72
11
 73
7
 74
0
 42
0.0000001
 43
0.0000001
 44
0.0000000001
 40
0.0
 40
0.0
 40
0.0
 40
0.0
 40
0.2977310926
 40
0.566434769
 40
0.7995493328
 40
1.0
 40
1.0
 40
1.0
 40
1.0
 10
56.6151442713
 20
27.5391099087
 30
0.0
 10
56.6265109622
 20
27.5512648007
 30
0.0
 10
56.6499444757
 20
27.5728150503
 30
0.0
 10
56.6881555588
 20
27.5966051229
 30
0.0
 10
56.7259079216
 20
27.6090010349
 30
0.0
 10
56.7509204999
 20
27.608264779
 30
0.0
 10
56.7617163225
 20
27.6052676159
 30
0.0
  0
SPLINE
  5
441
100
AcDbEntity
  8
0
100
AcDbSpline
 62
250
  6
CONTINUOUS
 70
0
 71
3
 72
23
 73
19
 74
0
 42
0.0000001
 43
0.0000001
 44
0.0000000001
 40
0.0
 40
0.0
 40
0.0
 40
0.0
 40
0.056248573
 40
0.1140257619
 40
0.1737030849
 40
0.2354210551
 40
0.2990949916
 40
0.3644435204
 40
0.4310297946
 40
0.4983088508
 40
0.5656775208
 40
0.6325252227
 40
0.6982848414
 40
0.7624830124
 40
0.8247884863
 40
0.8850556611
 40
0.9433576746
 40
1.0
 40
1.0
 40
1.0
 40
1.0
 10
56.6151442713
 20
27.5391099087
 30
0.0
 10
56.5044274456
 20
27.5681406239
 30
0.0
 10
56.2734931032
 20
27.6044762841
 30
0.0
 10
55.9183329191
 20
27.5922626289
 30
0.0
 10
55.5601703023
 20
27.5148251227
 30
0.0
 10
55.2089009982
 20
27.3746055875
 30
0.0
 10
54.873882416
 20
27.1756913538
 30
0.0
 10
54.5640587114
 20
26.9236216494
 30
0.0
 10
54.2876875713
 20
26.6252904598
 30
0.0
 10
54.0521597223
 20
26.2887839511
 30
0.0
 10
53.8637980369
 20
25.9231844089
 30
0.0
 10
53.7276912917
 20
25.5383353778
 30
0.0
 10
53.6475616844
 20
25.1445847397
 30
0.0
 10
53.6256822585
 20
24.752512046
 30
0.0
 10
53.6628165876
 20
24.3726859862
 30
0.0
 10
53.7582627152
 20
24.0153673398
 30
0.0
 10
53.9096416198
 20
23.6905241585
 30
0.0
 10
54.0471751859
 20
23.499221111
 30
0.0
 10
54.1234099433
 20
23.4127727367
 30
0.0
  0
SPLINE
  5
442
100
AcDbEntity
  8
0
100
AcDbSpline
 62
250
  6
CONTINUOUS
 70
0
 71
3
 72
23
 73
19
 74
0
 42
0.0000001
 43
0.0000001
 44
0.0000000001
 40
0.0
 40
0.0
 40
0.0
 40
0.0
 40
0.056248573
 40
0.1140257619
 40
0.1737030849
 40
0.2354210551
 40
0.2990949916
 40
0.3644435204
 40
0.4310297946
 40
0.4983088508
 40
0.5656775208
 40
0.6325252227
 40
0.6982848414
 40
0.7624830124
 40
0.8247884863
 40
0.8850556611
 40
0.9433576746
 40
1.0
 40
1.0
 40
1.0
 40
1.0
 10
54.9572515037
 20
22.897972982
 30
0.0
 10
55.0679683293
 20
22.8689422668
 30
0.0
 10
55.2989026717
 20
22.8326066065
 30
0.0
 10
55.6540628558
 20
22.8448202617
 30
0.0
 10
56.0122254726
 20
22.922257768
 30
0.0
 10
56.3634947767
 20
23.0624773032
 30
0.0
 10
56.698513359
 20
23.2613915369
 30
0.0
 10
57.0083370635
 20
23.5134612413
 30
0.0
 10
57.2847082037
 20
23.8117924308
 30
0.0
 10
57.5202360526
 20
24.1482989396
 30
0.0
 10
57.708597738
 20
24.5138984818
 30
0.0
 10
57.8447044832
 20
24.8987475128
 30
0.0
 10
57.9248340906
 20
25.2924981509
 30
0.0
 10
57.9467135164
 20
25.6845708447
 30
0.0
 10
57.9095791874
 20
26.0643969045
 30
0.0
 10
57.8141330598
 20
26.4217155508
 30
0.0
 10
57.6627541552
 20
26.7465587322
 30
0.0
 10
57.5252205891
 20
26.9378617796
 30
0.0
 10
57.4489858317
 20
27.0243101539
 30
0.0
  0
SPLINE
  5
443
100
AcDbEntity
  8
0
100
AcDbSpline
 62
250
  6
CONTINUOUS
 70
0
 71
3
 72
13
 73
9
 74
0
 42
0.0000001
 43
0.0000001
 44
0.0000000001
 40
0.0
 40
0.0
 40
0.0
 40
0.0
 40
0.2674874519
 40
0.5262535805
 40
0.6505676489
 40
0.7707699874
 40
0.8870274355
 40
1.0
 40
1.0
 40
1.0
 40
1.0
 10
57.6861178785
 20
24.0489629667
 30
0.0
 10
57.8355807123
 20
24.2964749265
 30
0.0
 10
58.0651053107
 20
24.8257673258
 30
0.0
 10
58.1576253723
 20
25.5337697861
 30
0.0
 10
58.1009328787
 20
26.0769449093
 30
0.0
 10
57.9965638848
 20
26.4547499065
 30
0.0
 10
57.8324698408
 20
26.7971796549
 30
0.0
 10
57.6840666988
 20
26.9979280219
 30
0.0
 10
57.6019810801
 20
27.0883410293
 30
0.0
  0
SPLINE
  5
444
100
AcDbEntity
  8
0
100
AcDbSpline
 62
250
  6
CONTINUOUS
 70
0
 71
3
 72
13
 73
9
 74
0
 42
0.0000001
 43
0.0000001
 44
0.0000000001
 40
0.0
 40
0.0
 40
0.0
 40
0.0
 40
0.112972512
 40
0.2289783665
 40
0.3488159524
 40
0.4727914792
 40
0.7314095564
 40
1.0
 40
1.0
 40
1.0
 40
1.0
 10
54.9738098212
 20
22.736062924
 30
0.0
 10
55.0906727129
 20
22.7035876836
 30
0.0
 10
55.3348581673
 20
22.6617903676
 30
0.0
 10
55.7113176122
 20
22.6705935457
 30
0.0
 10
56.09159842
 20
22.749366038
 30
0.0
 10
56.5959383409
 20
22.9467959843
 30
0.0
 10
57.1774199153
 20
23.3545873632
 30
0.0
 10
57.537053438
 20
23.8021107502
 30
0.0
 10
57.6861178785
 20
24.0489629667
 30
0.0
  0
SPLINE
  5
445
100
AcDbEntity
  8
0
100
AcDbSpline
 62
7
  6
CONTINUOUS
 70
0
 71
3
 72
9
 73
5
 74
0
 42
0.0000001
 43
0.0000001
 44
0.0000000001
 40
0.0
 40
0.0
 40
0.0
 40
0.0
 40
0.2503152013
 40
1.0
 40
1.0
 40
1.0
 40
1.0
 10
55.4650068132
 20
24.7593378394
 30
0.0
 10
55.4565845834
 20
24.7083413174
 30
0.0
 10
55.4238086632
 20
24.5044680119
 30
0.0
 10
55.3935416303
 20
24.3002016022
 30
0.0
 10
55.3713033803
 20
24.1470056411
 30
0.0
  0
LINE
  5
446
100
AcDbEntity
  8
0
100
AcDbLine
 62
7
  6
CONTINUOUS
 10
55.4650068132
 20
24.7593378394
 11
55.8832565309
 21
24.5770653234
  0
LINE
  5
447
100
AcDbEntity
  8
0
100
AcDbLine
 62
7
  6
CONTINUOUS
 10
54.793847911
 20
25.0518859337
 11
55.2440065261
 21
24.8556608222
  0
SPLINE
  5
448
100
AcDbEntity
  8
0
100
AcDbSpline
 62
7
  6
CONTINUOUS
 70
0
 71
3
 72
12
 73
8
 74
0
 42
0.0000001
 43
0.0000001
 44
0.0000000001
 40
0.0
 40
0.0
 40
0.0
 40
0.0
 40
0.124642868
 40
0.2501230215
 40
0.5024506071
 40
0.7543477826
 40
1.0
 40
1.0
 40
1.0
 40
1.0
 10
58.9524128463
 20
24.4605016312
 30
0.0
 10
58.9860379901
 20
24.4191388877
 30
0.0
 10
59.0477875706
 20
24.3312821004
 30
0.0
 10
59.1466602019
 20
24.1399172088
 30
0.0
 10
59.2219417424
 20
23.8779803884
 30
0.0
 10
59.2333434059
 20
23.5546841182
 30
0.0
 10
59.1911539643
 20
23.3437887322
 30
0.0
 10
59.1584567766
 20
23.2439484713
 30
0.0
  0
SPLINE
  5
449
100
AcDbEntity
  8
0
100
AcDbSpline
 62
7
  6
CONTINUOUS
 70
0
 71
3
 72
14
 73
10
 74
0
 42
0.0000001
 43
0.0000001
 44
0.0000000001
 40
0.0
 40
0.0
 40
0.0
 40
0.0
 40
0.3093799849
 40
0.4507654735
 40
0.5810365515
 40
0.6996680281
 40
0.807318167
 40
0.9061560514
 40
1.0
 40
1.0
 40
1.0
 40
1.0
 10
59.1584567766
 20
23.2439484713
 30
0.0
 10
59.1194685952
 20
23.1248987767
 30
0.0
 10
59.0371508475
 20
22.9575591881
 30
0.0
 10
58.8836736603
 20
22.778067294
 30
0.0
 10
58.7604426501
 20
22.6775500733
 30
0.0
 10
58.6314177029
 20
22.6102749413
 30
0.0
 10
58.5022221159
 20
22.5782010352
 30
0.0
 10
58.3789452605
 20
22.5825482493
 30
0.0
 10
58.3042439053
 20
22.6102712542
 30
0.0
 10
58.2713369666
 20
22.6292716457
 30
0.0
  0
SPLINE
  5
44A
100
AcDbEntity
  8
0
100
AcDbSpline
 62
7
  6
CONTINUOUS
 70
0
 71
3
 72
9
 73
5
 74
0
 42
0.0000001
 43
0.0000001
 44
0.0000000001
 40
0.0
 40
0.0
 40
0.0
 40
0.0
 40
0.2552283238
 40
1.0
 40
1.0
 40
1.0
 40
1.0
 10
58.3147486513
 20
23.1505171448
 30
0.0
 10
58.3083489889
 20
23.1437190891
 30
0.0
 10
58.2828877273
 20
23.1174520823
 30
0.0
 10
58.2558730868
 20
23.0926813519
 30
0.0
 10
58.2349202989
 20
23.0752677523
 30
0.0
  0
SPLINE
  5
44B
100
AcDbEntity
  8
TRASH
100
AcDbSpline
 62
7
  6
CONTINUOUS
 70
0
 71
3
 72
9
 73
5
 74
0
 42
0.0000001
 43
0.0000001
 44
0.0000000001
 40
0.0
 40
0.0
 40
0.0
 40
0.0
 40
0.506712436
 40
1.0
 40
1.0
 40
1.0
 40
1.0
 10
55.7471616484
 20
25.5480316382
 30
0.0
 10
55.8606052597
 20
25.532027382
 30
0.0
 10
56.0846398403
 20
25.5015751625
 30
0.0
 10
56.3093809665
 20
25.4761886879
 30
0.0
 10
56.4205145173
 20
25.4667740211
 30
0.0
  0
SPLINE
  5
44C
100
AcDbEntity
  8
0
100
AcDbSpline
 62
7
  6
CONTINUOUS
 70
0
 71
3
 72
9
 73
5
 74
0
 42
0.0000001
 43
0.0000001
 44
0.0000000001
 40
0.0
 40
0.0
 40
0.0
 40
0.0
 40
0.2497259292
 40
1.0
 40
1.0
 40
1.0
 40
1.0
 10
56.5524576068
 20
26.1030088742
 30
0.0
 10
56.5109436753
 20
26.0730289075
 30
0.0
 10
56.3448523848
 20
25.952776945
 30
0.0
 10
56.1794898388
 20
25.8314985107
 30
0.0
 10
56.0565725394
 20
25.73897662
 30
0.0
  0
LINE
  5
44D
100
AcDbEntity
  8
0
100
AcDbLine
 62
7
  6
CONTINUOUS
 10
56.4205194185
 20
25.4667780826
 11
56.0565725394
 21
25.73897662
  0
LINE
  5
44E
100
AcDbEntity
  8
0
100
AcDbLine
 62
7
  6
CONTINUOUS
 10
55.8642546492
 20
25.8827987442
 11
55.4724992033
 21
26.1757390939
  0
LINE
  5
44F
100
AcDbEntity
  8
0
100
AcDbLine
 62
7
  6
CONTINUOUS
 10
56.030242769
 20
25.7392054995
 11
55.8642546492
 21
25.8827987442
  0
LINE
  5
450
100
AcDbEntity
  8
0
100
AcDbLine
 62
7
  6
CONTINUOUS
 10
55.7054080413
 20
25.5604473682
 11
54.9682813197
 21
26.1495926369
  0
LINE
  5
451
100
AcDbEntity
  8
0
100
AcDbLine
 62
7
  6
CONTINUOUS
 10
54.5173266577
 20
26.2659706213
 11
55.7054258957
 21
25.5604887509
  0
SPLINE
  5
452
100
AcDbEntity
  8
0
100
AcDbSpline
 62
7
  6
CONTINUOUS
 70
0
 71
3
 72
9
 73
5
 74
0
 42
0.0000001
 43
0.0000001
 44
0.0000000001
 40
0.0
 40
0.0
 40
0.0
 40
0.0
 40
0.2502620434
 40
1.0
 40
1.0
 40
1.0
 40
1.0
 10
55.4694351869
 20
25.1697180054
 30
0.0
 10
55.3703890917
 20
25.2286806483
 30
0.0
 10
54.9745336311
 20
25.4641399394
 30
0.0
 10
54.57849279
 20
25.6992873614
 30
0.0
 10
54.2815343359
 20
25.8755329762
 30
0.0
  0
SPLINE
  5
453
100
AcDbEntity
  8
0
100
AcDbSpline
 62
7
  6
CONTINUOUS
 70
0
 71
3
 72
9
 73
5
 74
0
 42
0.0000001
 43
0.0000001
 44
0.0000000001
 40
0.0
 40
0.0
 40
0.0
 40
0.0
 40
0.5001672605
 40
1.0
 40
1.0
 40
1.0
 40
1.0
 10
54.5874758538
 20
25.5186822004
 30
0.0
 10
54.7345168013
 20
25.4604728233
 30
0.0
 10
55.0284333032
 20
25.3439234396
 30
0.0
 10
55.3226177628
 20
25.2280516955
 30
0.0
 10
55.4695603665
 20
25.1698812499
 30
0.0
  0
LINE
  5
454
100
AcDbEntity
  8
0
100
AcDbLine
 62
7
  6
CONTINUOUS
 10
55.2440065261
 20
24.8556608222
 11
55.4527762629
 21
24.7829151427
  0
SPLINE
  5
455
100
AcDbEntity
  8
TRASH
100
AcDbSpline
 62
7
  6
CONTINUOUS
 70
0
 71
3
 72
9
 73
5
 74
0
 42
0.0000001
 43
0.0000001
 44
0.0000000001
 40
0.0
 40
0.0
 40
0.0
 40
0.0
 40
0.4936438145
 40
1.0
 40
1.0
 40
1.0
 40
1.0
 10
55.8832565314
 20
24.5770653234
 30
0.0
 10
55.8239006395
 20
24.6719677375
 30
0.0
 10
55.6977695259
 20
24.8605090469
 30
0.0
 10
55.5670073516
 20
25.0457564436
 30
0.0
 10
55.5002728973
 20
25.1391895149
 30
0.0
  0
SPLINE
  5
456
100
AcDbEntity
  8
RACCORDO
100
AcDbSpline
 62
7
  6
CONTINUOUS
 70
0
 71
3
 72
10
 73
6
 74
0
 42
0.0000001
 43
0.0000001
 44
0.0000000001
 40
0.0
 40
0.0
 40
0.0
 40
0.0
 40
0.232091971
 40
0.4781227185
 40
1.0
 40
1.0
 40
1.0
 40
1.0
 10
93.3118977943
 20
-70.0649624894
 30
0.0
 10
93.0816299908
 20
-70.197916233
 30
0.0
 10
92.5883224559
 20
-70.4399089701
 30
0.0
 10
91.5077962003
 20
-70.8253005493
 30
0.0
 10
90.6364437005
 20
-70.9909304839
 30
0.0
 10
90.0416773536
 20
-71.0519205878
 30
0.0
  0
SPLINE
  5
457
100
AcDbEntity
  8
RACCORDO
100
AcDbSpline
 62
7
  6
CONTINUOUS
 70
0
 71
3
 72
10
 73
6
 74
0
 42
0.0000001
 43
0.0000001
 44
0.0000000001
 40
0.0
 40
0.0
 40
0.0
 40
0.0
 40
0.2326289215
 40
0.6025146533
 40
1.0
 40
1.0
 40
1.0
 40
1.0
 10
94.7224304195
 20
-68.8233397693
 30
0.0
 10
94.6391194095
 20
-68.9441648208
 30
0.0
 10
94.401173519
 20
-69.2421802559
 30
0.0
 10
93.9336428378
 20
-69.6703482255
 30
0.0
 10
93.5290668931
 20
-69.9395717736
 30
0.0
 10
93.3118977944
 20
-70.0649624893
 30
0.0
  0
SPLINE
  5
458
100
AcDbEntity
  8
RACCORDO
100
AcDbSpline
 62
250
  6
CONTINUOUS
 70
0
 71
3
 72
10
 73
6
 74
0
 42
0.0000001
 43
0.0000001
 44
0.0000000001
 40
0.0
 40
0.0
 40
0.0
 40
0.0
 40
0.2323866301
 40
0.478267448
 40
1.0
 40
1.0
 40
1.0
 40
1.0
 10
93.2795324215
 20
-70.0014781928
 30
0.0
 10
93.0696856703
 20
-70.1176051894
 30
0.0
 10
92.6233659137
 20
-70.3312040576
 30
0.0
 10
91.6511426042
 20
-70.680841191
 30
0.0
 10
90.8705167826
 20
-70.8439550492
 30
0.0
 10
90.3365146465
 20
-70.9130708798
 30
0.0
  0
SPLINE
  5
459
100
AcDbEntity
  8
RACCORDO
100
AcDbSpline
 62
250
  6
CONTINUOUS
 70
0
 71
3
 72
9
 73
5
 74
0
 42
0.0000001
 43
0.0000001
 44
0.0000000001
 40
0.0
 40
0.0
 40
0.0
 40
0.0
 40
0.4735931417
 40
1.0
 40
1.0
 40
1.0
 40
1.0
 10
94.6776895756
 20
-68.8427807096
 30
0.0
 10
94.5143704839
 20
-69.0594125295
 30
0.0
 10
94.109874044
 20
-69.4727932844
 30
0.0
 10
93.6343629143
 20
-69.7977400424
 30
0.0
 10
93.3732153567
 20
-69.9485233692
 30
0.0
  0
SPLINE
  5
45A
100
AcDbEntity
  8
RACCORDO
100
AcDbSpline
 62
7
  6
CONTINUOUS
 70
0
 71
3
 72
18
 73
14
 74
0
 42
0.0000001
 43
0.0000001
 44
0.0000000001
 40
0.0
 40
0.0
 40
0.0
 40
0.0
 40
0.1388396224
 40
0.2756372413
 40
0.408614814
 40
0.5364623408
 40
0.658604803
 40
0.7177029036
 40
0.7755968625
 40
0.8324897923
 40
0.888640599
 40
0.944381891
 40
1.0
 40
1.0
 40
1.0
 40
1.0
 10
-7.6540908366
 20
3.6509167964
 30
0.0
 10
-7.3337379524
 20
4.2057842676
 30
0.0
 10
-6.7883361254
 20
5.3626938451
 30
0.0
 10
-6.2798032088
 20
7.1876457968
 30
0.0
 10
-6.1028864686
 20
9.0243229313
 30
0.0
 10
-6.2653860084
 20
10.79501578
 30
0.0
 10
-6.6842850358
 20
12.171026399
 30
0.0
 10
-7.1792020242
 20
13.1596886752
 30
0.0
 10
-7.6198069177
 20
13.8326188794
 30
0.0
 10
-8.1289575243
 20
14.4376455871
 30
0.0
 10
-8.7013954553
 20
14.9688565587
 30
0.0
 10
-9.331060375
 20
15.4206309659
 30
0.0
 10
-9.784481908
 20
15.6659071142
 30
0.0
 10
-10.0174818604
 20
15.7735470713
 30
0.0
  0
SPLINE
  5
45B
100
AcDbEntity
  8
RACCORDO
100
AcDbSpline
 62
7
  6
CONTINUOUS
 70
0
 71
3
 72
18
 73
14
 74
0
 42
0.0000001
 43
0.0000001
 44
0.0000000001
 40
0.0
 40
0.0
 40
0.0
 40
0.0
 40
0.0556186749
 40
0.1113605537
 40
0.1675117898
 40
0.2244049869
 40
0.2822990431
 40
0.3413970592
 40
0.4635389054
 40
0.591385459
 40
0.7243621623
 40
0.8611595139
 40
1.0
 40
1.0
 40
1.0
 40
1.0
 10
-19.3332006586
 20
-0.3638306637
 30
0.0
 10
-19.1234825417
 20
-0.5117589489
 30
0.0
 10
-18.6843639676
 20
-0.7817261793
 30
0.0
 10
-17.9783119463
 20
-1.1010505637
 30
0.0
 10
-17.2320948251
 20
-1.3311071346
 30
0.0
 10
-16.4536092825
 20
-1.4694593198
 30
0.0
 10
-15.6506025745
 20
-1.5145111434
 30
0.0
 10
-14.5470467228
 20
-1.4487311424
 30
0.0
 10
-13.146091772
 20
-1.123467093
 30
0.0
 10
-11.531565979
 20
-0.3788631352
 30
0.0
 10
-10.0295933536
 20
0.6926261464
 30
0.0
 10
-8.7035540154
 20
2.0454014104
 30
0.0
 10
-7.9744160178
 20
3.0960973082
 30
0.0
 10
-7.6540908366
 20
3.6509167964
 30
0.0
  0
SPLINE
  5
45C
100
AcDbEntity
  8
0
100
AcDbSpline
 62
7
  6
CONTINUOUS
 70
0
 71
3
 72
15
 73
11
 74
0
 42
0.0000001
 43
0.0000001
 44
0.0000000001
 40
0.0
 40
0.0
 40
0.0
 40
0.0
 40
0.1343045427
 40
0.2634831456
 40
0.3881816745
 40
0.5096553266
 40
0.62965397
 40
0.7501714191
 40
0.8731142072
 40
1.0
 40
1.0
 40
1.0
 40
1.0
 10
-6.2017767984
 20
8.1492006899
 30
0.0
 10
-6.2526248296
 20
8.4639680798
 30
0.0
 10
-6.4017478475
 20
9.0749888066
 30
0.0
 10
-6.7732779753
 20
9.9235436843
 30
0.0
 10
-7.2781099031
 20
10.6644979896
 30
0.0
 10
-7.9024094522
 20
11.2777662444
 30
0.0
 10
-8.6294422985
 20
11.7471510307
 30
0.0
 10
-9.4399725533
 20
12.0601657002
 30
0.0
 10
-10.3121001597
 20
12.2084714971
 30
0.0
 10
-10.9090354265
 20
12.1949191262
 30
0.0
 10
-11.2084340438
 20
12.1617044534
 30
0.0
  0
SPLINE
  5
45D
100
AcDbEntity
  8
0
100
AcDbSpline
 62
7
  6
CONTINUOUS
 70
0
 71
3
 72
11
 73
7
 74
0
 42
0.0000001
 43
0.0000001
 44
0.0000000001
 40
0.0
 40
0.0
 40
0.0
 40
0.0
 40
0.2397372542
 40
0.487759794
 40
0.7421432354
 40
1.0
 40
1.0
 40
1.0
 40
1.0
 10
-12.4385200158
 20
12.7118713773
 30
0.0
 10
-12.8926583846
 20
12.5725284174
 30
0.0
 10
-13.787971222
 20
12.187689413
 30
0.0
 10
-15.0066799245
 20
11.3499462503
 30
0.0
 10
-16.0777316553
 20
10.2795104451
 30
0.0
 10
-16.6625996971
 20
9.4425860871
 30
0.0
 10
-16.9180688619
 20
9.0001005143
 30
0.0
  0
SPLINE
  5
45E
100
AcDbEntity
  8
0
100
AcDbSpline
 62
7
  6
CONTINUOUS
 70
0
 71
3
 72
15
 73
11
 74
0
 42
0.0000001
 43
0.0000001
 44
0.0000000001
 40
0.0
 40
0.0
 40
0.0
 40
0.0
 40
0.1283304657
 40
0.2535906265
 40
0.3766892533
 40
0.4987421823
 40
0.6209733962
 40
0.7445898726
 40
0.8706544022
 40
1.0
 40
1.0
 40
1.0
 40
1.0
 10
-6.251842435
 20
8.4215204425
 30
0.0
 10
-6.3396630883
 20
8.6013880866
 30
0.0
 10
-6.5386026412
 20
8.9451777768
 30
0.0
 10
-6.9070351504
 20
9.4056703533
 30
0.0
 10
-7.3353771683
 20
9.7969817873
 30
0.0
 10
-7.8165285179
 20
10.1126838125
 30
0.0
 10
-8.3426970431
 20
10.3477176449
 30
0.0
 10
-8.9054107816
 20
10.4982065239
 30
0.0
 10
-9.4953643002
 20
10.5615900227
 30
0.0
 10
-9.8950310004
 20
10.5451514709
 30
0.0
 10
-10.0955445723
 20
10.5228916304
 30
0.0
  0
SPLINE
  5
45F
100
AcDbEntity
  8
0
100
AcDbSpline
 62
7
  6
CONTINUOUS
 70
0
 71
3
 72
11
 73
7
 74
0
 42
0.0000001
 43
0.0000001
 44
0.0000000001
 40
0.0
 40
0.0
 40
0.0
 40
0.0
 40
0.2395914664
 40
0.4875919704
 40
0.7420380758
 40
1.0
 40
1.0
 40
1.0
 40
1.0
 10
-11.1104618988
 20
10.8996297269
 30
0.0
 10
-11.4889580449
 20
10.7834960211
 30
0.0
 10
-12.2353209313
 20
10.4626111452
 30
0.0
 10
-13.2514468573
 20
9.7639840913
 30
0.0
 10
-14.1447539746
 20
8.8710688773
 30
0.0
 10
-14.6326430881
 20
8.17288141
 30
0.0
 10
-14.8457772244
 20
7.8037222576
 30
0.0
  0
SPLINE
  5
460
100
AcDbEntity
  8
0
100
AcDbSpline
 62
7
  6
CONTINUOUS
 70
0
 71
3
 72
15
 73
11
 74
0
 42
0.0000001
 43
0.0000001
 44
0.0000000001
 40
0.0
 40
0.0
 40
0.0
 40
0.0
 40
0.1268864016
 40
0.2498295078
 40
0.3703469969
 40
0.4903455058
 40
0.6118189561
 40
0.7365172819
 40
0.8656956707
 40
1.0
 40
1.0
 40
1.0
 40
1.0
 10
-16.8010382422
 20
2.473749528
 30
0.0
 10
-16.6800682594
 20
2.1978622655
 30
0.0
 10
-16.3932688514
 20
1.6741450988
 30
0.0
 10
-15.8286701822
 20
0.9930665858
 30
0.0
 10
-15.1522408105
 20
0.4477092399
 30
0.0
 10
-14.3821563299
 20
0.0528673782
 30
0.0
 10
-13.5388516277
 20
-0.1810471328
 30
0.0
 10
-12.6447233226
 20
-0.2476442736
 30
0.0
 10
-11.7240841745
 20
-0.1449905679
 30
0.0
 10
-11.1203760512
 20
0.0314639883
 30
0.0
 10
-10.8223653954
 20
0.1448559126
 30
0.0
  0
SPLINE
  5
461
100
AcDbEntity
  8
0
100
AcDbSpline
 62
7
  6
CONTINUOUS
 70
0
 71
3
 72
11
 73
7
 74
0
 42
0.0000001
 43
0.0000001
 44
0.0000000001
 40
0.0
 40
0.0
 40
0.0
 40
0.0
 40
0.2578572641
 40
0.5122415051
 40
0.7602640649
 40
1.0
 40
1.0
 40
1.0
 40
1.0
 10
-16.9180688619
 20
9.0001005143
 30
0.0
 10
-17.1735807111
 20
8.5575410101
 30
0.0
 10
-17.6060044516
 20
7.6324052393
 30
0.0
 10
-17.9975106191
 20
6.1693674089
 30
0.0
 10
-18.1135854363
 20
4.6948107391
 30
0.0
 10
-17.9990996484
 20
3.7268785312
 30
0.0
 10
-17.8926356426
 20
3.2638498191
 30
0.0
  0
SPLINE
  5
462
100
AcDbEntity
  8
SMUSSO
100
AcDbSpline
 62
7
  6
CONTINUOUS
 70
0
 71
3
 72
18
 73
14
 74
0
 42
0.0000001
 43
0.0000001
 44
0.0000000001
 40
0.0
 40
0.0
 40
0.0
 40
0.0
 40
0.136982775
 40
0.2722360659
 40
0.4042573572
 40
0.5319229421
 40
0.6547010225
 40
0.7143708291
 40
0.7729570824
 40
0.8306054989
 40
0.8875065261
 40
0.9438869753
 40
1.0
 40
1.0
 40
1.0
 40
1.0
 10
-22.338539228
 20
12.1296633189
 30
0.0
 10
-22.7626317788
 20
11.3951134745
 30
0.0
 10
-23.4902876843
 20
9.865107953
 30
0.0
 10
-24.1905070763
 20
7.4507537113
 30
0.0
 10
-24.471647476
 20
5.0090784088
 30
0.0
 10
-24.3211310827
 20
2.6326626436
 30
0.0
 10
-23.8324737954
 20
0.7609745336
 30
0.0
 10
-23.2324236062
 20
-0.6082243096
 30
0.0
 10
-22.6889529901
 20
-1.5547594924
 30
0.0
 10
-22.0530543218
 20
-2.4206865138
 30
0.0
 10
-21.3308028165
 20
-3.1976795089
 30
0.0
 10
-20.5292867253
 20
-3.8778840925
 30
0.0
 10
-19.9464217874
 20
-4.2628779068
 30
0.0
 10
-19.6455143227
 20
-4.4365845572
 30
0.0
  0
SPLINE
  5
463
100
AcDbEntity
  8
SMUSSO
100
AcDbSpline
 62
7
  6
CONTINUOUS
 70
0
 71
3
 72
18
 73
14
 74
0
 42
0.0000001
 43
0.0000001
 44
0.0000000001
 40
0.0
 40
0.0
 40
0.0
 40
0.0
 40
0.136983392
 40
0.2722364259
 40
0.4042570079
 40
0.5319218487
 40
0.6546994965
 40
0.7143692634
 40
0.772955614
 40
0.8306042602
 40
0.887505631
 40
0.943886506
 40
1.0
 40
1.0
 40
1.0
 40
1.0
 10
-22.338539228
 20
12.1296633189
 30
0.0
 10
-21.9144852309
 20
12.8641463863
 30
0.0
 10
-20.9533908035
 20
14.2591921823
 30
0.0
 10
-19.2128107035
 20
16.0726338969
 30
0.0
 10
-17.2390682256
 20
17.536856111
 30
0.0
 10
-15.1060300363
 20
18.5946889863
 30
0.0
 10
-13.2409845923
 20
19.107385248
 30
0.0
 10
-11.7553529465
 20
19.2724000692
 30
0.0
 10
-10.6639969883
 20
19.2750824253
 30
0.0
 10
-9.5962219396
 20
19.1574343418
 30
0.0
 10
-8.5622731018
 20
18.9205530725
 30
0.0
 10
-7.5724943098
 20
18.5666481665
 30
0.0
 10
-6.9476690929
 20
18.2544632979
 30
0.0
 10
-6.6467878223
 20
18.0807717686
 30
0.0
  0
SPLINE
  5
464
100
AcDbEntity
  8
0
100
AcDbSpline
 62
7
  6
CONTINUOUS
 70
0
 71
3
 72
15
 73
11
 74
0
 42
0.0000001
 43
0.0000001
 44
0.0000000001
 40
0.0
 40
0.0
 40
0.0
 40
0.0
 40
0.1293471787
 40
0.2554133995
 40
0.3790313158
 40
0.5012633931
 40
0.6233164741
 40
0.746414184
 40
0.8716724527
 40
1.0
 40
1.0
 40
1.0
 40
1.0
 10
-14.8253423454
 20
2.329629657
 30
0.0
 10
-14.7443515896
 20
2.1448744344
 30
0.0
 10
-14.5587342416
 20
1.7905841799
 30
0.0
 10
-14.2088578499
 20
1.3114325301
 30
0.0
 10
-13.797182889
 20
0.8994179799
 30
0.0
 10
-13.3305790077
 20
0.5613173624
 30
0.0
 10
-12.8166400321
 20
0.3025240014
 30
0.0
 10
-12.2636398291
 20
0.127255101
 30
0.0
 10
-11.6806923156
 20
0.0384446259
 30
0.0
 10
-11.2835396988
 20
0.0380538117
 30
0.0
 10
-11.0838839675
 20
0.0519296475
 30
0.0
  0
SPLINE
  5
465
100
AcDbEntity
  8
0
100
AcDbSpline
 62
7
  6
CONTINUOUS
 70
0
 71
3
 72
11
 73
7
 74
0
 42
0.0000001
 43
0.0000001
 44
0.0000000001
 40
0.0
 40
0.0
 40
0.0
 40
0.0
 40
0.2579622906
 40
0.5124091768
 40
0.7604097639
 40
1.0
 40
1.0
 40
1.0
 40
1.0
 10
-14.8457772244
 20
7.8037222576
 30
0.0
 10
-15.058946855
 20
7.434501627
 30
0.0
 10
-15.4197003655
 20
6.6627478192
 30
0.0
 10
-15.7463403748
 20
5.4424453148
 30
0.0
 10
-15.8432416878
 20
4.212930286
 30
0.0
 10
-15.7478632444
 20
3.4059941526
 30
0.0
 10
-15.659132236
 20
3.02008829
 30
0.0
  0
SPLINE
  5
466
100
AcDbEntity
  8
0
100
AcDbSpline
 62
250
  6
CONTINUOUS
 70
0
 71
3
 72
14
 73
10
 74
0
 42
0.0000001
 43
0.0000001
 44
0.0000000001
 40
0.0
 40
0.0
 40
0.0
 40
0.0
 40
0.2613213029
 40
0.3881412701
 40
0.5127134464
 40
0.635544628
 40
0.7572437834
 40
0.8784920979
 40
1.0
 40
1.0
 40
1.0
 40
1.0
 10
-11.1104620403
 20
10.8996280414
 30
0.0
 10
-10.7423285201
 20
11.0126078702
 30
0.0
 10
-10.1742538332
 20
11.1224203208
 30
0.0
 10
-9.4173602306
 20
11.13027212
 30
0.0
 10
-8.8679084153
 20
11.067749329
 30
0.0
 10
-8.3383082376
 20
10.9373901594
 30
0.0
 10
-7.8347992653
 20
10.7405884775
 30
0.0
 10
-7.3635566022
 20
10.4798386247
 30
0.0
 10
-7.0753488342
 20
10.2658566681
 30
0.0
 10
-6.9388846828
 20
10.1499368617
 30
0.0
  0
SPLINE
  5
467
100
AcDbEntity
  8
0
100
AcDbSpline
 62
7
  6
CONTINUOUS
 70
0
 71
3
 72
11
 73
7
 74
0
 42
0.0000001
 43
0.0000001
 44
0.0000000001
 40
0.0
 40
0.0
 40
0.0
 40
0.0
 40
0.2378864658
 40
0.4855610979
 40
0.7407394861
 40
1.0
 40
1.0
 40
1.0
 40
1.0
 10
-9.3323073981
 20
10.5365092793
 30
0.0
 10
-9.7617864382
 20
10.4183680629
 30
0.0
 10
-10.6129809047
 20
10.0759898199
 30
0.0
 10
-11.7747824303
 20
9.3029507202
 30
0.0
 10
-12.7982690744
 20
8.2971879344
 30
0.0
 10
-13.3556842273
 20
7.504112589
 30
0.0
 10
-13.5984111674
 20
7.0836971968
 30
0.0
  0
SPLINE
  5
468
100
AcDbEntity
  8
0
100
AcDbSpline
 62
7
  6
CONTINUOUS
 70
0
 71
3
 72
10
 73
6
 74
0
 42
0.0000001
 43
0.0000001
 44
0.0000000001
 40
0.0
 40
0.0
 40
0.0
 40
0.0
 40
0.5092792921
 40
0.7567709906
 40
1.0
 40
1.0
 40
1.0
 40
1.0
 10
-17.4666006349
 20
1.4107280959
 30
0.0
 10
-17.3439219349
 20
0.8770505832
 30
0.0
 10
-17.0799894838
 20
0.0984639091
 30
0.0
 10
-16.5672240133
 20
-0.8484800191
 30
0.0
 10
-16.2630882068
 20
-1.2815415098
 30
0.0
 10
-16.1001241166
 20
-1.4860901218
 30
0.0
  0
SPLINE
  5
469
100
AcDbEntity
  8
RACCORDO
100
AcDbSpline
 62
250
  6
CONTINUOUS
 70
0
 71
3
 72
13
 73
9
 74
0
 42
0.0000001
 43
0.0000001
 44
0.0000000001
 40
0.0
 40
0.0
 40
0.0
 40
0.0
 40
0.2682565627
 40
0.527021129
 40
0.6511284074
 40
0.7710659535
 40
0.8871035292
 40
1.0
 40
1.0
 40
1.0
 40
1.0
 10
-9.2639180255
 20
4.5811714141
 30
0.0
 10
-9.1246124205
 20
4.8224557995
 30
0.0
 10
-8.7848192908
 20
5.2616338292
 30
0.0
 10
-8.2293360527
 20
5.6659045728
 30
0.0
 10
-7.7444745393
 20
5.8654771103
 30
0.0
 10
-7.377692053
 20
5.9480514165
 30
0.0
 10
-7.0136453523
 20
5.9626857492
 30
0.0
 10
-6.7768322338
 20
5.9260915262
 30
0.0
 10
-6.6633863513
 20
5.8964504891
 30
0.0
  0
SPLINE
  5
46A
100
AcDbEntity
  8
0
100
AcDbSpline
 62
7
  6
CONTINUOUS
 70
0
 71
3
 72
11
 73
7
 74
0
 42
0.0000001
 43
0.0000001
 44
0.0000000001
 40
0.0
 40
0.0
 40
0.0
 40
0.0
 40
0.26430611
 40
0.5218835266
 40
0.7677233006
 40
1.0
 40
1.0
 40
1.0
 40
1.0
 10
-8.8639180255
 20
4.3502610655
 30
0.0
 10
-8.7469342977
 20
4.5528828254
 30
0.0
 10
-8.4691078081
 20
4.9280325107
 30
0.0
 10
-7.9436698412
 20
5.3692198885
 30
0.0
 10
-7.3496254146
 20
5.6535467168
 30
0.0
 10
-6.9244267902
 20
5.7232332627
 30
0.0
 10
-6.7188122259
 20
5.7231690449
 30
0.0
  0
SPLINE
  5
46B
100
AcDbEntity
  8
0
100
AcDbSpline
 62
250
  6
CONTINUOUS
 70
0
 71
3
 72
15
 73
11
 74
0
 42
0.0000001
 43
0.0000001
 44
0.0000000001
 40
0.0
 40
0.0
 40
0.0
 40
0.0
 40
0.1320078387
 40
0.2602204395
 40
0.3852159231
 40
0.5079051447
 40
0.629454212
 40
0.7511609555
 40
0.8743047257
 40
1.0
 40
1.0
 40
1.0
 40
1.0
 10
-17.8926341487
 20
3.2638510458
 30
0.0
 10
-17.8217398497
 20
2.9554301373
 30
0.0
 10
-17.6371348006
 20
2.3565492658
 30
0.0
 10
-17.2281986569
 20
1.5242019292
 30
0.0
 10
-16.6994796086
 20
0.7889909299
 30
0.0
 10
-16.0622617115
 20
0.1679016777
 30
0.0
 10
-15.3305878364
 20
-0.3247769479
 30
0.0
 10
-14.5209451115
 20
-0.6776830116
 30
0.0
 10
-13.6521387649
 20
-0.8830199912
 30
0.0
 10
-13.0532990163
 20
-0.9183384181
 30
0.0
 10
-12.7520426603
 20
-0.9116405071
 30
0.0
  0
SPLINE
  5
46C
100
AcDbEntity
  8
0
100
AcDbSpline
 62
7
  6
CONTINUOUS
 70
0
 71
3
 72
11
 73
7
 74
0
 42
0.0000001
 43
0.0000001
 44
0.0000000001
 40
0.0
 40
0.0
 40
0.0
 40
0.0
 40
0.2610747828
 40
0.5171707857
 40
0.7642423944
 40
1.0
 40
1.0
 40
1.0
 40
1.0
 10
-12.6984111674
 20
6.5641489123
 30
0.0
 10
-12.4302186515
 20
7.0286719755
 30
0.0
 10
-11.8064061193
 20
7.8989778407
 30
0.0
 10
-10.647170621
 20
8.9739986735
 30
0.0
 10
-9.3314934883
 20
9.7548097728
 30
0.0
 10
-8.3734349553
 20
10.0543710353
 30
0.0
 10
-7.8961967027
 20
10.1371850607
 30
0.0
  0
SPLINE
  5
46D
100
AcDbEntity
  8
0
100
AcDbSpline
 62
7
  6
CONTINUOUS
 70
0
 71
3
 72
9
 73
5
 74
0
 42
0.0000001
 43
0.0000001
 44
0.0000000001
 40
0.0
 40
0.0
 40
0.0
 40
0.0
 40
0.5113683474
 40
1.0
 40
1.0
 40
1.0
 40
1.0
 10
-12.5894862795
 20
10.2060146289
 30
0.0
 10
-12.0990603785
 20
10.62826228
 30
0.0
 10
-11.0497112969
 20
11.355911715
 30
0.0
 10
-9.8582925769
 20
11.8238876843
 30
0.0
 10
-9.2581368376
 20
11.9729144594
 30
0.0
  0
SPLINE
  5
46E
100
AcDbEntity
  8
0
100
AcDbSpline
 62
7
  6
CONTINUOUS
 70
0
 71
3
 72
11
 73
7
 74
0
 42
0.0000001
 43
0.0000001
 44
0.0000000001
 40
0.0
 40
0.0
 40
0.0
 40
0.0
 40
0.263531653
 40
0.5184550486
 40
0.7638101608
 40
1.0
 40
1.0
 40
1.0
 40
1.0
 10
-14.1865253461
 20
11.8956021264
 30
0.0
 10
-13.7321207472
 20
12.2841624896
 30
0.0
 10
-12.773778462
 20
12.9774492667
 30
0.0
 10
-11.2061887277
 20
13.7375191348
 30
0.0
 10
-9.5832734169
 20
14.1756295844
 30
0.0
 10
-8.4830123171
 20
14.2412005217
 30
0.0
 10
-7.9478790405
 20
14.2134817746
 30
0.0
  0
SPLINE
  5
46F
100
AcDbEntity
  8
RACCORDO
100
AcDbSpline
 62
250
  6
CONTINUOUS
 70
0
 71
3
 72
17
 73
13
 74
0
 42
0.0000001
 43
0.0000001
 44
0.0000000001
 40
0.0
 40
0.0
 40
0.0
 40
0.0
 40
0.136264134
 40
0.2709926667
 40
0.4027986734
 40
0.5306211491
 40
0.6538700087
 40
0.7725573964
 40
0.830462774
 40
0.8875436836
 40
0.943984936
 40
1.0
 40
1.0
 40
1.0
 40
1.0
 10
-20.7916991923
 20
11.2364212617
 30
0.0
 10
-20.5014126847
 20
11.7392122411
 30
0.0
 10
-19.8469477425
 20
12.696855708
 30
0.0
 10
-18.6684061797
 20
13.9535226393
 30
0.0
 10
-17.333516415
 20
14.9862604578
 30
0.0
 10
-15.8871759005
 20
15.7584696397
 30
0.0
 10
-14.378560429
 20
16.2424206231
 30
0.0
 10
-13.0999453638
 20
16.3906798593
 30
0.0
 10
-12.1036431481
 20
16.3476445816
 30
0.0
 10
-11.3800704401
 20
16.2374093901
 30
0.0
 10
-10.6810431979
 20
16.049787613
 30
0.0
 10
-10.2341452288
 20
15.8736264915
 30
0.0
 10
-10.0174874525
 20
15.7735358781
 30
0.0
  0
SPLINE
  5
470
100
AcDbEntity
  8
0
100
AcDbSpline
 62
7
  6
CONTINUOUS
 70
0
 71
3
 72
13
 73
9
 74
0
 42
0.0000001
 43
0.0000001
 44
0.0000000001
 40
0.0
 40
0.0
 40
0.0
 40
0.0
 40
0.2654938266
 40
0.523361802
 40
0.6479023499
 40
0.768805829
 40
0.8860608888
 40
1.0
 40
1.0
 40
1.0
 40
1.0
 10
-17.1904421891
 20
9.1575346564
 30
0.0
 10
-16.7039005532
 20
10.000249489
 30
0.0
 10
-15.5377271384
 20
11.5511384485
 30
0.0
 10
-13.6601977732
 20
13.0521593512
 30
0.0
 10
-12.0078485227
 20
13.8847531383
 30
0.0
 10
-10.7414724556
 20
14.3058733345
 30
0.0
 10
-9.4636153152
 20
14.5200223818
 30
0.0
 10
-8.611405019
 20
14.5208782368
 30
0.0
 10
-8.1953778729
 20
14.4845804181
 30
0.0
  0
SPLINE
  5
471
100
AcDbEntity
  8
0
100
AcDbSpline
 62
250
  6
CONTINUOUS
 70
0
 71
3
 72
12
 73
8
 74
0
 42
0.0000001
 43
0.0000001
 44
0.0000000001
 40
0.0
 40
0.0
 40
0.0
 40
0.0
 40
0.2621030426
 40
0.5186137207
 40
0.7651453705
 40
0.8841109121
 40
1.0
 40
1.0
 40
1.0
 40
1.0
 10
-14.3534041468
 20
7.5194470578
 30
0.0
 10
-14.5889276236
 20
7.1115084301
 30
0.0
 10
-14.9719126242
 20
6.2527654509
 30
0.0
 10
-15.2559107595
 20
4.8969683184
 30
0.0
 10
-15.2325127665
 20
3.7673894842
 30
0.0
 10
-15.0513187276
 20
2.9194164564
 30
0.0
 10
-14.90895202
 20
2.5203899089
 30
0.0
 10
-14.8253314366
 20
2.3296398581
 30
0.0
  0
SPLINE
  5
472
100
AcDbEntity
  8
0
100
AcDbSpline
 62
250
  6
CONTINUOUS
 70
0
 71
3
 72
13
 73
9
 74
0
 42
0.0000001
 43
0.0000001
 44
0.0000000001
 40
0.0
 40
0.0
 40
0.0
 40
0.0
 40
0.2619986319
 40
0.3914016294
 40
0.5188034377
 40
0.7652371613
 40
0.8841557747
 40
1.0
 40
1.0
 40
1.0
 40
1.0
 10
-16.2430651047
 20
8.6103821551
 30
0.0
 10
-16.5215554689
 20
8.1280226954
 30
0.0
 10
-16.8637968465
 20
7.3606311509
 30
0.0
 10
-17.1459184146
 20
6.2926331429
 30
0.0
 10
-17.304511257
 20
5.2330025934
 30
0.0
 10
-17.2825120754
 20
4.1736885194
 30
0.0
 10
-17.0682581169
 20
3.1711436594
 30
0.0
 10
-16.8999219456
 20
2.6992964196
 30
0.0
 10
-16.8010428467
 20
2.473746069
 30
0.0
  0
SPLINE
  5
473
100
AcDbEntity
  8
0
100
AcDbSpline
 62
250
  6
CONTINUOUS
 70
0
 71
3
 72
12
 73
8
 74
0
 42
0.0000001
 43
0.0000001
 44
0.0000000001
 40
0.0
 40
0.0
 40
0.0
 40
0.0
 40
0.2621037259
 40
0.5186136395
 40
0.76514474
 40
0.884110404
 40
1.0
 40
1.0
 40
1.0
 40
1.0
 10
-14.3534041468
 20
7.5194470578
 30
0.0
 10
-14.1179116353
 20
7.9273320523
 30
0.0
 10
-13.5657965006
 20
8.6882820748
 30
0.0
 10
-12.5338151709
 20
9.6120417141
 30
0.0
 10
-11.544041651
 20
10.1565518221
 30
0.0
 10
-10.7192109104
 20
10.4236503263
 30
0.0
 10
-10.3025229315
 20
10.4999005979
 30
0.0
 10
-10.0955475122
 20
10.5228768564
 30
0.0
  0
SPLINE
  5
474
100
AcDbEntity
  8
0
100
AcDbSpline
 62
7
  6
CONTINUOUS
 70
0
 71
3
 72
9
 73
5
 74
0
 42
0.0000001
 43
0.0000001
 44
0.0000000001
 40
0.0
 40
0.0
 40
0.0
 40
0.0
 40
0.2534553713
 40
1.0
 40
1.0
 40
1.0
 40
1.0
 10
-15.3015448692
 20
1.4647082081
 30
0.0
 10
-15.2793723219
 20
1.3682688808
 30
0.0
 10
-15.1836443602
 20
0.9897291706
 30
0.0
 10
-15.0543199319
 20
0.6195645297
 30
0.0
 10
-14.9388247789
 20
0.3519537131
 30
0.0
  0
SPLINE
  5
475
100
AcDbEntity
  8
0
100
AcDbSpline
 62
250
  6
CONTINUOUS
 70
0
 71
3
 72
13
 73
9
 74
0
 42
0.0000001
 43
0.0000001
 44
0.0000000001
 40
0.0
 40
0.0
 40
0.0
 40
0.0
 40
0.2619991515
 40
0.3914017445
 40
0.5188030381
 40
0.7652363059
 40
0.8841551445
 40
1.0
 40
1.0
 40
1.0
 40
1.0
 10
-16.2430651047
 20
8.6103821551
 30
0.0
 10
-15.9646138669
 20
9.092673846
 30
0.0
 10
-15.4712351992
 20
9.7726681318
 30
0.0
 10
-14.6875210265
 20
10.5509059115
 30
0.0
 10
-13.8493029884
 20
11.2180078431
 30
0.0
 10
-12.9210798887
 20
11.7285984843
 30
0.0
 10
-11.9458902504
 20
12.0443630258
 30
0.0
 10
-11.4531688851
 20
12.1345425536
 30
0.0
 10
-11.2084336862
 20
12.1617105068
 30
0.0
  0
SPLINE
  5
476
100
AcDbEntity
  8
0
100
AcDbSpline
 62
7
  6
CONTINUOUS
 70
0
 71
3
 72
11
 73
7
 74
0
 42
0.0000001
 43
0.0000001
 44
0.0000000001
 40
0.0
 40
0.0
 40
0.0
 40
0.0
 40
0.2643051313
 40
0.5218833169
 40
0.7677238246
 40
1.0
 40
1.0
 40
1.0
 40
1.0
 10
-8.8639180255
 20
4.3502610655
 30
0.0
 10
-8.9809142553
 20
4.1476176514
 30
0.0
 10
-9.1669058613
 20
3.7193877885
 30
0.0
 10
-9.286258966
 20
3.0436716776
 30
0.0
 10
-9.2354330907
 20
2.3869786224
 30
0.0
 10
-9.0831378222
 20
1.9838674509
 30
0.0
 10
-8.9802481978
 20
1.8058218457
 30
0.0
  0
SPLINE
  5
477
100
AcDbEntity
  8
RACCORDO
100
AcDbSpline
 62
250
  6
CONTINUOUS
 70
0
 71
3
 72
13
 73
9
 74
0
 42
0.0000001
 43
0.0000001
 44
0.0000000001
 40
0.0
 40
0.0
 40
0.0
 40
0.0
 40
0.2711591448
 40
0.5304447452
 40
0.6538254281
 40
0.7725906078
 40
0.8875102686
 40
1.0
 40
1.0
 40
1.0
 40
1.0
 10
-10.4710248067
 20
5.2780839433
 30
0.0
 10
-10.2525494356
 20
5.6564943858
 30
0.0
 10
-9.7092445003
 20
6.3364212361
 30
0.0
 10
-8.8072312254
 20
6.9225208209
 30
0.0
 10
-8.0307880955
 20
7.1619549736
 30
0.0
 10
-7.4541501395
 20
7.2203481975
 30
0.0
 10
-6.8955840256
 20
7.1570734508
 30
0.0
 10
-6.5464679347
 20
7.0336220822
 30
0.0
 10
-6.3837910258
 20
6.9536576814
 30
0.0
  0
SPLINE
  5
478
100
AcDbEntity
  8
SMUSSO
100
AcDbSpline
 62
7
  6
CONTINUOUS
 70
0
 71
3
 72
33
 73
29
 74
0
 42
0.0000001
 43
0.0000001
 44
0.0000000001
 40
0.0
 40
0.0
 40
0.0
 40
0.0
 40
0.0684739886
 40
0.1360830109
 40
0.1693537586
 40
0.2021391025
 40
0.2343771281
 40
0.2660243343
 40
0.3273980899
 40
0.3572256762
 40
0.3865113962
 40
0.4153285357
 40
0.4437719634
 40
0.4719549825
 40
0.500004397
 40
0.5280537177
 40
0.5562364603
 40
0.584679443
 40
0.6134959914
 40
0.6427810027
 40
0.6726077952
 40
0.7339798386
 40
0.7656262006
 40
0.7978634292
 40
0.8306480509
 40
0.8639181747
 40
0.9315263167
 40
1.0
 40
1.0
 40
1.0
 40
1.0
 10
-21.820772275
 20
11.8305716752
 30
0.0
 10
-22.1632944889
 20
11.2373057985
 30
0.0
 10
-22.7509740543
 20
10.0018094926
 30
0.0
 10
-23.225029685
 20
8.3667988819
 30
0.0
 10
-23.4325771701
 20
7.0443117674
 30
0.0
 10
-23.5006387547
 20
6.0620168719
 30
0.0
 10
-23.4811270445
 20
5.0936318394
 30
0.0
 10
-23.3403838591
 20
3.8471702464
 30
0.0
 10
-23.0275106947
 20
2.6484356909
 30
0.0
 10
-22.5429592637
 20
1.5426706706
 30
0.0
 10
-22.1040222907
 20
0.7781641886
 30
0.0
 10
-21.5905122361
 20
0.0787261728
 30
0.0
 10
-21.0072184136
 20
-0.5488310272
 30
0.0
 10
-20.3598135733
 20
-1.0982884468
 30
0.0
 10
-19.6546255124
 20
-1.5642536082
 30
0.0
 10
-18.8985174235
 20
-1.942022916
 30
0.0
 10
-18.0989940929
 20
-2.2280039949
 30
0.0
 10
-17.2638892286
 20
-2.4194125862
 30
0.0
 10
-16.4014248124
 20
-2.5144449856
 30
0.0
 10
-15.519895011
 20
-2.5123592929
 30
0.0
 10
-14.3200256692
 20
-2.3791577522
 30
0.0
 10
-13.1254769899
 20
-2.0507881456
 30
0.0
 10
-11.9756588349
 20
-1.5494804118
 30
0.0
 10
-11.1272706246
 20
-1.0822094744
 30
0.0
 10
-10.3106209593
 20
-0.5321395661
 30
0.0
 10
-9.2690985724
 20
0.3088240881
 30
0.0
 10
-8.0901748365
 20
1.5368578596
 30
0.0
 10
-7.314050557
 20
2.6635419835
 30
0.0
 10
-6.9715298701
 20
3.2568052153
 30
0.0
  0
SPLINE
  5
479
100
AcDbEntity
  8
RACCORDO
100
AcDbSpline
 62
250
  6
CONTINUOUS
 70
0
 71
3
 72
13
 73
9
 74
0
 42
0.0000001
 43
0.0000001
 44
0.0000000001
 40
0.0
 40
0.0
 40
0.0
 40
0.0
 40
0.1124889264
 40
0.2274081771
 40
0.3461735401
 40
0.469554992
 40
0.728842155
 40
1.0
 40
1.0
 40
1.0
 40
1.0
 10
-9.878271022
 20
0.9003160499
 30
0.0
 10
-10.0288837312
 20
1.0012096797
 30
0.0
 10
-10.3104006891
 20
1.2418233792
 30
0.0
 10
-10.6445444647
 20
1.6939353817
 30
0.0
 10
-10.8823462168
 20
2.2225519558
 30
0.0
 10
-11.0632654211
 20
3.0147582089
 30
0.0
 10
-11.0067239811
 20
4.089080391
 30
0.0
 10
-10.6895194123
 20
4.8996401855
 30
0.0
 10
-10.4710248067
 20
5.2780839433
 30
0.0
  0
SPLINE
  5
47A
100
AcDbEntity
  8
SMUSSO
100
AcDbSpline
 62
7
  6
CONTINUOUS
 70
0
 71
3
 72
33
 73
29
 74
0
 42
0.0000001
 43
0.0000001
 44
0.0000000001
 40
0.0
 40
0.0
 40
0.0
 40
0.0
 40
0.0684736833
 40
0.1360818253
 40
0.1693519491
 40
0.2021365708
 40
0.2343737994
 40
0.2660201614
 40
0.3273922048
 40
0.3572189973
 40
0.3865040086
 40
0.415320557
 40
0.4437635397
 40
0.4719462823
 40
0.499995603
 40
0.5280450175
 40
0.5562280366
 40
0.5846714643
 40
0.6134886038
 40
0.6427743238
 40
0.6726019101
 40
0.7339756657
 40
0.7656228719
 40
0.7978608975
 40
0.8306462414
 40
0.8639169891
 40
0.9315260114
 40
1.0
 40
1.0
 40
1.0
 40
1.0
 10
-21.820772275
 20
11.8305716752
 30
0.0
 10
-21.4782515881
 20
12.423834907
 30
0.0
 10
-20.7021273086
 20
13.5505190309
 30
0.0
 10
-19.5232035727
 20
14.7785528024
 30
0.0
 10
-18.4816811858
 20
15.6195164566
 30
0.0
 10
-17.6650315205
 20
16.1695863649
 30
0.0
 10
-16.8166433101
 20
16.6368573023
 30
0.0
 10
-15.6668251552
 20
17.1381650361
 30
0.0
 10
-14.4722764759
 20
17.4665346427
 30
0.0
 10
-13.2724071341
 20
17.5997361834
 30
0.0
 10
-12.3908773326
 20
17.6018218761
 30
0.0
 10
-11.5284129164
 20
17.5067894767
 30
0.0
 10
-10.6933080522
 20
17.3153808854
 30
0.0
 10
-9.8937847215
 20
17.0293998065
 30
0.0
 10
-9.1376766327
 20
16.6516304988
 30
0.0
 10
-8.4324885718
 20
16.1856653373
 30
0.0
 10
-7.7850837314
 20
15.6362079177
 30
0.0
 10
-7.201789909
 20
15.0086507177
 30
0.0
 10
-6.6882798544
 20
14.3092127019
 30
0.0
 10
-6.2493428814
 20
13.5447062199
 30
0.0
 10
-5.7647914504
 20
12.4389411996
 30
0.0
 10
-5.4519182859
 20
11.2402066441
 30
0.0
 10
-5.3111751006
 20
9.9937450511
 30
0.0
 10
-5.2916633904
 20
9.0253600186
 30
0.0
 10
-5.359724975
 20
8.0430651231
 30
0.0
 10
-5.56727246
 20
6.7205780086
 30
0.0
 10
-6.0413280908
 20
5.0855673979
 30
0.0
 10
-6.6290076561
 20
3.850071092
 30
0.0
 10
-6.9715298701
 20
3.2568052153
 30
0.0
  0
SPLINE
  5
47B
100
AcDbEntity
  8
0
100
AcDbSpline
 62
7
  6
CONTINUOUS
 70
0
 71
3
 72
11
 73
7
 74
0
 42
0.0000001
 43
0.0000001
 44
0.0000000001
 40
0.0
 40
0.0
 40
0.0
 40
0.0
 40
0.259258721
 40
0.5144371456
 40
0.7621126886
 40
1.0
 40
1.0
 40
1.0
 40
1.0
 10
-13.5984111674
 20
7.0836971968
 30
0.0
 10
-13.8411582293
 20
6.6632469526
 30
0.0
 10
-14.2493032181
 20
5.7838938534
 30
0.0
 10
-14.6085827133
 20
4.3945164161
 30
0.0
 10
-14.6971232529
 20
3.0017155338
 30
0.0
 10
-14.5679884695
 20
2.0932895091
 30
0.0
 10
-14.4555333239
 20
1.6622437041
 30
0.0
  0
SPLINE
  5
47C
100
AcDbEntity
  8
0
100
AcDbSpline
 62
7
  6
CONTINUOUS
 70
0
 71
3
 72
11
 73
7
 74
0
 42
0.0000001
 43
0.0000001
 44
0.0000000001
 40
0.0
 40
0.0
 40
0.0
 40
0.0
 40
0.2610749078
 40
0.5171720208
 40
0.7642439337
 40
1.0
 40
1.0
 40
1.0
 40
1.0
 10
-12.6984111674
 20
6.5641489123
 30
0.0
 10
-12.9666514316
 20
6.0995431466
 30
0.0
 10
-13.4085158795
 20
5.1239670507
 30
0.0
 10
-13.7598818785
 20
3.5822320026
 30
0.0
 10
-13.7781238131
 20
2.0521399538
 30
0.0
 10
-13.5583638937
 20
1.0725074342
 30
0.0
 10
-13.391368821
 20
0.6177465997
 30
0.0
  0
SPLINE
  5
47D
100
AcDbEntity
  8
0
100
AcDbSpline
 62
7
  6
CONTINUOUS
 70
0
 71
3
 72
9
 73
5
 74
0
 42
0.0000001
 43
0.0000001
 44
0.0000000001
 40
0.0
 40
0.0
 40
0.0
 40
0.0
 40
0.2468434291
 40
1.0
 40
1.0
 40
1.0
 40
1.0
 10
-8.4396373238
 20
11.6101990612
 30
0.0
 10
-8.5353684057
 20
11.5990182234
 30
0.0
 10
-8.9220879663
 20
11.5446101187
 30
0.0
 10
-9.3035854849
 20
11.4540756024
 30
0.0
 10
-9.5847233993
 20
11.3678095836
 30
0.0
  0
SPLINE
  5
47E
100
AcDbEntity
  8
0
100
AcDbSpline
 62
7
  6
CONTINUOUS
 70
0
 71
3
 72
9
 73
5
 74
0
 42
0.0000001
 43
0.0000001
 44
0.0000000001
 40
0.0
 40
0.0
 40
0.0
 40
0.0
 40
0.5113700844
 40
1.0
 40
1.0
 40
1.0
 40
1.0
 10
-15.7980061785
 20
4.6484454152
 30
0.0
 10
-15.9184725007
 20
4.0124677149
 30
0.0
 10
-16.0239157807
 20
2.7396180705
 30
0.0
 10
-15.8333289604
 20
1.4735923458
 30
0.0
 10
-15.6622080725
 20
0.8792333332
 30
0.0
  0
SPLINE
  5
47F
100
AcDbEntity
  8
0
100
AcDbSpline
 62
250
  6
CONTINUOUS
 70
0
 71
3
 72
14
 73
10
 74
0
 42
0.0000001
 43
0.0000001
 44
0.0000000001
 40
0.0
 40
0.0
 40
0.0
 40
0.0
 40
0.2613212306
 40
0.388141655
 40
0.5127144423
 40
0.6355461569
 40
0.7572454997
 40
0.8784933846
 40
1.0
 40
1.0
 40
1.0
 40
1.0
 10
-15.6591310828
 20
3.0200891463
 30
0.0
 10
-15.5728796611
 20
2.6448556655
 30
0.0
 10
-15.3839217819
 20
2.0980887529
 30
0.0
 10
-15.0122928406
 20
1.4388007615
 30
0.0
 10
-14.6834542814
 20
0.994305195
 30
0.0
 10
-14.3058127231
 20
0.600905118
 30
0.0
 10
-13.8836928355
 20
0.2633049524
 30
0.0
 10
-13.4223397599
 20
-0.014396709
 30
0.0
 10
-13.0929845246
 20
-0.156994195
 30
0.0
 10
-12.9243952294
 20
-0.2172157648
 30
0.0
  0
SPLINE
  5
480
100
AcDbEntity
  8
0
100
AcDbSpline
 62
7
  6
CONTINUOUS
 70
0
 71
3
 72
11
 73
7
 74
0
 42
0.0000001
 43
0.0000001
 44
0.0000000001
 40
0.0
 40
0.0
 40
0.0
 40
0.0
 40
0.2587514311
 40
0.5136699611
 40
0.7615019258
 40
1.0
 40
1.0
 40
1.0
 40
1.0
 10
-15.1590713392
 20
7.9847470226
 30
0.0
 10
-15.4475621041
 20
7.4850663607
 30
0.0
 10
-15.9354523225
 20
6.4412163339
 30
0.0
 10
-16.3765369191
 20
4.792313002
 30
0.0
 10
-16.5063568276
 20
3.1350951452
 30
0.0
 10
-16.3767387564
 20
2.0492457215
 30
0.0
 10
-16.2565288183
 20
1.5311904628
 30
0.0
  0
SPLINE
  5
481
100
AcDbEntity
  8
0
100
AcDbSpline
 62
7
  6
CONTINUOUS
 70
0
 71
3
 72
10
 73
6
 74
0
 42
0.0000001
 43
0.0000001
 44
0.0000000001
 40
0.0
 40
0.0
 40
0.0
 40
0.0
 40
0.2432290689
 40
0.490720794
 40
1.0
 40
1.0
 40
1.0
 40
1.0
 10
-7.4288279928
 20
13.5350451999
 30
0.0
 10
-7.6874557781
 20
13.5738710555
 30
0.0
 10
-8.2145649777
 20
13.6206673302
 30
0.0
 10
-9.2910085133
 20
13.5911398043
 30
0.0
 10
-10.0972221994
 20
13.4303295551
 30
0.0
 10
-10.6207153845
 20
13.2696772904
 30
0.0
  0
SPLINE
  5
482
100
AcDbEntity
  8
0
100
AcDbSpline
 62
7
  6
CONTINUOUS
 70
0
 71
3
 72
11
 73
7
 74
0
 42
0.0000001
 43
0.0000001
 44
0.0000000001
 40
0.0
 40
0.0
 40
0.0
 40
0.0
 40
0.2635324815
 40
0.5184564527
 40
0.763811353
 40
1.0
 40
1.0
 40
1.0
 40
1.0
 10
-18.0597981156
 20
5.1865603576
 30
0.0
 10
-18.1690877078
 20
4.5986849689
 30
0.0
 10
-18.290279931
 20
3.4219567662
 30
0.0
 10
-18.1646080792
 20
1.6841660697
 30
0.0
 10
-17.7323981337
 20
0.0594828993
 30
0.0
 10
-17.2389103271
 20
-0.9262156422
 30
0.0
 10
-16.9472621158
 20
-1.3758110378
 30
0.0
  0
SPLINE
  5
483
100
AcDbEntity
  8
0
100
AcDbSpline
 62
7
  6
CONTINUOUS
 70
0
 71
3
 72
13
 73
9
 74
0
 42
0.0000001
 43
0.0000001
 44
0.0000000001
 40
0.0
 40
0.0
 40
0.0
 40
0.0
 40
0.2654931118
 40
0.5233620131
 40
0.6479030332
 40
0.7688066878
 40
0.8860615202
 40
1.0
 40
1.0
 40
1.0
 40
1.0
 10
-17.1904421891
 20
9.1575346564
 30
0.0
 10
-17.6770389336
 20
8.314724373
 30
0.0
 10
-18.4371274327
 20
6.5291220798
 30
0.0
 10
-18.798244733
 20
4.1523281005
 30
0.0
 10
-18.6930092384
 20
2.3048393205
 30
0.0
 10
-18.4244063241
 20
0.9974286311
 30
0.0
 10
-17.9707889315
 20
-0.2164063454
 30
0.0
 10
-17.5453066205
 20
-0.9549134039
 30
0.0
 10
-17.3057960563
 20
-1.2970673487
 30
0.0
  0
SPLINE
  5
484
100
AcDbEntity
  8
RACCORDO
100
AcDbSpline
 62
250
  6
CONTINUOUS
 70
0
 71
3
 72
31
 73
27
 74
0
 42
0.0000001
 43
0.0000001
 44
0.0000000001
 40
0.0
 40
0.0
 40
0.0
 40
0.0
 40
0.0684499947
 40
0.1360515501
 40
0.1693213531
 40
0.2021100487
 40
0.2343551722
 40
0.2660119364
 40
0.3274088289
 40
0.3864587027
 40
0.4152871217
 40
0.4437415465
 40
0.4719355178
 40
0.4999959199
 40
0.5280564122
 40
0.5562506632
 40
0.5847055506
 40
0.6135345641
 40
0.6725859629
 40
0.7339845173
 40
0.7656420864
 40
0.7978879237
 40
0.8306772455
 40
0.8639475771
 40
0.9315498387
 40
1.0
 40
1.0
 40
1.0
 40
1.0
 10
-7.5076806751
 20
3.5663719706
 30
0.0
 10
-7.825302262
 20
3.0162352452
 30
0.0
 10
-8.5450642004
 20
1.9713154203
 30
0.0
 10
-9.6383054106
 20
0.832208175
 30
0.0
 10
-10.6043401481
 20
0.052018178
 30
0.0
 10
-11.3618996778
 20
-0.4584303199
 30
0.0
 10
-12.1489404608
 20
-0.8921399379
 30
0.0
 10
-13.2160674848
 20
-1.3574616821
 30
0.0
 10
-14.5864282913
 20
-1.7349093586
 30
0.0
 10
-15.9810835617
 20
-1.8185197088
 30
0.0
 10
-17.0562417195
 20
-1.7000378792
 30
0.0
 10
-17.8312835479
 20
-1.5224672457
 30
0.0
 10
-18.5732397831
 20
-1.2571121676
 30
0.0
 10
-19.2749082388
 20
-0.9065456807
 30
0.0
 10
-19.9293176254
 20
-0.4741251576
 30
0.0
 10
-20.5300791788
 20
0.0357867322
 30
0.0
 10
-21.0713555907
 20
0.6182476615
 30
0.0
 10
-21.7115144792
 20
1.4901713976
 30
0.0
 10
-22.3363949175
 20
2.7398407708
 30
0.0
 10
-22.6946684914
 20
4.1153764926
 30
0.0
 10
-22.8252268132
 20
5.2722289324
 30
0.0
 10
-22.8431301349
 20
6.1707010333
 30
0.0
 10
-22.7798366762
 20
7.0820075977
 30
0.0
 10
-22.5871769838
 20
8.3087285969
 30
0.0
 10
-22.1472933877
 20
9.8250675589
 30
0.0
 10
-21.6022438297
 20
10.9708668557
 30
0.0
 10
-21.2846214699
 20
11.5210049199
 30
0.0
  0
SPLINE
  5
485
100
AcDbEntity
  8
RACCORDO
100
AcDbSpline
 62
250
  6
CONTINUOUS
 70
0
 71
3
 72
31
 73
27
 74
0
 42
0.0000001
 43
0.0000001
 44
0.0000000001
 40
0.0
 40
0.0
 40
0.0
 40
0.0
 40
0.0684499947
 40
0.1360515501
 40
0.1693213531
 40
0.2021100487
 40
0.2343551722
 40
0.2660119364
 40
0.3274088289
 40
0.3864587027
 40
0.4152871217
 40
0.4437415465
 40
0.4719355178
 40
0.4999959199
 40
0.5280564122
 40
0.5562506632
 40
0.5847055506
 40
0.6135345641
 40
0.6725859629
 40
0.7339845173
 40
0.7656420864
 40
0.7978879237
 40
0.8306772455
 40
0.8639475771
 40
0.9315498387
 40
1.0
 40
1.0
 40
1.0
 40
1.0
 10
-21.2846214699
 20
11.5210049199
 30
0.0
 10
-20.9669998831
 20
12.0711416454
 30
0.0
 10
-20.2472379447
 20
13.1160614702
 30
0.0
 10
-19.1539967344
 20
14.2551687155
 30
0.0
 10
-18.187961997
 20
15.0353587125
 30
0.0
 10
-17.4304024673
 20
15.5458072105
 30
0.0
 10
-16.6433616843
 20
15.9795168284
 30
0.0
 10
-15.5762346603
 20
16.4448385726
 30
0.0
 10
-14.2058738537
 20
16.8222862491
 30
0.0
 10
-12.8112185834
 20
16.9058965993
 30
0.0
 10
-11.7360604255
 20
16.7874147697
 30
0.0
 10
-10.9610185972
 20
16.6098441362
 30
0.0
 10
-10.219062362
 20
16.3444890582
 30
0.0
 10
-9.5173939063
 20
15.9939225713
 30
0.0
 10
-8.8629845196
 20
15.5615020482
 30
0.0
 10
-8.2622229663
 20
15.0515901583
 30
0.0
 10
-7.7209465544
 20
14.469129229
 30
0.0
 10
-7.0807876658
 20
13.5972054929
 30
0.0
 10
-6.4559072276
 20
12.3475361197
 30
0.0
 10
-6.0976336536
 20
10.972000398
 30
0.0
 10
-5.9670753319
 20
9.8151479581
 30
0.0
 10
-5.9491720102
 20
8.9166758572
 30
0.0
 10
-6.0124654689
 20
8.0053692928
 30
0.0
 10
-6.2051251612
 20
6.7786482936
 30
0.0
 10
-6.6450087573
 20
5.2623093317
 30
0.0
 10
-7.1900583154
 20
4.1165100348
 30
0.0
 10
-7.5076806751
 20
3.5663719706
 30
0.0
  0
SPLINE
  5
486
100
AcDbEntity
  8
RACCORDO
100
AcDbSpline
 62
250
  6
CONTINUOUS
 70
0
 71
3
 72
13
 73
9
 74
0
 42
0.0000001
 43
0.0000001
 44
0.0000000001
 40
0.0
 40
0.0
 40
0.0
 40
0.0
 40
0.1128957383
 40
0.2289329942
 40
0.3488707989
 40
0.4729788326
 40
0.7317447591
 40
1.0
 40
1.0
 40
1.0
 40
1.0
 10
-9.1025518572
 20
1.6711158982
 30
0.0
 10
-9.1849635986
 20
1.7545414671
 30
0.0
 10
-9.3350990148
 20
1.9413347125
 30
0.0
 10
-9.5044966027
 20
2.2639469289
 30
0.0
 10
-9.6164153021
 20
2.6229110046
 30
0.0
 10
-9.6860489991
 20
3.1426578715
 30
0.0
 10
-9.6136987473
 20
3.825939089
 30
0.0
 10
-9.4032388497
 20
4.3398606682
 30
0.0
 10
-9.2639180255
 20
4.5811714141
 30
0.0
  0
SPLINE
  5
487
100
AcDbEntity
  8
0
100
AcDbSpline
 62
250
  6
CONTINUOUS
 70
0
 71
3
 72
15
 73
11
 74
0
 42
0.0000001
 43
0.0000001
 44
0.0000000001
 40
0.0
 40
0.0
 40
0.0
 40
0.0
 40
0.1320078092
 40
0.2602203627
 40
0.3852157916
 40
0.5079049655
 40
0.6294540091
 40
0.7511607684
 40
0.8743046049
 40
1.0
 40
1.0
 40
1.0
 40
1.0
 10
-12.43852029
 20
12.7118691377
 30
0.0
 10
-12.135981462
 20
12.8047175903
 30
0.0
 10
-11.5250449641
 20
12.9443538946
 30
0.0
 10
-10.5997446833
 20
13.0064806731
 30
0.0
 10
-9.698658985
 20
12.91629976
 30
0.0
 10
-8.8421402032
 20
12.6750885395
 30
0.0
 10
-8.0495852007
 20
12.287862029
 30
0.0
 10
-7.3390785339
 20
11.7632157476
 30
0.0
 10
-6.7267763602
 20
11.113535843
 30
0.0
 10
-6.3967154328
 20
10.6126157116
 30
0.0
 10
-6.2518594307
 20
10.3483843309
 30
0.0
  0
SPLINE
  5
488
100
AcDbEntity
  8
RACCORDO
100
AcDbSpline
 62
250
  6
CONTINUOUS
 70
0
 71
3
 72
17
 73
13
 74
0
 42
0.0000001
 43
0.0000001
 44
0.0000000001
 40
0.0
 40
0.0
 40
0.0
 40
0.0
 40
0.056014704
 40
0.1124556493
 40
0.1695363143
 40
0.2274416093
 40
0.3461290922
 40
0.4693784504
 40
0.5972015265
 40
0.7290079777
 40
0.8637365672
 40
1.0
 40
1.0
 40
1.0
 40
1.0
 10
-19.3331937791
 20
-0.3638202573
 30
0.0
 10
-19.5282365526
 20
-0.2262424253
 30
0.0
 10
-19.9043151147
 20
0.0726872537
 30
0.0
 10
-20.4164077076
 20
0.5842548697
 30
0.0
 10
-20.8737572322
 20
1.1557823682
 30
0.0
 10
-21.4092926032
 20
1.9971319619
 30
0.0
 10
-21.9203352437
 20
3.1786612526
 30
0.0
 10
-22.2556396295
 20
4.7272805526
 30
0.0
 10
-22.3101264045
 20
6.3661213052
 30
0.0
 10
-22.083219905
 20
8.0387176433
 30
0.0
 10
-21.5841659764
 20
9.6878716794
 30
0.0
 10
-21.0820131334
 20
10.7335827661
 30
0.0
 10
-20.7916991923
 20
11.2364212617
 30
0.0
  0
SPLINE
  5
489
100
AcDbEntity
  8
0
100
AcDbSpline
 62
7
  6
CONTINUOUS
 70
0
 71
3
 72
11
 73
7
 74
0
 42
0.0000001
 43
0.0000001
 44
0.0000000001
 40
0.0
 40
0.0
 40
0.0
 40
0.0
 40
0.2384991125
 40
0.4863306745
 40
0.7412483731
 40
1.0
 40
1.0
 40
1.0
 40
1.0
 10
-10.1199936446
 20
12.1615142563
 30
0.0
 10
-10.6286366178
 20
12.0065542273
 30
0.0
 10
-11.6335863103
 20
11.5758538167
 30
0.0
 10
-13.0035450654
 20
10.6348911067
 30
0.0
 10
-14.2107159739
 20
9.4286205021
 30
0.0
 10
-14.8706333284
 20
8.4843363116
 30
0.0
 10
-15.1590713392
 20
7.9847470226
 30
0.0
  0
SPLINE
  5
48A
100
AcDbEntity
  8
ASSI
100
AcDbSpline
 62
7
  6
CONTINUOUS
 70
0
 71
3
 72
11
 73
7
 74
0
 42
0.0000001
 43
0.0000001
 44
0.0000000001
 40
0.0
 40
0.0
 40
0.0
 40
0.0
 40
0.2354151827
 40
0.4896852116
 40
0.7493493302
 40
1.0
 40
1.0
 40
1.0
 40
1.0
 10
16.7821815191
 20
-105.9422715331
 30
0.0
 10
16.505688592
 20
-106.0739579859
 30
0.0
 10
15.89716689
 20
-106.2796252121
 30
0.0
 10
14.9281560167
 20
-106.4203944389
 30
0.0
 10
13.9294403273
 20
-106.3997467258
 30
0.0
 10
13.2731352386
 20
-106.2746842867
 30
0.0
 10
12.9604323259
 20
-106.1822773483
 30
0.0
  0
SPLINE
  5
48B
100
AcDbEntity
  8
ASSI
100
AcDbSpline
 62
7
  6
CONTINUOUS
 70
0
 71
3
 72
18
 73
14
 74
0
 42
0.0000001
 43
0.0000001
 44
0.0000000001
 40
0.0
 40
0.0
 40
0.0
 40
0.0
 40
0.0561130747
 40
0.1124934388
 40
0.1693944621
 40
0.2270429951
 40
0.2856291306
 40
0.3452989199
 40
0.4680770724
 40
0.5957427747
 40
0.7277631349
 40
0.8630215792
 40
1.0
 40
1.0
 40
1.0
 40
1.0
 10
-9.3219308299
 20
23.204539343
 30
0.0
 10
-8.9492679738
 20
22.9894100522
 30
0.0
 10
-8.227423516
 20
22.5125918166
 30
0.0
 10
-7.2347751458
 20
21.670189358
 30
0.0
 10
-6.3402729954
 20
20.7079299637
 30
0.0
 10
-5.5527645331
 20
19.6354910981
 30
0.0
 10
-4.8796848028
 20
18.4632519417
 30
0.0
 10
-4.1365303472
 20
16.7675570154
 30
0.0
 10
-3.5313590898
 20
14.4495348472
 30
0.0
 10
-3.3449722357
 20
11.5064423046
 30
0.0
 10
-3.6931043758
 20
8.482478865
 30
0.0
 10
-4.5603616869
 20
5.4924083261
 30
0.0
 10
-5.4615260065
 20
3.597546494
 30
0.0
 10
-5.9867318954
 20
2.6878632109
 30
0.0
  0
SPLINE
  5
48C
100
AcDbEntity
  8
ASSI
100
AcDbSpline
 62
7
  6
CONTINUOUS
 70
0
 71
3
 72
14
 73
10
 74
0
 42
0.0000001
 43
0.0000001
 44
0.0000000001
 40
0.0
 40
0.0
 40
0.0
 40
0.0
 40
0.1124568344
 40
0.2269834657
 40
0.3452394254
 40
0.4681977114
 40
0.5960502481
 40
0.7282658405
 40
1.0
 40
1.0
 40
1.0
 40
1.0
 10
17.2583342478
 20
-46.7030521677
 30
0.0
 10
17.3486597081
 20
-46.7551948881
 30
0.0
 10
17.5188510356
 20
-46.8831236335
 30
0.0
 10
17.7239725075
 20
-47.1325357135
 30
0.0
 10
17.872676363
 20
-47.4299897553
 30
0.0
 10
17.959656935
 20
-47.7633614288
 30
0.0
 10
17.9822194564
 20
-48.1200138719
 30
0.0
 10
17.9257726666
 20
-48.6117905455
 30
0.0
 10
17.7882954121
 20
-48.9697380809
 30
0.0
 10
17.662288615
 20
-49.1879882553
 30
0.0
  0
SPLINE
  5
48D
100
AcDbEntity
  8
ASSI
100
AcDbSpline
 62
7
  6
CONTINUOUS
 70
0
 71
3
 72
13
 73
9
 74
0
 42
0.0000001
 43
0.0000001
 44
0.0000000001
 40
0.0
 40
0.0
 40
0.0
 40
0.0
 40
0.2720175263
 40
0.5313143734
 40
0.6544007694
 40
0.7727800858
 40
0.8874249218
 40
1.0
 40
1.0
 40
1.0
 40
1.0
 10
-100.4004800051
 20
-7.2321469348
 30
0.0
 10
-100.6266381444
 20
-7.6238643222
 30
0.0
 10
-100.9506537943
 20
-8.4643131968
 30
0.0
 10
-100.9896771341
 20
-9.5766823265
 30
0.0
 10
-100.7781494157
 20
-10.3873549964
 30
0.0
 10
-100.5112749653
 20
-10.9213014985
 30
0.0
 10
-100.1431588257
 20
-11.3689600057
 30
0.0
 10
-99.8377168005
 20
-11.5985963335
 30
0.0
 10
-99.6756062709
 20
-11.6921969216
 30
0.0
  0
SPLINE
  5
48E
100
AcDbEntity
  8
ASSI
100
AcDbSpline
 62
7
  6
CONTINUOUS
 70
0
 71
3
 72
13
 73
9
 74
0
 42
0.0000001
 43
0.0000001
 44
0.0000000001
 40
0.0
 40
0.0
 40
0.0
 40
0.0
 40
0.112576333
 40
0.227221119
 40
0.3455995135
 40
0.4686846642
 40
0.7279800389
 40
1.0
 40
1.0
 40
1.0
 40
1.0
 10
-31.6756062709
 20
106.0872578709
 30
0.0
 10
-31.837715725
 20
106.180857838
 30
0.0
 10
-32.1892948773
 20
106.3305782837
 30
0.0
 10
-32.7610225311
 20
106.4255740434
 30
0.0
 10
-33.3568585929
 20
106.3897451182
 30
0.0
 10
-34.1646720928
 20
106.1676248297
 30
0.0
 10
-35.1084914864
 20
105.5776642979
 30
0.0
 10
-35.6743238626
 20
104.8768439663
 30
0.0
 10
-35.9004800051
 20
104.4851300374
 30
0.0
  0
SPLINE
  5
48F
100
AcDbEntity
  8
ASSI
100
AcDbSpline
 62
7
  6
CONTINUOUS
 70
0
 71
3
 72
14
 73
10
 74
0
 42
0.0000001
 43
0.0000001
 44
0.0000000001
 40
0.0
 40
0.0
 40
0.0
 40
0.0
 40
0.1124568344
 40
0.2269834657
 40
0.3452394254
 40
0.4681977114
 40
0.5960502481
 40
0.7282658405
 40
1.0
 40
1.0
 40
1.0
 40
1.0
 10
59.0083342478
 20
25.6100689733
 30
0.0
 10
59.0986597081
 20
25.5579262529
 30
0.0
 10
59.2688510356
 20
25.4299975074
 30
0.0
 10
59.4739725075
 20
25.1805854275
 30
0.0
 10
59.622676363
 20
24.8831313856
 30
0.0
 10
59.709656935
 20
24.5497597122
 30
0.0
 10
59.7322194564
 20
24.1931072691
 30
0.0
 10
59.6757726666
 20
23.7013305954
 30
0.0
 10
59.5382954121
 20
23.34338306
 30
0.0
 10
59.412288615
 20
23.1251328856
 30
0.0
  0
SPLINE
  5
490
100
AcDbEntity
  8
ASSI
100
AcDbSpline
 62
7
  6
CONTINUOUS
 70
0
 71
3
 72
14
 73
10
 74
0
 42
0.0000001
 43
0.0000001
 44
0.0000000001
 40
0.0
 40
0.0
 40
0.0
 40
0.0
 40
0.1124568344
 40
0.2269834657
 40
0.3452394254
 40
0.4681977114
 40
0.5960502481
 40
0.7282658405
 40
1.0
 40
1.0
 40
1.0
 40
1.0
 10
1.2814223132
 20
0.7430199609
 30
0.0
 10
1.3717477735
 20
0.6908772405
 30
0.0
 10
1.541939101
 20
0.5629484951
 30
0.0
 10
1.7470605729
 20
0.3135364151
 30
0.0
 10
1.8957644284
 20
0.0160823733
 30
0.0
 10
1.9827450004
 20
-0.3172893002
 30
0.0
 10
2.0053075219
 20
-0.6739417433
 30
0.0
 10
1.948860732
 20
-1.1657184169
 30
0.0
 10
1.8113834775
 20
-1.5236659523
 30
0.0
 10
1.6853766804
 20
-1.7419161267
 30
0.0
  0
SPLINE
  5
491
100
AcDbEntity
  8
ASSI
100
AcDbSpline
 62
7
  6
CONTINUOUS
 70
0
 71
3
 72
14
 73
10
 74
0
 42
0.0000001
 43
0.0000001
 44
0.0000000001
 40
0.0
 40
0.0
 40
0.0
 40
0.0
 40
0.1124568344
 40
0.2269834657
 40
0.3452394254
 40
0.4681977114
 40
0.5960502481
 40
0.7282658405
 40
1.0
 40
1.0
 40
1.0
 40
1.0
 10
-34.0739167461
 20
21.1567496273
 30
0.0
 10
-33.9835912859
 20
21.1046069069
 30
0.0
 10
-33.8133999583
 20
20.9766781615
 30
0.0
 10
-33.6082784865
 20
20.7272660815
 30
0.0
 10
-33.4595746309
 20
20.4298120397
 30
0.0
 10
-33.372594059
 20
20.0964403662
 30
0.0
 10
-33.3500315375
 20
19.7397879231
 30
0.0
 10
-33.4064783273
 20
19.2480112494
 30
0.0
 10
-33.5439555818
 20
18.8900637141
 30
0.0
 10
-33.6699623789
 20
18.6718135396
 30
0.0
  0
SPLINE
  5
492
100
AcDbEntity
  8
ASSI
100
AcDbSpline
 62
7
  6
CONTINUOUS
 70
0
 71
3
 72
14
 73
10
 74
0
 42
0.0000001
 43
0.0000001
 44
0.0000000001
 40
0.0
 40
0.0
 40
0.0
 40
0.0
 40
0.1124568344
 40
0.2269834657
 40
0.3452394254
 40
0.4681977114
 40
0.5960502481
 40
0.7282658405
 40
1.0
 40
1.0
 40
1.0
 40
1.0
 10
-41.4008286807
 20
83.5850612258
 30
0.0
 10
-41.3105032204
 20
83.5329185054
 30
0.0
 10
-41.1403118929
 20
83.40498976
 30
0.0
 10
-40.935190421
 20
83.15557768
 30
0.0
 10
-40.7864865655
 20
82.8581236382
 30
0.0
 10
-40.6995059935
 20
82.5247519647
 30
0.0
 10
-40.6769434721
 20
82.1680995216
 30
0.0
 10
-40.7333902619
 20
81.676322848
 30
0.0
 10
-40.8708675164
 20
81.3183753126
 30
0.0
 10
-40.9968743135
 20
81.1001251382
 30
0.0
  0
SPLINE
  5
493
100
AcDbEntity
  8
ASSI
100
AcDbSpline
 62
7
  6
CONTINUOUS
 70
0
 71
3
 72
14
 73
10
 74
0
 42
0.0000001
 43
0.0000001
 44
0.0000000001
 40
0.0
 40
0.0
 40
0.0
 40
0.0
 40
0.1124568344
 40
0.2269834657
 40
0.3452394254
 40
0.4681977114
 40
0.5960502481
 40
0.7282658405
 40
1.0
 40
1.0
 40
1.0
 40
1.0
 10
-83.1508286807
 20
11.2719400849
 30
0.0
 10
-83.0605032204
 20
11.2197973645
 30
0.0
 10
-82.8903118929
 20
11.091868619
 30
0.0
 10
-82.685190421
 20
10.842456539
 30
0.0
 10
-82.5364865655
 20
10.5450024972
 30
0.0
 10
-82.4495059935
 20
10.2116308237
 30
0.0
 10
-82.4269434721
 20
9.8549783806
 30
0.0
 10
-82.4833902619
 20
9.363201707
 30
0.0
 10
-82.6208675164
 20
9.0052541716
 30
0.0
 10
-82.7468743135
 20
8.7870039972
 30
0.0
  0
SPLINE
  5
494
100
AcDbEntity
  8
ASSI
100
AcDbSpline
 62
7
  6
CONTINUOUS
 70
0
 71
3
 72
9
 73
5
 74
0
 42
0.0000001
 43
0.0000001
 44
0.0000000001
 40
0.0
 40
0.0
 40
0.0
 40
0.0
 40
0.4799077201
 40
1.0
 40
1.0
 40
1.0
 40
1.0
 10
20.7328143024
 20
-65.5538014464
 30
0.0
 10
20.5359383679
 20
-65.6638112049
 30
0.0
 10
20.102693218
 20
-65.8527158702
 30
0.0
 10
19.6464699979
 20
-65.9723805912
 30
0.0
 10
19.4064716155
 20
-66.0186133577
 30
0.0
  0
SPLINE
  5
495
100
AcDbEntity
  8
ASSI
100
AcDbSpline
 62
7
  6
CONTINUOUS
 70
0
 71
3
 72
13
 73
9
 74
0
 42
0.0000001
 43
0.0000001
 44
0.0000000001
 40
0.0
 40
0.0
 40
0.0
 40
0.0
 40
0.1053683289
 40
0.213221962
 40
0.4440265795
 40
0.5706220912
 40
0.705487925
 40
1.0
 40
1.0
 40
1.0
 40
1.0
 10
100.9605026521
 20
-64.8976071619
 30
0.0
 10
100.9605035151
 20
-64.9719819399
 30
0.0
 10
100.9459132461
 20
-65.1228773618
 30
0.0
 10
100.8576637655
 20
-65.4251987355
 30
0.0
 10
100.681750103
 20
-65.7102586623
 30
0.0
 10
100.4427434929
 20
-65.9631171408
 30
0.0
 10
100.1397595091
 20
-66.2139125737
 30
0.0
 10
99.8753318245
 20
-66.3671463052
 30
0.0
 10
99.6876486934
 20
-66.4565349418
 30
0.0
  0
SPLINE
  5
496
100
AcDbEntity
  8
ASSI
100
AcDbSpline
 62
7
  6
CONTINUOUS
 70
0
 71
3
 72
12
 73
8
 74
0
 42
0.0000001
 43
0.0000001
 44
0.0000000001
 40
0.0
 40
0.0
 40
0.0
 40
0.0
 40
0.1081651073
 40
0.2183690706
 40
0.4513738893
 40
0.7104225001
 40
1.0
 40
1.0
 40
1.0
 40
1.0
 10
100.9605026521
 20
-56.7329043939
 30
0.0
 10
100.9605018831
 20
-56.6666397024
 30
0.0
 10
100.9489797622
 20
-56.5325841659
 30
0.0
 10
100.8793556263
 20
-56.2638298495
 30
0.0
 10
100.700597549
 20
-55.9343020241
 30
0.0
 10
100.3676814853
 20
-55.5845881115
 30
0.0
 10
100.0890107125
 20
-55.392648868
 30
0.0
 10
99.9353780892
 20
-55.3039433168
 30
0.0
  0
SPLINE
  5
497
100
AcDbEntity
  8
ASSI
100
AcDbSpline
 62
7
  6
CONTINUOUS
 70
0
 71
3
 72
13
 73
9
 74
0
 42
0.0000001
 43
0.0000001
 44
0.0000000001
 40
0.0
 40
0.0
 40
0.0
 40
0.0
 40
0.2720199611
 40
0.5313153358
 40
0.6544004865
 40
0.772778881
 40
0.887423667
 40
1.0
 40
1.0
 40
1.0
 40
1.0
 10
14.90817786
 20
-73.8093628522
 30
0.0
 10
14.6820217175
 20
-74.2010767811
 30
0.0
 10
14.1161893413
 20
-74.9018971127
 30
0.0
 10
13.1723699477
 20
-75.4918576445
 30
0.0
 10
12.3645564478
 20
-75.713977933
 30
0.0
 10
11.7687203861
 20
-75.7498068582
 30
0.0
 10
11.1969927322
 20
-75.6548110985
 30
0.0
 10
10.84541358
 20
-75.5050906528
 30
0.0
 10
10.6833041259
 20
-75.4114906857
 30
0.0
  0
SPLINE
  5
498
100
AcDbEntity
  8
ASSI
100
AcDbSpline
 62
7
  6
CONTINUOUS
 70
0
 71
3
 72
11
 73
7
 74
0
 42
0.0000001
 43
0.0000001
 44
0.0000000001
 40
0.0
 40
0.0
 40
0.0
 40
0.0
 40
0.2352562349
 40
0.4821729746
 40
0.7384827008
 40
1.0
 40
1.0
 40
1.0
 40
1.0
 10
17.6444397619
 20
-47.870272225
 30
0.0
 10
17.6811570398
 20
-47.963466265
 30
0.0
 10
17.7305284006
 20
-48.1654157085
 30
0.0
 10
17.7306448606
 20
-48.4824196787
 30
0.0
 10
17.6599600807
 20
-48.8026776055
 30
0.0
 10
17.5686983528
 20
-49.0053445026
 30
0.0
 10
17.5130245463
 20
-49.101774364
 30
0.0
  0
SPLINE
  5
499
100
AcDbEntity
  8
ASSI
100
AcDbSpline
 62
7
  6
CONTINUOUS
 70
0
 71
3
 72
11
 73
7
 74
0
 42
0.0000001
 43
0.0000001
 44
0.0000000001
 40
0.0
 40
0.0
 40
0.0
 40
0.0
 40
0.2352562349
 40
0.4821729746
 40
0.7384827008
 40
1.0
 40
1.0
 40
1.0
 40
1.0
 10
59.3944397619
 20
24.442848916
 30
0.0
 10
59.4311570398
 20
24.3496548759
 30
0.0
 10
59.4805284006
 20
24.1477054325
 30
0.0
 10
59.4806448606
 20
23.8307014622
 30
0.0
 10
59.4099600807
 20
23.5104435355
 30
0.0
 10
59.3186983528
 20
23.3077766383
 30
0.0
 10
59.2630245463
 20
23.2113467769
 30
0.0
  0
SPLINE
  5
49A
100
AcDbEntity
  8
ASSI
100
AcDbSpline
 62
7
  6
CONTINUOUS
 70
0
 71
3
 72
11
 73
7
 74
0
 42
0.0000001
 43
0.0000001
 44
0.0000000001
 40
0.0
 40
0.0
 40
0.0
 40
0.0
 40
0.2352562349
 40
0.4821729746
 40
0.7384827008
 40
1.0
 40
1.0
 40
1.0
 40
1.0
 10
-41.0147231666
 20
82.4178411685
 30
0.0
 10
-40.9780058887
 20
82.3246471285
 30
0.0
 10
-40.9286345279
 20
82.122697685
 30
0.0
 10
-40.9285180679
 20
81.8056937148
 30
0.0
 10
-40.9992028478
 20
81.485435788
 30
0.0
 10
-41.0904645757
 20
81.2827688909
 30
0.0
 10
-41.1461383822
 20
81.1863390295
 30
0.0
  0
SPLINE
  5
49B
100
AcDbEntity
  8
ASSI
100
AcDbSpline
 62
7
  6
CONTINUOUS
 70
0
 71
3
 72
18
 73
14
 74
0
 42
0.0000001
 43
0.0000001
 44
0.0000000001
 40
0.0
 40
0.0
 40
0.0
 40
0.0
 40
0.1550714854
 40
0.3062079937
 40
0.4497918772
 40
0.5828635633
 40
0.7035298367
 40
0.7591200064
 40
0.8116625077
 40
0.861467002
 40
0.9090098265
 40
0.9549298669
 40
1.0
 40
1.0
 40
1.0
 40
1.0
 10
-10.659589093
 20
-84.6171352042
 30
0.0
 10
-10.9201211604
 20
-85.0683899816
 30
0.0
 10
-11.3850224795
 20
-85.989207456
 30
0.0
 10
-11.9079880836
 20
-87.4107994676
 30
0.0
 10
-12.2345187288
 20
-88.8150519285
 30
0.0
 10
-12.3521699222
 20
-90.1497109339
 30
0.0
 10
-12.2691290389
 20
-91.1927527589
 30
0.0
 10
-12.0861793141
 20
-91.9409858808
 30
0.0
 10
-11.9000513378
 20
-92.4394470713
 30
0.0
 10
-11.6628048202
 20
-92.8855346335
 30
0.0
 10
-11.3762621183
 20
-93.2747240872
 30
0.0
 10
-11.0430887918
 20
-93.6026414941
 30
0.0
 10
-10.7909318264
 20
-93.778602633
 30
0.0
 10
-10.6597815503
 20
-93.8543289037
 30
0.0
  0
SPLINE
  5
49C
100
AcDbEntity
  8
ASSI
100
AcDbSpline
 62
7
  6
CONTINUOUS
 70
0
 71
3
 72
12
 73
8
 74
0
 42
0.0000001
 43
0.0000001
 44
0.0000000001
 40
0.0
 40
0.0
 40
0.0
 40
0.0
 40
0.1076875578
 40
0.2174885471
 40
0.4501118618
 40
0.7095025071
 40
1.0
 40
1.0
 40
1.0
 40
1.0
 10
32.5791415927
 20
-58.0778230309
 30
0.0
 10
32.5791410016
 20
-58.1454752663
 30
0.0
 10
32.5671215706
 20
-58.2824011589
 30
0.0
 10
32.4944748837
 20
-58.5568997743
 30
0.0
 10
32.3079343299
 20
-58.8929362172
 30
0.0
 10
31.9616017267
 20
-59.2476501465
 30
0.0
 10
31.6724662524
 20
-59.4409747471
 30
0.0
 10
31.5131523301
 20
-59.5299957144
 30
0.0
  0
SPLINE
  5
49D
100
AcDbEntity
  8
ASSI
100
AcDbSpline
 62
7
  6
CONTINUOUS
 70
0
 71
3
 72
21
 73
17
 74
0
 42
0.0000001
 43
0.0000001
 44
0.0000000001
 40
0.0
 40
0.0
 40
0.0
 40
0.0
 40
0.0450560991
 40
0.0909617344
 40
0.1384895291
 40
0.18827843
 40
0.2408046285
 40
0.29637725
 40
0.3551501276
 40
0.4171397393
 40
0.4822456947
 40
0.5502697098
 40
0.6209322488
 40
0.693888058
 40
0.8449774936
 40
1.0
 40
1.0
 40
1.0
 40
1.0
 10
-96.9773037577
 20
-55.5628665442
 30
0.0
 10
-97.2723949286
 20
-55.392486176
 30
0.0
 10
-97.8397450776
 20
-54.9965670482
 30
0.0
 10
-98.5893853344
 20
-54.2587532835
 30
0.0
 10
-99.2341027943
 20
-53.383078571
 30
0.0
 10
-99.7679171653
 20
-52.3793735646
 30
0.0
 10
-100.1866693412
 20
-51.2578667848
 30
0.0
 10
-100.4871366388
 20
-50.0294969698
 30
0.0
 10
-100.66706743
 20
-48.705920291
 30
0.0
 10
-100.7251425281
 20
-47.2995944899
 30
0.0
 10
-100.6610442502
 20
-45.8237485895
 30
0.0
 10
-100.475507074
 20
-44.2923255901
 30
0.0
 10
-100.1703753283
 20
-42.7197792086
 30
0.0
 10
-99.6013289534
 20
-40.5634287077
 30
0.0
 10
-98.6089884594
 20
-37.8661129591
 30
0.0
 10
-97.5630647881
 20
-35.7944986226
 30
0.0
 10
-96.9768689294
 20
-34.7791776132
 30
0.0
  0
SPLINE
  5
49E
100
AcDbEntity
  8
ASSI
100
AcDbSpline
 62
7
  6
CONTINUOUS
 70
0
 71
3
 72
14
 73
10
 74
0
 42
0.0000001
 43
0.0000001
 44
0.0000000001
 40
0.0
 40
0.0
 40
0.0
 40
0.0
 40
0.1094775569
 40
0.2207776462
 40
0.3355766347
 40
0.4552927207
 40
0.581022172
 40
0.7135251078
 40
1.0
 40
1.0
 40
1.0
 40
1.0
 10
-15.6600239213
 20
-102.5144447769
 30
0.0
 10
-15.3831629119
 20
-102.6742993755
 30
0.0
 10
-14.7978512419
 20
-102.9522351712
 30
0.0
 10
-13.8539487165
 20
-103.2290653895
 30
0.0
 10
-12.8497449631
 20
-103.3655921227
 30
0.0
 10
-11.7947074299
 20
-103.3612665984
 30
0.0
 10
-10.6977151061
 20
-103.2169608337
 30
0.0
 10
-9.152073542
 20
-102.8304892608
 30
0.0
 10
-8.0173692719
 20
-102.3479451736
 30
0.0
 10
-7.275593843
 20
-101.9611548197
 30
0.0
  0
SPLINE
  5
49F
100
AcDbEntity
  8
ASSI
100
AcDbSpline
 62
7
  6
CONTINUOUS
 70
0
 71
3
 72
14
 73
10
 74
0
 42
0.0000001
 43
0.0000001
 44
0.0000000001
 40
0.0
 40
0.0
 40
0.0
 40
0.0
 40
0.2710326586
 40
0.4031047588
 40
0.5310327567
 40
0.6542530483
 40
0.7728489748
 40
0.8876153474
 40
1.0
 40
1.0
 40
1.0
 40
1.0
 10
-41.1461383822
 20
81.1863390295
 30
0.0
 10
-41.2308266255
 20
81.0396546896
 30
0.0
 10
-41.3919201364
 20
80.8388030639
 30
0.0
 10
-41.656879208
 20
80.637126281
 30
0.0
 10
-41.8705515281
 20
80.5260416823
 30
0.0
 10
-42.0929800939
 20
80.4584854602
 30
0.0
 10
-42.3164326542
 20
80.4371510341
 30
0.0
 10
-42.5326328009
 20
80.4632207583
 30
0.0
 10
-42.66745905
 20
80.5122387286
 30
0.0
 10
-42.7301988343
 20
80.5438034558
 30
0.0
  0
SPLINE
  5
4A0
100
AcDbEntity
  8
ASSI
100
AcDbSpline
 62
7
  6
CONTINUOUS
 70
0
 71
3
 72
14
 73
10
 74
0
 42
0.0000001
 43
0.0000001
 44
0.0000000001
 40
0.0
 40
0.0
 40
0.0
 40
0.0
 40
0.2710326586
 40
0.4031047588
 40
0.5310327567
 40
0.6542530483
 40
0.7728489748
 40
0.8876153474
 40
1.0
 40
1.0
 40
1.0
 40
1.0
 10
59.2630245463
 20
23.2113467769
 30
0.0
 10
59.178336303
 20
23.064662437
 30
0.0
 10
59.0172427921
 20
22.8638108114
 30
0.0
 10
58.7522837205
 20
22.6621340284
 30
0.0
 10
58.5386114004
 20
22.5510494297
 30
0.0
 10
58.3161828346
 20
22.4834932076
 30
0.0
 10
58.0927302743
 20
22.4621587816
 30
0.0
 10
57.8765301276
 20
22.4882285058
 30
0.0
 10
57.7417038785
 20
22.5372464761
 30
0.0
 10
57.6789640942
 20
22.5688112033
 30
0.0
  0
SPLINE
  5
4A1
100
AcDbEntity
  8
ASSI
100
AcDbSpline
 62
7
  6
CONTINUOUS
 70
0
 71
3
 72
14
 73
10
 74
0
 42
0.0000001
 43
0.0000001
 44
0.0000000001
 40
0.0
 40
0.0
 40
0.0
 40
0.0
 40
0.2710326586
 40
0.4031047588
 40
0.5310327567
 40
0.6542530483
 40
0.7728489748
 40
0.8876153474
 40
1.0
 40
1.0
 40
1.0
 40
1.0
 10
17.5130245463
 20
-49.101774364
 30
0.0
 10
17.428336303
 20
-49.2484587039
 30
0.0
 10
17.2672427921
 20
-49.4493103296
 30
0.0
 10
17.0022837205
 20
-49.6509871125
 30
0.0
 10
16.7886114004
 20
-49.7620717112
 30
0.0
 10
16.5661828346
 20
-49.8296279333
 30
0.0
 10
16.3427302743
 20
-49.8509623594
 30
0.0
 10
16.1265301276
 20
-49.8248926352
 30
0.0
 10
15.9917038785
 20
-49.7758746649
 30
0.0
 10
15.9289640942
 20
-49.7443099377
 30
0.0
  0
SPLINE
  5
4A2
100
AcDbEntity
  8
ASSI
100
AcDbSpline
 62
7
  6
CONTINUOUS
 70
0
 71
3
 72
14
 73
10
 74
0
 42
0.0000001
 43
0.0000001
 44
0.0000000001
 40
0.0
 40
0.0
 40
0.0
 40
0.0
 40
0.271032492
 40
0.4031045563
 40
0.5310325683
 40
0.6542529179
 40
0.7728489226
 40
0.8876153546
 40
1.0
 40
1.0
 40
1.0
 40
1.0
 10
-82.8961383822
 20
8.8732178885
 30
0.0
 10
-82.980826042
 20
8.7265345592
 30
0.0
 10
-83.1419182028
 20
8.5256841918
 30
0.0
 10
-83.4068749157
 20
8.3240079868
 30
0.0
 10
-83.6205454129
 20
8.2129231588
 30
0.0
 10
-83.8429722395
 20
8.1453659976
 30
0.0
 10
-84.0664233169
 20
8.1240299071
 30
0.0
 10
-84.2826224195
 20
8.1500972756
 30
0.0
 10
-84.4174484333
 20
8.1991132806
 30
0.0
 10
-84.4801882351
 20
8.2306769824
 30
0.0
  0
SPLINE
  5
4A3
100
AcDbEntity
  8
ASSI
100
AcDbSpline
 62
7
  6
CONTINUOUS
 70
0
 71
3
 72
11
 73
7
 74
0
 42
0.0000001
 43
0.0000001
 44
0.0000000001
 40
0.0
 40
0.0
 40
0.0
 40
0.0
 40
0.2471968747
 40
0.4955467898
 40
0.7461545602
 40
1.0
 40
1.0
 40
1.0
 40
1.0
 10
-9.3461510725
 20
20.7937320354
 30
0.0
 10
-9.0250527411
 20
20.6083338831
 30
0.0
 10
-8.4029328444
 20
20.1978095882
 30
0.0
 10
-7.5465881446
 20
19.4733401225
 30
0.0
 10
-6.7739742403
 20
18.6465366898
 30
0.0
 10
-6.3228592271
 20
18.0367270441
 30
0.0
 10
-6.1136392424
 20
17.7186104692
 30
0.0
  0
SPLINE
  5
4A4
100
AcDbEntity
  8
ASSI
100
AcDbSpline
 62
7
  6
CONTINUOUS
 70
0
 71
3
 72
23
 73
19
 74
0
 42
0.0000001
 43
0.0000001
 44
0.0000000001
 40
0.0
 40
0.0
 40
0.0
 40
0.0
 40
0.0570294315
 40
0.1157117801
 40
0.1761832109
 40
0.2384199841
 40
0.3022535532
 40
0.3673939981
 40
0.4334581494
 40
0.4999999778
 40
0.5665418073
 40
0.6326059616
 40
0.6977464114
 40
0.7615799867
 40
0.8238167673
 40
0.884288206
 40
0.9429705619
 40
1.0
 40
1.0
 40
1.0
 40
1.0
 10
-6.1136392424
 20
17.7186104692
 30
0.0
 10
-5.7896306891
 20
17.2259591989
 30
0.0
 10
-5.2168828969
 20
16.1682519487
 30
0.0
 10
-4.6138293472
 20
14.4420074113
 30
0.0
 10
-4.2665855867
 20
12.592059927
 30
0.0
 10
-4.1820421495
 20
10.6590951533
 30
0.0
 10
-4.3611585035
 20
8.6845344499
 30
0.0
 10
-4.7996028818
 20
6.7107506824
 30
0.0
 10
-5.4876247279
 20
4.7800002277
 30
0.0
 10
-6.4102904492
 20
2.9336489248
 30
0.0
 10
-7.5477516497
 20
1.2112937613
 30
0.0
 10
-8.8756446524
 20
-0.3500748458
 30
0.0
 10
-10.3656161948
 20
-1.7168378947
 30
0.0
 10
-11.9859497735
 20
-2.8594193945
 30
0.0
 10
-13.7021180466
 20
-3.7528776782
 30
0.0
 10
-15.4777715901
 20
-4.3773288816
 30
0.0
 10
-17.2742319322
 20
-4.7183931292
 30
0.0
 10
-18.4766036242
 20
-4.751367718
 30
0.0
 10
-19.0652603282
 20
-4.7171598021
 30
0.0
  0
SPLINE
  5
4A5
100
AcDbEntity
  8
ASSI
100
AcDbSpline
 62
7
  6
CONTINUOUS
 70
0
 71
3
 72
11
 73
7
 74
0
 42
0.0000001
 43
0.0000001
 44
0.0000000001
 40
0.0
 40
0.0
 40
0.0
 40
0.0
 40
0.2538459047
 40
0.5044533049
 40
0.752802776
 40
1.0
 40
1.0
 40
1.0
 40
1.0
 10
-19.0652603282
 20
-4.7171598021
 30
0.0
 10
-19.4455029203
 20
-4.6950632108
 30
0.0
 10
-20.199443025
 20
-4.6093310765
 30
0.0
 10
-21.3021810636
 20
-4.3535968373
 30
0.0
 10
-22.3581343085
 20
-3.9740917345
 30
0.0
 10
-23.024940454
 20
-3.6404422308
 30
0.0
 10
-23.3461510725
 20
-3.4549792454
 30
0.0
  0
SPLINE
  5
4A6
100
AcDbEntity
  8
ASSI
100
AcDbSpline
 62
7
  6
CONTINUOUS
 70
0
 71
3
 72
11
 73
7
 74
0
 42
0.0000001
 43
0.0000001
 44
0.0000000001
 40
0.0
 40
0.0
 40
0.0
 40
0.0
 40
0.2489580839
 40
0.5071081677
 40
0.7615591109
 40
1.0
 40
1.0
 40
1.0
 40
1.0
 10
-2.9729735157
 20
-101.4737914588
 30
0.0
 10
-3.2692505049
 20
-101.3862385503
 30
0.0
 10
-3.8904017618
 20
-101.2646270331
 30
0.0
 10
-4.8386021619
 20
-101.232980641
 30
0.0
 10
-5.7672654622
 20
-101.3477477375
 30
0.0
 10
-6.3570907909
 20
-101.5250846947
 30
0.0
 10
-6.629795299
 20
-101.6399062363
 30
0.0
  0
SPLINE
  5
4A7
100
AcDbEntity
  8
ASSI
100
AcDbSpline
 62
7
  6
CONTINUOUS
 70
0
 71
3
 72
13
 73
9
 74
0
 42
0.0000001
 43
0.0000001
 44
0.0000000001
 40
0.0
 40
0.0
 40
0.0
 40
0.0
 40
0.1125750782
 40
0.2272199142
 40
0.3455992306
 40
0.4686856266
 40
0.7279824737
 40
1.0
 40
1.0
 40
1.0
 40
1.0
 10
-90.1296647249
 20
-17.2039039315
 30
0.0
 10
-89.9675541954
 20
-17.2975045195
 30
0.0
 10
-89.6621121702
 20
-17.5271408474
 30
0.0
 10
-89.2939960305
 20
-17.9747993545
 30
0.0
 10
-89.0271215802
 20
-18.5087458566
 30
0.0
 10
-88.8155938617
 20
-19.3194185265
 30
0.0
 10
-88.8546172016
 20
-20.4317876562
 30
0.0
 10
-89.1786328515
 20
-21.2722365309
 30
0.0
 10
-89.4047909908
 20
-21.6639539182
 30
0.0
  0
SPLINE
  5
4A8
100
AcDbEntity
  8
ASSI
100
AcDbSpline
 62
7
  6
CONTINUOUS
 70
0
 71
3
 72
13
 73
9
 74
0
 42
0.0000001
 43
0.0000001
 44
0.0000000001
 40
0.0
 40
0.0
 40
0.0
 40
0.0
 40
0.1125609487
 40
0.2272366154
 40
0.3456626129
 40
0.468785529
 40
0.7280823083
 40
1.0
 40
1.0
 40
1.0
 40
1.0
 10
1.1205365387
 20
-69.890161693
 30
0.0
 10
0.9583005875
 20
-69.7982807349
 30
0.0
 10
0.6069329611
 20
-69.6518772349
 30
0.0
 10
0.0367498092
 20
-69.5609375837
 30
0.0
 10
-0.5567463582
 20
-69.5996705511
 30
0.0
 10
-1.3606820593
 20
-69.8240565621
 30
0.0
 10
-2.299282945
 20
-70.4136086871
 30
0.0
 10
-2.8623072373
 20
-71.1118468833
 30
0.0
 10
-3.0875111543
 20
-71.5019115092
 30
0.0
  0
SPLINE
  5
4A9
100
AcDbEntity
  8
ASSI
100
AcDbSpline
 62
7
  6
CONTINUOUS
 70
0
 71
3
 72
14
 73
10
 74
0
 42
0.0000001
 43
0.0000001
 44
0.0000000001
 40
0.0
 40
0.0
 40
0.0
 40
0.0
 40
0.27173459
 40
0.4039494429
 40
0.5318012062
 40
0.6547590329
 40
0.7730150497
 40
0.88754226
 40
1.0
 40
1.0
 40
1.0
 40
1.0
 10
-82.7468743135
 20
8.7870039972
 30
0.0
 10
-82.8728693146
 20
8.5687742539
 30
0.0
 10
-83.1140941182
 20
8.2707677825
 30
0.0
 10
-83.5117145182
 20
7.9760123834
 30
0.0
 10
-83.8318273514
 20
7.8172295175
 30
0.0
 10
-84.1639884545
 20
7.7258635102
 30
0.0
 10
-84.4959100613
 20
7.7058985548
 30
0.0
 10
-84.8144429185
 20
7.7588023512
 30
0.0
 10
-85.010318804
 20
7.8422006471
 30
0.0
 10
-85.1006363929
 20
7.8943388235
 30
0.0
  0
SPLINE
  5
4AA
100
AcDbEntity
  8
ASSI
100
AcDbSpline
 62
7
  6
CONTINUOUS
 70
0
 71
3
 72
11
 73
7
 74
0
 42
0.0000001
 43
0.0000001
 44
0.0000000001
 40
0.0
 40
0.0
 40
0.0
 40
0.0
 40
0.2601078542
 40
0.5157177135
 40
0.7631184313
 40
1.0
 40
1.0
 40
1.0
 40
1.0
 10
-40.9968743135
 20
81.1001251382
 30
0.0
 10
-41.071578084
 20
80.9707344123
 30
0.0
 10
-41.2441769409
 20
80.727436566
 30
0.0
 10
-41.5629428777
 20
80.4226308031
 30
0.0
 10
-41.9248362693
 20
80.1942814459
 30
0.0
 10
-42.1893069411
 20
80.0991620319
 30
0.0
 10
-42.3219944547
 20
80.069028328
 30
0.0
  0
SPLINE
  5
4AB
100
AcDbEntity
  8
ASSI
100
AcDbSpline
 62
7
  6
CONTINUOUS
 70
0
 71
3
 72
11
 73
7
 74
0
 42
0.0000001
 43
0.0000001
 44
0.0000000001
 40
0.0
 40
0.0
 40
0.0
 40
0.0
 40
0.2593768959
 40
0.5111042299
 40
0.7570926834
 40
1.0
 40
1.0
 40
1.0
 40
1.0
 10
-42.3219944547
 20
80.069028328
 30
0.0
 10
-42.4114654691
 20
80.0487092114
 30
0.0
 10
-42.5915131697
 20
80.0231638229
 30
0.0
 10
-42.8606030602
 20
80.0334349976
 30
0.0
 10
-43.117382924
 20
80.0927994156
 30
0.0
 10
-43.2762220703
 20
80.164502362
 30
0.0
 10
-43.3506363929
 20
80.2074599645
 30
0.0
  0
SPLINE
  5
4AC
100
AcDbEntity
  8
ASSI
100
AcDbSpline
 62
7
  6
CONTINUOUS
 70
0
 71
3
 72
14
 73
10
 74
0
 42
0.0000001
 43
0.0000001
 44
0.0000000001
 40
0.0
 40
0.0
 40
0.0
 40
0.0
 40
0.27173459
 40
0.4039494429
 40
0.5318012062
 40
0.6547590329
 40
0.7730150497
 40
0.88754226
 40
1.0
 40
1.0
 40
1.0
 40
1.0
 10
-33.6699623789
 20
18.6718135396
 30
0.0
 10
-33.79595738
 20
18.4535837964
 30
0.0
 10
-34.0371821837
 20
18.1555773249
 30
0.0
 10
-34.4348025837
 20
17.8608219259
 30
0.0
 10
-34.7549154168
 20
17.70203906
 30
0.0
 10
-35.0870765199
 20
17.6106730527
 30
0.0
 10
-35.4189981267
 20
17.5907080973
 30
0.0
 10
-35.7375309839
 20
17.6436118936
 30
0.0
 10
-35.9334068694
 20
17.7270101896
 30
0.0
 10
-36.0237244583
 20
17.779148366
 30
0.0
  0
SPLINE
  5
4AD
100
AcDbEntity
  8
ASSI
100
AcDbSpline
 62
7
  6
CONTINUOUS
 70
0
 71
3
 72
14
 73
10
 74
0
 42
0.0000001
 43
0.0000001
 44
0.0000000001
 40
0.0
 40
0.0
 40
0.0
 40
0.0
 40
0.27173459
 40
0.4039494429
 40
0.5318012062
 40
0.6547590329
 40
0.7730150497
 40
0.88754226
 40
1.0
 40
1.0
 40
1.0
 40
1.0
 10
1.6853766804
 20
-1.7419161267
 30
0.0
 10
1.5593816793
 20
-1.96014587
 30
0.0
 10
1.3181568757
 20
-2.2581523415
 30
0.0
 10
0.9205364757
 20
-2.5529077405
 30
0.0
 10
0.6004236426
 20
-2.7116906064
 30
0.0
 10
0.2682625394
 20
-2.8030566137
 30
0.0
 10
-0.0636590673
 20
-2.8230215691
 30
0.0
 10
-0.3821919246
 20
-2.7701177728
 30
0.0
 10
-0.5780678101
 20
-2.6867194768
 30
0.0
 10
-0.668385399
 20
-2.6345813004
 30
0.0
  0
SPLINE
  5
4AE
100
AcDbEntity
  8
ASSI
100
AcDbSpline
 62
7
  6
CONTINUOUS
 70
0
 71
3
 72
11
 73
7
 74
0
 42
0.0000001
 43
0.0000001
 44
0.0000000001
 40
0.0
 40
0.0
 40
0.0
 40
0.0
 40
0.2601078542
 40
0.5157177135
 40
0.7631184313
 40
1.0
 40
1.0
 40
1.0
 40
1.0
 10
59.412288615
 20
23.1251328856
 30
0.0
 10
59.3375848445
 20
22.9957421597
 30
0.0
 10
59.1649859876
 20
22.7524443135
 30
0.0
 10
58.8462200508
 20
22.4476385505
 30
0.0
 10
58.4843266592
 20
22.2192891934
 30
0.0
 10
58.2198559873
 20
22.1241697794
 30
0.0
 10
58.0871684738
 20
22.0940360755
 30
0.0
  0
SPLINE
  5
4AF
100
AcDbEntity
  8
ASSI
100
AcDbSpline
 62
7
  6
CONTINUOUS
 70
0
 71
3
 72
11
 73
7
 74
0
 42
0.0000001
 43
0.0000001
 44
0.0000000001
 40
0.0
 40
0.0
 40
0.0
 40
0.0
 40
0.2593768959
 40
0.5111042299
 40
0.7570926834
 40
1.0
 40
1.0
 40
1.0
 40
1.0
 10
58.0871684738
 20
22.0940360755
 30
0.0
 10
57.9976974594
 20
22.0737169589
 30
0.0
 10
57.8176497588
 20
22.0481715704
 30
0.0
 10
57.5485598683
 20
22.0584427451
 30
0.0
 10
57.2917800045
 20
22.1178071631
 30
0.0
 10
57.1329408582
 20
22.1895101095
 30
0.0
 10
57.0585265356
 20
22.232467712
 30
0.0
  0
SPLINE
  5
4B0
100
AcDbEntity
  8
ASSI
100
AcDbSpline
 62
7
  6
CONTINUOUS
 70
0
 71
3
 72
11
 73
7
 74
0
 42
0.0000001
 43
0.0000001
 44
0.0000000001
 40
0.0
 40
0.0
 40
0.0
 40
0.0
 40
0.2601078542
 40
0.5157177135
 40
0.7631184313
 40
1.0
 40
1.0
 40
1.0
 40
1.0
 10
17.662288615
 20
-49.1879882553
 30
0.0
 10
17.5875848445
 20
-49.3173789812
 30
0.0
 10
17.4149859876
 20
-49.5606768275
 30
0.0
 10
17.0962200508
 20
-49.8654825904
 30
0.0
 10
16.7343266592
 20
-50.0938319476
 30
0.0
 10
16.4698559873
 20
-50.1889513616
 30
0.0
 10
16.3371684738
 20
-50.2190850655
 30
0.0
  0
SPLINE
  5
4B1
100
AcDbEntity
  8
ASSI
100
AcDbSpline
 62
7
  6
CONTINUOUS
 70
0
 71
3
 72
11
 73
7
 74
0
 42
0.0000001
 43
0.0000001
 44
0.0000000001
 40
0.0
 40
0.0
 40
0.0
 40
0.0
 40
0.2593768959
 40
0.5111042299
 40
0.7570926834
 40
1.0
 40
1.0
 40
1.0
 40
1.0
 10
16.3371684738
 20
-50.2190850655
 30
0.0
 10
16.2476974594
 20
-50.2394041821
 30
0.0
 10
16.0676497588
 20
-50.2649495706
 30
0.0
 10
15.7985598683
 20
-50.2546783959
 30
0.0
 10
15.5417800045
 20
-50.1953139779
 30
0.0
 10
15.3829408582
 20
-50.1236110315
 30
0.0
 10
15.3085265356
 20
-50.080653429
 30
0.0
  0
SPLINE
  5
4B2
100
AcDbEntity
  8
ASSI
100
AcDbSpline
 62
7
  6
CONTINUOUS
 70
0
 71
3
 72
18
 73
14
 74
0
 42
0.0000001
 43
0.0000001
 44
0.0000000001
 40
0.0
 40
0.0
 40
0.0
 40
0.0
 40
0.1369790381
 40
0.2722372258
 40
0.4042568759
 40
0.5319218339
 40
0.6546995542
 40
0.7143693032
 40
0.7729555364
 40
0.8306042992
 40
0.8875056656
 40
0.9438864556
 40
1.0
 40
1.0
 40
1.0
 40
1.0
 10
-5.9867318954
 20
2.6878632109
 30
0.0
 10
-6.5118900394
 20
1.7782626244
 30
0.0
 10
-7.702180953
 20
0.0505558962
 30
0.0
 10
-9.857778773
 20
-2.1953689108
 30
0.0
 10
-12.3022444233
 20
-4.0087302598
 30
0.0
 10
-14.9439132061
 20
-5.3188309797
 30
0.0
 10
-17.2537015294
 20
-5.9538003318
 30
0.0
 10
-19.0936024025
 20
-6.1581487788
 30
0.0
 10
-20.4452037603
 20
-6.1614561647
 30
0.0
 10
-21.7676069719
 20
-6.0157881546
 30
0.0
 10
-23.0481091869
 20
-5.7223928364
 30
0.0
 10
-24.2739088858
 20
-5.2840917676
 30
0.0
 10
-25.0477408973
 20
-4.8974815811
 30
0.0
 10
-25.4203713152
 20
-4.6823710161
 30
0.0
  0
SPLINE
  5
4B3
100
AcDbEntity
  8
ASSI
100
AcDbSpline
 62
7
  6
CONTINUOUS
 70
0
 71
3
 72
13
 73
9
 74
0
 42
0.0000001
 43
0.0000001
 44
0.0000000001
 40
0.0
 40
0.0
 40
0.0
 40
0.0
 40
0.2720160675
 40
0.531314443
 40
0.6544005776
 40
0.7727809367
 40
0.8874225784
 40
1.0
 40
1.0
 40
1.0
 40
1.0
 10
-99.7183732239
 20
-7.6259896313
 30
0.0
 10
-99.8799137811
 20
-7.9057860836
 30
0.0
 10
-100.1113451276
 20
-8.5061083012
 30
0.0
 10
-100.13923219
 20
-9.3006561032
 30
0.0
 10
-99.9881361856
 20
-9.879710546
 30
0.0
 10
-99.7975063752
 20
-10.2610936511
 30
0.0
 10
-99.5345763027
 20
-10.5808575778
 30
0.0
 10
-99.3164018418
 20
-10.7448807105
 30
0.0
 10
-99.2006062709
 20
-10.8117396219
 30
0.0
  0
SPLINE
  5
4B4
100
AcDbEntity
  8
ASSI
100
AcDbSpline
 62
7
  6
CONTINUOUS
 70
0
 71
3
 72
13
 73
9
 74
0
 42
0.0000001
 43
0.0000001
 44
0.0000000001
 40
0.0
 40
0.0
 40
0.0
 40
0.0
 40
0.1125786764
 40
0.2272202681
 40
0.3455997053
 40
0.4686845946
 40
0.7279814978
 40
1.0
 40
1.0
 40
1.0
 40
1.0
 10
-32.2006062709
 20
105.2356643648
 30
0.0
 10
-32.3164010736
 20
105.3025228326
 30
0.0
 10
-32.5675273937
 20
105.4094687893
 30
0.0
 10
-32.9759060747
 20
105.4773102943
 30
0.0
 10
-33.401499581
 20
105.4517263375
 30
0.0
 10
-33.9785138084
 20
105.2930718579
 30
0.0
 10
-34.6526625288
 20
104.8716607926
 30
0.0
 10
-35.056834093
 20
104.3710813228
 30
0.0
 10
-35.2183732239
 20
104.0912873409
 30
0.0
  0
SPLINE
  5
4B5
100
AcDbEntity
  8
ASSI
100
AcDbSpline
 62
7
  6
CONTINUOUS
 70
0
 71
3
 72
18
 73
14
 74
0
 42
0.0000001
 43
0.0000001
 44
0.0000000001
 40
0.0
 40
0.0
 40
0.0
 40
0.0
 40
0.0561133684
 40
0.1124931127
 40
0.1693944654
 40
0.2270431469
 40
0.2856295309
 40
0.3452995652
 40
0.4680781478
 40
0.5957440076
 40
0.7277641751
 40
0.8630220862
 40
1.0
 40
1.0
 40
1.0
 40
1.0
 10
-9.3461510725
 20
23.1030587128
 30
0.0
 10
-8.9758331624
 20
22.8892417928
 30
0.0
 10
-8.2585395047
 20
22.4153481326
 30
0.0
 10
-7.2721624542
 20
21.5781312248
 30
0.0
 10
-6.3833150424
 20
20.6218277958
 30
0.0
 10
-5.6007924664
 20
19.55603746
 30
0.0
 10
-4.9319800178
 20
18.3910842989
 30
0.0
 10
-4.1935482621
 20
16.7059450942
 30
0.0
 10
-3.5922496728
 20
14.4023813972
 30
0.0
 10
-3.4071109214
 20
11.477675712
 30
0.0
 10
-3.7531206609
 20
8.4726229571
 30
0.0
 10
-4.6149871392
 20
5.5012584792
 30
0.0
 10
-5.5105242629
 20
3.6182509286
 30
0.0
 10
-6.0324460709
 20
2.7142562587
 30
0.0
  0
SPLINE
  5
4B6
100
AcDbEntity
  8
ASSI
100
AcDbSpline
 62
7
  6
CONTINUOUS
 70
0
 71
3
 72
18
 73
14
 74
0
 42
0.0000001
 43
0.0000001
 44
0.0000000001
 40
0.0
 40
0.0
 40
0.0
 40
0.0
 40
0.1369797176
 40
0.2722382487
 40
0.4042580382
 40
0.5319228496
 40
0.6547001677
 40
0.7143696646
 40
0.7729556629
 40
0.8306041781
 40
0.8875056439
 40
0.9438858294
 40
1.0
 40
1.0
 40
1.0
 40
1.0
 10
-6.0324460709
 20
2.7142562587
 30
0.0
 10
-6.5543653817
 20
1.810265914
 30
0.0
 10
-7.7373186053
 20
0.093219672
 30
0.0
 10
-9.8796417074
 20
-2.1388264841
 30
0.0
 10
-12.3090566807
 20
-3.9409500169
 30
0.0
 10
-14.9344534912
 20
-5.2428916487
 30
0.0
 10
-17.23000457
 20
-5.8738532836
 30
0.0
 10
-19.0585521175
 20
-6.0768500184
 30
0.0
 10
-20.4018053466
 20
-6.0800614696
 30
0.0
 10
-21.7160346193
 20
-5.9352131877
 30
0.0
 10
-22.9886066266
 20
-5.6435396049
 30
0.0
 10
-24.2068105462
 20
-5.2078584544
 30
0.0
 10
-24.9758345169
 20
-4.8235703177
 30
0.0
 10
-25.3461510725
 20
-4.6097541795
 30
0.0
  0
SPLINE
  5
4B7
100
AcDbEntity
  8
ASSI
100
AcDbSpline
 62
7
  6
CONTINUOUS
 70
0
 71
3
 72
33
 73
29
 74
0
 42
0.0000001
 43
0.0000001
 44
0.0000000001
 40
0.0
 40
0.0
 40
0.0
 40
0.0
 40
0.0280473555
 40
0.0562276756
 40
0.0846683706
 40
0.1134821369
 40
0.1427640496
 40
0.1725870301
 40
0.2029999819
 40
0.2340270398
 40
0.2978316339
 40
0.3638126467
 40
0.3974835499
 40
0.4314711543
 40
0.4999352535
 40
0.568403835
 40
0.6023969072
 40
0.6360752385
 40
0.7020760768
 40
0.765904859
 40
0.7969445692
 40
0.8273699368
 40
0.8572045904
 40
0.8864969283
 40
0.9153193971
 40
0.9437666527
 40
0.9719510375
 40
1.0
 40
1.0
 40
1.0
 40
1.0
 10
-25.3461510725
 20
-4.6097541795
 30
0.0
 10
-25.716215939
 20
-4.3960833637
 30
0.0
 10
-26.4330338855
 20
-3.92254678
 30
0.0
 10
-27.418828715
 20
-3.0860309078
 30
0.0
 10
-28.3072395339
 20
-2.1305866465
 30
0.0
 10
-29.0894918987
 20
-1.0657572556
 30
0.0
 10
-29.7581955115
 20
0.0980255534
 30
0.0
 10
-30.3070364254
 20
1.349366837
 30
0.0
 10
-30.7309142615
 20
2.6762455519
 30
0.0
 10
-31.1278416315
 20
4.5454438503
 30
0.0
 10
-31.285547225
 20
7.005711482
 30
0.0
 10
-31.0005380494
 20
9.4926777776
 30
0.0
 10
-30.517839988
 20
11.4727515626
 30
0.0
 10
-29.8620240476
 20
13.442433583
 30
0.0
 10
-28.7407270175
 20
15.805913114
 30
0.0
 10
-27.2582588465
 20
17.9613821823
 30
0.0
 10
-25.8829670329
 20
19.5168265743
 30
0.0
 10
-24.4117186333
 20
20.9279066026
 30
0.0
 10
-22.4026208939
 20
22.4224393265
 30
0.0
 10
-20.1945462985
 20
23.5207839744
 30
0.0
 10
-18.3778547732
 20
24.1157130298
 30
0.0
 10
-17.016916742
 20
24.4151767129
 30
0.0
 10
-15.6586304985
 20
24.5686981208
 30
0.0
 10
-14.3159572503
 20
24.574653871
 30
0.0
 10
-13.0019250026
 20
24.4327838292
 30
0.0
 10
-11.7292690317
 20
24.14424079
 30
0.0
 10
-10.5106461523
 20
23.7118206421
 30
0.0
 10
-9.7410802441
 20
23.3297457375
 30
0.0
 10
-9.3704335627
 20
23.1170365798
 30
0.0
  0
SPLINE
  5
4B8
100
AcDbEntity
  8
ASSI
100
AcDbSpline
 62
7
  6
CONTINUOUS
 70
0
 71
3
 72
13
 73
9
 74
0
 42
0.0000001
 43
0.0000001
 44
0.0000000001
 40
0.0
 40
0.0
 40
0.0
 40
0.0
 40
0.294512075
 40
0.4293779088
 40
0.5559734205
 40
0.786778038
 40
0.8946316711
 40
1.0
 40
1.0
 40
1.0
 40
1.0
 10
99.6876486934
 20
-58.2918321739
 30
0.0
 10
99.8753318245
 20
-58.2024435372
 30
0.0
 10
100.1397595091
 20
-58.0492098058
 30
0.0
 10
100.4427434929
 20
-57.7984143729
 30
0.0
 10
100.681750103
 20
-57.5455558944
 30
0.0
 10
100.8576637655
 20
-57.2604959676
 30
0.0
 10
100.9459132461
 20
-56.9581745939
 30
0.0
 10
100.9605035151
 20
-56.807279172
 30
0.0
 10
100.9605026521
 20
-56.7329043939
 30
0.0
  0
SPLINE
  5
4B9
100
AcDbEntity
  8
ASSI
100
AcDbSpline
 62
7
  6
CONTINUOUS
 70
0
 71
3
 72
11
 73
7
 74
0
 42
0.0000001
 43
0.0000001
 44
0.0000000001
 40
0.0
 40
0.0
 40
0.0
 40
0.0
 40
0.2506506698
 40
0.5103147884
 40
0.7645848173
 40
1.0
 40
1.0
 40
1.0
 40
1.0
 10
12.9604323259
 20
-98.0175745804
 30
0.0
 10
13.2731352386
 20
-98.1099815188
 30
0.0
 10
13.9294403273
 20
-98.2350439579
 30
0.0
 10
14.9281560167
 20
-98.255691671
 30
0.0
 10
15.89716689
 20
-98.1149224442
 30
0.0
 10
16.505688592
 20
-97.9092552179
 30
0.0
 10
16.7821815191
 20
-97.7775687652
 30
0.0
  0
SPLINE
  5
4BA
100
AcDbEntity
  8
ASSI
100
AcDbSpline
 62
7
  6
CONTINUOUS
 70
0
 71
3
 72
14
 73
10
 74
0
 42
0.0000001
 43
0.0000001
 44
0.0000000001
 40
0.0
 40
0.0
 40
0.0
 40
0.0
 40
0.2709465405
 40
0.4030007254
 40
0.5309364952
 40
0.6541867941
 40
0.7728228026
 40
0.8876193058
 40
1.0
 40
1.0
 40
1.0
 40
1.0
 10
-36.4026788255
 20
20.2496525568
 30
0.0
 10
-36.5245862136
 20
20.038502767
 30
0.0
 10
-36.659192685
 20
19.6932206453
 30
0.0
 10
-36.7206078766
 20
19.2177976521
 30
0.0
 10
-36.706051088
 20
18.8713312059
 30
0.0
 10
-36.6311338445
 20
18.5450395668
 30
0.0
 10
-36.4980190541
 20
18.2504273763
 30
0.0
 10
-36.31111804
 20
17.9986004719
 30
0.0
 10
-36.153743585
 20
17.8647775398
 30
0.0
 10
-36.0695833689
 20
17.8087081616
 30
0.0
  0
SPLINE
  5
4BB
100
AcDbEntity
  8
ASSI
100
AcDbSpline
 62
7
  6
CONTINUOUS
 70
0
 71
3
 72
14
 73
10
 74
0
 42
0.0000001
 43
0.0000001
 44
0.0000000001
 40
0.0
 40
0.0
 40
0.0
 40
0.0
 40
0.2709465405
 40
0.4030007254
 40
0.5309364952
 40
0.6541867941
 40
0.7728228026
 40
0.8876193058
 40
1.0
 40
1.0
 40
1.0
 40
1.0
 10
-1.0473397662
 20
-0.1640771096
 30
0.0
 10
-1.1692471543
 20
-0.3752268994
 30
0.0
 10
-1.3038536256
 20
-0.7205090211
 30
0.0
 10
-1.3652688172
 20
-1.1959320143
 30
0.0
 10
-1.3507120286
 20
-1.5423984605
 30
0.0
 10
-1.2757947852
 20
-1.8686900996
 30
0.0
 10
-1.1426799947
 20
-2.1633022901
 30
0.0
 10
-0.9557789807
 20
-2.4151291945
 30
0.0
 10
-0.7984045257
 20
-2.5489521266
 30
0.0
 10
-0.7142443096
 20
-2.6050215047
 30
0.0
  0
SPLINE
  5
4BC
100
AcDbEntity
  8
ASSI
100
AcDbSpline
 62
7
  6
CONTINUOUS
 70
0
 71
3
 72
14
 73
10
 74
0
 42
0.0000001
 43
0.0000001
 44
0.0000000001
 40
0.0
 40
0.0
 40
0.0
 40
0.0
 40
0.1123816332
 40
0.2271779004
 40
0.3458129359
 40
0.4690620425
 40
0.5969968966
 40
0.7290508523
 40
1.0
 40
1.0
 40
1.0
 40
1.0
 10
1.2330857227
 20
0.7678530468
 30
0.0
 10
1.1424514903
 20
0.8127078393
 30
0.0
 10
0.9478769016
 20
0.8820964068
 30
0.0
 10
0.6363453081
 20
0.9180582594
 30
0.0
 10
0.3146528396
 20
0.886045689
 30
0.0
 10
-0.0053769092
 20
0.7877908977
 30
0.0
 10
-0.312699265
 20
0.6271728456
 30
0.0
 10
-0.6937165824
 20
0.3362815374
 30
0.0
 10
-0.9254334195
 20
0.0470708765
 30
0.0
 10
-1.0473397662
 20
-0.1640771096
 30
0.0
  0
SPLINE
  5
4BD
100
AcDbEntity
  8
ASSI
100
AcDbSpline
 62
7
  6
CONTINUOUS
 70
0
 71
3
 72
14
 73
10
 74
0
 42
0.0000001
 43
0.0000001
 44
0.0000000001
 40
0.0
 40
0.0
 40
0.0
 40
0.0
 40
0.1124568344
 40
0.2269834657
 40
0.3452394254
 40
0.4681977114
 40
0.5960502481
 40
0.7282658405
 40
1.0
 40
1.0
 40
1.0
 40
1.0
 10
-0.668385399
 20
-2.6345813004
 30
0.0
 10
-0.7587108592
 20
-2.58243858
 30
0.0
 10
-0.9289021868
 20
-2.4545098346
 30
0.0
 10
-1.1340236586
 20
-2.2050977546
 30
0.0
 10
-1.2827275142
 20
-1.9076437128
 30
0.0
 10
-1.3697080861
 20
-1.5742720393
 30
0.0
 10
-1.3922706076
 20
-1.2176195962
 30
0.0
 10
-1.3358238178
 20
-0.7258429226
 30
0.0
 10
-1.1983465633
 20
-0.3678953872
 30
0.0
 10
-1.0723397662
 20
-0.1496452128
 30
0.0
  0
SPLINE
  5
4BE
100
AcDbEntity
  8
ASSI
100
AcDbSpline
 62
7
  6
CONTINUOUS
 70
0
 71
3
 72
18
 73
14
 74
0
 42
0.0000001
 43
0.0000001
 44
0.0000000001
 40
0.0
 40
0.0
 40
0.0
 40
0.0
 40
0.1369593024
 40
0.2722036704
 40
0.4042186133
 40
0.5318891154
 40
0.6546805862
 40
0.7143583599
 40
0.772952277
 40
0.8306072117
 40
0.8875119855
 40
0.9438921782
 40
1.0
 40
1.0
 40
1.0
 40
1.0
 10
-28.7305702496
 20
15.8198732192
 30
0.0
 10
-29.2550466462
 20
14.9114534539
 30
0.0
 10
-30.1551700064
 20
13.019315601
 30
0.0
 10
-31.0222634811
 20
10.0335981555
 30
0.0
 10
-31.3717366062
 20
7.0137811766
 30
0.0
 10
-31.1882001261
 20
4.074160285
 30
0.0
 10
-30.5866371804
 20
1.7581534245
 30
0.0
 10
-29.8469638838
 20
0.0632308694
 30
0.0
 10
-29.1767184428
 20
-1.108869052
 30
0.0
 10
-28.3922500945
 20
-2.1816315759
 30
0.0
 10
-27.5009429831
 20
-3.1447046919
 30
0.0
 10
-26.5115870123
 20
-3.9884314516
 30
0.0
 10
-25.7919289887
 20
-4.466504042
 30
0.0
 10
-25.4203459556
 20
-4.6823448203
 30
0.0
  0
SPLINE
  5
4BF
100
AcDbEntity
  8
ASSI
100
AcDbSpline
 62
7
  6
CONTINUOUS
 70
0
 71
3
 72
13
 73
9
 74
0
 42
0.0000001
 43
0.0000001
 44
0.0000000001
 40
0.0
 40
0.0
 40
0.0
 40
0.0
 40
0.112576333
 40
0.227221119
 40
0.3455995135
 40
0.4686846642
 40
0.7279800389
 40
1.0
 40
1.0
 40
1.0
 40
1.0
 10
5.6833041259
 20
-72.5251113274
 30
0.0
 10
5.84541358
 20
-72.6187112945
 30
0.0
 10
6.1969927322
 20
-72.7684317402
 30
0.0
 10
6.7687203861
 20
-72.8634274999
 30
0.0
 10
7.3645564478
 20
-72.8275985747
 30
0.0
 10
8.1723699477
 20
-72.6054782862
 30
0.0
 10
9.1161893413
 20
-72.0155177544
 30
0.0
 10
9.6820217175
 20
-71.3146974228
 30
0.0
 10
9.90817786
 20
-70.9229834939
 30
0.0
  0
SPLINE
  5
4C0
100
AcDbEntity
  8
ASSI
100
AcDbSpline
 62
7
  6
CONTINUOUS
 70
0
 71
3
 72
14
 73
10
 74
0
 42
0.0000001
 43
0.0000001
 44
0.0000000001
 40
0.0
 40
0.0
 40
0.0
 40
0.0
 40
0.1123816332
 40
0.2271779004
 40
0.3458129359
 40
0.4690620425
 40
0.5969968966
 40
0.7290508523
 40
1.0
 40
1.0
 40
1.0
 40
1.0
 10
-34.1222533366
 20
21.1815827132
 30
0.0
 10
-34.2128875691
 20
21.2264375057
 30
0.0
 10
-34.4074621577
 20
21.2958260732
 30
0.0
 10
-34.7189937513
 20
21.3317879258
 30
0.0
 10
-35.0406862197
 20
21.2997753554
 30
0.0
 10
-35.3607159685
 20
21.2015205641
 30
0.0
 10
-35.6680383243
 20
21.0409025119
 30
0.0
 10
-36.0490556417
 20
20.7500112038
 30
0.0
 10
-36.2807724788
 20
20.4608005429
 30
0.0
 10
-36.4026788255
 20
20.2496525568
 30
0.0
  0
SPLINE
  5
4C1
100
AcDbEntity
  8
ASSI
100
AcDbSpline
 62
7
  6
CONTINUOUS
 70
0
 71
3
 72
14
 73
10
 74
0
 42
0.0000001
 43
0.0000001
 44
0.0000000001
 40
0.0
 40
0.0
 40
0.0
 40
0.0
 40
0.1124568344
 40
0.2269834657
 40
0.3452394254
 40
0.4681977114
 40
0.5960502481
 40
0.7282658405
 40
1.0
 40
1.0
 40
1.0
 40
1.0
 10
-36.0237244583
 20
17.779148366
 30
0.0
 10
-36.1140499185
 20
17.8312910863
 30
0.0
 10
-36.2842412461
 20
17.9592198318
 30
0.0
 10
-36.4893627179
 20
18.2086319118
 30
0.0
 10
-36.6380665735
 20
18.5060859536
 30
0.0
 10
-36.7250471454
 20
18.8394576271
 30
0.0
 10
-36.7476096669
 20
19.1961100702
 30
0.0
 10
-36.6911628771
 20
19.6878867438
 30
0.0
 10
-36.5536856226
 20
20.0458342792
 30
0.0
 10
-36.4276788255
 20
20.2640844536
 30
0.0
  0
SPLINE
  5
4C2
100
AcDbEntity
  8
ASSI
100
AcDbSpline
 62
7
  6
CONTINUOUS
 70
0
 71
3
 72
13
 73
9
 74
0
 42
0.0000001
 43
0.0000001
 44
0.0000000001
 40
0.0
 40
0.0
 40
0.0
 40
0.0
 40
0.1125780415
 40
0.2272207468
 40
0.3455994937
 40
0.4686847462
 40
0.7279806182
 40
1.0
 40
1.0
 40
1.0
 40
1.0
 10
6.1833041259
 20
-71.6590859245
 30
0.0
 10
6.2990983139
 20
-71.7259440374
 30
0.0
 10
6.5502258037
 20
-71.8328878435
 30
0.0
 10
6.9586030338
 20
-71.9007373096
 30
0.0
 10
7.3841982138
 20
-71.8751489928
 30
0.0
 10
7.9612084349
 20
-71.7164887333
 30
0.0
 10
8.6353642596
 20
-71.2950887158
 30
0.0
 10
9.0395313721
 20
-70.7945038799
 30
0.0
 10
9.2010710788
 20
-70.5147089006
 30
0.0
  0
SPLINE
  5
4C3
100
AcDbEntity
  8
ASSI
100
AcDbSpline
 62
7
  6
CONTINUOUS
 70
0
 71
3
 72
13
 73
9
 74
0
 42
0.0000001
 43
0.0000001
 44
0.0000000001
 40
0.0
 40
0.0
 40
0.0
 40
0.0
 40
0.2720169471
 40
0.5313142914
 40
0.6544007892
 40
0.772780458
 40
0.8874232133
 40
1.0
 40
1.0
 40
1.0
 40
1.0
 10
73.7010710788
 20
41.2025680716
 30
0.0
 10
73.8626122119
 20
41.4823655213
 30
0.0
 10
74.0940504313
 20
42.0826865665
 30
0.0
 10
74.1219243742
 20
42.8772349974
 30
0.0
 10
73.9708353782
 20
43.4562888605
 30
0.0
 10
73.780208507
 20
43.8376755948
 30
0.0
 10
73.5172722653
 20
44.1574342848
 30
0.0
 10
73.299099082
 20
44.3214595057
 30
0.0
 10
73.1833041259
 20
44.3883180622
 30
0.0
  0
SPLINE
  5
4C4
100
AcDbEntity
  8
ASSI
100
AcDbSpline
 62
7
  6
CONTINUOUS
 70
0
 71
3
 72
18
 73
14
 74
0
 42
0.0000001
 43
0.0000001
 44
0.0000000001
 40
0.0
 40
0.0
 40
0.0
 40
0.0
 40
0.0561130747
 40
0.1124934388
 40
0.1693944621
 40
0.2270429951
 40
0.2856291306
 40
0.3452989199
 40
0.4680770724
 40
0.5957427747
 40
0.7277631349
 40
0.8630215792
 40
1.0
 40
1.0
 40
1.0
 40
1.0
 10
-25.4203713152
 20
-4.6823710161
 30
0.0
 10
-25.7930341713
 20
-4.4672417253
 30
0.0
 10
-26.5148786291
 20
-3.9904234897
 30
0.0
 10
-27.5075269992
 20
-3.1480210311
 30
0.0
 10
-28.4020291497
 20
-2.1857616368
 30
0.0
 10
-29.189537612
 20
-1.1133227712
 30
0.0
 10
-29.8626173423
 20
0.0589163852
 30
0.0
 10
-30.6057717979
 20
1.7546113115
 30
0.0
 10
-31.2109430553
 20
4.0726334797
 30
0.0
 10
-31.3973299094
 20
7.0157260223
 30
0.0
 10
-31.0491977693
 20
10.0396894619
 30
0.0
 10
-30.1819404582
 20
13.0297600008
 30
0.0
 10
-29.2807761386
 20
14.9246218329
 30
0.0
 10
-28.7555702496
 20
15.834305116
 30
0.0
  0
SPLINE
  5
4C5
100
AcDbEntity
  8
ASSI
100
AcDbSpline
 62
7
  6
CONTINUOUS
 70
0
 71
3
 72
14
 73
10
 74
0
 42
0.0000001
 43
0.0000001
 44
0.0000000001
 40
0.0
 40
0.0
 40
0.0
 40
0.0
 40
0.1094774333
 40
0.2207777401
 40
0.3355769647
 40
0.455292475
 40
0.5810223486
 40
0.7135237792
 40
1.0
 40
1.0
 40
1.0
 40
1.0
 10
-10.6597815503
 20
-93.8543289037
 30
0.0
 10
-10.5367333701
 20
-93.9253770179
 30
0.0
 10
-10.2765932199
 20
-94.0489012401
 30
0.0
 10
-9.8570814164
 20
-94.171938616
 30
0.0
 10
-9.4107687248
 20
-94.2326165284
 30
0.0
 10
-8.9418631174
 20
-94.2306959052
 30
0.0
 10
-8.4543135324
 20
-94.1665579396
 30
0.0
 10
-7.7673604215
 20
-93.9947977417
 30
0.0
 10
-7.2630484121
 20
-93.7803312232
 30
0.0
 10
-6.9333689818
 20
-93.608423637
 30
0.0
  0
SPLINE
  5
4C6
100
AcDbEntity
  8
ASSI
100
AcDbSpline
 62
7
  6
CONTINUOUS
 70
0
 71
3
 72
21
 73
17
 74
0
 42
0.0000001
 43
0.0000001
 44
0.0000000001
 40
0.0
 40
0.0
 40
0.0
 40
0.0
 40
0.1550225064
 40
0.306111942
 40
0.3790677512
 40
0.4497302902
 40
0.5177543053
 40
0.5828602607
 40
0.6448498724
 40
0.70362275
 40
0.7591953715
 40
0.81172157
 40
0.8615104709
 40
0.9090382656
 40
0.9549439009
 40
1.0
 40
1.0
 40
1.0
 40
1.0
 10
-15.659589093
 20
-81.7307558459
 30
0.0
 10
-16.2457849516
 20
-82.7460768553
 30
0.0
 10
-17.2917086229
 20
-84.8176911918
 30
0.0
 10
-18.284049117
 20
-87.5150069404
 30
0.0
 10
-18.8530954919
 20
-89.6713574412
 30
0.0
 10
-19.1582272375
 20
-91.2439038227
 30
0.0
 10
-19.3437644138
 20
-92.7753268222
 30
0.0
 10
-19.4078626916
 20
-94.2511727226
 30
0.0
 10
-19.3497875936
 20
-95.6574985236
 30
0.0
 10
-19.1698568024
 20
-96.9810752025
 30
0.0
 10
-18.8693895047
 20
-98.2094450175
 30
0.0
 10
-18.4506373288
 20
-99.3309517973
 30
0.0
 10
-17.9168229579
 20
-100.3346568036
 30
0.0
 10
-17.2721054979
 20
-101.2103315162
 30
0.0
 10
-16.5224652412
 20
-101.9481452809
 30
0.0
 10
-15.9551150922
 20
-102.3440644087
 30
0.0
 10
-15.6600239213
 20
-102.5144447769
 30
0.0
  0
SPLINE
  5
4C7
100
AcDbEntity
  8
ASSI
100
AcDbSpline
 62
7
  6
CONTINUOUS
 70
0
 71
3
 72
13
 73
9
 74
0
 42
0.0000001
 43
0.0000001
 44
0.0000000001
 40
0.0
 40
0.0
 40
0.0
 40
0.0
 40
0.2720175263
 40
0.5313143734
 40
0.6544007694
 40
0.7727800858
 40
0.8874249218
 40
1.0
 40
1.0
 40
1.0
 40
1.0
 10
74.40817786
 20
40.7942934783
 30
0.0
 10
74.6343359993
 20
41.1860108657
 30
0.0
 10
74.9583516492
 20
42.0264597403
 30
0.0
 10
74.9973749891
 20
43.13882887
 30
0.0
 10
74.7858472706
 20
43.9495015399
 30
0.0
 10
74.5189728203
 20
44.483448042
 30
0.0
 10
74.1508566806
 20
44.9311065492
 30
0.0
 10
73.8454146554
 20
45.160742877
 30
0.0
 10
73.6833041259
 20
45.2543434651
 30
0.0
  0
SPLINE
  5
4C8
100
AcDbEntity
  8
ASSI
100
AcDbSpline
 62
7
  6
CONTINUOUS
 70
0
 71
3
 72
33
 73
29
 74
0
 42
0.0000001
 43
0.0000001
 44
0.0000000001
 40
0.0
 40
0.0
 40
0.0
 40
0.0
 40
0.0280493669
 40
0.0562319209
 40
0.084675198
 40
0.1134920354
 40
0.1427776083
 40
0.1726048609
 40
0.2030226753
 40
0.2340551134
 40
0.297871436
 40
0.3638643502
 40
0.3975407624
 40
0.4315332617
 40
0.5000043972
 40
0.5684752275
 40
0.6024673544
 40
0.6361432608
 40
0.7021348252
 40
0.7659495012
 40
0.7969810783
 40
0.827398048
 40
0.8572245067
 40
0.886509371
 40
0.9153256173
 40
0.9437684495
 40
0.971950727
 40
1.0
 40
1.0
 40
1.0
 40
1.0
 10
-23.3461510725
 20
-3.4549792454
 30
0.0
 10
-23.6701789929
 20
-3.2678895852
 30
0.0
 10
-24.2978108016
 20
-2.8532330258
 30
0.0
 10
-25.1608910226
 20
-2.1206672605
 30
0.0
 10
-25.9386318388
 20
-1.2839066397
 30
0.0
 10
-26.6233410333
 20
-0.3513209446
 30
0.0
 10
-27.2085419611
 20
0.667940672
 30
0.0
 10
-27.6887018808
 20
1.7638848102
 30
0.0
 10
-28.0593540156
 20
2.9259685002
 30
0.0
 10
-28.4061167213
 20
4.562980538
 30
0.0
 10
-28.5429878607
 20
6.7175100319
 30
0.0
 10
-28.2919881263
 20
8.8951710584
 30
0.0
 10
-27.868065671
 20
10.6287847943
 30
0.0
 10
-27.2925047522
 20
12.3531002156
 30
0.0
 10
-26.3089909942
 20
14.4217881657
 30
0.0
 10
-25.0092149234
 20
16.3078765994
 30
0.0
 10
-23.8037020224
 20
17.6684704516
 30
0.0
 10
-22.5143259587
 20
18.9023789936
 30
0.0
 10
-20.7539423079
 20
20.2085397207
 30
0.0
 10
-18.8196585036
 20
21.1672157864
 30
0.0
 10
-17.2286125414
 20
21.6853630498
 30
0.0
 10
-16.0369169344
 20
21.9453672683
 30
0.0
 10
-14.8477476514
 20
22.0774620462
 30
0.0
 10
-13.6724683675
 20
22.0802446744
 30
0.0
 10
-12.5224998011
 20
21.9535104263
 30
0.0
 10
-11.4090034726
 20
21.6982942005
 30
0.0
 10
-10.3430736908
 20
21.3170733568
 30
0.0
 10
-9.6701779091
 20
20.9808210698
 30
0.0
 10
-9.3461510725
 20
20.7937320354
 30
0.0
  0
SPLINE
  5
4C9
100
AcDbEntity
  8
ASSI
100
AcDbSpline
 62
7
  6
CONTINUOUS
 70
0
 71
3
 72
12
 73
8
 74
0
 42
0.0000001
 43
0.0000001
 44
0.0000000001
 40
0.0
 40
0.0
 40
0.0
 40
0.0
 40
0.289578128
 40
0.5486262547
 40
0.7816309579
 40
0.8918348947
 40
1.0
 40
1.0
 40
1.0
 40
1.0
 10
31.5540173088
 20
-56.6488619547
 30
0.0
 10
31.7076502459
 20
-56.7375676871
 30
0.0
 10
31.9863208904
 20
-56.9295071865
 30
0.0
 10
32.3192373259
 20
-57.2792205496
 30
0.0
 10
32.4979948126
 20
-57.6087486648
 30
0.0
 10
32.5676172139
 20
-57.8775029209
 30
0.0
 10
32.5791421717
 20
-58.0115583489
 30
0.0
 10
32.5791415927
 20
-58.0778230309
 30
0.0
  0
SPLINE
  5
4CA
100
AcDbEntity
  8
ASSI
100
AcDbSpline
 62
7
  6
CONTINUOUS
 70
0
 71
3
 72
11
 73
7
 74
0
 42
0.0000001
 43
0.0000001
 44
0.0000000001
 40
0.0
 40
0.0
 40
0.0
 40
0.0
 40
0.2384408891
 40
0.4928918323
 40
0.7510419161
 40
1.0
 40
1.0
 40
1.0
 40
1.0
 10
-6.629795299
 20
-93.4752034684
 30
0.0
 10
-6.3570907909
 20
-93.3603819267
 30
0.0
 10
-5.7672654622
 20
-93.1830449696
 30
0.0
 10
-4.8386021619
 20
-93.0682778731
 30
0.0
 10
-3.8904017618
 20
-93.0999242652
 30
0.0
 10
-3.2692505049
 20
-93.2215357823
 30
0.0
 10
-2.9729735157
 20
-93.3090886908
 30
0.0
  0
SPLINE
  5
4CB
100
AcDbEntity
  8
ASSI
100
AcDbSpline
 62
7
  6
CONTINUOUS
 70
0
 71
3
 72
9
 73
5
 74
0
 42
0.0000001
 43
0.0000001
 44
0.0000000001
 40
0.0
 40
0.0
 40
0.0
 40
0.0
 40
0.2377152001
 40
1.0
 40
1.0
 40
1.0
 40
1.0
 10
-6.9333689818
 20
-93.608423637
 30
0.0
 10
-6.9100675157
 20
-93.5962733527
 30
0.0
 10
-6.8111116782
 20
-93.5469552035
 30
0.0
 10
-6.708827998
 20
-93.5044465685
 30
0.0
 10
-6.629795299
 20
-93.4752034684
 30
0.0
  0
SPLINE
  5
4CC
100
AcDbEntity
  8
ASSI
100
AcDbSpline
 62
7
  6
CONTINUOUS
 70
0
 71
3
 72
18
 73
14
 74
0
 42
0.0000001
 43
0.0000001
 44
0.0000000001
 40
0.0
 40
0.0
 40
0.0
 40
0.0
 40
0.0561082911
 40
0.1124889089
 40
0.1693940248
 40
0.2270491884
 40
0.2856432023
 40
0.3453209351
 40
0.4681119733
 40
0.5957817322
 40
0.7277959668
 40
0.86304008
 40
1.0
 40
1.0
 40
1.0
 40
1.0
 10
-9.321940907
 20
23.204504321
 30
0.0
 10
-9.6946474176
 20
23.4183239994
 30
0.0
 10
-10.4684720997
 20
23.8024137484
 30
0.0
 10
-11.6937720439
 20
24.2372016124
 30
0.0
 10
-12.9733810712
 20
24.5274233925
 30
0.0
 10
-14.2945442406
 20
24.6702970555
 30
0.0
 10
-15.644607667
 20
24.6646050126
 30
0.0
 10
-17.4820988951
 20
24.4576283487
 30
0.0
 10
-19.7883377018
 20
23.8205421485
 30
0.0
 10
-22.4255748334
 20
22.5097090805
 30
0.0
 10
-24.8657791975
 20
20.697259825
 30
0.0
 10
-27.0176891833
 20
18.4536535355
 30
0.0
 10
-28.2061415952
 20
16.7282102927
 30
0.0
 10
-28.7305702496
 20
15.8198732192
 30
0.0
  0
SPLINE
  5
4CD
100
AcDbEntity
  8
ASSI
100
AcDbSpline
 62
7
  6
CONTINUOUS
 70
0
 71
3
 72
13
 73
9
 74
0
 42
0.0000001
 43
0.0000001
 44
0.0000000001
 40
0.0
 40
0.0
 40
0.0
 40
0.0
 40
0.2720199611
 40
0.5313153358
 40
0.6544004865
 40
0.772778881
 40
0.887423667
 40
1.0
 40
1.0
 40
1.0
 40
1.0
 10
-8.0875111543
 20
-68.6155321509
 30
0.0
 10
-7.8613550118
 20
-68.223818222
 30
0.0
 10
-7.2955226356
 20
-67.5229978905
 30
0.0
 10
-6.351703242
 20
-66.9330373587
 30
0.0
 10
-5.5438897421
 20
-66.7109170701
 30
0.0
 10
-4.9480536804
 20
-66.675088145
 30
0.0
 10
-4.3763260265
 20
-66.7700839047
 30
0.0
 10
-4.0247468743
 20
-66.9198043504
 30
0.0
 10
-3.8626374202
 20
-67.0134043175
 30
0.0
  0
SPLINE
  5
4CE
100
AcDbEntity
  8
ASSI
100
AcDbSpline
 62
7
  6
CONTINUOUS
 70
0
 71
3
 72
14
 73
10
 74
0
 42
0.0000001
 43
0.0000001
 44
0.0000000001
 40
0.0
 40
0.0
 40
0.0
 40
0.0
 40
0.2714095416
 40
0.4032780258
 40
0.5309214225
 40
0.6538987582
 40
0.7723977147
 40
0.8872781569
 40
1.0
 40
1.0
 40
1.0
 40
1.0
 10
-41.0882550606
 20
81.0508704521
 30
0.0
 10
-41.2092086558
 20
80.8590783879
 30
0.0
 10
-41.4339699594
 20
80.5984668367
 30
0.0
 10
-41.7969413707
 20
80.3409479508
 30
0.0
 10
-42.0866448453
 20
80.2020009409
 30
0.0
 10
-42.3861096938
 20
80.1210486043
 30
0.0
 10
-42.6853028515
 20
80.1012483563
 30
0.0
 10
-42.9735367674
 20
80.1438003544
 30
0.0
 10
-43.152521142
 20
80.2135466085
 30
0.0
 10
-43.2357638641
 20
80.2575816601
 30
0.0
  0
SPLINE
  5
4CF
100
AcDbEntity
  8
ASSI
100
AcDbSpline
 62
7
  6
CONTINUOUS
 70
0
 71
3
 72
14
 73
10
 74
0
 42
0.0000001
 43
0.0000001
 44
0.0000000001
 40
0.0
 40
0.0
 40
0.0
 40
0.0
 40
0.1124001507
 40
0.227076121
 40
0.3455506511
 40
0.4686800693
 40
0.5965850326
 40
0.7287110112
 40
1.0
 40
1.0
 40
1.0
 40
1.0
 10
-41.3868086401
 20
83.4605341487
 30
0.0
 10
-41.3044756923
 20
83.408859417
 30
0.0
 10
-41.1500166154
 20
83.2841498385
 30
0.0
 10
-40.9654193439
 20
83.0460678487
 30
0.0
 10
-40.8329265772
 20
82.7653184891
 30
0.0
 10
-40.7570604984
 20
82.4528471098
 30
0.0
 10
-40.7400803024
 20
82.1200149313
 30
0.0
 10
-40.7964027604
 20
81.6623738388
 30
0.0
 10
-40.9252768857
 20
81.3297043003
 30
0.0
 10
-41.0425849916
 20
81.1265207007
 30
0.0
  0
SPLINE
  5
4D0
100
AcDbEntity
  8
ASSI
100
AcDbSpline
 62
7
  6
CONTINUOUS
 70
0
 71
3
 72
14
 73
10
 74
0
 42
0.0000001
 43
0.0000001
 44
0.0000000001
 40
0.0
 40
0.0
 40
0.0
 40
0.0
 40
0.2714095416
 40
0.4032780258
 40
0.5309214225
 40
0.6538987582
 40
0.7723977147
 40
0.8872781569
 40
1.0
 40
1.0
 40
1.0
 40
1.0
 10
59.3209078679
 20
23.0758781996
 30
0.0
 10
59.1999542727
 20
22.8840861354
 30
0.0
 10
58.9751929691
 20
22.6234745842
 30
0.0
 10
58.6122215577
 20
22.3659556983
 30
0.0
 10
58.3225180832
 20
22.2270086883
 30
0.0
 10
58.0230532347
 20
22.1460563518
 30
0.0
 10
57.723860077
 20
22.1262561038
 30
0.0
 10
57.4356261611
 20
22.1688081019
 30
0.0
 10
57.2566417865
 20
22.238554356
 30
0.0
 10
57.1733990644
 20
22.2825894075
 30
0.0
  0
SPLINE
  5
4D1
100
AcDbEntity
  8
ASSI
100
AcDbSpline
 62
7
  6
CONTINUOUS
 70
0
 71
3
 72
14
 73
10
 74
0
 42
0.0000001
 43
0.0000001
 44
0.0000000001
 40
0.0
 40
0.0
 40
0.0
 40
0.0
 40
0.27173459
 40
0.4039494429
 40
0.5318012062
 40
0.6547590329
 40
0.7730150497
 40
0.88754226
 40
1.0
 40
1.0
 40
1.0
 40
1.0
 10
-36.4276788255
 20
20.2640844536
 30
0.0
 10
-36.3016838244
 20
20.4823141969
 30
0.0
 10
-36.0604590207
 20
20.7803206684
 30
0.0
 10
-35.6628386207
 20
21.0750760674
 30
0.0
 10
-35.3427257876
 20
21.2338589333
 30
0.0
 10
-35.0105646845
 20
21.3252249406
 30
0.0
 10
-34.6786430777
 20
21.345189896
 30
0.0
 10
-34.3601102205
 20
21.2922860997
 30
0.0
 10
-34.164234335
 20
21.2088878037
 30
0.0
 10
-34.0739167461
 20
21.1567496273
 30
0.0
  0
SPLINE
  5
4D2
100
AcDbEntity
  8
ASSI
100
AcDbSpline
 62
7
  6
CONTINUOUS
 70
0
 71
3
 72
14
 73
10
 74
0
 42
0.0000001
 43
0.0000001
 44
0.0000000001
 40
0.0
 40
0.0
 40
0.0
 40
0.0
 40
0.27173459
 40
0.4039494429
 40
0.5318012062
 40
0.6547590329
 40
0.7730150497
 40
0.88754226
 40
1.0
 40
1.0
 40
1.0
 40
1.0
 10
-1.0723397662
 20
-0.1496452128
 30
0.0
 10
-0.946344765
 20
0.0685845305
 30
0.0
 10
-0.7051199614
 20
0.366591002
 30
0.0
 10
-0.3074995614
 20
0.661346401
 30
0.0
 10
0.0126132717
 20
0.8201292669
 30
0.0
 10
0.3447743749
 20
0.9114952742
 30
0.0
 10
0.6766959816
 20
0.9314602296
 30
0.0
 10
0.9952288388
 20
0.8785564333
 30
0.0
 10
1.1911047244
 20
0.7951581373
 30
0.0
 10
1.2814223132
 20
0.7430199609
 30
0.0
  0
SPLINE
  5
4D3
100
AcDbEntity
  8
ASSI
100
AcDbSpline
 62
7
  6
CONTINUOUS
 70
0
 71
3
 72
14
 73
10
 74
0
 42
0.0000001
 43
0.0000001
 44
0.0000000001
 40
0.0
 40
0.0
 40
0.0
 40
0.0
 40
0.1124001507
 40
0.227076121
 40
0.3455506511
 40
0.4686800693
 40
0.5965850326
 40
0.7287110112
 40
1.0
 40
1.0
 40
1.0
 40
1.0
 10
59.0223542883
 20
25.4855418962
 30
0.0
 10
59.1046872362
 20
25.4338671644
 30
0.0
 10
59.2591463131
 20
25.309157586
 30
0.0
 10
59.4437435845
 20
25.0710755962
 30
0.0
 10
59.5762363513
 20
24.7903262365
 30
0.0
 10
59.6521024301
 20
24.4778548572
 30
0.0
 10
59.6690826261
 20
24.1450226787
 30
0.0
 10
59.6127601681
 20
23.6873815862
 30
0.0
 10
59.4838860428
 20
23.3547120478
 30
0.0
 10
59.3665779369
 20
23.1515284482
 30
0.0
  0
SPLINE
  5
4D4
100
AcDbEntity
  8
ASSI
100
AcDbSpline
 62
7
  6
CONTINUOUS
 70
0
 71
3
 72
14
 73
10
 74
0
 42
0.0000001
 43
0.0000001
 44
0.0000000001
 40
0.0
 40
0.0
 40
0.0
 40
0.0
 40
0.2714095416
 40
0.4032780258
 40
0.5309214225
 40
0.6538987582
 40
0.7723977147
 40
0.8872781569
 40
1.0
 40
1.0
 40
1.0
 40
1.0
 10
17.5709078679
 20
-49.2372429414
 30
0.0
 10
17.4499542727
 20
-49.4290350056
 30
0.0
 10
17.2251929691
 20
-49.6896465568
 30
0.0
 10
16.8622215577
 20
-49.9471654427
 30
0.0
 10
16.5725180832
 20
-50.0861124526
 30
0.0
 10
16.2730532347
 20
-50.1670647892
 30
0.0
 10
15.973860077
 20
-50.1868650372
 30
0.0
 10
15.6856261611
 20
-50.1443130391
 30
0.0
 10
15.5066417865
 20
-50.074566785
 30
0.0
 10
15.4233990644
 20
-50.0305317334
 30
0.0
  0
SPLINE
  5
4D5
100
AcDbEntity
  8
ASSI
100
AcDbSpline
 62
7
  6
CONTINUOUS
 70
0
 71
3
 72
18
 73
14
 74
0
 42
0.0000001
 43
0.0000001
 44
0.0000000001
 40
0.0
 40
0.0
 40
0.0
 40
0.0
 40
0.1369790381
 40
0.2722372258
 40
0.4042568759
 40
0.5319218339
 40
0.6546995542
 40
0.7143693032
 40
0.7729555364
 40
0.8306042992
 40
0.8875056656
 40
0.9438864556
 40
1.0
 40
1.0
 40
1.0
 40
1.0
 10
-28.7555702496
 20
15.834305116
 30
0.0
 10
-28.2304121057
 20
16.7439057025
 30
0.0
 10
-27.0401211921
 20
18.4716124306
 30
0.0
 10
-24.8845233721
 20
20.7175372377
 30
0.0
 10
-22.4400577218
 20
22.5308985867
 30
0.0
 10
-19.798388939
 20
23.8409993066
 30
0.0
 10
-17.4886006157
 20
24.4759686587
 30
0.0
 10
-15.6486997425
 20
24.6803171056
 30
0.0
 10
-14.2970983848
 20
24.6836244916
 30
0.0
 10
-12.9746951732
 20
24.5379564815
 30
0.0
 10
-11.6941929581
 20
24.2445611632
 30
0.0
 10
-10.4683932593
 20
23.8062600945
 30
0.0
 10
-9.6945612478
 20
23.419649908
 30
0.0
 10
-9.3219308299
 20
23.204539343
 30
0.0
  0
SPLINE
  5
4D6
100
AcDbEntity
  8
ASSI
100
AcDbSpline
 62
7
  6
CONTINUOUS
 70
0
 71
3
 72
14
 73
10
 74
0
 42
0.0000001
 43
0.0000001
 44
0.0000000001
 40
0.0
 40
0.0
 40
0.0
 40
0.0
 40
0.1124001507
 40
0.227076121
 40
0.3455506511
 40
0.4686800693
 40
0.5965850326
 40
0.7287110112
 40
1.0
 40
1.0
 40
1.0
 40
1.0
 10
17.2723542883
 20
-46.8275792448
 30
0.0
 10
17.3546872362
 20
-46.8792539765
 30
0.0
 10
17.5091463131
 20
-47.003963555
 30
0.0
 10
17.6937435845
 20
-47.2420455447
 30
0.0
 10
17.8262363513
 20
-47.5227949044
 30
0.0
 10
17.9021024301
 20
-47.8352662837
 30
0.0
 10
17.9190826261
 20
-48.1680984622
 30
0.0
 10
17.8627601681
 20
-48.6257395547
 30
0.0
 10
17.7338860428
 20
-48.9584090932
 30
0.0
 10
17.6165779369
 20
-49.1615926928
 30
0.0
  0
SPLINE
  5
4D7
100
AcDbEntity
  8
ASSI
100
AcDbSpline
 62
7
  6
CONTINUOUS
 70
0
 71
3
 72
14
 73
10
 74
0
 42
0.0000001
 43
0.0000001
 44
0.0000000001
 40
0.0
 40
0.0
 40
0.0
 40
0.0
 40
0.2714072028
 40
0.4032752396
 40
0.5309189055
 40
0.6538971094
 40
0.7723971747
 40
0.8872783914
 40
1.0
 40
1.0
 40
1.0
 40
1.0
 10
-82.8382550606
 20
8.7377493111
 30
0.0
 10
-82.9591962009
 20
8.5459769963
 30
0.0
 10
-83.1839297702
 20
8.285389644
 30
0.0
 10
-83.5468537787
 20
8.0278808272
 30
0.0
 10
-83.8365210743
 20
7.8889281988
 30
0.0
 10
-84.1359517141
 20
7.807956285
 30
0.0
 10
-84.4351159676
 20
7.7881222515
 30
0.0
 10
-84.7233298051
 20
7.8306270578
 30
0.0
 10
-84.9023098894
 20
7.9003343216
 30
0.0
 10
-84.9855530885
 20
7.9443490458
 30
0.0
  0
SPLINE
  5
4D8
100
AcDbEntity
  8
ASSI
100
AcDbSpline
 62
7
  6
CONTINUOUS
 70
0
 71
3
 72
13
 73
9
 74
0
 42
0.0000001
 43
0.0000001
 44
0.0000000001
 40
0.0
 40
0.0
 40
0.0
 40
0.0
 40
0.2720160675
 40
0.531314443
 40
0.6544005776
 40
0.7727809367
 40
0.8874225784
 40
1.0
 40
1.0
 40
1.0
 40
1.0
 10
73.6760710788
 20
41.2169999684
 30
0.0
 10
73.837611636
 20
41.4967964207
 30
0.0
 10
74.0690429826
 20
42.0971186383
 30
0.0
 10
74.096930045
 20
42.8916664403
 30
0.0
 10
73.9458340405
 20
43.4707208831
 30
0.0
 10
73.7552042302
 20
43.8521039882
 30
0.0
 10
73.4922741577
 20
44.1718679149
 30
0.0
 10
73.2740996967
 20
44.3358910476
 30
0.0
 10
73.1583041259
 20
44.402749959
 30
0.0
  0
SPLINE
  5
4D9
100
AcDbEntity
  8
ASSI
100
AcDbSpline
 62
7
  6
CONTINUOUS
 70
0
 71
3
 72
13
 73
9
 74
0
 42
0.0000001
 43
0.0000001
 44
0.0000000001
 40
0.0
 40
0.0
 40
0.0
 40
0.0
 40
0.1125786764
 40
0.2272202681
 40
0.3455997053
 40
0.4686845946
 40
0.7279814978
 40
1.0
 40
1.0
 40
1.0
 40
1.0
 10
6.1583041259
 20
-71.6446540277
 30
0.0
 10
6.2740989286
 20
-71.7115124955
 30
0.0
 10
6.5252252486
 20
-71.8184584522
 30
0.0
 10
6.9336039297
 20
-71.8862999572
 30
0.0
 10
7.359197436
 20
-71.8607160004
 30
0.0
 10
7.9362116634
 20
-71.7020615208
 30
0.0
 10
8.6103603838
 20
-71.2806504555
 30
0.0
 10
9.0145319479
 20
-70.7800709857
 30
0.0
 10
9.1760710788
 20
-70.5002770038
 30
0.0
  0
SPLINE
  5
4DA
100
AcDbEntity
  8
ASSI
100
AcDbSpline
 62
7
  6
CONTINUOUS
 70
0
 71
3
 72
14
 73
10
 74
0
 42
0.0000001
 43
0.0000001
 44
0.0000000001
 40
0.0
 40
0.0
 40
0.0
 40
0.0
 40
0.1123999158
 40
0.2270768331
 40
0.3455526798
 40
0.468683101
 40
0.5965883418
 40
0.7287137541
 40
1.0
 40
1.0
 40
1.0
 40
1.0
 10
-83.1365767849
 20
11.1472674523
 30
0.0
 10
-83.054264084
 20
11.0955799751
 30
0.0
 10
-82.8998470627
 20
10.9708513265
 30
0.0
 10
-82.7153094589
 20
10.7327617331
 30
0.0
 10
-82.5828677221
 20
10.4520219123
 30
0.0
 10
-82.5070410749
 20
10.1395739105
 30
0.0
 10
-82.490087027
 20
9.8067752303
 30
0.0
 10
-82.5464256729
 20
9.3491878388
 30
0.0
 10
-82.6752903424
 20
9.0165598517
 30
0.0
 10
-82.7925849916
 20
8.8133995597
 30
0.0
  0
SPLINE
  5
4DB
100
AcDbEntity
  8
0
100
AcDbSpline
 62
7
  6
CONTINUOUS
 70
0
 71
3
 72
12
 73
8
 74
0
 42
0.0000001
 43
0.0000001
 44
0.0000000001
 40
0.0
 40
0.0
 40
0.0
 40
0.0
 40
0.1081651073
 40
0.2183690706
 40
0.4513738893
 40
0.7104225001
 40
1.0
 40
1.0
 40
1.0
 40
1.0
 10
100.9605026521
 20
-56.7329043939
 30
0.0
 10
100.9605018831
 20
-56.6666397024
 30
0.0
 10
100.9489797622
 20
-56.5325841659
 30
0.0
 10
100.8793556263
 20
-56.2638298495
 30
0.0
 10
100.700597549
 20
-55.9343020241
 30
0.0
 10
100.3676814853
 20
-55.5845881115
 30
0.0
 10
100.0890107125
 20
-55.392648868
 30
0.0
 10
99.9353780892
 20
-55.3039433168
 30
0.0
  0
SPLINE
  5
4DC
100
AcDbEntity
  8
0
100
AcDbSpline
 62
7
  6
CONTINUOUS
 70
0
 71
3
 72
9
 73
5
 74
0
 42
0.0000001
 43
0.0000001
 44
0.0000000001
 40
0.0
 40
0.0
 40
0.0
 40
0.0
 40
0.4799077201
 40
1.0
 40
1.0
 40
1.0
 40
1.0
 10
20.7328143024
 20
-65.5538014464
 30
0.0
 10
20.5359383679
 20
-65.6638112049
 30
0.0
 10
20.102693218
 20
-65.8527158702
 30
0.0
 10
19.6464699979
 20
-65.9723805912
 30
0.0
 10
19.4064716155
 20
-66.0186133577
 30
0.0
  0
SPLINE
  5
4DD
100
AcDbEntity
  8
0
100
AcDbSpline
 62
7
  6
CONTINUOUS
 70
0
 71
3
 72
11
 73
7
 74
0
 42
0.0000001
 43
0.0000001
 44
0.0000000001
 40
0.0
 40
0.0
 40
0.0
 40
0.0
 40
0.2352562349
 40
0.4821729746
 40
0.7384827008
 40
1.0
 40
1.0
 40
1.0
 40
1.0
 10
17.6444397619
 20
-47.870272225
 30
0.0
 10
17.6811570398
 20
-47.963466265
 30
0.0
 10
17.7305284006
 20
-48.1654157085
 30
0.0
 10
17.7306448606
 20
-48.4824196787
 30
0.0
 10
17.6599600807
 20
-48.8026776055
 30
0.0
 10
17.5686983528
 20
-49.0053445026
 30
0.0
 10
17.5130245463
 20
-49.101774364
 30
0.0
  0
SPLINE
  5
4DE
100
AcDbEntity
  8
0
100
AcDbSpline
 62
7
  6
CONTINUOUS
 70
0
 71
3
 72
11
 73
7
 74
0
 42
0.0000001
 43
0.0000001
 44
0.0000000001
 40
0.0
 40
0.0
 40
0.0
 40
0.0
 40
0.2352562349
 40
0.4821729746
 40
0.7384827008
 40
1.0
 40
1.0
 40
1.0
 40
1.0
 10
59.3944397619
 20
24.442848916
 30
0.0
 10
59.4311570398
 20
24.3496548759
 30
0.0
 10
59.4805284006
 20
24.1477054325
 30
0.0
 10
59.4806448606
 20
23.8307014622
 30
0.0
 10
59.4099600807
 20
23.5104435355
 30
0.0
 10
59.3186983528
 20
23.3077766383
 30
0.0
 10
59.2630245463
 20
23.2113467769
 30
0.0
  0
SPLINE
  5
4DF
100
AcDbEntity
  8
0
100
AcDbSpline
 62
7
  6
CONTINUOUS
 70
0
 71
3
 72
13
 73
9
 74
0
 42
0.0000001
 43
0.0000001
 44
0.0000000001
 40
0.0
 40
0.0
 40
0.0
 40
0.0
 40
0.2720199611
 40
0.5313153358
 40
0.6544004865
 40
0.772778881
 40
0.887423667
 40
1.0
 40
1.0
 40
1.0
 40
1.0
 10
14.90817786
 20
-73.8093628522
 30
0.0
 10
14.6820217175
 20
-74.2010767811
 30
0.0
 10
14.1161893413
 20
-74.9018971127
 30
0.0
 10
13.1723699477
 20
-75.4918576445
 30
0.0
 10
12.3645564478
 20
-75.713977933
 30
0.0
 10
11.7687203861
 20
-75.7498068582
 30
0.0
 10
11.1969927322
 20
-75.6548110985
 30
0.0
 10
10.84541358
 20
-75.5050906528
 30
0.0
 10
10.6833041259
 20
-75.4114906857
 30
0.0
  0
SPLINE
  5
4E0
100
AcDbEntity
  8
0
100
AcDbSpline
 62
7
  6
CONTINUOUS
 70
0
 71
3
 72
11
 73
7
 74
0
 42
0.0000001
 43
0.0000001
 44
0.0000000001
 40
0.0
 40
0.0
 40
0.0
 40
0.0
 40
0.2352562349
 40
0.4821729746
 40
0.7384827008
 40
1.0
 40
1.0
 40
1.0
 40
1.0
 10
-41.0147231666
 20
82.4178411685
 30
0.0
 10
-40.9780058887
 20
82.3246471285
 30
0.0
 10
-40.9286345279
 20
82.122697685
 30
0.0
 10
-40.9285180679
 20
81.8056937148
 30
0.0
 10
-40.9992028478
 20
81.485435788
 30
0.0
 10
-41.0904645757
 20
81.2827688909
 30
0.0
 10
-41.1461383822
 20
81.1863390295
 30
0.0
  0
SPLINE
  5
4E1
100
AcDbEntity
  8
ASSI
100
AcDbSpline
 62
7
  6
CONTINUOUS
 70
0
 71
3
 72
14
 73
10
 74
0
 42
0.0000001
 43
0.0000001
 44
0.0000000001
 40
0.0
 40
0.0
 40
0.0
 40
0.0
 40
0.1164601352
 40
0.2347805121
 40
0.3554406927
 40
0.478777483
 40
0.6049751926
 40
0.7340658695
 40
1.0
 40
1.0
 40
1.0
 40
1.0
 10
-21.2010979267
 20
-4.359978349
 30
0.0
 10
-21.5143070867
 20
-4.0556660274
 30
0.0
 10
-22.1045578224
 20
-3.3982700263
 30
0.0
 10
-22.8586201666
 20
-2.2949712515
 30
0.0
 10
-23.4783105866
 20
-1.081895429
 30
0.0
 10
-23.955793997
 20
0.224987883
 30
0.0
 10
-24.2853561396
 20
1.609314128
 30
0.0
 10
-24.5247277212
 20
3.5519569758
 30
0.0
 10
-24.4674011761
 20
5.045912073
 30
0.0
 10
-24.3332658925
 20
6.0340417565
 30
0.0
  0
SPLINE
  5
4E2
100
AcDbEntity
  8
ASSI
100
AcDbSpline
 62
7
  6
CONTINUOUS
 70
0
 71
3
 72
14
 73
10
 74
0
 42
0.0000001
 43
0.0000001
 44
0.0000000001
 40
0.0
 40
0.0
 40
0.0
 40
0.0
 40
0.265933132
 40
0.395023448
 40
0.521220996
 40
0.6445578587
 40
0.7652183463
 40
0.8835392292
 40
1.0
 40
1.0
 40
1.0
 40
1.0
 10
-18.0577121314
 20
16.9043989545
 30
0.0
 10
-17.2691386316
 20
17.5146214531
 30
0.0
 10
-16.0041611154
 20
18.3112567421
 30
0.0
 10
-14.2023095441
 20
19.0753442957
 30
0.0
 10
-12.8388153701
 20
19.4821748668
 30
0.0
 10
-11.4684146109
 20
19.7222063717
 30
0.0
 10
-10.1081321524
 20
19.792204579
 30
0.0
 10
-8.7757112444
 20
19.690968585
 30
0.0
 10
-7.9113108405
 20
19.5086111437
 30
0.0
 10
-7.4911819756
 20
19.3895814788
 30
0.0
  0
SPLINE
  5
4E3
100
AcDbEntity
  8
0
100
AcDbSpline
 62
7
  6
CONTINUOUS
 70
0
 71
3
 72
12
 73
8
 74
0
 42
0.0000001
 43
0.0000001
 44
0.0000000001
 40
0.0
 40
0.0
 40
0.0
 40
0.0
 40
0.1076875578
 40
0.2174885471
 40
0.4501118618
 40
0.7095025071
 40
1.0
 40
1.0
 40
1.0
 40
1.0
 10
32.5791415927
 20
-58.0778230309
 30
0.0
 10
32.5791410016
 20
-58.1454752663
 30
0.0
 10
32.5671215706
 20
-58.2824011589
 30
0.0
 10
32.4944748837
 20
-58.5568997743
 30
0.0
 10
32.3079343299
 20
-58.8929362172
 30
0.0
 10
31.9616017267
 20
-59.2476501465
 30
0.0
 10
31.6724662524
 20
-59.4409747471
 30
0.0
 10
31.5131523301
 20
-59.5299957144
 30
0.0
  0
SPLINE
  5
4E4
100
AcDbEntity
  8
0
100
AcDbSpline
 62
7
  6
CONTINUOUS
 70
0
 71
3
 72
18
 73
14
 74
0
 42
0.0000001
 43
0.0000001
 44
0.0000000001
 40
0.0
 40
0.0
 40
0.0
 40
0.0
 40
0.1550714854
 40
0.3062079937
 40
0.4497918772
 40
0.5828635633
 40
0.7035298367
 40
0.7591200064
 40
0.8116625077
 40
0.861467002
 40
0.9090098265
 40
0.9549298669
 40
1.0
 40
1.0
 40
1.0
 40
1.0
 10
-10.659589093
 20
-84.6171352042
 30
0.0
 10
-10.9201211604
 20
-85.0683899816
 30
0.0
 10
-11.3850224795
 20
-85.989207456
 30
0.0
 10
-11.9079880836
 20
-87.4107994676
 30
0.0
 10
-12.2345187288
 20
-88.8150519285
 30
0.0
 10
-12.3521699222
 20
-90.1497109339
 30
0.0
 10
-12.2691290389
 20
-91.1927527589
 30
0.0
 10
-12.0861793141
 20
-91.9409858808
 30
0.0
 10
-11.9000513378
 20
-92.4394470713
 30
0.0
 10
-11.6628048202
 20
-92.8855346335
 30
0.0
 10
-11.3762621183
 20
-93.2747240872
 30
0.0
 10
-11.0430887918
 20
-93.6026414941
 30
0.0
 10
-10.7909318264
 20
-93.778602633
 30
0.0
 10
-10.6597815503
 20
-93.8543289037
 30
0.0
  0
SPLINE
  5
4E5
100
AcDbEntity
  8
0
100
AcDbSpline
 62
7
  6
CONTINUOUS
 70
0
 71
3
 72
13
 73
9
 74
0
 42
0.0000001
 43
0.0000001
 44
0.0000000001
 40
0.0
 40
0.0
 40
0.0
 40
0.0
 40
0.1125609487
 40
0.2272366154
 40
0.3456626129
 40
0.468785529
 40
0.7280823083
 40
1.0
 40
1.0
 40
1.0
 40
1.0
 10
1.1205365387
 20
-69.890161693
 30
0.0
 10
0.9583005875
 20
-69.7982807349
 30
0.0
 10
0.6069329611
 20
-69.6518772349
 30
0.0
 10
0.0367498092
 20
-69.5609375837
 30
0.0
 10
-0.5567463582
 20
-69.5996705511
 30
0.0
 10
-1.3606820593
 20
-69.8240565621
 30
0.0
 10
-2.299282945
 20
-70.4136086871
 30
0.0
 10
-2.8623072373
 20
-71.1118468833
 30
0.0
 10
-3.0875111543
 20
-71.5019115092
 30
0.0
  0
SPLINE
  5
4E6
100
AcDbEntity
  8
0
100
AcDbSpline
 62
7
  6
CONTINUOUS
 70
0
 71
3
 72
14
 73
10
 74
0
 42
0.0000001
 43
0.0000001
 44
0.0000000001
 40
0.0
 40
0.0
 40
0.0
 40
0.0
 40
0.2710326586
 40
0.4031047588
 40
0.5310327567
 40
0.6542530483
 40
0.7728489748
 40
0.8876153474
 40
1.0
 40
1.0
 40
1.0
 40
1.0
 10
-41.1461383822
 20
81.1863390295
 30
0.0
 10
-41.2308266255
 20
81.0396546896
 30
0.0
 10
-41.3919201364
 20
80.8388030639
 30
0.0
 10
-41.656879208
 20
80.637126281
 30
0.0
 10
-41.8705515281
 20
80.5260416823
 30
0.0
 10
-42.0929800939
 20
80.4584854602
 30
0.0
 10
-42.3164326542
 20
80.4371510341
 30
0.0
 10
-42.5326328009
 20
80.4632207583
 30
0.0
 10
-42.66745905
 20
80.5122387286
 30
0.0
 10
-42.7301988343
 20
80.5438034558
 30
0.0
  0
SPLINE
  5
4E7
100
AcDbEntity
  8
0
100
AcDbSpline
 62
7
  6
CONTINUOUS
 70
0
 71
3
 72
14
 73
10
 74
0
 42
0.0000001
 43
0.0000001
 44
0.0000000001
 40
0.0
 40
0.0
 40
0.0
 40
0.0
 40
0.2710326586
 40
0.4031047588
 40
0.5310327567
 40
0.6542530483
 40
0.7728489748
 40
0.8876153474
 40
1.0
 40
1.0
 40
1.0
 40
1.0
 10
59.2630245463
 20
23.2113467769
 30
0.0
 10
59.178336303
 20
23.064662437
 30
0.0
 10
59.0172427921
 20
22.8638108114
 30
0.0
 10
58.7522837205
 20
22.6621340284
 30
0.0
 10
58.5386114004
 20
22.5510494297
 30
0.0
 10
58.3161828346
 20
22.4834932076
 30
0.0
 10
58.0927302743
 20
22.4621587816
 30
0.0
 10
57.8765301276
 20
22.4882285058
 30
0.0
 10
57.7417038785
 20
22.5372464761
 30
0.0
 10
57.6789640942
 20
22.5688112033
 30
0.0
  0
SPLINE
  5
4E8
100
AcDbEntity
  8
0
100
AcDbSpline
 62
7
  6
CONTINUOUS
 70
0
 71
3
 72
14
 73
10
 74
0
 42
0.0000001
 43
0.0000001
 44
0.0000000001
 40
0.0
 40
0.0
 40
0.0
 40
0.0
 40
0.2710326586
 40
0.4031047588
 40
0.5310327567
 40
0.6542530483
 40
0.7728489748
 40
0.8876153474
 40
1.0
 40
1.0
 40
1.0
 40
1.0
 10
17.5130245463
 20
-49.101774364
 30
0.0
 10
17.428336303
 20
-49.2484587039
 30
0.0
 10
17.2672427921
 20
-49.4493103296
 30
0.0
 10
17.0022837205
 20
-49.6509871125
 30
0.0
 10
16.7886114004
 20
-49.7620717112
 30
0.0
 10
16.5661828346
 20
-49.8296279333
 30
0.0
 10
16.3427302743
 20
-49.8509623594
 30
0.0
 10
16.1265301276
 20
-49.8248926352
 30
0.0
 10
15.9917038785
 20
-49.7758746649
 30
0.0
 10
15.9289640942
 20
-49.7443099377
 30
0.0
  0
SPLINE
  5
4E9
100
AcDbEntity
  8
0
100
AcDbSpline
 62
7
  6
CONTINUOUS
 70
0
 71
3
 72
14
 73
10
 74
0
 42
0.0000001
 43
0.0000001
 44
0.0000000001
 40
0.0
 40
0.0
 40
0.0
 40
0.0
 40
0.271032492
 40
0.4031045563
 40
0.5310325683
 40
0.6542529179
 40
0.7728489226
 40
0.8876153546
 40
1.0
 40
1.0
 40
1.0
 40
1.0
 10
-82.8961383822
 20
8.8732178885
 30
0.0
 10
-82.980826042
 20
8.7265345592
 30
0.0
 10
-83.1419182028
 20
8.5256841918
 30
0.0
 10
-83.4068749157
 20
8.3240079868
 30
0.0
 10
-83.6205454129
 20
8.2129231588
 30
0.0
 10
-83.8429722395
 20
8.1453659976
 30
0.0
 10
-84.0664233169
 20
8.1240299071
 30
0.0
 10
-84.2826224195
 20
8.1500972756
 30
0.0
 10
-84.4174484333
 20
8.1991132806
 30
0.0
 10
-84.4801882351
 20
8.2306769824
 30
0.0
  0
SPLINE
  5
4EA
100
AcDbEntity
  8
0
100
AcDbSpline
 62
7
  6
CONTINUOUS
 70
0
 71
3
 72
11
 73
7
 74
0
 42
0.0000001
 43
0.0000001
 44
0.0000000001
 40
0.0
 40
0.0
 40
0.0
 40
0.0
 40
0.2471968747
 40
0.4955467898
 40
0.7461545602
 40
1.0
 40
1.0
 40
1.0
 40
1.0
 10
-9.3461510725
 20
20.7937320354
 30
0.0
 10
-9.0250527411
 20
20.6083338831
 30
0.0
 10
-8.4029328444
 20
20.1978095882
 30
0.0
 10
-7.5465881446
 20
19.4733401225
 30
0.0
 10
-6.7739742403
 20
18.6465366898
 30
0.0
 10
-6.3228592271
 20
18.0367270441
 30
0.0
 10
-6.1136392424
 20
17.7186104692
 30
0.0
  0
SPLINE
  5
4EB
100
AcDbEntity
  8
0
100
AcDbSpline
 62
7
  6
CONTINUOUS
 70
0
 71
3
 72
23
 73
19
 74
0
 42
0.0000001
 43
0.0000001
 44
0.0000000001
 40
0.0
 40
0.0
 40
0.0
 40
0.0
 40
0.0570294315
 40
0.1157117801
 40
0.1761832109
 40
0.2384199841
 40
0.3022535532
 40
0.3673939981
 40
0.4334581494
 40
0.4999999778
 40
0.5665418073
 40
0.6326059616
 40
0.6977464114
 40
0.7615799867
 40
0.8238167673
 40
0.884288206
 40
0.9429705619
 40
1.0
 40
1.0
 40
1.0
 40
1.0
 10
-6.1136392424
 20
17.7186104692
 30
0.0
 10
-5.7896306891
 20
17.2259591989
 30
0.0
 10
-5.2168828969
 20
16.1682519487
 30
0.0
 10
-4.6138293472
 20
14.4420074113
 30
0.0
 10
-4.2665855867
 20
12.592059927
 30
0.0
 10
-4.1820421495
 20
10.6590951533
 30
0.0
 10
-4.3611585035
 20
8.6845344499
 30
0.0
 10
-4.7996028818
 20
6.7107506824
 30
0.0
 10
-5.4876247279
 20
4.7800002277
 30
0.0
 10
-6.4102904492
 20
2.9336489248
 30
0.0
 10
-7.5477516497
 20
1.2112937613
 30
0.0
 10
-8.8756446524
 20
-0.3500748458
 30
0.0
 10
-10.3656161948
 20
-1.7168378947
 30
0.0
 10
-11.9859497735
 20
-2.8594193945
 30
0.0
 10
-13.7021180466
 20
-3.7528776782
 30
0.0
 10
-15.4777715901
 20
-4.3773288816
 30
0.0
 10
-17.2742319322
 20
-4.7183931292
 30
0.0
 10
-18.4766036242
 20
-4.751367718
 30
0.0
 10
-19.0652603282
 20
-4.7171598021
 30
0.0
  0
SPLINE
  5
4EC
100
AcDbEntity
  8
0
100
AcDbSpline
 62
7
  6
CONTINUOUS
 70
0
 71
3
 72
11
 73
7
 74
0
 42
0.0000001
 43
0.0000001
 44
0.0000000001
 40
0.0
 40
0.0
 40
0.0
 40
0.0
 40
0.2538459047
 40
0.5044533049
 40
0.752802776
 40
1.0
 40
1.0
 40
1.0
 40
1.0
 10
-19.0652603282
 20
-4.7171598021
 30
0.0
 10
-19.4455029203
 20
-4.6950632108
 30
0.0
 10
-20.199443025
 20
-4.6093310765
 30
0.0
 10
-21.3021810636
 20
-4.3535968373
 30
0.0
 10
-22.3581343085
 20
-3.9740917345
 30
0.0
 10
-23.024940454
 20
-3.6404422308
 30
0.0
 10
-23.3461510725
 20
-3.4549792454
 30
0.0
  0
SPLINE
  5
4ED
100
AcDbEntity
  8
0
100
AcDbSpline
 62
7
  6
CONTINUOUS
 70
0
 71
3
 72
13
 73
9
 74
0
 42
0.0000001
 43
0.0000001
 44
0.0000000001
 40
0.0
 40
0.0
 40
0.0
 40
0.0
 40
0.294512075
 40
0.4293779088
 40
0.5559734205
 40
0.786778038
 40
0.8946316711
 40
1.0
 40
1.0
 40
1.0
 40
1.0
 10
99.6876486934
 20
-58.2918321739
 30
0.0
 10
99.8753318245
 20
-58.2024435372
 30
0.0
 10
100.1397595091
 20
-58.0492098058
 30
0.0
 10
100.4427434929
 20
-57.7984143729
 30
0.0
 10
100.681750103
 20
-57.5455558944
 30
0.0
 10
100.8576637655
 20
-57.2604959676
 30
0.0
 10
100.9459132461
 20
-56.9581745939
 30
0.0
 10
100.9605035151
 20
-56.807279172
 30
0.0
 10
100.9605026521
 20
-56.7329043939
 30
0.0
  0
SPLINE
  5
4EE
100
AcDbEntity
  8
0
100
AcDbSpline
 62
7
  6
CONTINUOUS
 70
0
 71
3
 72
11
 73
7
 74
0
 42
0.0000001
 43
0.0000001
 44
0.0000000001
 40
0.0
 40
0.0
 40
0.0
 40
0.0
 40
0.2506506698
 40
0.5103147884
 40
0.7645848173
 40
1.0
 40
1.0
 40
1.0
 40
1.0
 10
12.9604323259
 20
-98.0175745804
 30
0.0
 10
13.2731352386
 20
-98.1099815188
 30
0.0
 10
13.9294403273
 20
-98.2350439579
 30
0.0
 10
14.9281560167
 20
-98.255691671
 30
0.0
 10
15.89716689
 20
-98.1149224442
 30
0.0
 10
16.505688592
 20
-97.9092552179
 30
0.0
 10
16.7821815191
 20
-97.7775687652
 30
0.0
  0
SPLINE
  5
4EF
100
AcDbEntity
  8
0
100
AcDbSpline
 62
7
  6
CONTINUOUS
 70
0
 71
3
 72
14
 73
10
 74
0
 42
0.0000001
 43
0.0000001
 44
0.0000000001
 40
0.0
 40
0.0
 40
0.0
 40
0.0
 40
0.1094774333
 40
0.2207777401
 40
0.3355769647
 40
0.455292475
 40
0.5810223486
 40
0.7135237792
 40
1.0
 40
1.0
 40
1.0
 40
1.0
 10
-10.6597815503
 20
-93.8543289037
 30
0.0
 10
-10.5367333701
 20
-93.9253770179
 30
0.0
 10
-10.2765932199
 20
-94.0489012401
 30
0.0
 10
-9.8570814164
 20
-94.171938616
 30
0.0
 10
-9.4107687248
 20
-94.2326165284
 30
0.0
 10
-8.9418631174
 20
-94.2306959052
 30
0.0
 10
-8.4543135324
 20
-94.1665579396
 30
0.0
 10
-7.7673604215
 20
-93.9947977417
 30
0.0
 10
-7.2630484121
 20
-93.7803312232
 30
0.0
 10
-6.9333689818
 20
-93.608423637
 30
0.0
  0
SPLINE
  5
4F0
100
AcDbEntity
  8
0
100
AcDbSpline
 62
7
  6
CONTINUOUS
 70
0
 71
3
 72
12
 73
8
 74
0
 42
0.0000001
 43
0.0000001
 44
0.0000000001
 40
0.0
 40
0.0
 40
0.0
 40
0.0
 40
0.289578128
 40
0.5486262547
 40
0.7816309579
 40
0.8918348947
 40
1.0
 40
1.0
 40
1.0
 40
1.0
 10
31.5540173088
 20
-56.6488619547
 30
0.0
 10
31.7076502459
 20
-56.7375676871
 30
0.0
 10
31.9863208904
 20
-56.9295071865
 30
0.0
 10
32.3192373259
 20
-57.2792205496
 30
0.0
 10
32.4979948126
 20
-57.6087486648
 30
0.0
 10
32.5676172139
 20
-57.8775029209
 30
0.0
 10
32.5791421717
 20
-58.0115583489
 30
0.0
 10
32.5791415927
 20
-58.0778230309
 30
0.0
  0
SPLINE
  5
4F1
100
AcDbEntity
  8
0
100
AcDbSpline
 62
7
  6
CONTINUOUS
 70
0
 71
3
 72
9
 73
5
 74
0
 42
0.0000001
 43
0.0000001
 44
0.0000000001
 40
0.0
 40
0.0
 40
0.0
 40
0.0
 40
0.2377152001
 40
1.0
 40
1.0
 40
1.0
 40
1.0
 10
-6.9333689818
 20
-93.608423637
 30
0.0
 10
-6.9100675157
 20
-93.5962733527
 30
0.0
 10
-6.8111116782
 20
-93.5469552035
 30
0.0
 10
-6.708827998
 20
-93.5044465685
 30
0.0
 10
-6.629795299
 20
-93.4752034684
 30
0.0
  0
SPLINE
  5
4F2
100
AcDbEntity
  8
0
100
AcDbSpline
 62
7
  6
CONTINUOUS
 70
0
 71
3
 72
11
 73
7
 74
0
 42
0.0000001
 43
0.0000001
 44
0.0000000001
 40
0.0
 40
0.0
 40
0.0
 40
0.0
 40
0.2384408891
 40
0.4928918323
 40
0.7510419161
 40
1.0
 40
1.0
 40
1.0
 40
1.0
 10
-6.629795299
 20
-93.4752034684
 30
0.0
 10
-6.3570907909
 20
-93.3603819267
 30
0.0
 10
-5.7672654622
 20
-93.1830449696
 30
0.0
 10
-4.8386021619
 20
-93.0682778731
 30
0.0
 10
-3.8904017618
 20
-93.0999242652
 30
0.0
 10
-3.2692505049
 20
-93.2215357823
 30
0.0
 10
-2.9729735157
 20
-93.3090886908
 30
0.0
  0
SPLINE
  5
4F3
100
AcDbEntity
  8
0
100
AcDbSpline
 62
7
  6
CONTINUOUS
 70
0
 71
3
 72
33
 73
29
 74
0
 42
0.0000001
 43
0.0000001
 44
0.0000000001
 40
0.0
 40
0.0
 40
0.0
 40
0.0
 40
0.0280493669
 40
0.0562319209
 40
0.084675198
 40
0.1134920354
 40
0.1427776083
 40
0.1726048609
 40
0.2030226753
 40
0.2340551134
 40
0.297871436
 40
0.3638643502
 40
0.3975407624
 40
0.4315332617
 40
0.5000043972
 40
0.5684752275
 40
0.6024673544
 40
0.6361432608
 40
0.7021348252
 40
0.7659495012
 40
0.7969810783
 40
0.827398048
 40
0.8572245067
 40
0.886509371
 40
0.9153256173
 40
0.9437684495
 40
0.971950727
 40
1.0
 40
1.0
 40
1.0
 40
1.0
 10
-23.3461510725
 20
-3.4549792454
 30
0.0
 10
-23.6701789929
 20
-3.2678895852
 30
0.0
 10
-24.2978108016
 20
-2.8532330258
 30
0.0
 10
-25.1608910226
 20
-2.1206672605
 30
0.0
 10
-25.9386318388
 20
-1.2839066397
 30
0.0
 10
-26.6233410333
 20
-0.3513209446
 30
0.0
 10
-27.2085419611
 20
0.667940672
 30
0.0
 10
-27.6887018808
 20
1.7638848102
 30
0.0
 10
-28.0593540156
 20
2.9259685002
 30
0.0
 10
-28.4061167213
 20
4.562980538
 30
0.0
 10
-28.5429878607
 20
6.7175100319
 30
0.0
 10
-28.2919881263
 20
8.8951710584
 30
0.0
 10
-27.868065671
 20
10.6287847943
 30
0.0
 10
-27.2925047522
 20
12.3531002156
 30
0.0
 10
-26.3089909942
 20
14.4217881657
 30
0.0
 10
-25.0092149234
 20
16.3078765994
 30
0.0
 10
-23.8037020224
 20
17.6684704516
 30
0.0
 10
-22.5143259587
 20
18.9023789936
 30
0.0
 10
-20.7539423079
 20
20.2085397207
 30
0.0
 10
-18.8196585036
 20
21.1672157864
 30
0.0
 10
-17.2286125414
 20
21.6853630498
 30
0.0
 10
-16.0369169344
 20
21.9453672683
 30
0.0
 10
-14.8477476514
 20
22.0774620462
 30
0.0
 10
-13.6724683675
 20
22.0802446744
 30
0.0
 10
-12.5224998011
 20
21.9535104263
 30
0.0
 10
-11.4090034726
 20
21.6982942005
 30
0.0
 10
-10.3430736908
 20
21.3170733568
 30
0.0
 10
-9.6701779091
 20
20.9808210698
 30
0.0
 10
-9.3461510725
 20
20.7937320354
 30
0.0
  0
SPLINE
  5
4F4
100
AcDbEntity
  8
0
100
AcDbSpline
 62
7
  6
CONTINUOUS
 70
0
 71
3
 72
11
 73
7
 74
0
 42
0.0000001
 43
0.0000001
 44
0.0000000001
 40
0.0
 40
0.0
 40
0.0
 40
0.0
 40
0.2354151827
 40
0.4896852116
 40
0.7493493302
 40
1.0
 40
1.0
 40
1.0
 40
1.0
 10
16.7821815191
 20
-105.9422715331
 30
0.0
 10
16.505688592
 20
-106.0739579859
 30
0.0
 10
15.89716689
 20
-106.2796252121
 30
0.0
 10
14.9281560167
 20
-106.4203944389
 30
0.0
 10
13.9294403273
 20
-106.3997467258
 30
0.0
 10
13.2731352386
 20
-106.2746842867
 30
0.0
 10
12.9604323259
 20
-106.1822773483
 30
0.0
  0
SPLINE
  5
4F5
100
AcDbEntity
  8
0
100
AcDbSpline
 62
7
  6
CONTINUOUS
 70
0
 71
3
 72
13
 73
9
 74
0
 42
0.0000001
 43
0.0000001
 44
0.0000000001
 40
0.0
 40
0.0
 40
0.0
 40
0.0
 40
0.1053683289
 40
0.213221962
 40
0.4440265795
 40
0.5706220912
 40
0.705487925
 40
1.0
 40
1.0
 40
1.0
 40
1.0
 10
100.9605026521
 20
-64.8976071619
 30
0.0
 10
100.9605035151
 20
-64.9719819399
 30
0.0
 10
100.9459132461
 20
-65.1228773618
 30
0.0
 10
100.8576637655
 20
-65.4251987355
 30
0.0
 10
100.681750103
 20
-65.7102586623
 30
0.0
 10
100.4427434929
 20
-65.9631171408
 30
0.0
 10
100.1397595091
 20
-66.2139125737
 30
0.0
 10
99.8753318245
 20
-66.3671463052
 30
0.0
 10
99.6876486934
 20
-66.4565349418
 30
0.0
  0
SPLINE
  5
4F6
100
AcDbEntity
  8
0
100
AcDbSpline
 62
7
  6
CONTINUOUS
 70
0
 71
3
 72
13
 73
9
 74
0
 42
0.0000001
 43
0.0000001
 44
0.0000000001
 40
0.0
 40
0.0
 40
0.0
 40
0.0
 40
0.2720175263
 40
0.5313143734
 40
0.6544007694
 40
0.7727800858
 40
0.8874249218
 40
1.0
 40
1.0
 40
1.0
 40
1.0
 10
-100.4004800051
 20
-7.2321469348
 30
0.0
 10
-100.6266381444
 20
-7.6238643222
 30
0.0
 10
-100.9506537943
 20
-8.4643131968
 30
0.0
 10
-100.9896771341
 20
-9.5766823265
 30
0.0
 10
-100.7781494157
 20
-10.3873549964
 30
0.0
 10
-100.5112749653
 20
-10.9213014985
 30
0.0
 10
-100.1431588257
 20
-11.3689600057
 30
0.0
 10
-99.8377168005
 20
-11.5985963335
 30
0.0
 10
-99.6756062709
 20
-11.6921969216
 30
0.0
  0
SPLINE
  5
4F7
100
AcDbEntity
  8
0
100
AcDbSpline
 62
7
  6
CONTINUOUS
 70
0
 71
3
 72
13
 73
9
 74
0
 42
0.0000001
 43
0.0000001
 44
0.0000000001
 40
0.0
 40
0.0
 40
0.0
 40
0.0
 40
0.112576333
 40
0.227221119
 40
0.3455995135
 40
0.4686846642
 40
0.7279800389
 40
1.0
 40
1.0
 40
1.0
 40
1.0
 10
-31.6756062709
 20
106.0872578709
 30
0.0
 10
-31.837715725
 20
106.180857838
 30
0.0
 10
-32.1892948773
 20
106.3305782837
 30
0.0
 10
-32.7610225311
 20
106.4255740434
 30
0.0
 10
-33.3568585929
 20
106.3897451182
 30
0.0
 10
-34.1646720928
 20
106.1676248297
 30
0.0
 10
-35.1084914864
 20
105.5776642979
 30
0.0
 10
-35.6743238626
 20
104.8768439663
 30
0.0
 10
-35.9004800051
 20
104.4851300374
 30
0.0
  0
SPLINE
  5
4F8
100
AcDbEntity
  8
ASSI
100
AcDbSpline
 62
7
  6
CONTINUOUS
 70
0
 71
3
 72
14
 73
10
 74
0
 42
0.0000001
 43
0.0000001
 44
0.0000000001
 40
0.0
 40
0.0
 40
0.0
 40
0.0
 40
0.2717349131
 40
0.4039494158
 40
0.531801404
 40
0.6547589238
 40
0.7730148682
 40
0.8875422032
 40
1.0
 40
1.0
 40
1.0
 40
1.0
 10
1.2861126117
 20
-1.5113832675
 30
0.0
 10
1.1988851791
 20
-1.6624656125
 30
0.0
 10
1.0318833872
 20
-1.8687778417
 30
0.0
 10
0.7566080698
 20
-2.0728398311
 30
0.0
 10
0.5349921451
 20
-2.182767719
 30
0.0
 10
0.3050333884
 20
-2.2460175285
 30
0.0
 10
0.0752419124
 20
-2.2598386659
 30
0.0
 10
-0.145281256
 20
-2.2232158853
 30
0.0
 10
-0.2808886868
 20
-2.1654801952
 30
0.0
 10
-0.3434163042
 20
-2.1293845248
 30
0.0
  0
SPLINE
  5
4F9
100
AcDbEntity
  8
ASSI
100
AcDbSpline
 62
7
  6
CONTINUOUS
 70
0
 71
3
 72
14
 73
10
 74
0
 42
0.0000001
 43
0.0000001
 44
0.0000000001
 40
0.0
 40
0.0
 40
0.0
 40
0.0
 40
0.2717349131
 40
0.4039494158
 40
0.531801404
 40
0.6547589238
 40
0.7730148682
 40
0.8875422032
 40
1.0
 40
1.0
 40
1.0
 40
1.0
 10
-34.0692264476
 20
18.9023463989
 30
0.0
 10
-34.1564538802
 20
18.7512640539
 30
0.0
 10
-34.3234556721
 20
18.5449518246
 30
0.0
 10
-34.5987309895
 20
18.3408898353
 30
0.0
 10
-34.8203469142
 20
18.2309619474
 30
0.0
 10
-35.0503056709
 20
18.1677121379
 30
0.0
 10
-35.2800971469
 20
18.1538910005
 30
0.0
 10
-35.5006203153
 20
18.1905137811
 30
0.0
 10
-35.6362277461
 20
18.2482494712
 30
0.0
 10
-35.6987553635
 20
18.2843451416
 30
0.0
  0
SPLINE
  5
4FA
100
AcDbEntity
  8
ASSI
100
AcDbSpline
 62
7
  6
CONTINUOUS
 70
0
 71
3
 72
14
 73
10
 74
0
 42
0.0000001
 43
0.0000001
 44
0.0000000001
 40
0.0
 40
0.0
 40
0.0
 40
0.0
 40
0.1124568908
 40
0.2269836473
 40
0.3452395354
 40
0.4681975143
 40
0.5960502753
 40
0.728265517
 40
1.0
 40
1.0
 40
1.0
 40
1.0
 10
-34.3488858409
 20
20.6226890581
 30
0.0
 10
-34.2863527742
 20
20.5865902419
 30
0.0
 10
-34.1685288819
 20
20.4980224462
 30
0.0
 10
-34.0265240258
 20
20.3253507285
 30
0.0
 10
-33.9235747666
 20
20.119421725
 30
0.0
 10
-33.8633538057
 20
19.8886268183
 30
0.0
 10
-33.8477350359
 20
19.6417135089
 30
0.0
 10
-33.8868142402
 20
19.3012527534
 30
0.0
 10
-33.9819908484
 20
19.0534428888
 30
0.0
 10
-34.0692264476
 20
18.9023463989
 30
0.0
  0
SPLINE
  5
4FB
100
AcDbEntity
  8
ASSI
100
AcDbSpline
 62
7
  6
CONTINUOUS
 70
0
 71
3
 72
14
 73
10
 74
0
 42
0.0000001
 43
0.0000001
 44
0.0000000001
 40
0.0
 40
0.0
 40
0.0
 40
0.0
 40
0.1124568908
 40
0.2269836473
 40
0.3452395354
 40
0.4681975143
 40
0.5960502753
 40
0.728265517
 40
1.0
 40
1.0
 40
1.0
 40
1.0
 10
1.0064532184
 20
0.2089593917
 30
0.0
 10
1.0689862852
 20
0.1728605755
 30
0.0
 10
1.1868101774
 20
0.0842927798
 30
0.0
 10
1.3288150336
 20
-0.0883789379
 30
0.0
 10
1.4317642928
 20
-0.2943079414
 30
0.0
 10
1.4919852536
 20
-0.5251028481
 30
0.0
 10
1.5076040234
 20
-0.7720161575
 30
0.0
 10
1.4685248191
 20
-1.112476913
 30
0.0
 10
1.3733482109
 20
-1.3602867776
 30
0.0
 10
1.2861126117
 20
-1.5113832675
 30
0.0
  0
SPLINE
  5
4FC
100
AcDbEntity
  8
0
100
AcDbSpline
 62
7
  6
CONTINUOUS
 70
0
 71
3
 72
21
 73
17
 74
0
 42
0.0000001
 43
0.0000001
 44
0.0000000001
 40
0.0
 40
0.0
 40
0.0
 40
0.0
 40
0.0450560991
 40
0.0909617344
 40
0.1384895291
 40
0.18827843
 40
0.2408046285
 40
0.29637725
 40
0.3551501276
 40
0.4171397393
 40
0.4822456947
 40
0.5502697098
 40
0.6209322488
 40
0.693888058
 40
0.8449774936
 40
1.0
 40
1.0
 40
1.0
 40
1.0
 10
-96.9773037577
 20
-55.5628665442
 30
0.0
 10
-97.2723949286
 20
-55.392486176
 30
0.0
 10
-97.8397450776
 20
-54.9965670482
 30
0.0
 10
-98.5893853344
 20
-54.2587532835
 30
0.0
 10
-99.2341027943
 20
-53.383078571
 30
0.0
 10
-99.7679171653
 20
-52.3793735646
 30
0.0
 10
-100.1866693412
 20
-51.2578667848
 30
0.0
 10
-100.4871366388
 20
-50.0294969698
 30
0.0
 10
-100.66706743
 20
-48.705920291
 30
0.0
 10
-100.7251425281
 20
-47.2995944899
 30
0.0
 10
-100.6610442502
 20
-45.8237485895
 30
0.0
 10
-100.475507074
 20
-44.2923255901
 30
0.0
 10
-100.1703753283
 20
-42.7197792086
 30
0.0
 10
-99.6013289534
 20
-40.5634287077
 30
0.0
 10
-98.6089884594
 20
-37.8661129591
 30
0.0
 10
-97.5630647881
 20
-35.7944986226
 30
0.0
 10
-96.9768689294
 20
-34.7791776132
 30
0.0
  0
SPLINE
  5
4FD
100
AcDbEntity
  8
0
100
AcDbSpline
 62
7
  6
CONTINUOUS
 70
0
 71
3
 72
14
 73
10
 74
0
 42
0.0000001
 43
0.0000001
 44
0.0000000001
 40
0.0
 40
0.0
 40
0.0
 40
0.0
 40
0.1094775569
 40
0.2207776462
 40
0.3355766347
 40
0.4552927207
 40
0.581022172
 40
0.7135251078
 40
1.0
 40
1.0
 40
1.0
 40
1.0
 10
-15.6600239213
 20
-102.5144447769
 30
0.0
 10
-15.3831629119
 20
-102.6742993755
 30
0.0
 10
-14.7978512419
 20
-102.9522351712
 30
0.0
 10
-13.8539487165
 20
-103.2290653895
 30
0.0
 10
-12.8497449631
 20
-103.3655921227
 30
0.0
 10
-11.7947074299
 20
-103.3612665984
 30
0.0
 10
-10.6977151061
 20
-103.2169608337
 30
0.0
 10
-9.152073542
 20
-102.8304892608
 30
0.0
 10
-8.0173692719
 20
-102.3479451736
 30
0.0
 10
-7.275593843
 20
-101.9611548197
 30
0.0
  0
SPLINE
  5
4FE
100
AcDbEntity
  8
0
100
AcDbSpline
 62
7
  6
CONTINUOUS
 70
0
 71
3
 72
13
 73
9
 74
0
 42
0.0000001
 43
0.0000001
 44
0.0000000001
 40
0.0
 40
0.0
 40
0.0
 40
0.0
 40
0.1125750782
 40
0.2272199142
 40
0.3455992306
 40
0.4686856266
 40
0.7279824737
 40
1.0
 40
1.0
 40
1.0
 40
1.0
 10
-90.1296647249
 20
-17.2039039315
 30
0.0
 10
-89.9675541954
 20
-17.2975045195
 30
0.0
 10
-89.6621121702
 20
-17.5271408474
 30
0.0
 10
-89.2939960305
 20
-17.9747993545
 30
0.0
 10
-89.0271215802
 20
-18.5087458566
 30
0.0
 10
-88.8155938617
 20
-19.3194185265
 30
0.0
 10
-88.8546172016
 20
-20.4317876562
 30
0.0
 10
-89.1786328515
 20
-21.2722365309
 30
0.0
 10
-89.4047909908
 20
-21.6639539182
 30
0.0
  0
SPLINE
  5
4FF
100
AcDbEntity
  8
0
100
AcDbSpline
 62
7
  6
CONTINUOUS
 70
0
 71
3
 72
11
 73
7
 74
0
 42
0.0000001
 43
0.0000001
 44
0.0000000001
 40
0.0
 40
0.0
 40
0.0
 40
0.0
 40
0.2489580839
 40
0.5071081677
 40
0.7615591109
 40
1.0
 40
1.0
 40
1.0
 40
1.0
 10
-2.9729735157
 20
-101.4737914588
 30
0.0
 10
-3.2692505049
 20
-101.3862385503
 30
0.0
 10
-3.8904017618
 20
-101.2646270331
 30
0.0
 10
-4.8386021619
 20
-101.232980641
 30
0.0
 10
-5.7672654622
 20
-101.3477477375
 30
0.0
 10
-6.3570907909
 20
-101.5250846947
 30
0.0
 10
-6.629795299
 20
-101.6399062363
 30
0.0
  0
SPLINE
  5
500
100
AcDbEntity
  8
0
100
AcDbSpline
 62
7
  6
CONTINUOUS
 70
0
 71
3
 72
18
 73
14
 74
0
 42
0.0000001
 43
0.0000001
 44
0.0000000001
 40
0.0
 40
0.0
 40
0.0
 40
0.0
 40
0.0561133684
 40
0.1124931127
 40
0.1693944654
 40
0.2270431469
 40
0.2856295309
 40
0.3452995652
 40
0.4680781478
 40
0.5957440076
 40
0.7277641751
 40
0.8630220862
 40
1.0
 40
1.0
 40
1.0
 40
1.0
 10
-9.3461510725
 20
23.1030587128
 30
0.0
 10
-8.9758331624
 20
22.8892417928
 30
0.0
 10
-8.2585395047
 20
22.4153481326
 30
0.0
 10
-7.2721624542
 20
21.5781312248
 30
0.0
 10
-6.3833150424
 20
20.6218277958
 30
0.0
 10
-5.6007924664
 20
19.55603746
 30
0.0
 10
-4.9319800178
 20
18.3910842989
 30
0.0
 10
-4.1935482621
 20
16.7059450942
 30
0.0
 10
-3.5922496728
 20
14.4023813972
 30
0.0
 10
-3.4071109214
 20
11.477675712
 30
0.0
 10
-3.7531206609
 20
8.4726229571
 30
0.0
 10
-4.6149871392
 20
5.5012584792
 30
0.0
 10
-5.5105242629
 20
3.6182509286
 30
0.0
 10
-6.0324460709
 20
2.7142562587
 30
0.0
  0
SPLINE
  5
501
100
AcDbEntity
  8
0
100
AcDbSpline
 62
7
  6
CONTINUOUS
 70
0
 71
3
 72
18
 73
14
 74
0
 42
0.0000001
 43
0.0000001
 44
0.0000000001
 40
0.0
 40
0.0
 40
0.0
 40
0.0
 40
0.1369797176
 40
0.2722382487
 40
0.4042580382
 40
0.5319228496
 40
0.6547001677
 40
0.7143696646
 40
0.7729556629
 40
0.8306041781
 40
0.8875056439
 40
0.9438858294
 40
1.0
 40
1.0
 40
1.0
 40
1.0
 10
-6.0324460709
 20
2.7142562587
 30
0.0
 10
-6.5543653817
 20
1.810265914
 30
0.0
 10
-7.7373186053
 20
0.093219672
 30
0.0
 10
-9.8796417074
 20
-2.1388264841
 30
0.0
 10
-12.3090566807
 20
-3.9409500169
 30
0.0
 10
-14.9344534912
 20
-5.2428916487
 30
0.0
 10
-17.23000457
 20
-5.8738532836
 30
0.0
 10
-19.0585521175
 20
-6.0768500184
 30
0.0
 10
-20.4018053466
 20
-6.0800614696
 30
0.0
 10
-21.7160346193
 20
-5.9352131877
 30
0.0
 10
-22.9886066266
 20
-5.6435396049
 30
0.0
 10
-24.2068105462
 20
-5.2078584544
 30
0.0
 10
-24.9758345169
 20
-4.8235703177
 30
0.0
 10
-25.3461510725
 20
-4.6097541795
 30
0.0
  0
SPLINE
  5
502
100
AcDbEntity
  8
0
100
AcDbSpline
 62
7
  6
CONTINUOUS
 70
0
 71
3
 72
33
 73
29
 74
0
 42
0.0000001
 43
0.0000001
 44
0.0000000001
 40
0.0
 40
0.0
 40
0.0
 40
0.0
 40
0.0280473555
 40
0.0562276756
 40
0.0846683706
 40
0.1134821369
 40
0.1427640496
 40
0.1725870301
 40
0.2029999819
 40
0.2340270398
 40
0.2978316339
 40
0.3638126467
 40
0.3974835499
 40
0.4314711543
 40
0.4999352535
 40
0.568403835
 40
0.6023969072
 40
0.6360752385
 40
0.7020760768
 40
0.765904859
 40
0.7969445692
 40
0.8273699368
 40
0.8572045904
 40
0.8864969283
 40
0.9153193971
 40
0.9437666527
 40
0.9719510375
 40
1.0
 40
1.0
 40
1.0
 40
1.0
 10
-25.3461510725
 20
-4.6097541795
 30
0.0
 10
-25.716215939
 20
-4.3960833637
 30
0.0
 10
-26.4330338855
 20
-3.92254678
 30
0.0
 10
-27.418828715
 20
-3.0860309078
 30
0.0
 10
-28.3072395339
 20
-2.1305866465
 30
0.0
 10
-29.0894918987
 20
-1.0657572556
 30
0.0
 10
-29.7581955115
 20
0.0980255534
 30
0.0
 10
-30.3070364254
 20
1.349366837
 30
0.0
 10
-30.7309142615
 20
2.6762455519
 30
0.0
 10
-31.1278416315
 20
4.5454438503
 30
0.0
 10
-31.285547225
 20
7.005711482
 30
0.0
 10
-31.0005380494
 20
9.4926777776
 30
0.0
 10
-30.517839988
 20
11.4727515626
 30
0.0
 10
-29.8620240476
 20
13.442433583
 30
0.0
 10
-28.7407270175
 20
15.805913114
 30
0.0
 10
-27.2582588465
 20
17.9613821823
 30
0.0
 10
-25.8829670329
 20
19.5168265743
 30
0.0
 10
-24.4117186333
 20
20.9279066026
 30
0.0
 10
-22.4026208939
 20
22.4224393265
 30
0.0
 10
-20.1945462985
 20
23.5207839744
 30
0.0
 10
-18.3778547732
 20
24.1157130298
 30
0.0
 10
-17.016916742
 20
24.4151767129
 30
0.0
 10
-15.6586304985
 20
24.5686981208
 30
0.0
 10
-14.3159572503
 20
24.574653871
 30
0.0
 10
-13.0019250026
 20
24.4327838292
 30
0.0
 10
-11.7292690317
 20
24.14424079
 30
0.0
 10
-10.5106461523
 20
23.7118206421
 30
0.0
 10
-9.7410802441
 20
23.3297457375
 30
0.0
 10
-9.3704335627
 20
23.1170365798
 30
0.0
  0
SPLINE
  5
503
100
AcDbEntity
  8
ASSI
100
AcDbSpline
 62
7
  6
CONTINUOUS
 70
0
 71
3
 72
14
 73
10
 74
0
 42
0.0000001
 43
0.0000001
 44
0.0000000001
 40
0.0
 40
0.0
 40
0.0
 40
0.0
 40
0.1124568908
 40
0.2269836473
 40
0.3452395354
 40
0.4681975143
 40
0.5960502753
 40
0.728265517
 40
1.0
 40
1.0
 40
1.0
 40
1.0
 10
-35.6987553635
 20
18.2843451416
 30
0.0
 10
-35.7612884302
 20
18.3204439578
 30
0.0
 10
-35.8791123224
 20
18.4090117535
 30
0.0
 10
-36.0211171786
 20
18.5816834712
 30
0.0
 10
-36.1240664378
 20
18.7876124747
 30
0.0
 10
-36.1842873987
 20
19.0184073814
 30
0.0
 10
-36.1999061685
 20
19.2653206908
 30
0.0
 10
-36.1608269642
 20
19.6057814463
 30
0.0
 10
-36.065650356
 20
19.8535913109
 30
0.0
 10
-35.9784147568
 20
20.0046878008
 30
0.0
  0
SPLINE
  5
504
100
AcDbEntity
  8
0
100
AcDbSpline
 62
7
  6
CONTINUOUS
 70
0
 71
3
 72
21
 73
17
 74
0
 42
0.0000001
 43
0.0000001
 44
0.0000000001
 40
0.0
 40
0.0
 40
0.0
 40
0.0
 40
0.1550225064
 40
0.306111942
 40
0.3790677512
 40
0.4497302902
 40
0.5177543053
 40
0.5828602607
 40
0.6448498724
 40
0.70362275
 40
0.7591953715
 40
0.81172157
 40
0.8615104709
 40
0.9090382656
 40
0.9549439009
 40
1.0
 40
1.0
 40
1.0
 40
1.0
 10
-15.659589093
 20
-81.7307558459
 30
0.0
 10
-16.2457849516
 20
-82.7460768553
 30
0.0
 10
-17.2917086229
 20
-84.8176911918
 30
0.0
 10
-18.284049117
 20
-87.5150069404
 30
0.0
 10
-18.8530954919
 20
-89.6713574412
 30
0.0
 10
-19.1582272375
 20
-91.2439038227
 30
0.0
 10
-19.3437644138
 20
-92.7753268222
 30
0.0
 10
-19.4078626916
 20
-94.2511727226
 30
0.0
 10
-19.3497875936
 20
-95.6574985236
 30
0.0
 10
-19.1698568024
 20
-96.9810752025
 30
0.0
 10
-18.8693895047
 20
-98.2094450175
 30
0.0
 10
-18.4506373288
 20
-99.3309517973
 30
0.0
 10
-17.9168229579
 20
-100.3346568036
 30
0.0
 10
-17.2721054979
 20
-101.2103315162
 30
0.0
 10
-16.5224652412
 20
-101.9481452809
 30
0.0
 10
-15.9551150922
 20
-102.3440644087
 30
0.0
 10
-15.6600239213
 20
-102.5144447769
 30
0.0
  0
SPLINE
  5
505
100
AcDbEntity
  8
ASSI
100
AcDbSpline
 62
7
  6
CONTINUOUS
 70
0
 71
3
 72
14
 73
10
 74
0
 42
0.0000001
 43
0.0000001
 44
0.0000000001
 40
0.0
 40
0.0
 40
0.0
 40
0.0
 40
0.1124568908
 40
0.2269836473
 40
0.3452395354
 40
0.4681975143
 40
0.5960502753
 40
0.728265517
 40
1.0
 40
1.0
 40
1.0
 40
1.0
 10
-0.3434163042
 20
-2.1293845248
 30
0.0
 10
-0.4059493709
 20
-2.0932857086
 30
0.0
 10
-0.5237732631
 20
-2.0047179129
 30
0.0
 10
-0.6657781193
 20
-1.8320461951
 30
0.0
 10
-0.7687273785
 20
-1.6261171917
 30
0.0
 10
-0.8289483394
 20
-1.395322285
 30
0.0
 10
-0.8445671092
 20
-1.1484089756
 30
0.0
 10
-0.8054879049
 20
-0.8079482201
 30
0.0
 10
-0.7103112967
 20
-0.5601383555
 30
0.0
 10
-0.6230756975
 20
-0.4090418655
 30
0.0
  0
SPLINE
  5
506
100
AcDbEntity
  8
0
100
AcDbSpline
 62
7
  6
CONTINUOUS
 70
0
 71
3
 72
13
 73
9
 74
0
 42
0.0000001
 43
0.0000001
 44
0.0000000001
 40
0.0
 40
0.0
 40
0.0
 40
0.0
 40
0.2720175263
 40
0.5313143734
 40
0.6544007694
 40
0.7727800858
 40
0.8874249218
 40
1.0
 40
1.0
 40
1.0
 40
1.0
 10
74.40817786
 20
40.7942934783
 30
0.0
 10
74.6343359993
 20
41.1860108657
 30
0.0
 10
74.9583516492
 20
42.0264597403
 30
0.0
 10
74.9973749891
 20
43.13882887
 30
0.0
 10
74.7858472706
 20
43.9495015399
 30
0.0
 10
74.5189728203
 20
44.483448042
 30
0.0
 10
74.1508566806
 20
44.9311065492
 30
0.0
 10
73.8454146554
 20
45.160742877
 30
0.0
 10
73.6833041259
 20
45.2543434651
 30
0.0
  0
SPLINE
  5
507
100
AcDbEntity
  8
ASSI
100
AcDbSpline
 62
7
  6
CONTINUOUS
 70
0
 71
3
 72
14
 73
10
 74
0
 42
0.0000001
 43
0.0000001
 44
0.0000000001
 40
0.0
 40
0.0
 40
0.0
 40
0.0
 40
0.2717349131
 40
0.4039494158
 40
0.531801404
 40
0.6547589238
 40
0.7730148682
 40
0.8875422032
 40
1.0
 40
1.0
 40
1.0
 40
1.0
 10
-0.6230756975
 20
-0.4090418655
 30
0.0
 10
-0.5358482649
 20
-0.2579595206
 30
0.0
 10
-0.3688464729
 20
-0.0516472913
 30
0.0
 10
-0.0935711555
 20
0.152414698
 30
0.0
 10
0.1280447691
 20
0.2623425859
 30
0.0
 10
0.3580035259
 20
0.3255923954
 30
0.0
 10
0.5877950019
 20
0.3394135328
 30
0.0
 10
0.8083181703
 20
0.3027907522
 30
0.0
 10
0.9439256011
 20
0.2450550621
 30
0.0
 10
1.0064532184
 20
0.2089593917
 30
0.0
  0
SPLINE
  5
508
100
AcDbEntity
  8
0
100
AcDbSpline
 62
7
  6
CONTINUOUS
 70
0
 71
3
 72
13
 73
9
 74
0
 42
0.0000001
 43
0.0000001
 44
0.0000000001
 40
0.0
 40
0.0
 40
0.0
 40
0.0
 40
0.2720199611
 40
0.5313153358
 40
0.6544004865
 40
0.772778881
 40
0.887423667
 40
1.0
 40
1.0
 40
1.0
 40
1.0
 10
-8.0875111543
 20
-68.6155321509
 30
0.0
 10
-7.8613550118
 20
-68.223818222
 30
0.0
 10
-7.2955226356
 20
-67.5229978905
 30
0.0
 10
-6.351703242
 20
-66.9330373587
 30
0.0
 10
-5.5438897421
 20
-66.7109170701
 30
0.0
 10
-4.9480536804
 20
-66.675088145
 30
0.0
 10
-4.3763260265
 20
-66.7700839047
 30
0.0
 10
-4.0247468743
 20
-66.9198043504
 30
0.0
 10
-3.8626374202
 20
-67.0134043175
 30
0.0
  0
SPLINE
  5
509
100
AcDbEntity
  8
0
100
AcDbSpline
 62
7
  6
CONTINUOUS
 70
0
 71
3
 72
13
 73
9
 74
0
 42
0.0000001
 43
0.0000001
 44
0.0000000001
 40
0.0
 40
0.0
 40
0.0
 40
0.0
 40
0.112576333
 40
0.227221119
 40
0.3455995135
 40
0.4686846642
 40
0.7279800389
 40
1.0
 40
1.0
 40
1.0
 40
1.0
 10
5.6833041259
 20
-72.5251113274
 30
0.0
 10
5.84541358
 20
-72.6187112945
 30
0.0
 10
6.1969927322
 20
-72.7684317402
 30
0.0
 10
6.7687203861
 20
-72.8634274999
 30
0.0
 10
7.3645564478
 20
-72.8275985747
 30
0.0
 10
8.1723699477
 20
-72.6054782862
 30
0.0
 10
9.1161893413
 20
-72.0155177544
 30
0.0
 10
9.6820217175
 20
-71.3146974228
 30
0.0
 10
9.90817786
 20
-70.9229834939
 30
0.0
  0
SPLINE
  5
50A
100
AcDbEntity
  8
ASSI
100
AcDbSpline
 62
7
  6
CONTINUOUS
 70
0
 71
3
 72
14
 73
10
 74
0
 42
0.0000001
 43
0.0000001
 44
0.0000000001
 40
0.0
 40
0.0
 40
0.0
 40
0.0
 40
0.2717349131
 40
0.4039494158
 40
0.531801404
 40
0.6547589238
 40
0.7730148682
 40
0.8875422032
 40
1.0
 40
1.0
 40
1.0
 40
1.0
 10
-35.9784147568
 20
20.0046878008
 30
0.0
 10
-35.8911873242
 20
20.1557701458
 30
0.0
 10
-35.7241855322
 20
20.3620823751
 30
0.0
 10
-35.4489102149
 20
20.5661443644
 30
0.0
 10
-35.2272942902
 20
20.6760722523
 30
0.0
 10
-34.9973355335
 20
20.7393220618
 30
0.0
 10
-34.7675440575
 20
20.7531431992
 30
0.0
 10
-34.5470208891
 20
20.7165204186
 30
0.0
 10
-34.4114134583
 20
20.6587847285
 30
0.0
 10
-34.3488858409
 20
20.6226890581
 30
0.0
  0
SPLINE
  5
50B
100
AcDbEntity
  8
0
100
AcDbSpline
 62
7
  6
CONTINUOUS
 70
0
 71
3
 72
14
 73
10
 74
0
 42
0.0000001
 43
0.0000001
 44
0.0000000001
 40
0.0
 40
0.0
 40
0.0
 40
0.0
 40
0.2714095416
 40
0.4032780258
 40
0.5309214225
 40
0.6538987582
 40
0.7723977147
 40
0.8872781569
 40
1.0
 40
1.0
 40
1.0
 40
1.0
 10
-41.0882550606
 20
81.0508704521
 30
0.0
 10
-41.2092086558
 20
80.8590783879
 30
0.0
 10
-41.4339699594
 20
80.5984668367
 30
0.0
 10
-41.7969413707
 20
80.3409479508
 30
0.0
 10
-42.0866448453
 20
80.2020009409
 30
0.0
 10
-42.3861096938
 20
80.1210486043
 30
0.0
 10
-42.6853028515
 20
80.1012483563
 30
0.0
 10
-42.9735367674
 20
80.1438003544
 30
0.0
 10
-43.152521142
 20
80.2135466085
 30
0.0
 10
-43.2357638641
 20
80.2575816601
 30
0.0
  0
SPLINE
  5
50C
100
AcDbEntity
  8
0
100
AcDbSpline
 62
7
  6
CONTINUOUS
 70
0
 71
3
 72
14
 73
10
 74
0
 42
0.0000001
 43
0.0000001
 44
0.0000000001
 40
0.0
 40
0.0
 40
0.0
 40
0.0
 40
0.1124001507
 40
0.227076121
 40
0.3455506511
 40
0.4686800693
 40
0.5965850326
 40
0.7287110112
 40
1.0
 40
1.0
 40
1.0
 40
1.0
 10
-41.3868086401
 20
83.4605341487
 30
0.0
 10
-41.3044756923
 20
83.408859417
 30
0.0
 10
-41.1500166154
 20
83.2841498385
 30
0.0
 10
-40.9654193439
 20
83.0460678487
 30
0.0
 10
-40.8329265772
 20
82.7653184891
 30
0.0
 10
-40.7570604984
 20
82.4528471098
 30
0.0
 10
-40.7400803024
 20
82.1200149313
 30
0.0
 10
-40.7964027604
 20
81.6623738388
 30
0.0
 10
-40.9252768857
 20
81.3297043003
 30
0.0
 10
-41.0425849916
 20
81.1265207007
 30
0.0
  0
SPLINE
  5
50D
100
AcDbEntity
  8
0
100
AcDbSpline
 62
7
  6
CONTINUOUS
 70
0
 71
3
 72
14
 73
10
 74
0
 42
0.0000001
 43
0.0000001
 44
0.0000000001
 40
0.0
 40
0.0
 40
0.0
 40
0.0
 40
0.2714095416
 40
0.4032780258
 40
0.5309214225
 40
0.6538987582
 40
0.7723977147
 40
0.8872781569
 40
1.0
 40
1.0
 40
1.0
 40
1.0
 10
59.3209078679
 20
23.0758781996
 30
0.0
 10
59.1999542727
 20
22.8840861354
 30
0.0
 10
58.9751929691
 20
22.6234745842
 30
0.0
 10
58.6122215577
 20
22.3659556983
 30
0.0
 10
58.3225180832
 20
22.2270086883
 30
0.0
 10
58.0230532347
 20
22.1460563518
 30
0.0
 10
57.723860077
 20
22.1262561038
 30
0.0
 10
57.4356261611
 20
22.1688081019
 30
0.0
 10
57.2566417865
 20
22.238554356
 30
0.0
 10
57.1733990644
 20
22.2825894075
 30
0.0
  0
SPLINE
  5
50E
100
AcDbEntity
  8
0
100
AcDbSpline
 62
7
  6
CONTINUOUS
 70
0
 71
3
 72
14
 73
10
 74
0
 42
0.0000001
 43
0.0000001
 44
0.0000000001
 40
0.0
 40
0.0
 40
0.0
 40
0.0
 40
0.1124001507
 40
0.227076121
 40
0.3455506511
 40
0.4686800693
 40
0.5965850326
 40
0.7287110112
 40
1.0
 40
1.0
 40
1.0
 40
1.0
 10
59.0223542883
 20
25.4855418962
 30
0.0
 10
59.1046872362
 20
25.4338671644
 30
0.0
 10
59.2591463131
 20
25.309157586
 30
0.0
 10
59.4437435845
 20
25.0710755962
 30
0.0
 10
59.5762363513
 20
24.7903262365
 30
0.0
 10
59.6521024301
 20
24.4778548572
 30
0.0
 10
59.6690826261
 20
24.1450226787
 30
0.0
 10
59.6127601681
 20
23.6873815862
 30
0.0
 10
59.4838860428
 20
23.3547120478
 30
0.0
 10
59.3665779369
 20
23.1515284482
 30
0.0
  0
SPLINE
  5
50F
100
AcDbEntity
  8
0
100
AcDbSpline
 62
7
  6
CONTINUOUS
 70
0
 71
3
 72
14
 73
10
 74
0
 42
0.0000001
 43
0.0000001
 44
0.0000000001
 40
0.0
 40
0.0
 40
0.0
 40
0.0
 40
0.2714095416
 40
0.4032780258
 40
0.5309214225
 40
0.6538987582
 40
0.7723977147
 40
0.8872781569
 40
1.0
 40
1.0
 40
1.0
 40
1.0
 10
17.5709078679
 20
-49.2372429414
 30
0.0
 10
17.4499542727
 20
-49.4290350056
 30
0.0
 10
17.2251929691
 20
-49.6896465568
 30
0.0
 10
16.8622215577
 20
-49.9471654427
 30
0.0
 10
16.5725180832
 20
-50.0861124526
 30
0.0
 10
16.2730532347
 20
-50.1670647892
 30
0.0
 10
15.973860077
 20
-50.1868650372
 30
0.0
 10
15.6856261611
 20
-50.1443130391
 30
0.0
 10
15.5066417865
 20
-50.074566785
 30
0.0
 10
15.4233990644
 20
-50.0305317334
 30
0.0
  0
SPLINE
  5
510
100
AcDbEntity
  8
0
100
AcDbSpline
 62
7
  6
CONTINUOUS
 70
0
 71
3
 72
14
 73
10
 74
0
 42
0.0000001
 43
0.0000001
 44
0.0000000001
 40
0.0
 40
0.0
 40
0.0
 40
0.0
 40
0.1124001507
 40
0.227076121
 40
0.3455506511
 40
0.4686800693
 40
0.5965850326
 40
0.7287110112
 40
1.0
 40
1.0
 40
1.0
 40
1.0
 10
17.2723542883
 20
-46.8275792448
 30
0.0
 10
17.3546872362
 20
-46.8792539765
 30
0.0
 10
17.5091463131
 20
-47.003963555
 30
0.0
 10
17.6937435845
 20
-47.2420455447
 30
0.0
 10
17.8262363513
 20
-47.5227949044
 30
0.0
 10
17.9021024301
 20
-47.8352662837
 30
0.0
 10
17.9190826261
 20
-48.1680984622
 30
0.0
 10
17.8627601681
 20
-48.6257395547
 30
0.0
 10
17.7338860428
 20
-48.9584090932
 30
0.0
 10
17.6165779369
 20
-49.1615926928
 30
0.0
  0
SPLINE
  5
511
100
AcDbEntity
  8
0
100
AcDbSpline
 62
7
  6
CONTINUOUS
 70
0
 71
3
 72
14
 73
10
 74
0
 42
0.0000001
 43
0.0000001
 44
0.0000000001
 40
0.0
 40
0.0
 40
0.0
 40
0.0
 40
0.2714072028
 40
0.4032752396
 40
0.5309189055
 40
0.6538971094
 40
0.7723971747
 40
0.8872783914
 40
1.0
 40
1.0
 40
1.0
 40
1.0
 10
-82.8382550606
 20
8.7377493111
 30
0.0
 10
-82.9591962009
 20
8.5459769963
 30
0.0
 10
-83.1839297702
 20
8.285389644
 30
0.0
 10
-83.5468537787
 20
8.0278808272
 30
0.0
 10
-83.8365210743
 20
7.8889281988
 30
0.0
 10
-84.1359517141
 20
7.807956285
 30
0.0
 10
-84.4351159676
 20
7.7881222515
 30
0.0
 10
-84.7233298051
 20
7.8306270578
 30
0.0
 10
-84.9023098894
 20
7.9003343216
 30
0.0
 10
-84.9855530885
 20
7.9443490458
 30
0.0
  0
SPLINE
  5
512
100
AcDbEntity
  8
0
100
AcDbSpline
 62
7
  6
CONTINUOUS
 70
0
 71
3
 72
14
 73
10
 74
0
 42
0.0000001
 43
0.0000001
 44
0.0000000001
 40
0.0
 40
0.0
 40
0.0
 40
0.0
 40
0.1123999158
 40
0.2270768331
 40
0.3455526798
 40
0.468683101
 40
0.5965883418
 40
0.7287137541
 40
1.0
 40
1.0
 40
1.0
 40
1.0
 10
-83.1365767849
 20
11.1472674523
 30
0.0
 10
-83.054264084
 20
11.0955799751
 30
0.0
 10
-82.8998470627
 20
10.9708513265
 30
0.0
 10
-82.7153094589
 20
10.7327617331
 30
0.0
 10
-82.5828677221
 20
10.4520219123
 30
0.0
 10
-82.5070410749
 20
10.1395739105
 30
0.0
 10
-82.490087027
 20
9.8067752303
 30
0.0
 10
-82.5464256729
 20
9.3491878388
 30
0.0
 10
-82.6752903424
 20
9.0165598517
 30
0.0
 10
-82.7925849916
 20
8.8133995597
 30
0.0
  0
ELLIPSE
  5
513
100
AcDbEntity
  8
0
100
AcDbEllipse
 62
7
  6
CONTINUOUS
 10
372.560345258
 20
-56.0814440851
 30
0.0
 11
265.9544856712
 21
461.3368241868
 31
0.0
 40
0.8205052017
 41
-4.544747455
 42
-4.5443456237
  0
ELLIPSE
  5
514
100
AcDbEntity
  8
0
100
AcDbEllipse
 62
7
  6
CONTINUOUS
 10
105.3137323587
 20
506.3988255538
 30
0.0
 11
267.531915865
 21
463.4368787899
 31
0.0
 40
0.8125289757
 41
-2.9492750779
 42
-2.9488732466
  0
ELLIPSE
  5
515
100
AcDbEntity
  8
0
100
AcDbEllipse
 62
7
  6
CONTINUOUS
 10
-277.3151976216
 20
-485.0677623893
 30
0.0
 11
267.5319151771
 21
463.4368794631
 31
0.0
 40
0.8125289753
 41
0.1923175734
 42
0.1927194048
  0
ELLIPSE
  5
516
100
AcDbEntity
  8
0
100
AcDbEllipse
 62
7
  6
CONTINUOUS
 10
431.2195081865
 20
-186.3695574785
 30
0.0
 11
265.9544856712
 21
461.3368241868
 31
0.0
 40
0.8205052017
 41
-4.544747455
 42
-4.5443456237
  0
ELLIPSE
  5
517
100
AcDbEntity
  8
0
100
AcDbEllipse
 62
7
  6
CONTINUOUS
 10
472.9695081865
 20
-114.0564363376
 30
0.0
 11
265.9544856712
 21
461.3368241868
 31
0.0
 40
0.8205052017
 41
-4.544747455
 42
-4.5443456237
  0
ELLIPSE
  5
518
100
AcDbEntity
  8
ASSI
100
AcDbEllipse
 62
7
  6
CONTINUOUS
 10
75.1833041259
 20
40.3471079721
 30
0.0
 11
-1.1378016761
 21
4.2458598268
 31
0.0
 40
0.5176380897
 41
-2.0485001956
 42
-0.4777038688
  0
ELLIPSE
  5
519
100
AcDbEntity
  8
0
100
AcDbEllipse
 62
7
  6
CONTINUOUS
 10
75.1833041259
 20
40.3471079721
 30
0.0
 11
-1.1378016761
 21
4.2458598268
 31
0.0
 40
0.5176380897
 41
-2.0485001956
 42
-0.4777038688
  0
ENDSEC
  0
SECTION
  2
OBJECTS
  0
DICTIONARY
  5
C
100
AcDbDictionary
280
0
281
1
  3
ACAD_GROUP
350
D
  3
ACAD_MLINESTYLE
350
17
  3
ACAD_LAYOUT
350
1A
  3
ACAD_PLOTSETTINGS
350
19
  3
ACAD_PLOTSTYLENAME
350
E
  0
DICTIONARY
  5
D
102
{ACAD_REACTORS
330
C
102
}
100
AcDbDictionary
280
0
281
1
  0
ACDBDICTIONARYWDFLT
  5
E
102
{ACAD_REACTORS
330
C
102
}
100
AcDbDictionary
281
1
  3
Normal
350
F
100
AcDbDictionaryWithDefault
340
F
  0
DICTIONARY
  5
17
102
{ACAD_REACTORS
330
C
102
}
100
AcDbDictionary
280
0
281
1
  3
Standard
350
18
  0
DICTIONARY
  5
19
102
{ACAD_REACTORS
330
C
102
}
100
AcDbDictionary
281
1
  0
DICTIONARY
  5
1A
102
{ACAD_REACTORS
330
C
102
}
100
AcDbDictionary
281
1
  3
Model
350
51A
  3
Layout1
350
51B
  0
ACDBPLACEHOLDER
  5
F
102
{ACAD_REACTORS
330
E
102
}
  0
MLINESTYLE
  5
18
102
{ACAD_REACTORS
330
17
102
}
100
AcDbMlineStyle
  2
STANDARD
 70
0
  3

 62
256
 51
90.0
 52
90.0
 71
2
 49
0.5
 62
256
  6
BYLAYER
 49
-0.5
 62
256
  6
BYLAYER
  0
LAYOUT
  5
51A
102
{ACAD_REACTORS
330
1A
102
}
100
AcDbPlotSettings
  1

  2
none_device
  4
ISO_A4_(297.00_x_210.00_MM)
  6

 40
0.0
 41
0.0
 42
0.0
 43
0.0
 44
297.0
 45
210.0
 46
0.0
 47
0.0
 48
0.0
 49
0.0
140
0.0
141
0.0
142
1.0
143
1.0
 70
1024
 72
1
 73
0
 74
0
  7

 75
0
147
1.0
148
0.0
149
0.0
100
AcDbLayout
  1
Model
 70
0
 71
0
 10
0.0
 20
0.0
 11
297.0
 21
210.0
 12
0.0
 22
0.0
 32
0.0
 14
0.0
 24
0.0
 34
0.0
 15
0.0
 25
0.0
 35
0.0
146
0.0
 13
0.0
 23
0.0
 33
0.0
 16
1.0
 26
0.0
 36
0.0
 17
0.0
 27
1.0
 37
0.0
 76
0
330
213
345
0
346
0
  0
LAYOUT
  5
51B
102
{ACAD_REACTORS
330
1A
102
}
100
AcDbPlotSettings
  1

  2
none_device
  4
ISO_A4_(297.00_x_210.00_MM)
  6

 40
0.0
 41
0.0
 42
0.0
 43
0.0
 44
297.0
 45
210.0
 46
0.0
 47
0.0
 48
0.0
 49
0.0
140
0.0
141
0.0
142
1.0
143
1.0
 70
0
 72
1
 73
0
 74
0
  7

 75
0
147
1.0
148
0.0
149
0.0
100
AcDbLayout
  1
Layout1
 70
0
 71
1
 10
0.0
 20
0.0
 11
297.0
 21
210.0
 12
0.0
 22
0.0
 32
0.0
 14
0.0
 24
0.0
 34
0.0
 15
0.0
 25
0.0
 35
0.0
146
0.0
 13
0.0
 23
0.0
 33
0.0
 16
1.0
 26
0.0
 36
0.0
 17
0.0
 27
1.0
 37
0.0
 76
0
330
214
345
0
346
0
  0
ENDSEC
  0
EOF
