  0
SECTION
  2
HEADER
  9
$ACADVER
  1
AC1024
  9
$DWGCODEPAGE
  3
ANSI_1252
  9
$EXTMAX
 10
420.0
 20
297.0
 30
0.0
  9
$EXTMIN
 10
0.0
 20
0.0
 30
0.0
  9
$LIMMIN
 10
0.0
 20
0.0
  9
$LIMMAX
 10
420.0
 20
297.0
  9
$VIEWCTR
 10
210.0
 20
148.5
  9
$VIEWSIZE
 40
297.0
  9
$CLAYER
  8
0
  9
$LTSCALE
 40
23.1
  9
$CELTYPE
  6
BYLAYER
  9
$DIMSCALE
 40
1.0
  9
$DIMASZ
 40
3.0
  9
$DIMEXO
 40
0.5
  9
$DIMDLI
 40
15.96
  9
$DIMEXE
 40
1.5
  9
$DIMCEN
 40
3.78
  9
$DIMLFAC
 40
1.0
  9
$DIMBLK
  1
_FILLED
  9
$DIMALT
 70
0
  9
$DIMALTF
 40
0.0393700787
  9
$DIMTXT
 40
3.0
  9
$DIMTOL
 70
1
  9
$DIMLIM
 70
0
  9
$DIMTFAC
 40
1.0
  9
$DIMTP
 40
0.01
  9
$DIMTM
 40
0.01
  9
$DIMGAP
 40
0.625
  9
$DIMDSEP
 70
44
  9
$AUNITS
 70
0
  9
$PDMODE
 70
3
  9
$PDSIZE
 40
3.0
  9
$HANDSEED
  5
63C
  9
$TILEMODE
 70
1
  9
$MEASUREMENT
 70
1
  9
$INSUNITS
 70
4
  0
ENDSEC
  0
SECTION
  2
CLASSES
  0
CLASS
  1
ACDBDICTIONARYWDFLT
  2
AcDbDictionaryWithDefault
  3
AutoCAD 2000
 90
0
 91
1
280
0
281
0
  0
CLASS
  1
ACDBPLACEHOLDER
  2
AcDbPlaceHolder
  3
AutoCAD 2000
 90
0
 91
1
280
0
281
0
  0
CLASS
  1
LAYOUT
  2
AcDbLayout
  3
AutoCAD 2000
 90
0
 91
0
280
0
281
0
  0
ENDSEC
  0
SECTION
  2
TABLES
  0
TABLE
  2
VPORT
  5
8
100
AcDbSymbolTable
 70
2
  0
VPORT
  5
1F4
100
AcDbSymbolTableRecord
100
AcDbViewportTableRecord
  2
*ACTIVE
 70
0
 10
0.0
 20
0.0
 11
1.0
 21
1.0
 12
210.0
 22
148.5
 13
0.0
 23
0.0
 14
1.0
 24
1.0
 15
0.0
 25
0.0
 16
0.0
 26
0.0
 36
1.0
 17
0.0
 27
0.0
 37
0.0
 40
297.0
 41
1.4141414141
 42
50.0
 43
0.0
 44
0.0
 50
0.0
 51
0.0
 71
0
 72
100
 73
1
 74
1
 75
0
 76
0
 77
0
 78
0
  0
ENDTAB
  0
TABLE
  2
LTYPE
  5
5
100
AcDbSymbolTable
 70
6
  0
LTYPE
  5
14
100
AcDbSymbolTableRecord
100
AcDbLinetypeTableRecord
  2
BYBLOCK
 70
0
  3

 72
65
 73
0
 40
0.0
  0
LTYPE
  5
15
100
AcDbSymbolTableRecord
100
AcDbLinetypeTableRecord
  2
BYLAYER
 70
0
  3

 72
65
 73
0
 40
0.0
  0
LTYPE
  5
16
100
AcDbSymbolTableRecord
100
AcDbLinetypeTableRecord
  2
CONTINUOUS
 70
64
  3
Solid line
 72
65
 73
0
 40
0.0
  0
LTYPE
  5
1F5
100
AcDbSymbolTableRecord
100
AcDbLinetypeTableRecord
  2
CENTER
 70
64
  3
____ _ ____ _ ____ _ ____ _ ____ _ ____ _ ____
 72
65
 73
4
 40
0.6
 49
0.375
 74
0
 49
-0.075
 74
0
 49
0.075
 74
0
 49
-0.075
 74
0
  0
LTYPE
  5
1F6
100
AcDbSymbolTableRecord
100
AcDbLinetypeTableRecord
  2
HIDDEN
 70
64
  3
- - - - - - - - - - - - - - - - - - - -
 72
65
 73
2
 40
0.2
 49
0.1
 74
0
 49
-0.1
 74
0
  0
LTYPE
  5
1F7
100
AcDbSymbolTableRecord
100
AcDbLinetypeTableRecord
  2
PHANTOM
 70
64
  3
_____ _ _ _____ _ _ _____ _ _ _____
 72
65
 73
6
 40
0.8
 49
0.45
 74
0
 49
-0.05
 74
0
 49
0.1
 74
0
 49
-0.05
 74
0
 49
0.1
 74
0
 49
-0.05
 74
0
  0
LTYPE
  5
1F8
100
AcDbSymbolTableRecord
100
AcDbLinetypeTableRecord
  2
DOT
 70
64
  3
. . . . . . . . . . . . . . . . . . . .
 72
65
 73
2
 40
0.2
 49
0.1
 74
0
 49
-0.1
 74
0
  0
LTYPE
  5
1F9
100
AcDbSymbolTableRecord
100
AcDbLinetypeTableRecord
  2
DASHED
 70
64
  3
- - - - - - - - - - - - - - - - - - - -
 72
65
 73
2
 40
0.2
 49
0.1
 74
0
 49
-0.1
 74
0
  0
ENDTAB
  0
TABLE
  2
LAYER
  5
2
100
AcDbSymbolTable
 70
36
  0
LAYER
  5
10
100
AcDbSymbolTableRecord
100
AcDbLayerTableRecord
  2
0
 70
0
 62
7
  6
CONTINUOUS
370
-3
390
F
  0
LAYER
  5
1FA
100
AcDbSymbolTableRecord
100
AcDbLayerTableRecord
  2
DEFAULT_1
 70
0
 62
7
  6
CENTER
370
-3
390
F
  0
LAYER
  5
1FB
100
AcDbSymbolTableRecord
100
AcDbLayerTableRecord
  2
DEFAULT_2
 70
0
 62
7
  6
HIDDEN
370
-3
390
F
  0
LAYER
  5
1FC
100
AcDbSymbolTableRecord
100
AcDbLayerTableRecord
  2
DEFAULT_3
 70
0
 62
7
  6
PHANTOM
370
-3
390
F
  0
LAYER
  5
1FD
100
AcDbSymbolTableRecord
100
AcDbLayerTableRecord
  2
ASSI
 70
0
 62
7
  6
CONTINUOUS
370
-3
390
F
  0
LAYER
  5
1FE
100
AcDbSymbolTableRecord
100
AcDbLayerTableRecord
  2
COLOR5
 70
0
 62
7
  6
CONTINUOUS
370
-3
390
F
  0
LAYER
  5
1FF
100
AcDbSymbolTableRecord
100
AcDbLayerTableRecord
  2
COORDINATE
 70
0
 62
7
  6
CONTINUOUS
370
-3
390
F
  0
LAYER
  5
200
100
AcDbSymbolTableRecord
100
AcDbLayerTableRecord
  2
COORD_ORIGINE
 70
0
 62
7
  6
CONTINUOUS
370
-3
390
F
  0
LAYER
  5
201
100
AcDbSymbolTableRecord
100
AcDbLayerTableRecord
  2
COPY_PUBLISH
 70
0
 62
7
  6
CONTINUOUS
370
-3
390
F
  0
LAYER
  5
202
100
AcDbSymbolTableRecord
100
AcDbLayerTableRecord
  2
COSMETICI
 70
0
 62
7
  6
CONTINUOUS
370
-3
390
F
  0
LAYER
  5
203
100
AcDbSymbolTableRecord
100
AcDbLayerTableRecord
  2
CURVE
 70
0
 62
7
  6
CONTINUOUS
370
-3
390
F
  0
LAYER
  5
204
100
AcDbSymbolTableRecord
100
AcDbLayerTableRecord
  2
DRAFT
 70
0
 62
7
  6
CONTINUOUS
370
-3
390
F
  0
LAYER
  5
205
100
AcDbSymbolTableRecord
100
AcDbLayerTableRecord
  2
IMPORT_IGES
 70
0
 62
7
  6
CONTINUOUS
370
-3
390
F
  0
LAYER
  5
206
100
AcDbSymbolTableRecord
100
AcDbLayerTableRecord
  2
NOTE
 70
0
 62
7
  6
CONTINUOUS
370
-3
390
F
  0
LAYER
  5
207
100
AcDbSymbolTableRecord
100
AcDbLayerTableRecord
  2
PIANI
 70
0
 62
7
  6
CONTINUOUS
370
-3
390
F
  0
LAYER
  5
208
100
AcDbSymbolTableRecord
100
AcDbLayerTableRecord
  2
PIANI_ORIGINE
 70
0
 62
7
  6
CONTINUOUS
370
-3
390
F
  0
LAYER
  5
209
100
AcDbSymbolTableRecord
100
AcDbLayerTableRecord
  2
PUNTI
 70
0
 62
7
  6
CONTINUOUS
370
-3
390
F
  0
LAYER
  5
20A
100
AcDbSymbolTableRecord
100
AcDbLayerTableRecord
  2
RACCORDO
 70
0
 62
7
  6
CONTINUOUS
370
-3
390
F
  0
LAYER
  5
20B
100
AcDbSymbolTableRecord
100
AcDbLayerTableRecord
  2
SIMBOLI
 70
0
 62
7
  6
CONTINUOUS
370
-3
390
F
  0
LAYER
  5
20C
100
AcDbSymbolTableRecord
100
AcDbLayerTableRecord
  2
SMUSSO
 70
0
 62
7
  6
CONTINUOUS
370
-3
390
F
  0
LAYER
  5
20D
100
AcDbSymbolTableRecord
100
AcDbLayerTableRecord
  2
SUPERFICI
 70
0
 62
7
  6
CONTINUOUS
370
-3
390
F
  0
LAYER
  5
20E
100
AcDbSymbolTableRecord
100
AcDbLayerTableRecord
  2
TRASH
 70
0
 62
7
  6
CONTINUOUS
370
-3
390
F
  0
ENDTAB
  0
TABLE
  2
STYLE
  5
3
100
AcDbSymbolTable
 70
1
  0
STYLE
  5
11
100
AcDbSymbolTableRecord
100
AcDbTextStyleTableRecord
  2
STANDARD
 70
0
 40
0.0
 41
0.8
 50
0.0
 71
0
 42
0.2
  3
txt
  4

  0
STYLE
  5
20F
100
AcDbSymbolTableRecord
100
AcDbTextStyleTableRecord
  2
TEXTSTYLE_1
 70
0
 40
0.0
 41
0.8
 50
0.0
 71
0
 42
0.2
  3
gdt
  4

  0
ENDTAB
  0
TABLE
  2
VIEW
  5
6
100
AcDbSymbolTable
 70
0
  0
ENDTAB
  0
TABLE
  2
UCS
  5
7
100
AcDbSymbolTable
 70
0
  0
ENDTAB
  0
TABLE
  2
APPID
  5
9
100
AcDbSymbolTable
 70
1
  0
APPID
  5
210
100
AcDbSymbolTableRecord
100
AcDbRegAppTableRecord
  2
ACAD
 70
0
  0
ENDTAB
  0
TABLE
  2
BLOCK_RECORD
  5
1
100
AcDbSymbolTable
 70
0
  0
BLOCK_RECORD
  5
211
100
AcDbSymbolTableRecord
100
AcDbBlockTableRecord
  2
*Model_Space
  0
BLOCK_RECORD
  5
212
100
AcDbSymbolTableRecord
100
AcDbBlockTableRecord
  2
*Paper_Space
  0
BLOCK_RECORD
  5
213
100
AcDbSymbolTableRecord
100
AcDbBlockTableRecord
  2
_FILLED
  0
ENDTAB
  0
TABLE
  2
DIMSTYLE
  5
A
100
AcDbSymbolTable
 70
1
100
AcDbDimStyleTable
 71
0
  0
DIMSTYLE
105
214
100
AcDbSymbolTableRecord
100
AcDbDimStyleTableRecord
  2
STANDARD
 70
0
  3

  4

 40
1.0
 41
3.0
 42
0.5
 43
0.38
 44
1.5
 45
0.0
 46
0.0
 47
0.01
 48
0.01
140
3.0
141
0.09
142
0.0
143
25.4
144
1.0
145
0.0
146
1.0
147
0.625
 71
1
 72
0
 73
0
 74
0
 75
0
 76
0
 77
1
 78
8
 79
2
170
0
171
1
172
0
173
0
174
0
175
0
176
0
177
0
178
0
270
2
179
2
271
2
272
2
273
2
274
2
275
0
280
0
281
0
282
0
283
1
284
8
285
0
286
0
287
3
288
0
340
11
278
44
341
213
342
213
343
213
344
213
  0
ENDTAB
  0
ENDSEC
  0
SECTION
  2
BLOCKS
  0
BLOCK
  5
20
100
AcDbEntity
  8
0
100
AcDbBlockBegin
  2
*Model_Space
 70
0
 10
0.0
 20
0.0
 30
0.0
  3
*Model_Space
  1

  0
ENDBLK
  5
21
100
AcDbEntity
  8
0
100
AcDbBlockEnd
  0
BLOCK
  5
1C
100
AcDbEntity
  8
0
100
AcDbBlockBegin
  2
*Paper_Space
 70
0
 10
0.0
 20
0.0
 30
0.0
  3
*Paper_Space
  1

  0
ENDBLK
  5
1D
100
AcDbEntity
  8
0
100
AcDbBlockEnd
  0
BLOCK
  5
215
100
AcDbEntity
  8
0
100
AcDbBlockBegin
  2
_FILLED
 70
64
 10
0.0
 20
0.0
  3
_FILLED
  1

  0
SOLID
  5
216
100
AcDbEntity
  8
0
  6
BYBLOCK
 62
0
100
AcDbTrace
 10
0.0
 20
0.0
 11
-1.0
 21
0.3166666667
 12
-1.0
 22
-0.3166666667
 13
-1.0
 23
-0.3166666667
  0
ENDBLK
  5
217
100
AcDbEntity
  8
0
  6
BYBLOCK
 62
0
100
AcDbBlockEnd
  0
ENDSEC
  0
SECTION
  2
ENTITIES
  0
LWPOLYLINE
  5
218
100
AcDbEntity
  8
ASSI
100
AcDbPolyline
 62
7
  6
CONTINUOUS
 90
31
 70
0
 10
-1.4937157571
 20
-101.3224288457
 10
-1.6244590623
 20
-101.2816142593
 10
-1.7569938742
 20
-101.2446984411
 10
-1.8913201928
 20
-101.211681391
 10
-2.0276664528
 20
-101.1825213352
 10
-2.1658042194
 20
-101.1572600476
 10
-2.3050481893
 20
-101.1360228498
 10
-2.4454038595
 20
-101.1188297385
 10
-2.5868657329
 20
-101.1056607169
 10
-2.7287320151
 20
-101.0965811168
 10
-2.8710047157
 20
-101.0916112594
 10
-3.0136818251
 20
-101.0907308236
 10
-3.15605552
 20
-101.0939441772
 10
-3.2981242928
 20
-101.1012716631
 10
-3.4398896511
 20
-101.1126929383
 10
-3.580648295
 20
-101.1281513418
 10
-3.7203952218
 20
-101.1476669349
 10
-3.8591354341
 20
-101.1712196563
 10
-3.9961806397
 20
-101.1986926605
 10
-4.1315224157
 20
-101.2301054284
 10
-4.265169185
 20
-101.2654384791
 10
-4.3964579239
 20
-101.3045165248
 10
-4.525376915
 20
-101.3473581754
 10
-4.6519378757
 20
-101.393944821
 10
-4.7755129353
 20
-101.4440453446
 10
-4.8960872562
 20
-101.4976772075
 10
-5.013675676
 20
-101.5548229485
 10
-5.1276948368
 20
-101.6151990666
 10
-5.237950286
 20
-101.6787110615
 10
-5.3446364761
 20
-101.7454534336
 10
-5.4477534073
 20
-101.8154261829
  0
LWPOLYLINE
  5
219
100
AcDbEntity
  8
ASSI
100
AcDbPolyline
 62
7
  6
CONTINUOUS
 90
12
 70
0
 10
-94.9781820535
 20
-20.388126162
 10
-94.9778017353
 20
-20.4238256143
 10
-94.9725801932
 20
-20.5281152935
 10
-94.9611125928
 20
-20.6321547884
 10
-94.9434320733
 20
-20.7359454264
 10
-94.9196327735
 20
-20.8389345816
 10
-94.8896820562
 20
-20.941117979
 10
-94.8536125586
 20
-21.0424998935
 10
-94.81161633
 20
-21.1425405244
 10
-94.763757387
 20
-21.2410599379
 10
-94.7099717131
 20
-21.3382380677
 10
-94.6502593083
 20
-21.4340749139
  0
LINE
  5
21A
100
AcDbEntity
  8
ASSI
100
AcDbLine
 62
7
  6
CONTINUOUS
 10
-94.9781820536
 20
-26.4107906714
 11
-94.9781820536
 21
-20.3881480783
  0
LINE
  5
21B
100
AcDbEntity
  8
ASSI
100
AcDbLine
 62
250
  6
CONTINUOUS
 10
-94.6502593083
 20
-25.8509915291
 11
-94.6502593083
 21
-21.4340749139
  0
LINE
  5
21C
100
AcDbEntity
  8
ASSI
100
AcDbLine
 62
250
  6
CONTINUOUS
 10
-10.6451888857
 20
-88.762645993
 11
-15.6451888857
 21
-87.298179899
  0
LWPOLYLINE
  5
21D
100
AcDbEntity
  8
ASSI
100
AcDbPolyline
 62
7
  6
CONTINUOUS
 90
28
 70
0
 10
16.9113638827
 20
-100.3200551924
 10
17.0468976503
 20
-100.3622782388
 10
17.1843282795
 20
-100.4003104535
 10
17.3236557703
 20
-100.4341518367
 10
17.4651345872
 20
-100.4638476547
 10
17.6085102657
 20
-100.4893526411
 10
17.7530194121
 20
-100.5105309963
 10
17.8986680722
 20
-100.5273596427
 10
18.0454502002
 20
-100.5398616579
 10
18.1925842649
 20
-100.5479704758
 10
18.3400721435
 20
-100.5516626637
 10
18.487911959
 20
-100.5509616544
 10
18.6353165485
 20
-100.5458711803
 10
18.7822835906
 20
-100.5363678285
 10
18.9288154067
 20
-100.5224750119
 10
19.0741317986
 20
-100.504266702
 10
19.2182262833
 20
-100.4817198802
 10
19.3611053437
 20
-100.4548575649
 10
19.5020082303
 20
-100.4238227828
 10
19.6409244024
 20
-100.3885932782
 10
19.7778644007
 20
-100.3491913067
 10
19.9120990978
 20
-100.3058266613
 10
20.043614064
 20
-100.2584782055
 10
20.172423729
 20
-100.2071670759
 10
20.2978422548
 20
-100.1521664748
 10
20.4196410288
 20
-100.0935674698
 10
20.5380486636
 20
-100.0312789934
 10
20.6530651592
 20
-99.9653010457
  0
LINE
  5
21E
100
AcDbEntity
  8
ASSI
100
AcDbLine
 62
7
  6
CONTINUOUS
 10
-1.4937157571
 20
-101.3224288457
 11
16.9113638827
 21
-107.3911230043
  0
LINE
  5
21F
100
AcDbEntity
  8
ASSI
100
AcDbLine
 62
7
  6
CONTINUOUS
 10
-1.4937157571
 20
-94.2513610338
 11
16.9113638827
 21
-100.3200551924
  0
LWPOLYLINE
  5
220
100
AcDbEntity
  8
ASSI
100
AcDbPolyline
 62
7
  6
CONTINUOUS
 90
35
 70
0
 10
-17.0375436937
 20
-104.6311219956
 10
-16.8150041553
 20
-104.7787854949
 10
-16.5961310344
 20
-104.906465234
 10
-16.3692181741
 20
-105.0224734244
 10
-16.1350460525
 20
-105.1264602416
 10
-15.893797941
 20
-105.2183291282
 10
-15.6452905681
 20
-105.2981766416
 10
-15.3897545973
 20
-105.36594263
 10
-15.1270306147
 20
-105.4216626246
 10
-14.8572780342
 20
-105.465301094
 10
-14.5812057609
 20
-105.4966912925
 10
-14.2987148616
 20
-105.5157749683
 10
-14.0099042695
 20
-105.522610373
 10
-13.7157796902
 20
-105.5172055158
 10
-13.4165702051
 20
-105.4995471668
 10
-13.1120467327
 20
-105.4696485557
 10
-12.8025277347
 20
-105.4275573816
 10
-12.4878619213
 20
-105.3732512118
 10
-12.1682005822
 20
-105.3067524788
 10
-11.8443160489
 20
-105.2281761789
 10
-11.5160732929
 20
-105.1374331704
 10
-11.1836073426
 20
-105.0346125949
 10
-10.8480956149
 20
-104.9200968734
 10
-10.5097704257
 20
-104.7939397984
 10
-10.1683994592
 20
-104.6560875774
 10
-9.8244631844
 20
-104.5067612533
 10
-9.4778891187
 20
-104.3459310048
 10
-9.1287497447
 20
-104.1736266532
 10
-8.7777429802
 20
-103.9901587051
 10
-8.4246827288
 20
-103.7953860543
 10
-8.0697550868
 20
-103.5894498071
 10
-7.7142162609
 20
-103.3730837885
 10
-7.3584849864
 20
-103.1465326069
 10
-7.002142528
 20
-102.909551654
 10
-6.6451888857
 20
-102.6621409297
  0
LINE
  5
221
100
AcDbEntity
  8
ASSI
100
AcDbLine
 62
7
  6
CONTINUOUS
 10
-98.3547735675
 20
-47.131157325
 11
-17.0374937311
 21
-104.631157325
  0
LINE
  5
222
100
AcDbEntity
  8
ASSI
100
AcDbLine
 62
7
  6
CONTINUOUS
 10
-94.6502593083
 20
-21.4340749139
 11
-93.2800363686
 21
-23.5118746571
  0
LWPOLYLINE
  5
223
100
AcDbEntity
  8
ASSI
100
AcDbPolyline
 62
7
  6
CONTINUOUS
 90
37
 70
0
 10
-86.5749999035
 20
7.0841138426
 10
-86.6640179956
 20
6.9252183899
 10
-86.746917175
 20
6.7632542894
 10
-86.8236974417
 20
6.598221541
 10
-86.8944814999
 20
6.4297947263
 10
-86.9591466454
 20
6.2582992638
 10
-87.0173247651
 20
6.0847114092
 10
-87.0689788608
 20
5.9090192285
 10
-87.1141459308
 20
5.7312346557
 10
-87.1525688567
 20
5.5523697478
 10
-87.1842091739
 20
5.3724183431
 10
-87.2091053472
 20
5.1913866034
 10
-87.2271156524
 20
5.0103050703
 10
-87.2382008166
 20
4.8291734601
 10
-87.2424001127
 20
4.6479920566
 10
-87.239689636
 20
4.4677922537
 10
-87.2300299768
 20
4.2885796499
 10
-87.2134605448
 20
4.1103486468
 10
-87.190075663
 20
3.9341138426
 10
-87.15983646
 20
3.7598866227
 10
-87.1227818073
 20
3.5876556017
 10
-87.0791226423
 20
3.4184012227
 10
-87.0288212967
 20
3.2521404626
 10
-86.9719154387
 20
3.0888563443
 10
-86.9087290109
 20
2.9294783797
 10
-86.8392261925
 20
2.7740288472
 10
-86.7634428043
 20
2.6224854682
 10
-86.6818102511
 20
2.4757109192
 10
-86.5942951725
 20
2.3337323988
 10
-86.5009309288
 20
2.1965227084
 10
-86.4022490056
 20
2.0648629282
 10
-86.2982190741
 20
1.9387847118
 10
-86.188871463
 20
1.8182564057
 10
-86.0748286451
 20
1.7039641297
 10
-85.9562981111
 20
1.5961365904
 10
-85.8330723702
 20
1.4945450812
 10
-85.7051514225
 20
1.3991896021
  0
LWPOLYLINE
  5
224
100
AcDbEntity
  8
ASSI
100
AcDbPolyline
 62
7
  6
CONTINUOUS
 90
43
 70
0
 10
-87.2321066847
 20
7.5694691817
 10
-87.3269481393
 20
7.4012848741
 10
-87.4162773776
 20
7.2301848484
 10
-87.5000943996
 20
7.0561691048
 10
-87.5785009174
 20
6.878986345
 10
-87.6513952189
 20
6.6988878672
 10
-87.7184721677
 20
6.5166275656
 10
-87.7797073783
 20
6.3321963781
 10
-87.8351252363
 20
6.1456033667
 10
-87.8844937618
 20
5.957629612
 10
-87.927787597
 20
5.768269326
 10
-87.9650320997
 20
5.5775282965
 10
-87.9960713641
 20
5.3862049677
 10
-88.0208793786
 20
5.1942968986
 10
-88.0394821549
 20
5.0018065301
 10
-88.0518018214
 20
4.8095396291
 10
-88.0578120402
 20
4.6174971322
 10
-88.0575391493
 20
4.4256781028
 10
-88.0509842909
 20
4.2348854974
 10
-88.038121132
 20
4.0451236186
 10
-88.0189760056
 20
3.8563881638
 10
-87.9936290536
 20
3.6694691817
 10
-87.9620542786
 20
3.4843742867
 10
-87.9242776779
 20
3.3010958644
 10
-87.8804573848
 20
3.1204011203
 10
-87.8305680648
 20
2.9423008848
 10
-87.7746350525
 20
2.7667843275
 10
-87.7128924839
 20
2.5945861627
 10
-87.6453160062
 20
2.4257203005
 10
-87.5719299722
 20
2.2601728307
 10
-87.4930415768
 20
2.0986367369
 10
-87.4086277547
 20
1.9411288342
 10
-87.3187115711
 20
1.7876323075
 10
-87.2236694161
 20
1.6387896949
 10
-87.1234798025
 20
1.4946205049
 10
-87.0181642174
 20
1.3551052291
 10
-86.9081635132
 20
1.2208278798
 10
-86.7934580505
 20
1.0918104139
 10
-86.6740674686
 20
0.9680308745
 10
-86.5504915378
 20
0.8500074042
 10
-86.4228968482
 20
0.7379127172
 10
-86.2911168098
 20
0.6315740994
 10
-86.1551514225
 20
0.5309915506
  0
LINE
  5
225
100
AcDbEntity
  8
ASSI
100
AcDbLine
 62
7
  6
CONTINUOUS
 10
-30.1131728466
 20
105.0775884708
 11
-87.2321066847
 21
7.5694691817
  0
LINE
  5
226
100
AcDbEntity
  8
ASSI
100
AcDbLine
 62
7
  6
CONTINUOUS
 10
-29.4560660654
 20
104.5922331317
 11
-86.5749999035
 21
7.0841138426
  0
LINE
  5
227
100
AcDbEntity
  8
0
100
AcDbLine
 62
7
  6
CONTINUOUS
 10
-17.2585655382
 20
82.7493914012
 11
-17.2227901268
 21
82.7736399624
  0
LINE
  5
228
100
AcDbEntity
  8
0
100
AcDbLine
 62
7
  6
CONTINUOUS
 10
-17.2227901268
 20
82.7736399624
 11
-17.1868994876
 21
82.7976558852
  0
LINE
  5
229
100
AcDbEntity
  8
0
100
AcDbLine
 62
7
  6
CONTINUOUS
 10
-17.1868994876
 20
82.7976558852
 11
-17.1508755885
 21
82.8214970045
  0
LINE
  5
22A
100
AcDbEntity
  8
0
100
AcDbLine
 62
7
  6
CONTINUOUS
 10
-17.1508755885
 20
82.8214970045
 11
-17.1148584488
 21
82.8450695127
  0
LINE
  5
22B
100
AcDbEntity
  8
0
100
AcDbLine
 62
7
  6
CONTINUOUS
 10
-17.1148584488
 20
82.8450695127
 11
-17.0786727643
 21
82.8684856891
  0
LINE
  5
22C
100
AcDbEntity
  8
0
100
AcDbLine
 62
7
  6
CONTINUOUS
 10
-17.0786727643
 20
82.8684856891
 11
-17.0420294513
 21
82.8919764816
  0
LINE
  5
22D
100
AcDbEntity
  8
0
100
AcDbLine
 62
7
  6
CONTINUOUS
 10
-17.0420294513
 20
82.8919764816
 11
-16.9844549169
 21
82.9283865226
  0
LINE
  5
22E
100
AcDbEntity
  8
0
100
AcDbLine
 62
7
  6
CONTINUOUS
 10
-16.9844549169
 20
82.9283865226
 11
-16.9218657239
 21
82.9673413621
  0
LWPOLYLINE
  5
22F
100
AcDbEntity
  8
0
100
AcDbPolyline
 62
7
  6
CONTINUOUS
 90
5
 70
0
 10
-16.9218657239
 20
82.9673413621
 10
-16.8520392144
 20
83.0100779123
 10
-16.8266826556
 20
83.0255111703
 10
-16.8001917099
 20
83.0414623396
 10
-16.7725107877
 20
83.0578806716
  0
LINE
  5
230
100
AcDbEntity
  8
0
100
AcDbLine
 62
7
  6
CONTINUOUS
 10
-17.4384393021
 20
80.6398314055
 11
-17.4224526371
 21
80.6489823949
  0
LINE
  5
231
100
AcDbEntity
  8
0
100
AcDbLine
 62
7
  6
CONTINUOUS
 10
-16.7725107877
 20
83.0578806716
 11
-16.7541619419
 21
83.0663397944
  0
LINE
  5
232
100
AcDbEntity
  8
0
100
AcDbLine
 62
7
  6
CONTINUOUS
 10
-18.1134322493
 20
80.3679921553
 11
-17.4561706474
 21
80.6157069093
  0
LWPOLYLINE
  5
233
100
AcDbEntity
  8
ASSI
100
AcDbPolyline
 62
7
  6
CONTINUOUS
 90
29
 70
0
 10
-11.2640358432
 20
-96.4661598336
 10
-11.151995682
 20
-96.5398855024
 10
-11.0325633855
 20
-96.6073961485
 10
-10.907985884
 20
-96.6671146229
 10
-10.7787801188
 20
-96.7188994558
 10
-10.6451043717
 20
-96.7627145585
 10
-10.5068003609
 20
-96.7985960198
 10
-10.3639101825
 20
-96.826510636
 10
-10.2162151494
 20
-96.8464941366
 10
-10.0639339487
 20
-96.8585107921
 10
-9.9077647379
 20
-96.8624202109
 10
-9.7476479917
 20
-96.8581432192
 10
-9.5836432355
 20
-96.8457589908
 10
-9.4166272031
 20
-96.8253646547
 10
-9.2467164779
 20
-96.7969328808
 10
-9.0737944765
 20
-96.7604909993
 10
-8.8983881826
 20
-96.7162181294
 10
-8.7206203106
 20
-96.6641677794
 10
-8.5403681461
 20
-96.6042864409
 10
-8.3577905291
 20
-96.5365927088
 10
-8.1726237337
 20
-96.4609718614
 10
-7.9851314859
 20
-96.3775386204
 10
-7.7962638023
 20
-96.2866557455
 10
-7.6059997515
 20
-96.1882429934
 10
-7.414360265
 20
-96.0823806075
 10
-7.222358154
 20
-95.9696720779
 10
-7.0303310224
 20
-95.8503185681
 10
-6.8379412662
 20
-95.7241189148
 10
-6.6451888857
 20
-95.5910731178
  0
LINE
  5
234
100
AcDbEntity
  8
ASSI
100
AcDbLine
 62
250
  6
CONTINUOUS
 10
-11.9783969237
 20
-91.8199255486
 11
-6.6451888857
 21
-95.5910731178
  0
LINE
  5
235
100
AcDbEntity
  8
ASSI
100
AcDbLine
 62
250
  6
CONTINUOUS
 10
-96.9624687221
 20
-29.798179899
 11
-15.6451888857
 21
-87.298179899
  0
LWPOLYLINE
  5
236
100
AcDbEntity
  8
ASSI
100
AcDbPolyline
 62
7
  6
CONTINUOUS
 90
51
 70
0
 10
-96.9624687221
 20
-29.798179899
 10
-97.2113420429
 20
-30.2300952732
 10
-97.4527138213
 20
-30.6633434536
 10
-97.6865840573
 20
-31.0979244402
 10
-97.9132124381
 20
-31.5343543539
 10
-98.1323392765
 20
-31.9721170738
 10
-98.3431855109
 20
-32.4096642374
 10
-98.5456128223
 20
-32.8467731775
 10
-98.7397595297
 20
-33.2836665613
 10
-98.9252615282
 20
-33.719464028
 10
-99.1020827194
 20
-34.1540736445
 10
-99.2702592018
 20
-34.5875873439
 10
-99.4295351659
 20
-35.0194005651
 10
-99.5799967631
 20
-35.4498166192
 10
-99.7215578421
 20
-35.878532195
 10
-99.8537041394
 20
-36.304032798
 10
-99.976344657
 20
-36.7261541217
 10
-100.0895703931
 20
-37.1450604725
 10
-100.1931400778
 20
-37.5597302751
 10
-100.2870065158
 20
-37.9699633967
 10
-100.3712169026
 20
-38.3759599702
 10
-100.4456715543
 20
-38.7772988195
 10
-100.5104085604
 20
-39.1742927584
 10
-100.5653898314
 20
-39.5666289732
 10
-100.6104014158
 20
-39.9529478465
 10
-100.6453816335
 20
-40.333127531
 10
-100.6703921645
 20
-40.707289874
 10
-100.6854040968
 20
-41.0744408001
 10
-100.6904095393
 20
-41.4343571755
 10
-100.6854163832
 20
-41.7872621342
 10
-100.6704193903
 20
-42.1328310028
 10
-100.6453882411
 20
-42.4713318471
 10
-100.6103532551
 20
-42.8024966014
 10
-100.5654001533
 20
-43.125196396
 10
-100.5104815595
 20
-43.4393419982
 10
-100.4456448498
 20
-43.7450226407
 10
-100.371117874
 20
-44.041377152
 10
-100.2869536461
 20
-44.3281937918
 10
-100.1930991522
 20
-44.6056843003
 10
-100.0896232004
 20
-44.8736227267
 10
-99.9764295793
 20
-45.1322123696
 10
-99.8536145003
 20
-45.3812499304
 10
-99.721535406
 20
-45.6198995622
 10
-99.5801391091
 20
-45.8481016253
 10
-99.4294787968
 20
-46.0659157594
 10
-99.2700714733
 20
-46.2726850377
 10
-99.1020409663
 20
-46.4682371281
 10
-98.9252634482
 20
-46.6527443626
 10
-98.7398844395
 20
-46.8260668097
 10
-98.545765197
 20
-46.9883200793
 10
-98.3548235301
 20
-47.1311219956
  0
LINE
  5
237
100
AcDbEntity
  8
ASSI
100
AcDbLine
 62
7
  6
CONTINUOUS
 10
-82.9843246215
 20
-5.9359953165
 11
-96.9624687221
 21
-29.798179899
  0
LINE
  5
238
100
AcDbEntity
  8
0
100
AcDbLine
 62
7
  6
CONTINUOUS
 10
-16.7541619419
 20
83.0663397944
 11
-16.6823491688
 21
83.1366520352
  0
LINE
  5
239
100
AcDbEntity
  8
0
100
AcDbLine
 62
7
  6
CONTINUOUS
 10
-16.6823491688
 20
83.1366520352
 11
-16.6105990194
 21
83.2058130142
  0
LINE
  5
23A
100
AcDbEntity
  8
0
100
AcDbLine
 62
7
  6
CONTINUOUS
 10
-16.6105990194
 20
83.2058130142
 11
-16.5395299421
 21
83.273267366
  0
LINE
  5
23B
100
AcDbEntity
  8
0
100
AcDbLine
 62
7
  6
CONTINUOUS
 10
-16.5395299421
 20
83.273267366
 11
-16.4714327857
 21
83.3369263321
  0
LINE
  5
23C
100
AcDbEntity
  8
0
100
AcDbLine
 62
7
  6
CONTINUOUS
 10
-16.4714327857
 20
83.3369263321
 11
-16.4069733218
 21
83.3963624584
  0
LINE
  5
23D
100
AcDbEntity
  8
0
100
AcDbLine
 62
7
  6
CONTINUOUS
 10
-16.4069733218
 20
83.3963624584
 11
-16.3464847563
 21
83.4513811479
  0
LINE
  5
23E
100
AcDbEntity
  8
TRASH
100
AcDbLine
 62
7
  6
CONTINUOUS
 10
-16.3065635866
 20
82.2937239455
 11
-16.2970955159
 21
82.3022168561
  0
LWPOLYLINE
  5
23F
100
AcDbEntity
  8
0
100
AcDbPolyline
 62
7
  6
CONTINUOUS
 90
3
 70
0
 10
-16.3464847563
 20
83.4513811479
 10
-16.2901107731
 20
83.5020665758
 10
-16.2634520526
 20
83.5257832027
  0
LINE
  5
240
100
AcDbEntity
  8
0
100
AcDbLine
 62
7
  6
CONTINUOUS
 10
-17.3333063364
 20
80.7158494202
 11
-17.3988476953
 21
80.666594554
  0
LINE
  5
241
100
AcDbEntity
  8
0
100
AcDbLine
 62
7
  6
CONTINUOUS
 10
-17.3988476953
 20
80.666594554
 11
-17.4224526371
 21
80.6489823949
  0
LINE
  5
242
100
AcDbEntity
  8
0
100
AcDbLine
 62
7
  6
CONTINUOUS
 10
-16.9866358942
 20
80.9721860371
 11
-17.3333063364
 21
80.7158494202
  0
LINE
  5
243
100
AcDbEntity
  8
0
100
AcDbLine
 62
7
  6
CONTINUOUS
 10
-16.6485224303
 20
82.4855488927
 11
-16.6720397162
 21
82.4686852548
  0
LINE
  5
244
100
AcDbEntity
  8
0
100
AcDbLine
 62
7
  6
CONTINUOUS
 10
-16.4585217951
 20
80.9026700177
 11
-16.4350045092
 21
80.9195336557
  0
LINE
  5
245
100
AcDbEntity
  8
0
100
AcDbLine
 62
7
  6
CONTINUOUS
 10
-17.7908914663
 20
80.1398932471
 11
-17.7560160419
 21
80.1915659768
  0
LINE
  5
246
100
AcDbEntity
  8
0
100
AcDbLine
 62
7
  6
CONTINUOUS
 10
-17.7560160419
 20
80.1915659768
 11
-17.7176404591
 21
80.2477682906
  0
LINE
  5
247
100
AcDbEntity
  8
0
100
AcDbLine
 62
7
  6
CONTINUOUS
 10
-17.7176404591
 20
80.2477682906
 11
-17.6755836865
 21
80.3086989887
  0
LINE
  5
248
100
AcDbEntity
  8
0
100
AcDbLine
 62
7
  6
CONTINUOUS
 10
-17.6755836865
 20
80.3086989887
 11
-17.6290825571
 21
80.3752566335
  0
LINE
  5
249
100
AcDbEntity
  8
0
100
AcDbLine
 62
7
  6
CONTINUOUS
 10
-17.6290825571
 20
80.3752566335
 11
-17.5783403308
 21
80.4469174144
  0
LINE
  5
24A
100
AcDbEntity
  8
0
100
AcDbLine
 62
7
  6
CONTINUOUS
 10
-17.5783403308
 20
80.4469174144
 11
-17.5238706001
 21
80.5228395981
  0
LWPOLYLINE
  5
24B
100
AcDbEntity
  8
0
100
AcDbPolyline
 62
7
  6
CONTINUOUS
 90
3
 70
0
 10
-17.5238706001
 20
80.5228395981
 10
-17.4674739657
 20
80.6003281068
 10
-17.4384393021
 20
80.6398314055
  0
LWPOLYLINE
  5
24C
100
AcDbEntity
  8
0
100
AcDbPolyline
 62
7
  6
CONTINUOUS
 90
15
 70
0
 10
-18.3604502319
 20
83.561206961
 10
-18.360978083
 20
83.5604934262
 10
-18.3615314973
 20
83.5589905862
 10
-18.3615767449
 20
83.5571961728
 10
-18.3611182659
 20
83.5551122939
 10
-18.3601660363
 20
83.5527596022
 10
-18.3587170513
 20
83.55013685
 10
-18.3567743158
 20
83.547245285
 10
-18.3543568199
 20
83.5441093034
 10
-18.3514620957
 20
83.5407277342
 10
-18.3480926111
 20
83.5371017482
 10
-18.3442747607
 20
83.5332592547
 10
-18.3400173426
 20
83.5292095567
 10
-18.3353115585
 20
83.524943351
 10
-18.3301574086
 20
83.5204606378
  0
LWPOLYLINE
  5
24D
100
AcDbEntity
  8
0
100
AcDbPolyline
 62
7
  6
CONTINUOUS
 90
15
 70
0
 10
-47.8604502319
 20
33.201556916
 10
-47.860978083
 20
33.2008433812
 10
-47.8615314973
 20
33.1993405412
 10
-47.8615767449
 20
33.1975461278
 10
-47.8611182659
 20
33.1954622489
 10
-47.8601660363
 20
33.1931095572
 10
-47.8587170513
 20
33.190486805
 10
-47.8567743158
 20
33.18759524
 10
-47.8543568199
 20
33.1844592584
 10
-47.8514620957
 20
33.1810776892
 10
-47.8480926111
 20
33.1774517032
 10
-47.8442747607
 20
33.1736092097
 10
-47.8400173426
 20
33.1695595117
 10
-47.8353115585
 20
33.165293306
 10
-47.8301574086
 20
33.1608105928
  0
LWPOLYLINE
  5
24E
100
AcDbEntity
  8
0
100
AcDbPolyline
 62
7
  6
CONTINUOUS
 90
3
 70
0
 10
-14.3641319448
 20
83.6424425108
 10
-14.3673086597
 20
83.638155529
 10
-14.3737103915
 20
83.6329862218
  0
LWPOLYLINE
  5
24F
100
AcDbEntity
  8
0
100
AcDbPolyline
 62
7
  6
CONTINUOUS
 90
10
 70
0
 10
-17.4101304624
 20
82.5751748239
 10
-17.4405835158
 20
82.5358733505
 10
-17.4697949635
 20
82.4955205872
 10
-17.4977648056
 20
82.454116534
 10
-17.5245409001
 20
82.4115794939
 10
-17.5500753889
 20
82.3679911639
 10
-17.574224698
 20
82.3235966349
 10
-17.5969409695
 20
82.2784776037
 10
-17.6182720614
 20
82.2325523735
 10
-17.6382179736
 20
82.1858209442
  0
LWPOLYLINE
  5
250
100
AcDbEntity
  8
0
100
AcDbPolyline
 62
7
  6
CONTINUOUS
 90
10
 70
0
 10
-15.6969137601
 20
80.8130440903
 10
-15.6664607071
 20
80.8523455633
 10
-15.6372492598
 20
80.8926983263
 10
-15.6092794181
 20
80.9341023792
 10
-15.582503324
 20
80.9766394188
 10
-15.5569688355
 20
81.0202277484
 10
-15.5328195267
 20
81.064622277
 10
-15.5101032554
 20
81.1097413078
 10
-15.4887721638
 20
81.1556665375
 10
-15.4688262518
 20
81.2023979663
  0
LWPOLYLINE
  5
251
100
AcDbEntity
  8
0
100
AcDbPolyline
 62
7
  6
CONTINUOUS
 90
39
 70
0
 10
-14.3652959486
 20
79.8007408573
 10
-14.4194645925
 20
79.7354413216
 10
-14.4751596019
 20
79.6720857227
 10
-14.5323809769
 20
79.6106740607
 10
-14.5911891912
 20
79.5511486388
 10
-14.651523771
 20
79.4935671537
 10
-14.7132032951
 20
79.4381026959
 10
-14.7762318063
 20
79.3847616315
 10
-14.8406052619
 20
79.3335375944
 10
-14.9061301129
 20
79.2845845765
 10
-14.9728098208
 20
79.237909406
 10
-15.0406409242
 20
79.1935052548
 10
-15.1094194893
 20
79.15150563
 10
-15.1791483656
 20
79.1119177605
 10
-15.2498247037
 20
79.0747344175
 10
-15.3212360216
 20
79.0400674207
 10
-15.3933845311
 20
79.0079243351
 10
-15.4662680204
 20
78.9782975959
 10
-15.5396673726
 20
78.9512763281
 10
-15.6135841418
 20
78.9268683647
 10
-15.6880167739
 20
78.9050658727
 10
-15.7627414899
 20
78.8859344791
 10
-15.8377591721
 20
78.8694822141
 10
-15.9130689382
 20
78.8557010474
 10
-15.9884443621
 20
78.8446325147
 10
-16.0638856465
 20
78.8362847718
 10
-16.1393925886
 20
78.830649663
 10
-16.2147381544
 20
78.8277442567
 10
-16.2899218648
 20
78.8275767607
 10
-16.3649441988
 20
78.8301389673
 10
-16.4395795587
 20
78.8354233212
 10
-16.5138268931
 20
78.8434380423
 10
-16.5876872535
 20
78.8541749107
 10
-16.6609381965
 20
78.8676017112
 10
-16.7335774797
 20
78.8837264
 10
-16.8056073456
 20
78.9025410209
 10
-16.8768120786
 20
78.9239894898
 10
-16.9471197734
 20
78.948053112
 10
-17.0166023352
 20
78.9747505822
  0
LWPOLYLINE
  5
252
100
AcDbEntity
  8
ASSI
100
AcDbPolyline
 62
7
  6
CONTINUOUS
 90
22
 70
0
 10
4.6745104291
 20
63.9073042474
 10
4.6096396571
 20
63.886872753
 10
4.4516745214
 20
63.8301115427
 10
4.295393769
 20
63.7669011726
 10
4.1408044606
 20
63.6972146087
 10
3.9878995354
 20
63.6210788851
 10
3.8373190553
 20
63.5388127066
 10
3.6890727639
 20
63.4503903754
 10
3.5431509174
 20
63.3558375893
 10
3.4001643465
 20
63.2555501475
 10
3.2601253552
 20
63.149504011
 10
3.1230216394
 20
63.0377232186
 10
2.9894271167
 20
62.9206756861
 10
2.8593564971
 20
62.798339336
 10
2.7327950707
 20
62.6707362458
 10
2.6102726249
 20
62.5384005632
 10
2.4918060905
 20
62.4013124501
 10
2.3773785368
 20
62.2594917448
 10
2.2674689588
 20
62.1135321103
 10
2.1622370213
 20
61.9636314342
 10
2.0615230595
 20
61.809591829
 10
1.9653270734
 20
61.6514132945
  0
LWPOLYLINE
  5
253
100
AcDbEntity
  8
ASSI
100
AcDbPolyline
 62
7
  6
CONTINUOUS
 90
33
 70
0
 10
6.4232925689
 20
-63.5203186831
 10
6.5523915214
 20
-63.5550675427
 10
6.6933706914
 20
-63.5862634747
 10
6.8358321256
 20
-63.6107895733
 10
6.9797686539
 20
-63.628678102
 10
7.1244817686
 20
-63.6398422498
 10
7.2699752444
 20
-63.6442493312
 10
7.4162453064
 20
-63.6419320317
 10
7.5625821227
 20
-63.6329015968
 10
7.7089860175
 20
-63.6171253958
 10
7.8554566665
 20
-63.5946360594
 10
8.001283264
 20
-63.565542726
 10
8.1464626795
 20
-63.5298132951
 10
8.2909980434
 20
-63.4874798671
 10
8.434187942
 20
-63.4387478814
 10
8.5760258353
 20
-63.3835862362
 10
8.7165182632
 20
-63.3220260333
 10
8.8549834317
 20
-63.2543660174
 10
8.9914114869
 20
-63.1805765389
 10
9.1258122828
 20
-63.1006872474
 10
9.2575335873
 20
-63.0150858367
 10
9.3865623762
 20
-62.9237445417
 10
9.5129116738
 20
-62.8266911274
 10
9.6359683211
 20
-62.7243965833
 10
9.7557163134
 20
-62.6168354335
 10
9.8721716554
 20
-62.5040331537
 10
9.9847692025
 20
-62.3865371609
 10
10.0934902028
 20
-62.2643246401
 10
10.1983534081
 20
-62.1374184061
 10
10.2988499291
 20
-62.0064343208
 10
10.394810136
 20
-61.8715776714
 10
10.4864036586
 20
-61.7326431705
 10
10.5736304969
 20
-61.5896308183
  0
LWPOLYLINE
  5
254
100
AcDbEntity
  8
ASSI
100
AcDbPolyline
 62
7
  6
CONTINUOUS
 90
31
 70
0
 10
6.3733476287
 20
-63.5056901469
 10
6.4439370527
 20
-63.5254237178
 10
6.596278018
 20
-63.5619538468
 10
6.7501468079
 20
-63.5906594967
 10
6.9055521362
 20
-63.6114960412
 10
7.0624852891
 20
-63.6245081065
 10
7.2200529084
 20
-63.6296216203
 10
7.3782586127
 20
-63.6267915336
 10
7.5370987835
 20
-63.6160628952
 10
7.6956692065
 20
-63.5974967792
 10
7.8539683433
 20
-63.5710484849
 10
8.0119977325
 20
-63.5367627128
 10
8.1688577754
 20
-63.4948346383
 10
8.3245418027
 20
-63.4452206741
 10
8.4790564836
 20
-63.3879644074
 10
8.6315222275
 20
-63.3233917755
 10
8.7819273483
 20
-63.25146105
 10
8.9302835321
 20
-63.1722139593
 10
9.0757462458
 20
-63.0861016256
 10
9.2182989869
 20
-62.9930848934
 10
9.3579582579
 20
-62.8932029184
 10
9.4939290342
 20
-62.7870242888
 10
9.6261902785
 20
-62.6745130921
 10
9.7547630281
 20
-62.555705241
 10
9.8789153691
 20
-62.4312770613
 10
9.9986220902
 20
-62.3011964979
 10
10.1139084028
 20
-62.1654956059
 10
10.2241180277
 20
-62.0249468768
 10
10.3290322052
 20
-61.8798078075
 10
10.4288696949
 20
-61.729820901
 10
10.5236304969
 20
-61.5749861574
  0
LWPOLYLINE
  5
255
100
AcDbEntity
  8
ASSI
100
AcDbPolyline
 62
7
  6
CONTINUOUS
 90
36
 70
0
 10
6.1421222466
 20
-64.4799765697
 10
6.2031731276
 20
-64.4972886474
 10
6.3641066919
 20
-64.5377614273
 10
6.5267796991
 20
-64.5711509535
 10
6.6911848881
 20
-64.5974867939
 10
6.856634057
 20
-64.6166587065
 10
7.0231315821
 20
-64.6286366611
 10
7.190673087
 20
-64.6334506878
 10
7.3585572413
 20
-64.6310806352
 10
7.5267854812
 20
-64.6214963885
 10
7.6953563704
 20
-64.6047280624
 10
7.8635642693
 20
-64.5808458493
 10
8.0314076564
 20
-64.5498199288
 10
8.1988880531
 20
-64.5116801213
 10
8.3653043848
 20
-64.4665860805
 10
8.530652191
 20
-64.4145086551
 10
8.6949359321
 20
-64.3554769964
 10
8.8574679146
 20
-64.2897382115
 10
9.0182407954
 20
-64.2172641851
 10
9.1772619175
 20
-64.1380830325
 10
9.3338656169
 20
-64.0525262069
 10
9.48804176
 20
-63.9605669824
 10
9.6398004802
 20
-63.8622320849
 10
9.7885065141
 20
-63.7579331454
 10
9.934147065
 20
-63.6476451634
 10
10.0767349294
 20
-63.5313931394
 10
10.215673233
 20
-63.4096637056
 10
10.3509466774
 20
-63.2824339015
 10
10.4825705609
 20
-63.1497266876
 10
10.6099939045
 20
-63.0120975778
 10
10.7331991002
 20
-62.8695259402
 10
10.8522037561
 20
-62.7220324066
 10
10.9665097173
 20
-62.5702343867
 10
11.0759509322
 20
-62.4143376836
 10
11.1806934524
 20
-62.2541364941
 10
11.280737278
 20
-62.0896308183
  0
LINE
  5
256
100
AcDbEntity
  8
ASSI
100
AcDbLine
 62
250
  6
CONTINUOUS
 10
3.3329552149
 20
-64.9004614105
 11
-1.6670447851
 21
-63.4359953165
  0
LINE
  5
257
100
AcDbEntity
  8
ASSI
100
AcDbLine
 62
7
  6
CONTINUOUS
 10
6.1421418998
 20
-64.4799823261
 11
11.1421418998
 21
-65.9444484201
  0
LWPOLYLINE
  5
258
100
AcDbEntity
  8
ASSI
100
AcDbPolyline
 62
7
  6
CONTINUOUS
 90
8
 70
0
 10
1.7915701549
 20
-61.8270887624
 10
1.9147010779
 20
-61.8665655228
 10
2.0273589375
 20
-61.9088761973
 10
2.1382233874
 20
-61.9565651785
 10
2.2467564148
 20
-62.0094010373
 10
2.3527786821
 20
-62.0673066305
 10
2.4564695268
 20
-62.1303591012
 10
2.5578289491
 20
-62.1985584494
  0
LINE
  5
259
100
AcDbEntity
  8
0
100
AcDbLine
 62
7
  6
CONTINUOUS
 10
-47.46067268
 20
30.6699115004
 11
-47.4593746721
 21
30.6994280835
  0
LINE
  5
25A
100
AcDbEntity
  8
0
100
AcDbLine
 62
7
  6
CONTINUOUS
 10
-47.4593746721
 20
30.6994280835
 11
-47.4565039831
 21
30.7558157178
  0
LINE
  5
25B
100
AcDbEntity
  8
0
100
AcDbLine
 62
7
  6
CONTINUOUS
 10
-47.4565039831
 20
30.7558157178
 11
-47.4535737335
 21
30.8088252256
  0
LINE
  5
25C
100
AcDbEntity
  8
0
100
AcDbLine
 62
7
  6
CONTINUOUS
 10
-47.4535737335
 20
30.8088252256
 11
-47.4490262824
 21
30.8821054611
  0
LINE
  5
25D
100
AcDbEntity
  8
0
100
AcDbLine
 62
7
  6
CONTINUOUS
 10
-47.4490262824
 20
30.8821054611
 11
-47.4443944938
 21
30.9487673971
  0
LINE
  5
25E
100
AcDbEntity
  8
0
100
AcDbLine
 62
7
  6
CONTINUOUS
 10
-47.4443944938
 20
30.9487673971
 11
-47.4396585396
 21
31.0106970698
  0
LINE
  5
25F
100
AcDbEntity
  8
0
100
AcDbLine
 62
7
  6
CONTINUOUS
 10
-47.4396585396
 20
31.0106970698
 11
-47.4363842937
 21
31.0505457482
  0
LINE
  5
260
100
AcDbEntity
  8
0
100
AcDbLine
 62
7
  6
CONTINUOUS
 10
-47.4363842937
 20
31.0505457482
 11
-47.4329796607
 21
31.0898892061
  0
LINE
  5
261
100
AcDbEntity
  8
0
100
AcDbLine
 62
7
  6
CONTINUOUS
 10
-47.4329796607
 20
31.0898892061
 11
-47.4293581711
 21
31.1295084862
  0
LINE
  5
262
100
AcDbEntity
  8
0
100
AcDbLine
 62
7
  6
CONTINUOUS
 10
-47.4293581711
 20
31.1295084862
 11
-47.4255381376
 21
31.1692801142
  0
LINE
  5
263
100
AcDbEntity
  8
0
100
AcDbLine
 62
7
  6
CONTINUOUS
 10
-47.4255381376
 20
31.1692801142
 11
-47.4214983171
 21
31.2091829324
  0
LWPOLYLINE
  5
264
100
AcDbEntity
  8
0
100
AcDbPolyline
 62
7
  6
CONTINUOUS
 90
3
 70
0
 10
-47.4214983171
 20
31.2091829324
 10
-47.4172678074
 20
31.2490647284
 10
-47.4150614482
 20
31.2690321992
  0
LINE
  5
265
100
AcDbEntity
  8
0
100
AcDbLine
 62
7
  6
CONTINUOUS
 10
-46.7442932309
 20
31.1321371743
 11
-46.7485221688
 21
31.1016345941
  0
LINE
  5
266
100
AcDbEntity
  8
0
100
AcDbLine
 62
7
  6
CONTINUOUS
 10
-45.7962181856
 20
31.9480414523
 11
-45.8301400334
 21
31.7332451635
  0
LINE
  5
267
100
AcDbEntity
  8
0
100
AcDbLine
 62
7
  6
CONTINUOUS
 10
-45.748704442
 20
32.2347479499
 11
-45.7962181856
 21
31.9480414523
  0
LINE
  5
268
100
AcDbEntity
  8
0
100
AcDbLine
 62
7
  6
CONTINUOUS
 10
-45.734290758
 20
32.31765148
 11
-45.748704442
 21
32.2347479499
  0
LINE
  5
269
100
AcDbEntity
  8
0
100
AcDbLine
 62
7
  6
CONTINUOUS
 10
-47.6134322493
 20
30.0083421103
 11
-47.5954692677
 21
30.0930661274
  0
LINE
  5
26A
100
AcDbEntity
  8
0
100
AcDbLine
 62
7
  6
CONTINUOUS
 10
-47.5954692677
 20
30.0930661274
 11
-47.5766828883
 21
30.1781932034
  0
LINE
  5
26B
100
AcDbEntity
  8
0
100
AcDbLine
 62
7
  6
CONTINUOUS
 10
-47.5766828883
 20
30.1781932034
 11
-47.5570628048
 21
30.2637495701
  0
LINE
  5
26C
100
AcDbEntity
  8
0
100
AcDbLine
 62
7
  6
CONTINUOUS
 10
-47.5570628048
 20
30.2637495701
 11
-47.5365473111
 21
30.3499343291
  0
LINE
  5
26D
100
AcDbEntity
  8
0
100
AcDbLine
 62
7
  6
CONTINUOUS
 10
-47.5365473111
 20
30.3499343291
 11
-47.5152401444
 21
30.4362749124
  0
LINE
  5
26E
100
AcDbEntity
  8
0
100
AcDbLine
 62
7
  6
CONTINUOUS
 10
-47.5152401444
 20
30.4362749124
 11
-47.4932619703
 21
30.5223052859
  0
LWPOLYLINE
  5
26F
100
AcDbEntity
  8
0
100
AcDbPolyline
 62
7
  6
CONTINUOUS
 90
3
 70
0
 10
-47.4932619703
 20
30.5223052859
 10
-47.4709585631
 20
30.6067718234
 10
-47.4596627772
 20
30.6485000022
  0
LWPOLYLINE
  5
270
100
AcDbEntity
  8
0
100
AcDbPolyline
 62
250
  6
CONTINUOUS
 90
49
 70
0
 10
-48.4301574086
 20
32.1365465241
 10
-48.4702465733
 20
32.0052261644
 10
-48.504088555
 20
31.8721893344
 10
-48.5315799454
 20
31.7378425436
 10
-48.5526367413
 20
31.6025963033
 10
-48.5671946009
 20
31.4668638751
 10
-48.5752090406
 20
31.3310600078
 10
-48.5766555717
 20
31.1955996688
 10
-48.5715297746
 20
31.06089677
 10
-48.5598473113
 20
30.9273629054
 10
-48.5416438766
 20
30.7954060942
 10
-48.5169750931
 20
30.6654295556
 10
-48.4859163441
 20
30.5378304692
 10
-48.448562545
 20
30.4129987561
 10
-48.4050278305
 20
30.2913158234
 10
-48.3554452011
 20
30.1731534255
 10
-48.2999661272
 20
30.058872572
 10
-48.2387601474
 20
29.948822524
 10
-48.1720143413
 20
29.8433396529
 10
-48.0999327077
 20
29.74274632
 10
-48.0227354739
 20
29.6473498332
 10
-47.9406584722
 20
29.5574416165
 10
-47.8539524733
 20
29.4732963775
 10
-47.7628824346
 20
29.3951712581
 10
-47.6677266318
 20
29.3233049841
 10
-47.568775805
 20
29.2579171435
 10
-47.4663323249
 20
29.1992075528
 10
-47.3607092781
 20
29.1473556363
 10
-47.2522294699
 20
29.1025198472
 10
-47.1412243206
 20
29.0648371484
 10
-47.028032904
 20
29.0344226473
 10
-46.9130010021
 20
29.0113692787
 10
-46.7964801865
 20
28.9957475233
 10
-46.678826632
 20
28.9876051344
 10
-46.5603999234
 20
28.9869669786
 10
-46.4415618505
 20
28.9938349866
 10
-46.3226754352
 20
29.0081881767
 10
-46.2041038926
 20
29.0299827109
 10
-46.086209589
 20
29.0591519963
 10
-45.9693528311
 20
29.0956068876
 10
-45.8538907147
 20
29.139235977
 10
-45.7401760194
 20
29.1899059537
 10
-45.6285561969
 20
29.2474619939
 10
-45.5193723135
 20
29.3117282273
 10
-45.4129579931
 20
29.3825082793
 10
-45.3096383835
 20
29.4595858819
 10
-45.209729186
 20
29.5427255202
 10
-45.1135356896
 20
29.6316731493
 10
-45.0213518253
 20
29.7261569803
  0
LWPOLYLINE
  5
271
100
AcDbEntity
  8
0
100
AcDbPolyline
 62
250
  6
CONTINUOUS
 90
49
 70
0
 10
-44.4213518253
 20
30.750421049
 10
-44.3812626606
 20
30.8817414087
 10
-44.3474206789
 20
31.0147782387
 10
-44.3199292885
 20
31.1491250295
 10
-44.2988724926
 20
31.2843712698
 10
-44.2843146331
 20
31.420103698
 10
-44.2763001933
 20
31.5559075653
 10
-44.2748536622
 20
31.6913679043
 10
-44.2799794593
 20
31.8260708031
 10
-44.2916619226
 20
31.9596046677
 10
-44.3098653574
 20
32.0915614789
 10
-44.3345341408
 20
32.2215380176
 10
-44.3655928898
 20
32.3491371039
 10
-44.4029466889
 20
32.473968817
 10
-44.4464814034
 20
32.5956517497
 10
-44.4960640328
 20
32.7138141476
 10
-44.5515431067
 20
32.8280950011
 10
-44.6127490865
 20
32.9381450491
 10
-44.6794948927
 20
33.0436279202
 10
-44.7515765262
 20
33.1442212531
 10
-44.82877376
 20
33.2396177399
 10
-44.9108507617
 20
33.3295259566
 10
-44.9975567606
 20
33.4136711956
 10
-45.0886267994
 20
33.491796315
 10
-45.1837826022
 20
33.563662589
 10
-45.2827334289
 20
33.6290504296
 10
-45.385176909
 20
33.6877600204
 10
-45.4907999558
 20
33.7396119368
 10
-45.599279764
 20
33.7844477259
 10
-45.7102849133
 20
33.8221304247
 10
-45.8234763299
 20
33.8525449258
 10
-45.9385082318
 20
33.8755982944
 10
-46.0550290474
 20
33.8912200498
 10
-46.1726826019
 20
33.8993624387
 10
-46.2911093105
 20
33.9000005946
 10
-46.4099473834
 20
33.8931325865
 10
-46.5288337987
 20
33.8787793964
 10
-46.6474053413
 20
33.8569848622
 10
-46.7652996449
 20
33.8278155768
 10
-46.8821564028
 20
33.7913606855
 10
-46.9976185192
 20
33.7477315962
 10
-47.1113332146
 20
33.6970616194
 10
-47.222953037
 20
33.6395055792
 10
-47.3321369204
 20
33.5752393458
 10
-47.4385512408
 20
33.5044592938
 10
-47.5418708504
 20
33.4273816912
 10
-47.6417800479
 20
33.3442420529
 10
-47.7379735443
 20
33.2552944238
 10
-47.8301574086
 20
33.1608105928
  0
LWPOLYLINE
  5
272
100
AcDbEntity
  8
0
100
AcDbPolyline
 62
7
  6
CONTINUOUS
 90
28
 70
0
 10
-48.4613530028
 20
32.1757702834
 10
-48.503023808
 20
32.0434865873
 10
-48.540151267
 20
31.9029215978
 10
-48.5704532245
 20
31.7608546435
 10
-48.5938432844
 20
31.6176710079
 10
-48.6102383217
 20
31.4738391972
 10
-48.6195783697
 20
31.3299108551
 10
-48.62184534
 20
31.1863664944
 10
-48.6170440574
 20
31.0435849321
 10
-48.605190634
 20
30.901963344
 10
-48.5863096743
 20
30.7618677127
 10
-48.56045727
 20
30.6237758544
 10
-48.5277420336
 20
30.4882400317
 10
-48.4882919737
 20
30.3557113134
 10
-48.4422248458
 20
30.2265262552
 10
-48.3896795484
 20
30.1010468447
 10
-48.3308032076
 20
29.9796157436
 10
-48.2657881815
 20
29.8626251868
 10
-48.1948766109
 20
29.750489821
 10
-48.1183080738
 20
29.6435547431
 10
-48.0363138943
 20
29.5421129598
 10
-47.9491632298
 20
29.4464711792
 10
-47.8571594998
 20
29.3569312108
 10
-47.7605720507
 20
29.2737253863
 10
-47.6596370939
 20
29.1970430745
 10
-47.554644699
 20
29.1271035794
 10
-47.445945359
 20
29.0641380032
 10
-47.3745486145
 20
29.0275691509
  0
LWPOLYLINE
  5
273
100
AcDbEntity
  8
0
100
AcDbPolyline
 62
250
  6
CONTINUOUS
 90
28
 70
0
 10
-44.2432490872
 20
30.6595990885
 10
-44.2038074907
 20
30.783102643
 10
-44.16963212
 20
30.9081698225
 10
-44.1408068871
 20
31.0344924154
 10
-44.1174026864
 20
31.1617580923
 10
-44.0994766197
 20
31.289654324
 10
-44.0870723105
 20
31.4178691935
 10
-44.080220333
 20
31.5460898122
 10
-44.0789380303
 20
31.673997326
 10
-44.0832283571
 20
31.8012709425
 10
-44.0930796697
 20
31.9275928259
 10
-44.108467124
 20
32.0526564118
 10
-44.1293536127
 20
32.1761612063
 10
-44.1556893831
 20
32.2978084156
 10
-44.1874090895
 20
32.4172925565
 10
-44.2244318877
 20
32.5343102056
 10
-44.2666640792
 20
32.6485694348
 10
-44.3140020604
 20
32.7597936472
 10
-44.3663302047
 20
32.8677129186
 10
-44.42354329
 20
32.9721029645
 10
-44.4854799525
 20
33.0726627021
 10
-44.5519065679
 20
33.1690338318
 10
-44.6225852318
 20
33.2609224151
 10
-44.6973789106
 20
33.3481982596
 10
-44.7761898418
 20
33.4307637593
 10
-44.858860678
 20
33.5084476761
 10
-44.9451580418
 20
33.581024611
 10
-45.0348712826
 20
33.6483165925
  0
LWPOLYLINE
  5
274
100
AcDbEntity
  8
TRASH
100
AcDbPolyline
 62
7
  6
CONTINUOUS
 90
12
 70
0
 10
-46.4624955838
 20
30.6217187139
 10
-46.4461355915
 20
30.666591296
 10
-46.430611901
 20
30.7098329666
 10
-46.4160196554
 20
30.7514758864
 10
-46.4024215672
 20
30.7916778926
 10
-46.3895210274
 20
30.830686966
 10
-46.3773397099
 20
30.8685949457
 10
-46.3659689005
 20
30.9055141592
 10
-46.3551813295
 20
30.9416803877
 10
-46.344912416
 20
30.9772324626
 10
-46.3352752462
 20
31.0122449764
 10
-46.3262839254
 20
31.0468444257
  0
LWPOLYLINE
  5
275
100
AcDbEntity
  8
0
100
AcDbPolyline
 62
7
  6
CONTINUOUS
 90
9
 70
0
 10
-48.1877749057
 20
32.1193399642
 10
-48.1408034866
 20
32.2456798859
 10
-48.0887639188
 20
32.3691330054
 10
-48.0316562022
 20
32.4896993225
 10
-47.9692878876
 20
32.6077073687
 10
-47.9018514243
 20
32.7228286125
 10
-47.8299241597
 20
32.8340774602
 10
-47.753698543
 20
32.9411253806
 10
-47.6803356412
 20
33.0349012943
  0
LWPOLYLINE
  5
276
100
AcDbEntity
  8
0
100
AcDbPolyline
 62
7
  6
CONTINUOUS
 90
10
 70
0
 10
-43.9192693198
 20
30.5495788563
 10
-43.9662407388
 20
30.4232389345
 10
-44.0182803067
 20
30.2997858151
 10
-44.0753880233
 20
30.1792194979
 10
-44.1377563378
 20
30.0612114518
 10
-44.2051928011
 20
29.946090208
 10
-44.2771200657
 20
29.8348413602
 10
-44.3533456825
 20
29.7277934399
 10
-44.4340621005
 20
29.6246179157
 10
-44.5192693198
 20
29.5253147876
  0
LINE
  5
277
100
AcDbEntity
  8
TRASH
100
AcDbLine
 62
7
  6
CONTINUOUS
 10
-46.4665611348
 20
30.6108560476
 11
-46.4624955838
 21
30.6217187139
  0
LWPOLYLINE
  5
278
100
AcDbEntity
  8
TRASH
100
AcDbPolyline
 62
7
  6
CONTINUOUS
 90
10
 70
0
 10
-46.7213799803
 20
31.6199007378
 10
-46.7021571911
 20
31.6696049662
 10
-46.6809923551
 20
31.7184450047
 10
-46.6579293896
 20
31.7663140257
 10
-46.6330190863
 20
31.8130997344
 10
-46.6063115615
 20
31.8587070623
 10
-46.5778533132
 20
31.9030570217
 10
-46.5476985007
 20
31.9460573451
 10
-46.5159116788
 20
31.9876040882
 10
-46.4825582439
 20
32.0276033542
  0
LWPOLYLINE
  5
279
100
AcDbEntity
  8
0
100
AcDbPolyline
 62
7
  6
CONTINUOUS
 90
10
 70
0
 10
-43.4070383791
 20
30.2233854167
 10
-43.4468988373
 20
30.1294451721
 10
-43.4896754124
 20
30.0369684342
 10
-43.5353090418
 20
29.9460832616
 10
-43.5837372362
 20
29.8569145763
 10
-43.634892627
 20
29.7695868618
 10
-43.6887027696
 20
29.6842237885
 10
-43.7450924437
 20
29.6009442881
 10
-43.8039840442
 20
29.5198625939
 10
-43.8652959486
 20
29.4410908123
  0
LINE
  5
27A
100
AcDbEntity
  8
0
100
AcDbLine
 62
7
  6
CONTINUOUS
 10
-45.6959295751
 20
32.4179133167
 11
-45.7329101208
 21
32.3383628079
  0
LINE
  5
27B
100
AcDbEntity
  8
0
100
AcDbLine
 62
7
  6
CONTINUOUS
 10
-16.1959295751
 20
82.7775633617
 11
-16.2329101208
 21
82.6980128529
  0
LWPOLYLINE
  5
27C
100
AcDbEntity
  8
0
100
AcDbPolyline
 62
7
  6
CONTINUOUS
 90
10
 70
0
 10
-48.4613523109
 20
32.1757698821
 10
-48.4609494788
 20
32.1766295866
 10
-48.4598780367
 20
32.1778274407
 10
-48.4583117002
 20
32.1787236912
 10
-48.4562463001
 20
32.1793160616
 10
-48.4536860058
 20
32.1796068283
 10
-48.4506499713
 20
32.1795917674
 10
-48.4471445813
 20
32.1792694708
 10
-48.4431634511
 20
32.1786413467
 10
-48.4387065808
 20
32.1777073949
  0
LWPOLYLINE
  5
27D
100
AcDbEntity
  8
0
100
AcDbPolyline
 62
7
  6
CONTINUOUS
 90
10
 70
0
 10
-18.9613523109
 20
82.5354199271
 10
-18.9609494788
 20
82.5362796316
 10
-18.9598780367
 20
82.5374774857
 10
-18.9583117002
 20
82.5383737362
 10
-18.9562463001
 20
82.5389661066
 10
-18.9536860058
 20
82.5392568733
 10
-18.9506499713
 20
82.5392418124
 10
-18.9471445813
 20
82.5389195158
 10
-18.9431634511
 20
82.5382913917
 10
-18.9387065808
 20
82.5373574399
  0
LINE
  5
27E
100
AcDbEntity
  8
0
100
AcDbLine
 62
7
  6
CONTINUOUS
 10
-45.6579161942
 20
32.49851279
 11
-45.6959295751
 21
32.4179133167
  0
LINE
  5
27F
100
AcDbEntity
  8
0
100
AcDbLine
 62
7
  6
CONTINUOUS
 10
-16.1579161942
 20
82.858162835
 11
-16.1959295751
 21
82.7775633617
  0
LINE
  5
280
100
AcDbEntity
  8
0
100
AcDbLine
 62
7
  6
CONTINUOUS
 10
-45.6190128905
 20
32.5798518929
 11
-45.6579161942
 21
32.49851279
  0
LINE
  5
281
100
AcDbEntity
  8
0
100
AcDbLine
 62
7
  6
CONTINUOUS
 10
-16.1190128905
 20
82.9395019379
 11
-16.1579161942
 21
82.858162835
  0
LINE
  5
282
100
AcDbEntity
  8
0
100
AcDbLine
 62
7
  6
CONTINUOUS
 10
-45.5797458307
 20
32.6607798389
 11
-45.6190128905
 21
32.5798518929
  0
LINE
  5
283
100
AcDbEntity
  8
0
100
AcDbLine
 62
7
  6
CONTINUOUS
 10
-16.0797458307
 20
83.0204298839
 11
-16.1190128905
 21
82.9395019379
  0
LINE
  5
284
100
AcDbEntity
  8
0
100
AcDbLine
 62
7
  6
CONTINUOUS
 10
-45.5402847974
 20
32.740970258
 11
-45.5797458307
 21
32.6607798389
  0
LINE
  5
285
100
AcDbEntity
  8
0
100
AcDbLine
 62
7
  6
CONTINUOUS
 10
-16.0402847974
 20
83.100620303
 11
-16.0797458307
 21
83.0204298839
  0
LINE
  5
286
100
AcDbEntity
  8
0
100
AcDbLine
 62
7
  6
CONTINUOUS
 10
-45.5006849225
 20
32.8203184222
 11
-45.5402847974
 21
32.740970258
  0
LINE
  5
287
100
AcDbEntity
  8
0
100
AcDbLine
 62
7
  6
CONTINUOUS
 10
-16.0006849225
 20
83.1799684672
 11
-16.0402847974
 21
83.100620303
  0
LWPOLYLINE
  5
288
100
AcDbEntity
  8
0
100
AcDbPolyline
 62
7
  6
CONTINUOUS
 90
3
 70
0
 10
-45.4409112702
 20
32.9380342499
 10
-45.4608843861
 20
32.8989733647
 10
-45.5006849225
 20
32.8203184222
  0
LWPOLYLINE
  5
289
100
AcDbEntity
  8
0
100
AcDbPolyline
 62
7
  6
CONTINUOUS
 90
3
 70
0
 10
-15.9409112702
 20
83.2976842949
 10
-15.9608843861
 20
83.2586234097
 10
-16.0006849225
 20
83.1799684672
  0
LINE
  5
28A
100
AcDbEntity
  8
0
100
AcDbLine
 62
7
  6
CONTINUOUS
 10
-43.8706906384
 20
33.2715672464
 11
-43.8663193217
 21
33.2790295509
  0
LINE
  5
28B
100
AcDbEntity
  8
0
100
AcDbLine
 62
7
  6
CONTINUOUS
 10
-14.3706906384
 20
83.6312172914
 11
-14.3663193217
 21
83.6386795959
  0
LWPOLYLINE
  5
28C
100
AcDbEntity
  8
ASSI
100
AcDbPolyline
 62
7
  6
CONTINUOUS
 90
27
 70
0
 10
-13.1953745675
 20
80.1686783567
 10
-13.2410581767
 20
80.0943348362
 10
-13.2893733776
 20
80.0225693066
 10
-13.3403201702
 20
79.9533817677
 10
-13.3940257287
 20
79.8866271546
 10
-13.450362879
 20
79.8224505322
 10
-13.5089500988
 20
79.7612870955
 10
-13.5698027336
 20
79.7031573537
 10
-13.6329054379
 20
79.6480407974
 10
-13.697830653
 20
79.5963110935
 10
-13.7645907005
 20
79.5479913493
 10
-13.8331732588
 20
79.5030584575
 10
-13.9031138044
 20
79.4618167623
 10
-13.9744214601
 20
79.4242913761
 10
-14.0470871031
 20
79.3904571865
 10
-14.1206188417
 20
79.3605432009
 10
-14.1950225321
 20
79.3345760012
 10
-14.270292318
 20
79.3125290055
 10
-14.3459187385
 20
79.2945514749
 10
-14.4219042673
 20
79.2806709975
 10
-14.4982464308
 20
79.2708599851
 10
-14.5744283465
 20
79.2651849342
 10
-14.6504489547
 20
79.2636739193
 10
-14.7263093152
 20
79.2662988657
 10
-14.8014957249
 20
79.2730420467
 10
-14.8760035965
 20
79.2839314196
 10
-14.9003739231
 20
79.2888849733
  0
LWPOLYLINE
  5
28D
100
AcDbEntity
  8
ASSI
100
AcDbPolyline
 62
7
  6
CONTINUOUS
 90
27
 70
0
 10
-42.6953745675
 20
29.8090283117
 10
-42.7410581767
 20
29.7346847912
 10
-42.7893733776
 20
29.6629192616
 10
-42.8403201702
 20
29.5937317226
 10
-42.8940257287
 20
29.5269771096
 10
-42.950362879
 20
29.4628004872
 10
-43.0089500988
 20
29.4016370505
 10
-43.0698027336
 20
29.3435073086
 10
-43.1329054379
 20
29.2883907524
 10
-43.197830653
 20
29.2366610485
 10
-43.2645907005
 20
29.1883413043
 10
-43.3331732588
 20
29.1434084125
 10
-43.4031138044
 20
29.1021667173
 10
-43.4744214601
 20
29.0646413311
 10
-43.5470871031
 20
29.0308071415
 10
-43.6206188417
 20
29.0008931559
 10
-43.6950225321
 20
28.9749259562
 10
-43.770292318
 20
28.9528789605
 10
-43.8459187385
 20
28.9349014299
 10
-43.9219042673
 20
28.9210209525
 10
-43.9982464308
 20
28.9112099401
 10
-44.0744283465
 20
28.9055348892
 10
-44.1504489547
 20
28.9040238743
 10
-44.2263093152
 20
28.9066488207
 10
-44.3014957249
 20
28.9133920017
 10
-44.3760035965
 20
28.9242813746
 10
-44.4003739231
 20
28.9292349283
  0
LWPOLYLINE
  5
28E
100
AcDbEntity
  8
ASSI
100
AcDbPolyline
 62
7
  6
CONTINUOUS
 90
27
 70
0
 10
-12.5382677863
 20
79.6833230176
 10
-12.6121468482
 20
79.5633763209
 10
-12.6904448332
 20
79.4478269234
 10
-12.7731617414
 20
79.3366748251
 10
-12.8605248153
 20
79.2296659708
 10
-12.9523068123
 20
79.1270544157
 10
-13.0478260052
 20
79.0296023256
 10
-13.1471102216
 20
78.9373481186
 10
-13.2501316339
 20
78.8502533765
 10
-13.356125032
 20
78.7689650114
 10
-13.4651125456
 20
78.6935262582
 10
-13.577072045
 20
78.6238938818
 10
-13.6911719309
 20
78.5605850894
 10
-13.8074281408
 20
78.503646967
 10
-13.9258247371
 20
78.4530324286
 10
-14.0454823079
 20
78.4091174227
 10
-14.1664102424
 20
78.3719518348
 10
-14.2885991513
 20
78.3414857794
 10
-14.4111414546
 20
78.3179455487
 10
-14.5340397835
 20
78.3013827131
 10
-14.6572915068
 20
78.2917457021
 10
-14.7799811499
 20
78.2891060964
 10
-14.9021045277
 20
78.2935159994
 10
-15.0236658254
 20
78.3049233077
 10
-15.1437621246
 20
78.3232432914
 10
-15.2623825167
 20
78.3485274232
 10
-15.354553416
 20
78.3732089707
  0
LWPOLYLINE
  5
28F
100
AcDbEntity
  8
ASSI
100
AcDbPolyline
 62
7
  6
CONTINUOUS
 90
27
 70
0
 10
-42.0382677863
 20
29.3236729726
 10
-42.1121468482
 20
29.2037262759
 10
-42.1904448332
 20
29.0881768784
 10
-42.2731617414
 20
28.9770247801
 10
-42.3605248153
 20
28.8700159258
 10
-42.4523068123
 20
28.7674043707
 10
-42.5478260052
 20
28.6699522806
 10
-42.6471102216
 20
28.5776980735
 10
-42.7501316339
 20
28.4906033315
 10
-42.856125032
 20
28.4093149664
 10
-42.9651125456
 20
28.3338762132
 10
-43.077072045
 20
28.2642438368
 10
-43.1911719309
 20
28.2009350444
 10
-43.3074281408
 20
28.143996922
 10
-43.4258247371
 20
28.0933823836
 10
-43.5454823079
 20
28.0494673777
 10
-43.6664102424
 20
28.0123017898
 10
-43.7885991513
 20
27.9818357344
 10
-43.9111414546
 20
27.9582955037
 10
-44.0340397835
 20
27.9417326681
 10
-44.1572915068
 20
27.9320956571
 10
-44.2799811499
 20
27.9294560514
 10
-44.4021045277
 20
27.9338659544
 10
-44.5236658254
 20
27.9452732627
 10
-44.6437621246
 20
27.9635932464
 10
-44.7623825167
 20
27.9888773782
 10
-44.854553416
 20
28.0135589257
  0
LWPOLYLINE
  5
290
100
AcDbEntity
  8
ASSI
100
AcDbPolyline
 62
7
  6
CONTINUOUS
 90
23
 70
0
 10
-13.2989279581
 20
80.345455052
 10
-13.3355586132
 20
80.2860802532
 10
-13.374705981
 20
80.2287161663
 10
-13.4162630019
 20
80.1735201843
 10
-13.4601162179
 20
80.120643527
 10
-13.5061454374
 20
80.0702316141
 10
-13.5542239591
 20
80.0224235415
 10
-13.6042200774
 20
79.9773504855
 10
-13.6559968391
 20
79.9351361173
 10
-13.7094116188
 20
79.8958968275
 10
-13.7643179086
 20
79.8597402464
 10
-13.8205652866
 20
79.826765432
 10
-13.8779990252
 20
79.7970630499
 10
-13.9364616256
 20
79.7707144518
 10
-13.9957928417
 20
79.7477917611
 10
-14.0558295574
 20
79.7283578609
 10
-14.1164070922
 20
79.7124658719
 10
-14.1773594728
 20
79.7001591513
 10
-14.2385194222
 20
79.69147128
 10
-14.2997185439
 20
79.6864258992
 10
-14.3607898858
 20
79.6850364937
 10
-14.4215681732
 20
79.6873067999
 10
-14.4585832272
 20
79.6909421007
  0
LWPOLYLINE
  5
291
100
AcDbEntity
  8
ASSI
100
AcDbPolyline
 62
7
  6
CONTINUOUS
 90
23
 70
0
 10
-42.7989279581
 20
29.985805007
 10
-42.8355586132
 20
29.9264302082
 10
-42.874705981
 20
29.8690661213
 10
-42.9162630019
 20
29.8138701393
 10
-42.9601162179
 20
29.760993482
 10
-43.0061454374
 20
29.7105815691
 10
-43.0542239591
 20
29.6627734965
 10
-43.1042200774
 20
29.6177004405
 10
-43.1559968391
 20
29.5754860723
 10
-43.2094116188
 20
29.5362467825
 10
-43.2643179086
 20
29.5000902014
 10
-43.3205652866
 20
29.467115387
 10
-43.3779990252
 20
29.4374130049
 10
-43.4364616256
 20
29.4110644068
 10
-43.4957928417
 20
29.3881417161
 10
-43.5558295574
 20
29.3687078159
 10
-43.6164070922
 20
29.3528158269
 10
-43.6773594728
 20
29.3405091063
 10
-43.7385194222
 20
29.331821235
 10
-43.7997185439
 20
29.3267758542
 10
-43.8607898858
 20
29.3253864487
 10
-43.9215681732
 20
29.3276567549
 10
-43.9585832272
 20
29.3312920556
  0
LINE
  5
292
100
AcDbEntity
  8
0
100
AcDbLine
 62
7
  6
CONTINUOUS
 10
-47.2908914663
 20
29.7802432021
 11
-47.2560160419
 21
29.8319159318
  0
LINE
  5
293
100
AcDbEntity
  8
0
100
AcDbLine
 62
7
  6
CONTINUOUS
 10
-47.2560160419
 20
29.8319159318
 11
-47.2176404591
 21
29.8881182456
  0
LINE
  5
294
100
AcDbEntity
  8
0
100
AcDbLine
 62
7
  6
CONTINUOUS
 10
-47.2176404591
 20
29.8881182456
 11
-47.1755836865
 21
29.9490489437
  0
LINE
  5
295
100
AcDbEntity
  8
0
100
AcDbLine
 62
7
  6
CONTINUOUS
 10
-47.1755836865
 20
29.9490489437
 11
-47.1290825571
 21
30.0156065885
  0
LINE
  5
296
100
AcDbEntity
  8
0
100
AcDbLine
 62
7
  6
CONTINUOUS
 10
-47.1290825571
 20
30.0156065885
 11
-47.0783403308
 21
30.0872673694
  0
LINE
  5
297
100
AcDbEntity
  8
0
100
AcDbLine
 62
7
  6
CONTINUOUS
 10
-47.0783403308
 20
30.0872673694
 11
-47.0238706001
 21
30.1631895531
  0
LWPOLYLINE
  5
298
100
AcDbEntity
  8
0
100
AcDbPolyline
 62
7
  6
CONTINUOUS
 90
3
 70
0
 10
-47.0238706001
 20
30.1631895531
 10
-46.9674739657
 20
30.2406780618
 10
-46.9384393021
 20
30.2801813605
  0
LWPOLYLINE
  5
299
100
AcDbEntity
  8
0
100
AcDbPolyline
 62
7
  6
CONTINUOUS
 90
3
 70
0
 10
-43.8641319448
 20
33.2827924658
 10
-43.8673086597
 20
33.278505484
 10
-43.8737103915
 20
33.2733361768
  0
LWPOLYLINE
  5
29A
100
AcDbEntity
  8
0
100
AcDbPolyline
 62
7
  6
CONTINUOUS
 90
10
 70
0
 10
-46.9101304624
 20
32.2155247789
 10
-46.9405835158
 20
32.1762233055
 10
-46.9697949635
 20
32.1358705422
 10
-46.9977648056
 20
32.094466489
 10
-47.0245409001
 20
32.0519294489
 10
-47.0500753889
 20
32.0083411189
 10
-47.074224698
 20
31.9639465899
 10
-47.0969409695
 20
31.9188275587
 10
-47.1182720614
 20
31.8729023285
 10
-47.1382179736
 20
31.8261708992
  0
LWPOLYLINE
  5
29B
100
AcDbEntity
  8
0
100
AcDbPolyline
 62
7
  6
CONTINUOUS
 90
10
 70
0
 10
-45.1969137601
 20
30.4533940452
 10
-45.1664607071
 20
30.4926955183
 10
-45.1372492598
 20
30.5330482813
 10
-45.1092794181
 20
30.5744523342
 10
-45.082503324
 20
30.6169893738
 10
-45.0569688355
 20
30.6605777034
 10
-45.0328195267
 20
30.704972232
 10
-45.0101032554
 20
30.7500912628
 10
-44.9887721638
 20
30.7960164925
 10
-44.9688262518
 20
30.8427479213
  0
LWPOLYLINE
  5
29C
100
AcDbEntity
  8
0
100
AcDbPolyline
 62
7
  6
CONTINUOUS
 90
39
 70
0
 10
-43.8652959486
 20
29.4410908123
 10
-43.9194645925
 20
29.3757912766
 10
-43.9751596019
 20
29.3124356777
 10
-44.0323809769
 20
29.2510240157
 10
-44.0911891912
 20
29.1914985938
 10
-44.151523771
 20
29.1339171087
 10
-44.2132032951
 20
29.0784526509
 10
-44.2762318063
 20
29.0251115865
 10
-44.3406052619
 20
28.9738875494
 10
-44.4061301129
 20
28.9249345315
 10
-44.4728098208
 20
28.878259361
 10
-44.5406409242
 20
28.8338552098
 10
-44.6094194893
 20
28.791855585
 10
-44.6791483656
 20
28.7522677155
 10
-44.7498247037
 20
28.7150843725
 10
-44.8212360216
 20
28.6804173757
 10
-44.8933845311
 20
28.6482742901
 10
-44.9662680204
 20
28.6186475509
 10
-45.0396673726
 20
28.5916262831
 10
-45.1135841418
 20
28.5672183197
 10
-45.1880167739
 20
28.5454158277
 10
-45.2627414899
 20
28.5262844341
 10
-45.3377591721
 20
28.5098321691
 10
-45.4130689382
 20
28.4960510024
 10
-45.4884443621
 20
28.4849824697
 10
-45.5638856465
 20
28.4766347268
 10
-45.6393925886
 20
28.470999618
 10
-45.7147381544
 20
28.4680942117
 10
-45.7899218648
 20
28.4679267157
 10
-45.8649441988
 20
28.4704889223
 10
-45.9395795587
 20
28.4757732762
 10
-46.0138268931
 20
28.4837879973
 10
-46.0876872535
 20
28.4945248657
 10
-46.1609381965
 20
28.5079516662
 10
-46.2335774797
 20
28.524076355
 10
-46.3056073456
 20
28.5428909759
 10
-46.3768120786
 20
28.5643394448
 10
-46.4471197734
 20
28.588403067
 10
-46.5166023352
 20
28.6151005372
  0
LINE
  5
29D
100
AcDbEntity
  8
0
100
AcDbLine
 62
7
  6
CONTINUOUS
 10
-46.2541619419
 20
32.7066897494
 11
-46.1823491688
 21
32.7770019902
  0
LINE
  5
29E
100
AcDbEntity
  8
0
100
AcDbLine
 62
7
  6
CONTINUOUS
 10
-46.1823491688
 20
32.7770019902
 11
-46.1105990194
 21
32.8461629692
  0
LINE
  5
29F
100
AcDbEntity
  8
0
100
AcDbLine
 62
7
  6
CONTINUOUS
 10
-46.1105990194
 20
32.8461629692
 11
-46.0395299421
 21
32.913617321
  0
LINE
  5
2A0
100
AcDbEntity
  8
0
100
AcDbLine
 62
7
  6
CONTINUOUS
 10
-46.0395299421
 20
32.913617321
 11
-45.9714327857
 21
32.9772762871
  0
LINE
  5
2A1
100
AcDbEntity
  8
0
100
AcDbLine
 62
7
  6
CONTINUOUS
 10
-45.9714327857
 20
32.9772762871
 11
-45.9069733218
 21
33.0367124134
  0
LINE
  5
2A2
100
AcDbEntity
  8
0
100
AcDbLine
 62
7
  6
CONTINUOUS
 10
-45.9069733218
 20
33.0367124134
 11
-45.8464847563
 21
33.0917311029
  0
LINE
  5
2A3
100
AcDbEntity
  8
TRASH
100
AcDbLine
 62
7
  6
CONTINUOUS
 10
-45.8065635866
 20
31.9340739005
 11
-45.7970955159
 21
31.9425668111
  0
LWPOLYLINE
  5
2A4
100
AcDbEntity
  8
0
100
AcDbPolyline
 62
7
  6
CONTINUOUS
 90
3
 70
0
 10
-45.8464847563
 20
33.0917311029
 10
-45.7901107731
 20
33.1424165308
 10
-45.7634520526
 20
33.1661331577
  0
LINE
  5
2A5
100
AcDbEntity
  8
0
100
AcDbLine
 62
7
  6
CONTINUOUS
 10
-46.8333063364
 20
30.3561993752
 11
-46.8988476953
 21
30.306944509
  0
LINE
  5
2A6
100
AcDbEntity
  8
0
100
AcDbLine
 62
7
  6
CONTINUOUS
 10
-46.8988476953
 20
30.306944509
 11
-46.9224526371
 21
30.2893323499
  0
LINE
  5
2A7
100
AcDbEntity
  8
0
100
AcDbLine
 62
7
  6
CONTINUOUS
 10
-46.5872813554
 20
30.5383671059
 11
-46.8333063364
 21
30.3561993752
  0
LINE
  5
2A8
100
AcDbEntity
  8
0
100
AcDbLine
 62
7
  6
CONTINUOUS
 10
-46.4866358942
 20
30.6125359921
 11
-46.5872813554
 21
30.5383671059
  0
LINE
  5
2A9
100
AcDbEntity
  8
0
100
AcDbLine
 62
7
  6
CONTINUOUS
 10
-46.1485224303
 20
32.1258988477
 11
-46.1720397162
 21
32.1090352098
  0
LINE
  5
2AA
100
AcDbEntity
  8
0
100
AcDbLine
 62
7
  6
CONTINUOUS
 10
-45.9585217951
 20
30.5430199727
 11
-45.9350045092
 21
30.5598836107
  0
LINE
  5
2AB
100
AcDbEntity
  8
0
100
AcDbLine
 62
7
  6
CONTINUOUS
 10
-46.7585655382
 20
32.3897413562
 11
-46.7227901268
 21
32.4139899174
  0
LINE
  5
2AC
100
AcDbEntity
  8
0
100
AcDbLine
 62
7
  6
CONTINUOUS
 10
-46.7227901268
 20
32.4139899174
 11
-46.6868994876
 21
32.4380058402
  0
LINE
  5
2AD
100
AcDbEntity
  8
0
100
AcDbLine
 62
7
  6
CONTINUOUS
 10
-46.6868994876
 20
32.4380058402
 11
-46.6508755885
 21
32.4618469595
  0
LINE
  5
2AE
100
AcDbEntity
  8
0
100
AcDbLine
 62
7
  6
CONTINUOUS
 10
-46.6508755885
 20
32.4618469595
 11
-46.6148584488
 21
32.4854194677
  0
LINE
  5
2AF
100
AcDbEntity
  8
0
100
AcDbLine
 62
7
  6
CONTINUOUS
 10
-46.6148584488
 20
32.4854194677
 11
-46.5786727643
 21
32.5088356441
  0
LINE
  5
2B0
100
AcDbEntity
  8
0
100
AcDbLine
 62
7
  6
CONTINUOUS
 10
-46.5786727643
 20
32.5088356441
 11
-46.5420294513
 21
32.5323264366
  0
LINE
  5
2B1
100
AcDbEntity
  8
0
100
AcDbLine
 62
7
  6
CONTINUOUS
 10
-46.5420294513
 20
32.5323264366
 11
-46.4844549169
 21
32.5687364776
  0
LINE
  5
2B2
100
AcDbEntity
  8
0
100
AcDbLine
 62
7
  6
CONTINUOUS
 10
-46.4844549169
 20
32.5687364776
 11
-46.4218657239
 21
32.6076913171
  0
LWPOLYLINE
  5
2B3
100
AcDbEntity
  8
0
100
AcDbPolyline
 62
7
  6
CONTINUOUS
 90
5
 70
0
 10
-46.4218657239
 20
32.6076913171
 10
-46.3520392144
 20
32.6504278673
 10
-46.3266826556
 20
32.6658611253
 10
-46.3001917099
 20
32.6818122946
 10
-46.2725107877
 20
32.6982306266
  0
LINE
  5
2B4
100
AcDbEntity
  8
0
100
AcDbLine
 62
7
  6
CONTINUOUS
 10
-46.9384393021
 20
30.2801813605
 11
-46.9224526371
 21
30.2893323499
  0
LINE
  5
2B5
100
AcDbEntity
  8
0
100
AcDbLine
 62
7
  6
CONTINUOUS
 10
-46.2725107877
 20
32.6982306266
 11
-46.2541619419
 21
32.7066897494
  0
LINE
  5
2B6
100
AcDbEntity
  8
ASSI
100
AcDbLine
 62
250
  6
CONTINUOUS
 10
11.280737278
 20
-62.0896308183
 11
16.280737278
 21
-63.5540969124
  0
LINE
  5
2B7
100
AcDbEntity
  8
ASSI
100
AcDbLine
 62
250
  6
CONTINUOUS
 10
10.5736304969
 20
-61.5896308183
 11
10.5236304969
 21
-61.5749861574
  0
LWPOLYLINE
  5
2B8
100
AcDbEntity
  8
ASSI
100
AcDbPolyline
 62
7
  6
CONTINUOUS
 90
8
 70
0
 10
5.4537820159
 20
-63.0599103979
 10
5.5857636727
 20
-63.1483338129
 10
5.7209666076
 20
-63.2294789729
 10
5.8593908207
 20
-63.3033458777
 10
6.0013117242
 20
-63.3700472848
 10
6.1464539058
 20
-63.4294704368
 10
6.2939911286
 20
-63.4812770613
 10
6.3733476287
 20
-63.5056901469
  0
LWPOLYLINE
  5
2B9
100
AcDbEntity
  8
ASSI
100
AcDbPolyline
 62
7
  6
CONTINUOUS
 90
9
 70
0
 10
5.0037820159
 20
-63.9281084494
 10
5.143426035
 20
-64.0224111809
 10
5.2861049096
 20
-64.1101443216
 10
5.4318186397
 20
-64.1913078715
 10
5.5807793104
 20
-64.2659968802
 10
5.7327748365
 20
-64.3341162982
 10
5.8871689633
 20
-64.3953809767
 10
6.0439717452
 20
-64.4497621818
 10
6.1421222466
 20
-64.4799765697
  0
LINE
  5
2BA
100
AcDbEntity
  8
ASSI
100
AcDbLine
 62
7
  6
CONTINUOUS
 10
5.0037820159
 20
-63.9281084494
 11
2.5578289491
 21
-62.1985584494
  0
LINE
  5
2BB
100
AcDbEntity
  8
ASSI
100
AcDbLine
 62
7
  6
CONTINUOUS
 10
-83.7091983557
 20
-1.1985584494
 11
-86.1551514225
 21
0.5309915506
  0
LINE
  5
2BC
100
AcDbEntity
  8
ASSI
100
AcDbLine
 62
7
  6
CONTINUOUS
 10
-85.7051514225
 20
1.3991896021
 11
5.4537820159
 21
-63.0599103979
  0
LWPOLYLINE
  5
2BD
100
AcDbEntity
  8
ASSI
100
AcDbPolyline
 62
7
  6
CONTINUOUS
 90
40
 70
0
 10
-83.7091983557
 20
-1.1985584494
 10
-83.6107157184
 20
-1.2716687767
 10
-83.5155311871
 20
-1.3492424329
 10
-83.423644762
 20
-1.4312794182
 10
-83.3349182516
 20
-1.5179271162
 10
-83.2494898472
 20
-1.6090381433
 10
-83.1677741235
 20
-1.7041703478
 10
-83.0897891267
 20
-1.8033432756
 10
-83.0155168105
 20
-1.9065373808
 10
-82.94531761
 20
-2.0132518741
 10
-82.8792113238
 20
-2.123503867
 10
-82.8171781533
 20
-2.237276248
 10
-82.7595191386
 20
-2.3540168923
 10
-82.7062555414
 20
-2.4737402281
 10
-82.6573661
 20
-2.5964318272
 10
-82.6130880694
 20
-2.7214962813
 10
-82.5734438644
 20
-2.848945124
 10
-82.5384110702
 20
-2.9787668216
 10
-82.508159697
 20
-3.1103313639
 10
-82.482712986
 20
-3.2436472225
 10
-82.462047696
 20
-3.3787059258
 10
-82.4462641134
 20
-3.5148520491
 10
-82.4353859668
 20
-3.6520908782
 10
-82.4293895275
 20
-3.7904171272
 10
-82.4283038956
 20
-3.9291595145
 10
-82.4321529412
 20
-4.0683200628
 10
-82.4409127942
 20
-4.2078967494
 10
-82.454540944
 20
-4.3472122242
 10
-82.4730610541
 20
-4.4862652176
 10
-82.496449461
 20
-4.6250569993
 10
-82.5245926633
 20
-4.7629140284
 10
-82.557513773
 20
-4.8998317611
 10
-82.5951896782
 20
-5.0358147413
 10
-82.6374375418
 20
-5.1702030586
 10
-82.6842795872
 20
-5.3029889619
 10
-82.7356935911
 20
-5.4341802024
 10
-82.7914300471
 20
-5.5631401237
 10
-82.8514057864
 20
-5.6896565071
 10
-82.9157039779
 20
-5.8139415714
 10
-82.9843246215
 20
-5.9359953165
  0
LWPOLYLINE
  5
2BE
100
AcDbEntity
  8
0
100
AcDbPolyline
 62
7
  6
CONTINUOUS
 90
11
 70
0
 10
-43.2626052067
 20
30.6722111079
 10
-43.2622859785
 20
30.6673417959
 10
-43.2616079464
 20
30.5957129119
 10
-43.2649167013
 20
30.5248746503
 10
-43.2721315487
 20
30.4551440994
 10
-43.2831530745
 20
30.3868347899
 10
-43.2978634018
 20
30.3202540883
 10
-43.3161271736
 20
30.2556997594
 10
-43.3377922075
 20
30.1934596167
 10
-43.3626897246
 20
30.1338114706
 10
-43.3726048478
 20
30.1136620859
  0
LINE
  5
2BF
100
AcDbEntity
  8
0
100
AcDbLine
 62
7
  6
CONTINUOUS
 10
-47.4596627772
 20
30.6485000022
 11
-47.46067268
 21
30.6699115004
  0
LINE
  5
2C0
100
AcDbEntity
  8
0
100
AcDbLine
 62
7
  6
CONTINUOUS
 10
-45.734290758
 20
32.31765148
 11
-45.7329101208
 21
32.3383628079
  0
LINE
  5
2C1
100
AcDbEntity
  8
0
100
AcDbLine
 62
7
  6
CONTINUOUS
 10
-17.9821583115
 20
80.9243569702
 11
-17.9596627772
 21
81.0081500472
  0
LWPOLYLINE
  5
2C2
100
AcDbEntity
  8
0
100
AcDbPolyline
 62
250
  6
CONTINUOUS
 90
49
 70
0
 10
-18.9301574086
 20
82.4961965691
 10
-18.9702465733
 20
82.3648762094
 10
-19.004088555
 20
82.2318393794
 10
-19.0315799454
 20
82.0974925886
 10
-19.0526367413
 20
81.9622463483
 10
-19.0671946009
 20
81.8265139201
 10
-19.0752090406
 20
81.6907100528
 10
-19.0766555717
 20
81.5552497138
 10
-19.0715297746
 20
81.420546815
 10
-19.0598473113
 20
81.2870129504
 10
-19.0416438766
 20
81.1550561392
 10
-19.0169750931
 20
81.0250796006
 10
-18.9859163441
 20
80.8974805142
 10
-18.948562545
 20
80.7726488011
 10
-18.9050278305
 20
80.6509658684
 10
-18.8554452011
 20
80.5328034705
 10
-18.7999661272
 20
80.418522617
 10
-18.7387601474
 20
80.308472569
 10
-18.6720143413
 20
80.2029896979
 10
-18.5999327077
 20
80.102396365
 10
-18.5227354739
 20
80.0069998782
 10
-18.4406584722
 20
79.9170916615
 10
-18.3539524733
 20
79.8329464225
 10
-18.2628824346
 20
79.7548213031
 10
-18.1677266318
 20
79.6829550291
 10
-18.068775805
 20
79.6175671885
 10
-17.9663323249
 20
79.5588575978
 10
-17.8607092781
 20
79.5070056813
 10
-17.7522294699
 20
79.4621698922
 10
-17.6412243206
 20
79.4244871934
 10
-17.528032904
 20
79.3940726923
 10
-17.4130010021
 20
79.3710193237
 10
-17.2964801865
 20
79.3553975683
 10
-17.178826632
 20
79.3472551794
 10
-17.0603999234
 20
79.3466170236
 10
-16.9415618505
 20
79.3534850316
 10
-16.8226754352
 20
79.3678382217
 10
-16.7041038926
 20
79.3896327559
 10
-16.586209589
 20
79.4188020413
 10
-16.4693528311
 20
79.4552569326
 10
-16.3538907147
 20
79.498886022
 10
-16.2401760194
 20
79.5495559987
 10
-16.1285561969
 20
79.6071120389
 10
-16.0193723135
 20
79.6713782723
 10
-15.9129579931
 20
79.7421583243
 10
-15.8096383835
 20
79.8192359269
 10
-15.709729186
 20
79.9023755652
 10
-15.6135356896
 20
79.9913231943
 10
-15.5213518253
 20
80.0858070253
  0
LWPOLYLINE
  5
2C3
100
AcDbEntity
  8
0
100
AcDbPolyline
 62
7
  6
CONTINUOUS
 90
28
 70
0
 10
-18.9613530028
 20
82.5354203284
 10
-19.003023808
 20
82.4031366323
 10
-19.040151267
 20
82.2625716428
 10
-19.0704532245
 20
82.1205046885
 10
-19.0938432844
 20
81.9773210529
 10
-19.1102383217
 20
81.8334892422
 10
-19.1195783697
 20
81.6895609001
 10
-19.12184534
 20
81.5460165394
 10
-19.1170440574
 20
81.4032349771
 10
-19.105190634
 20
81.261613389
 10
-19.0863096743
 20
81.1215177577
 10
-19.06045727
 20
80.9834258994
 10
-19.0277420336
 20
80.8478900767
 10
-18.9882919737
 20
80.7153613584
 10
-18.9422248458
 20
80.5861763002
 10
-18.8896795484
 20
80.4606968897
 10
-18.8308032076
 20
80.3392657886
 10
-18.7657881815
 20
80.2222752318
 10
-18.6948766109
 20
80.110139866
 10
-18.6183080738
 20
80.0032047881
 10
-18.5363138943
 20
79.9017630048
 10
-18.4491632298
 20
79.8061212242
 10
-18.3571594998
 20
79.7165812558
 10
-18.2605720507
 20
79.6333754313
 10
-18.1596370939
 20
79.5566931195
 10
-18.054644699
 20
79.4867536244
 10
-17.945945359
 20
79.4237880482
 10
-17.8745486145
 20
79.3872191959
  0
LWPOLYLINE
  5
2C4
100
AcDbEntity
  8
0
100
AcDbPolyline
 62
250
  6
CONTINUOUS
 90
28
 70
0
 10
-14.7432490872
 20
81.0192491335
 10
-14.7038074907
 20
81.142752688
 10
-14.66963212
 20
81.2678198675
 10
-14.6408068871
 20
81.3941424604
 10
-14.6174026864
 20
81.5214081373
 10
-14.5994766197
 20
81.649304369
 10
-14.5870723105
 20
81.7775192385
 10
-14.580220333
 20
81.9057398572
 10
-14.5789380303
 20
82.033647371
 10
-14.5832283571
 20
82.1609209875
 10
-14.5930796697
 20
82.2872428709
 10
-14.608467124
 20
82.4123064568
 10
-14.6293536127
 20
82.5358112513
 10
-14.6556893831
 20
82.6574584606
 10
-14.6874090895
 20
82.7769426015
 10
-14.7244318877
 20
82.8939602506
 10
-14.7666640792
 20
83.0082194798
 10
-14.8140020604
 20
83.1194436922
 10
-14.8663302047
 20
83.2273629636
 10
-14.92354329
 20
83.3317530095
 10
-14.9854799525
 20
83.4323127471
 10
-15.0519065679
 20
83.5286838768
 10
-15.1225852318
 20
83.6205724601
 10
-15.1973789106
 20
83.7078483046
 10
-15.2761898418
 20
83.7904138043
 10
-15.358860678
 20
83.8680977211
 10
-15.4451580418
 20
83.940674656
 10
-15.5348712826
 20
84.0079666375
  0
LWPOLYLINE
  5
2C5
100
AcDbEntity
  8
TRASH
100
AcDbPolyline
 62
7
  6
CONTINUOUS
 90
12
 70
0
 10
-16.9624955838
 20
80.9813687589
 10
-16.9461355915
 20
81.026241341
 10
-16.930611901
 20
81.0694830116
 10
-16.9160196554
 20
81.1111259314
 10
-16.9024215672
 20
81.1513279376
 10
-16.8895210274
 20
81.190337011
 10
-16.8773397099
 20
81.2282449907
 10
-16.8659689005
 20
81.2651642042
 10
-16.8551813295
 20
81.3013304327
 10
-16.844912416
 20
81.3368825076
 10
-16.8352752462
 20
81.3718950214
 10
-16.8262839254
 20
81.4064944707
  0
LWPOLYLINE
  5
2C6
100
AcDbEntity
  8
0
100
AcDbPolyline
 62
7
  6
CONTINUOUS
 90
9
 70
0
 10
-18.6877749057
 20
82.4789900092
 10
-18.6408034866
 20
82.6053299309
 10
-18.5887639188
 20
82.7287830504
 10
-18.5316562022
 20
82.8493493675
 10
-18.4692878876
 20
82.9673574137
 10
-18.4018514243
 20
83.0824786575
 10
-18.3299241597
 20
83.1937275052
 10
-18.253698543
 20
83.3007754256
 10
-18.1803356412
 20
83.3945513393
  0
LWPOLYLINE
  5
2C7
100
AcDbEntity
  8
0
100
AcDbPolyline
 62
7
  6
CONTINUOUS
 90
10
 70
0
 10
-14.4192693198
 20
80.9092289013
 10
-14.4662407388
 20
80.7828889796
 10
-14.5182803067
 20
80.6594358601
 10
-14.5753880233
 20
80.5388695429
 10
-14.6377563378
 20
80.4208614968
 10
-14.7051928011
 20
80.305740253
 10
-14.7771200657
 20
80.1944914053
 10
-14.8533456825
 20
80.0874434849
 10
-14.9340621005
 20
79.9842679607
 10
-15.0192693198
 20
79.8849648326
  0
LINE
  5
2C8
100
AcDbEntity
  8
TRASH
100
AcDbLine
 62
7
  6
CONTINUOUS
 10
-16.9665611348
 20
80.9705060926
 11
-16.9624955838
 21
80.9813687589
  0
LWPOLYLINE
  5
2C9
100
AcDbEntity
  8
TRASH
100
AcDbPolyline
 62
7
  6
CONTINUOUS
 90
10
 70
0
 10
-17.2213799803
 20
81.9795507828
 10
-17.2021571911
 20
82.0292550112
 10
-17.1809923551
 20
82.0780950497
 10
-17.1579293896
 20
82.1259640707
 10
-17.1330190863
 20
82.1727497794
 10
-17.1063115615
 20
82.2183571073
 10
-17.0778533132
 20
82.2627070667
 10
-17.0476985007
 20
82.3057073901
 10
-17.0159116788
 20
82.3472541332
 10
-16.9825582439
 20
82.3872533992
  0
LWPOLYLINE
  5
2CA
100
AcDbEntity
  8
0
100
AcDbPolyline
 62
7
  6
CONTINUOUS
 90
10
 70
0
 10
-13.9070383791
 20
80.5830354617
 10
-13.9468988373
 20
80.4890952171
 10
-13.9896754124
 20
80.3966184792
 10
-14.0353090418
 20
80.3057333066
 10
-14.0837372362
 20
80.2165646213
 10
-14.134892627
 20
80.1292369068
 10
-14.1887027696
 20
80.0438738335
 10
-14.2450924437
 20
79.9605943331
 10
-14.3039840442
 20
79.879512639
 10
-14.3652959486
 20
79.8007408573
  0
LWPOLYLINE
  5
2CB
100
AcDbEntity
  8
ASSI
100
AcDbPolyline
 62
7
  6
CONTINUOUS
 90
18
 70
0
 10
-94.1485611827
 20
-18.7882925681
 10
-94.2418680912
 20
-18.8696215121
 10
-94.3299572993
 20
-18.9533483536
 10
-94.4128288068
 20
-19.0394730926
 10
-94.4906114028
 20
-19.1281573827
 10
-94.5631762983
 20
-19.2192395703
 10
-94.6301371266
 20
-19.3122346947
 10
-94.6914639963
 20
-19.4071529594
 10
-94.7471867987
 20
-19.5039841608
 10
-94.7970088419
 20
-19.6022127281
 10
-94.8408986517
 20
-19.7018461147
 10
-94.8788877022
 20
-19.8028768672
 10
-94.9107737234
 20
-19.9047670544
 10
-94.9365241623
 20
-20.0075212605
 10
-94.9561715719
 20
-20.1111349014
 10
-94.9696113409
 20
-20.2150562935
 10
-94.9768103584
 20
-20.3192870783
 10
-94.9781820535
 20
-20.388126162
  0
LINE
  5
2CC
100
AcDbEntity
  8
ASSI
100
AcDbLine
 62
7
  6
CONTINUOUS
 10
-87.035693733
 20
-12.8521149998
 11
-94.1485611827
 21
-18.7882925681
  0
LINE
  5
2CD
100
AcDbEntity
  8
0
100
AcDbLine
 62
7
  6
CONTINUOUS
 10
-47.6134322493
 20
30.0083421103
 11
-46.9561706474
 21
30.2560568643
  0
LINE
  5
2CE
100
AcDbEntity
  8
ASSI
100
AcDbLine
 62
7
  6
CONTINUOUS
 10
17.9640272088
 20
-66.3482608206
 11
15.4940895751
 21
-64.6017511707
  0
LINE
  5
2CF
100
AcDbEntity
  8
0
100
AcDbLine
 62
7
  6
CONTINUOUS
 10
-17.2442932309
 20
81.4917872193
 11
-17.2485221688
 21
81.4612846391
  0
LINE
  5
2D0
100
AcDbEntity
  8
0
100
AcDbLine
 62
7
  6
CONTINUOUS
 10
-16.3147199399
 20
82.191199404
 11
-16.3301400334
 21
82.0928952085
  0
LINE
  5
2D1
100
AcDbEntity
  8
0
100
AcDbLine
 62
7
  6
CONTINUOUS
 10
-16.2730905648
 20
82.4496892474
 11
-16.3147199399
 21
82.191199404
  0
LINE
  5
2D2
100
AcDbEntity
  8
0
100
AcDbLine
 62
7
  6
CONTINUOUS
 10
-16.248704442
 20
82.5943979949
 11
-16.2730905648
 21
82.4496892474
  0
LINE
  5
2D3
100
AcDbEntity
  8
0
100
AcDbLine
 62
7
  6
CONTINUOUS
 10
-16.234290758
 20
82.677301525
 11
-16.248704442
 21
82.5943979949
  0
LINE
  5
2D4
100
AcDbEntity
  8
0
100
AcDbLine
 62
7
  6
CONTINUOUS
 10
-18.1134322493
 20
80.3679921553
 11
-18.0954692677
 21
80.4527161724
  0
LINE
  5
2D5
100
AcDbEntity
  8
0
100
AcDbLine
 62
7
  6
CONTINUOUS
 10
-18.0954692677
 20
80.4527161724
 11
-18.0766828883
 21
80.5378432484
  0
LINE
  5
2D6
100
AcDbEntity
  8
0
100
AcDbLine
 62
7
  6
CONTINUOUS
 10
-18.0766828883
 20
80.5378432484
 11
-18.0570628048
 21
80.6233996151
  0
LINE
  5
2D7
100
AcDbEntity
  8
0
100
AcDbLine
 62
7
  6
CONTINUOUS
 10
-18.0570628048
 20
80.6233996151
 11
-18.0365473111
 21
80.7095843741
  0
LINE
  5
2D8
100
AcDbEntity
  8
0
100
AcDbLine
 62
7
  6
CONTINUOUS
 10
-18.0365473111
 20
80.7095843741
 11
-18.0152401444
 21
80.7959249575
  0
LWPOLYLINE
  5
2D9
100
AcDbEntity
  8
0
100
AcDbPolyline
 62
7
  6
CONTINUOUS
 90
3
 70
0
 10
-18.0152401444
 20
80.7959249575
 10
-17.9932619703
 20
80.8819553309
 10
-17.9821583115
 20
80.9243569702
  0
LWPOLYLINE
  5
2DA
100
AcDbEntity
  8
0
100
AcDbPolyline
 62
250
  6
CONTINUOUS
 90
49
 70
0
 10
-14.9213518253
 20
81.110071094
 10
-14.8812626606
 20
81.2413914537
 10
-14.8474206789
 20
81.3744282837
 10
-14.8199292885
 20
81.5087750745
 10
-14.7988724926
 20
81.6440213148
 10
-14.7843146331
 20
81.779753743
 10
-14.7763001933
 20
81.9155576103
 10
-14.7748536622
 20
82.0510179493
 10
-14.7799794593
 20
82.1857208481
 10
-14.7916619226
 20
82.3192547127
 10
-14.8098653574
 20
82.4512115239
 10
-14.8345341408
 20
82.5811880626
 10
-14.8655928898
 20
82.7087871489
 10
-14.9029466889
 20
82.833618862
 10
-14.9464814034
 20
82.9553017947
 10
-14.9960640328
 20
83.0734641926
 10
-15.0515431067
 20
83.1877450462
 10
-15.1127490865
 20
83.2977950941
 10
-15.1794948927
 20
83.4032779652
 10
-15.2515765262
 20
83.5038712981
 10
-15.32877376
 20
83.5992677849
 10
-15.4108507617
 20
83.6891760016
 10
-15.4975567606
 20
83.7733212406
 10
-15.5886267994
 20
83.85144636
 10
-15.6837826022
 20
83.923312634
 10
-15.7827334289
 20
83.9887004746
 10
-15.885176909
 20
84.0474100654
 10
-15.9907999558
 20
84.0992619818
 10
-16.099279764
 20
84.1440977709
 10
-16.2102849133
 20
84.1817804697
 10
-16.3234763299
 20
84.2121949708
 10
-16.4385082318
 20
84.2352483394
 10
-16.5550290474
 20
84.2508700948
 10
-16.6726826019
 20
84.2590124837
 10
-16.7911093105
 20
84.2596506396
 10
-16.9099473834
 20
84.2527826315
 10
-17.0288337987
 20
84.2384294414
 10
-17.1474053413
 20
84.2166349072
 10
-17.2652996449
 20
84.1874656218
 10
-17.3821564028
 20
84.1510107305
 10
-17.4976185192
 20
84.1073816412
 10
-17.6113332146
 20
84.0567116644
 10
-17.722953037
 20
83.9991556242
 10
-17.8321369204
 20
83.9348893908
 10
-17.9385512408
 20
83.8641093388
 10
-18.0418708504
 20
83.7870317362
 10
-18.1417800479
 20
83.7038920979
 10
-18.2379735443
 20
83.6149444688
 10
-18.3301574086
 20
83.5204606378
  0
LWPOLYLINE
  5
2DB
100
AcDbEntity
  8
ASSI
100
AcDbPolyline
 62
7
  6
CONTINUOUS
 90
43
 70
0
 10
-15.986386489
 20
44.4201349006
 10
-16.1140576779
 20
44.1937329481
 10
-16.2343085756
 20
43.9634059905
 10
-16.3471391822
 20
43.7291540278
 10
-16.4526864177
 20
43.4906387743
 10
-16.550813362
 20
43.2481985157
 10
-16.6411092546
 20
43.0028481097
 10
-16.7235412689
 20
42.7545753573
 10
-16.7981422316
 20
42.5033924574
 10
-16.8645998621
 20
42.2503508645
 10
-16.9228800248
 20
41.9954427871
 10
-16.9730168554
 20
41.7386760167
 10
-17.0148004805
 20
41.4811253818
 10
-17.0481958847
 20
41.2227875964
 10
-17.0732380835
 20
40.9636659466
 10
-17.08982225
 20
40.7048451182
 10
-17.0979129291
 20
40.4463263725
 10
-17.097545576
 20
40.1881084482
 10
-17.0887217282
 20
39.9312722486
 10
-17.0714059373
 20
39.6758235657
 10
-17.0456336518
 20
39.4217566073
 10
-17.0115127548
 20
39.1701349006
 10
-16.9690082501
 20
38.9209686958
 10
-16.9181551337
 20
38.6742477428
 10
-16.8591662776
 20
38.431004818
 10
-16.7920075777
 20
38.191254501
 10
-16.716713138
 20
37.9549822123
 10
-16.6335981418
 20
37.7231769904
 10
-16.5426298064
 20
37.4958575605
 10
-16.4438409145
 20
37.2730051974
 10
-16.3376449976
 20
37.0555527634
 10
-16.2240110063
 20
36.8435228944
 10
-16.1029699899
 20
36.6368929546
 10
-15.9750286275
 20
36.4365278991
 10
-15.8401579937
 20
36.2424539896
 10
-15.6983870139
 20
36.0546449644
 10
-15.5503091428
 20
35.8738869943
 10
-15.395897943
 20
35.7002096362
 10
-15.2351798519
 20
35.5335833332
 10
-15.0688276374
 20
35.3747055848
 10
-14.8970655553
 20
35.2238088908
 10
-14.7196693497
 20
35.0806607513
 10
-14.5366390207
 20
34.9452611665
  0
LWPOLYLINE
  5
2DC
100
AcDbEntity
  8
ASSI
100
AcDbPolyline
 62
7
  6
CONTINUOUS
 90
43
 70
0
 10
-9.5721729266
 20
41.9556688066
 10
-9.663366633
 20
41.7939531262
 10
-9.7492601314
 20
41.6294338707
 10
-9.8298534218
 20
41.4621110403
 10
-9.9052443043
 20
41.291743002
 10
-9.9753349788
 20
41.1185713888
 10
-10.0398320449
 20
40.9433210987
 10
-10.0987120551
 20
40.7659834184
 10
-10.151998457
 20
40.5865670614
 10
-10.1994681931
 20
40.4058230665
 10
-10.2410968808
 20
40.2237458684
 10
-10.2769089026
 20
40.0403410323
 10
-10.3067543491
 20
39.8563762931
 10
-10.3306082093
 20
39.6718493036
 10
-10.3484954941
 20
39.4867624108
 10
-10.3603413273
 20
39.3018903906
 10
-10.3661203839
 20
39.1172341436
 10
-10.3658579887
 20
38.9327927691
 10
-10.3595552403
 20
38.7493383409
 10
-10.3471868183
 20
38.5668749959
 10
-10.3287780429
 20
38.385398597
 10
-10.3044059736
 20
38.2056688066
 10
-10.2740456131
 20
38.027692946
 10
-10.2377219586
 20
37.8514636938
 10
-10.1955870613
 20
37.6777187475
 10
-10.1476165614
 20
37.5064685211
 10
-10.0938348187
 20
37.3377026006
 10
-10.0344669643
 20
37.1721274421
 10
-9.9694895819
 20
37.0097564208
 10
-9.8989260877
 20
36.8505761614
 10
-9.8230718613
 20
36.6952529943
 10
-9.7419047247
 20
36.5438030878
 10
-9.6554468559
 20
36.3962102737
 10
-9.5640601684
 20
36.2530923769
 10
-9.4677240014
 20
36.1144681558
 10
-9.3664590158
 20
35.9803188521
 10
-9.2606891079
 20
35.8512060163
 10
-9.1503953937
 20
35.7271507606
 10
-9.0355967573
 20
35.6081319727
 10
-8.9167737469
 20
35.4946478667
 10
-8.7940865454
 20
35.3868645138
 10
-8.66737497
 20
35.2846158428
 10
-8.5366390207
 20
35.1879018536
  0
LINE
  5
2DD
100
AcDbEntity
  8
ASSI
100
AcDbLine
 62
7
  6
CONTINUOUS
 10
-16.036386489
 20
44.4347795616
 11
-4.498886489
 21
64.1305240495
  0
LINE
  5
2DE
100
AcDbEntity
  8
ASSI
100
AcDbLine
 62
7
  6
CONTINUOUS
 10
-15.986386489
 20
44.4201349006
 11
-4.448886489
 21
64.1158793886
  0
LINE
  5
2DF
100
AcDbEntity
  8
ASSI
100
AcDbLine
 62
7
  6
CONTINUOUS
 10
-15.2792797078
 20
43.9201349006
 11
-3.7417797078
 21
63.6158793886
  0
LINE
  5
2E0
100
AcDbEntity
  8
ASSI
100
AcDbLine
 62
7
  6
CONTINUOUS
 10
-14.0721729266
 20
43.2736882912
 11
-2.5346729266
 21
62.9694327792
  0
LINE
  5
2E1
100
AcDbEntity
  8
ASSI
100
AcDbLine
 62
7
  6
CONTINUOUS
 10
1.9653270734
 20
61.6514132945
 11
-9.5721729266
 21
41.9556688066
  0
LWPOLYLINE
  5
2E2
100
AcDbEntity
  8
ASSI
100
AcDbPolyline
 62
7
  6
CONTINUOUS
 90
43
 70
0
 10
-3.7417797078
 20
63.6158793886
 10
-3.6263472116
 20
63.8056897287
 10
-3.5054925491
 20
63.9905343784
 10
-3.3792157203
 20
64.1704133375
 10
-3.2473250467
 20
64.3455643026
 10
-3.1100122069
 20
64.5157495772
 10
-2.9678522366
 20
64.680256072
 10
-2.8208248021
 20
64.8390598836
 10
-2.6689502372
 20
64.9921849154
 10
-2.512864579
 20
65.1389897888
 10
-2.3525501737
 20
65.2794479355
 10
-2.1880246751
 20
65.4135859238
 10
-2.0199770815
 20
65.5408420802
 10
-1.8483927888
 20
65.6611874336
 10
-1.6732864011
 20
65.7746509551
 10
-1.4953907283
 20
65.8807578842
 10
-1.3146940838
 20
65.9794774217
 10
-1.1312081542
 20
66.0708403668
 10
-0.9457008097
 20
66.1544643563
 10
-0.7581634575
 20
66.2303170053
 10
-0.5686046905
 20
66.2984306986
 10
-0.3778181572
 20
66.358520228
 10
-0.1857987126
 20
66.4105519305
 10
0.0074484983
 20
66.4545594692
 10
0.2011143925
 20
66.4903586246
 10
0.3952005991
 20
66.5179149754
 10
0.5897054891
 20
66.5372629429
 10
0.7838150928
 20
66.5483215722
 10
0.9775277623
 20
66.5510561538
 10
1.1708451455
 20
66.5455013973
 10
1.3629582164
 20
66.5316804754
 10
1.5538621075
 20
66.5095587105
 10
1.7435616862
 20
66.4791707802
 10
1.9312625294
 20
66.4406438906
 10
2.1169562733
 20
66.3939438533
 10
2.3006512816
 20
66.3391048566
 10
2.4815782215
 20
66.2763566713
 10
2.6597254925
 20
66.205666051
 10
2.8351046952
 20
66.127066242
 10
3.0069812983
 20
66.0408867547
 10
3.1751104582
 20
65.9472374256
 10
3.3397370185
 20
65.8460084181
 10
3.5008609793
 20
65.7371997321
  0
LWPOLYLINE
  5
2E3
100
AcDbEntity
  8
ASSI
100
AcDbPolyline
 62
7
  6
CONTINUOUS
 90
33
 70
0
 10
-2.5346729266
 20
62.9694327792
 10
-2.4311462068
 20
63.139242321
 10
-2.3220522708
 20
63.3047234121
 10
-2.2075678987
 20
63.4656075374
 10
-2.0878784549
 20
63.6216338349
 10
-1.9631780757
 20
63.7725488751
 10
-1.8336694234
 20
63.9181071434
 10
-1.6995625456
 20
64.0580723958
 10
-1.561074833
 20
64.1922175855
 10
-1.4184312411
 20
64.3203246899
 10
-1.2718631751
 20
64.4421858154
 10
-1.1216082808
 20
64.5576033076
 10
-0.9679104682
 20
64.6663897545
 10
-0.8110191078
 20
64.7683686269
 10
-0.6511885983
 20
64.8633745403
 10
-0.4886781717
 20
64.9512533703
 10
-0.3237513819
 20
65.0318625619
 10
-0.1566757768
 20
65.1050713137
 10
0.0122775431
 20
65.1707608109
 10
0.1828345727
 20
65.2288244992
 10
0.354718616
 20
65.2791681614
 10
0.5276506289
 20
65.3217100673
 10
0.7013500549
 20
65.3563812188
 10
0.8755351876
 20
65.3831254059
 10
1.0499233889
 20
65.4018992558
 10
1.2242317552
 20
65.4126723447
 10
1.3981775853
 20
65.4154272328
 10
1.5714787402
 20
65.4101594811
 10
1.7438542078
 20
65.3968776542
 10
1.9150243029
 20
65.3756033253
 10
2.0847111361
 20
65.3463710799
 10
2.2526395572
 20
65.3092283793
 10
2.4062841679
 20
65.2678476905
  0
LWPOLYLINE
  5
2E4
100
AcDbEntity
  8
ASSI
100
AcDbPolyline
 62
7
  6
CONTINUOUS
 90
33
 70
0
 10
-4.498886489
 20
64.1305240495
 10
-4.3535084252
 20
64.3688779699
 10
-4.2008525543
 20
64.6004354713
 10
-4.0409188761
 20
64.8251965537
 10
-3.8734246744
 20
65.0435033626
 10
-3.6986526655
 20
65.2550137525
 10
-3.5174509983
 20
65.4587012872
 10
-3.3297884199
 20
65.6545279419
 10
-3.1356961832
 20
65.8425317414
 10
-2.9361161961
 20
66.0218003245
 10
-2.7310217839
 20
66.1922912314
 10
-2.5204396213
 20
66.3540469218
 10
-2.3053916398
 20
66.5062824136
 10
-2.0858561322
 20
66.6489514314
 10
-1.8618548058
 20
66.7821002505
 10
-1.6344747138
 20
66.9050827147
 10
-1.4036994329
 20
67.0178494078
 10
-1.1695453864
 20
67.120449746
 10
-0.9331488976
 20
67.2123858214
 10
-0.6944990666
 20
67.2936057975
 10
-0.4536067933
 20
67.3641615108
 10
-0.2116411009
 20
67.4237105623
 10
0.0314032283
 20
67.4721994514
 10
0.2755209766
 20
67.5096816786
 10
0.519527468
 20
67.535975347
 10
0.7634221617
 20
67.5510260718
 10
1.0072055985
 20
67.5548882377
 10
1.2496947248
 20
67.5475431021
 10
1.4908832493
 20
67.5289361891
 10
1.7307774632
 20
67.4991219746
 10
1.9682131868
 20
67.4582451436
 10
2.2031784702
 20
67.4062519235
 10
2.418343391
 20
67.3483371576
  0
LINE
  5
2E5
100
AcDbEntity
  8
ASSI
100
AcDbLine
 62
250
  6
CONTINUOUS
 10
-14.0366390207
 20
35.7988145571
 11
-13.0366390207
 21
36.5059213383
  0
LINE
  5
2E6
100
AcDbEntity
  8
ASSI
100
AcDbLine
 62
7
  6
CONTINUOUS
 10
23.042787769
 20
-52.0105546646
 11
32.9919712316
 21
-59.0456897583
  0
LINE
  5
2E7
100
AcDbEntity
  8
0
100
AcDbLine
 62
7
  6
CONTINUOUS
 10
-46.8414122127
 20
31.3283687214
 11
-46.7985336479
 21
31.2410163436
  0
LINE
  5
2E8
100
AcDbEntity
  8
0
100
AcDbLine
 62
7
  6
CONTINUOUS
 10
-46.8950642447
 20
31.4389524189
 11
-46.8414122127
 21
31.3283687214
  0
LINE
  5
2E9
100
AcDbEntity
  8
0
100
AcDbLine
 62
7
  6
CONTINUOUS
 10
-46.9705641468
 20
31.59640837
 11
-46.8950642447
 21
31.4389524189
  0
LINE
  5
2EA
100
AcDbEntity
  8
0
100
AcDbLine
 62
7
  6
CONTINUOUS
 10
-47.0028880794
 20
31.6643210767
 11
-46.9705641468
 21
31.59640837
  0
LINE
  5
2EB
100
AcDbEntity
  8
0
100
AcDbLine
 62
7
  6
CONTINUOUS
 10
-47.4150614482
 20
31.2690321992
 11
-47.4312421774
 21
31.3034997027
  0
LINE
  5
2EC
100
AcDbEntity
  8
0
100
AcDbLine
 62
7
  6
CONTINUOUS
 10
-47.4312421774
 20
31.3034997027
 11
-47.4471660019
 21
31.3379377735
  0
LINE
  5
2ED
100
AcDbEntity
  8
0
100
AcDbLine
 62
7
  6
CONTINUOUS
 10
-47.4471660019
 20
31.3379377735
 11
-47.4628988117
 21
31.3723811919
  0
LINE
  5
2EE
100
AcDbEntity
  8
0
100
AcDbLine
 62
7
  6
CONTINUOUS
 10
-45.5616365076
 20
32.6977107533
 11
-45.7634520526
 21
33.1661331577
  0
LINE
  5
2EF
100
AcDbEntity
  8
0
100
AcDbLine
 62
7
  6
CONTINUOUS
 10
-47.0101959305
 20
31.6856484242
 11
-47.0028880794
 21
31.6643210767
  0
LINE
  5
2F0
100
AcDbEntity
  8
0
100
AcDbLine
 62
7
  6
CONTINUOUS
 10
-45.0968482949
 20
30.9832703962
 11
-45.104156146
 21
31.0045977437
  0
LINE
  5
2F1
100
AcDbEntity
  8
0
100
AcDbLine
 62
7
  6
CONTINUOUS
 10
-17.96067268
 20
81.0295615454
 11
-17.9593746721
 21
81.0590781285
  0
LINE
  5
2F2
100
AcDbEntity
  8
0
100
AcDbLine
 62
7
  6
CONTINUOUS
 10
-17.9593746721
 20
81.0590781285
 11
-17.9565039831
 21
81.1154657628
  0
LINE
  5
2F3
100
AcDbEntity
  8
0
100
AcDbLine
 62
7
  6
CONTINUOUS
 10
-17.9565039831
 20
81.1154657628
 11
-17.9535737335
 21
81.1684752706
  0
LINE
  5
2F4
100
AcDbEntity
  8
0
100
AcDbLine
 62
7
  6
CONTINUOUS
 10
-17.9535737335
 20
81.1684752706
 11
-17.9490262824
 21
81.2417555061
  0
LINE
  5
2F5
100
AcDbEntity
  8
0
100
AcDbLine
 62
7
  6
CONTINUOUS
 10
-16.234290758
 20
82.677301525
 11
-16.2329101208
 21
82.6980128529
  0
LINE
  5
2F6
100
AcDbEntity
  8
0
100
AcDbLine
 62
7
  6
CONTINUOUS
 10
-17.9490262824
 20
81.2417555061
 11
-17.9443944938
 21
81.3084174421
  0
LINE
  5
2F7
100
AcDbEntity
  8
0
100
AcDbLine
 62
7
  6
CONTINUOUS
 10
-17.9443944938
 20
81.3084174421
 11
-17.9396585396
 21
81.3703471148
  0
LINE
  5
2F8
100
AcDbEntity
  8
0
100
AcDbLine
 62
7
  6
CONTINUOUS
 10
-17.9396585396
 20
81.3703471148
 11
-17.9363842937
 21
81.4101957932
  0
LINE
  5
2F9
100
AcDbEntity
  8
0
100
AcDbLine
 62
7
  6
CONTINUOUS
 10
-17.9363842937
 20
81.4101957932
 11
-17.9329796607
 21
81.4495392511
  0
LINE
  5
2FA
100
AcDbEntity
  8
0
100
AcDbLine
 62
7
  6
CONTINUOUS
 10
-17.9329796607
 20
81.4495392511
 11
-17.9293581711
 21
81.4891585312
  0
LINE
  5
2FB
100
AcDbEntity
  8
0
100
AcDbLine
 62
7
  6
CONTINUOUS
 10
-17.9293581711
 20
81.4891585312
 11
-17.9255381376
 21
81.5289301593
  0
LINE
  5
2FC
100
AcDbEntity
  8
0
100
AcDbLine
 62
7
  6
CONTINUOUS
 10
-17.9255381376
 20
81.5289301593
 11
-17.9214983171
 21
81.5688329774
  0
LWPOLYLINE
  5
2FD
100
AcDbEntity
  8
0
100
AcDbPolyline
 62
7
  6
CONTINUOUS
 90
3
 70
0
 10
-17.9214983171
 20
81.5688329774
 10
-17.9172678074
 20
81.6087147734
 10
-17.9150614482
 20
81.6286822442
  0
LINE
  5
2FE
100
AcDbEntity
  8
0
100
AcDbLine
 62
7
  6
CONTINUOUS
 10
39.7960317072
 20
43.0578806716
 11
39.8143805531
 21
43.0663397944
  0
LINE
  5
2FF
100
AcDbEntity
  8
0
100
AcDbLine
 62
7
  6
CONTINUOUS
 10
38.4551102456
 20
40.3679921553
 11
39.1123718475
 21
40.6157069093
  0
LINE
  5
300
100
AcDbEntity
  8
ASSI
100
AcDbLine
 62
7
  6
CONTINUOUS
 10
25.9717199571
 20
-47.0105546646
 11
36.8693966798
 21
-54.7163757743
  0
LWPOLYLINE
  5
301
100
AcDbEntity
  8
ASSI
100
AcDbPolyline
 62
7
  6
CONTINUOUS
 90
19
 70
0
 10
36.8693966798
 20
-54.7163757743
 10
36.9330304172
 20
-54.7635172654
 10
36.9933054232
 20
-54.8124553411
 10
37.050221698
 20
-54.8631900014
 10
37.103884947
 20
-54.9158356464
 10
37.1541894646
 20
-54.970277876
 10
37.2008181346
 20
-55.0261734899
 10
37.2437477356
 20
-55.0835316694
 10
37.2830014889
 20
-55.1423432333
 10
37.3183319414
 20
-55.2022374371
 10
37.3497143086
 20
-55.2632211201
 10
37.3771733749
 20
-55.3252874431
 10
37.4005360402
 20
-55.388045144
 10
37.4197764266
 20
-55.4514985903
 10
37.4349204119
 20
-55.5156434144
 10
37.4458725294
 20
-55.5800752516
 10
37.4526062982
 20
-55.644795915
 10
37.4551481992
 20
-55.7098035913
 10
37.455183116
 20
-55.7163238646
  0
LWPOLYLINE
  5
302
100
AcDbEntity
  8
TRASH
100
AcDbPolyline
 62
7
  6
CONTINUOUS
 90
3
 70
0
 10
-46.5867516807
 20
31.433787704
 10
-46.617998329
 20
31.4774562774
 10
-46.7213799803
 20
31.6199007378
  0
LWPOLYLINE
  5
303
100
AcDbEntity
  8
TRASH
100
AcDbPolyline
 62
7
  6
CONTINUOUS
 90
3
 70
0
 10
-46.5019798611
 20
31.3132245928
 10
-46.5288330237
 20
31.3517176469
 10
-46.5867516807
 20
31.433787704
  0
LWPOLYLINE
  5
304
100
AcDbEntity
  8
TRASH
100
AcDbPolyline
 62
7
  6
CONTINUOUS
 90
8
 70
0
 10
-46.3262858612
 20
31.0468570777
 10
-46.3452404088
 20
31.0773496092
 10
-46.3649876798
 20
31.1083973191
 10
-46.3855520121
 20
31.1401235036
 10
-46.4068478042
 20
31.1726327492
 10
-46.4289792906
 20
31.2060421939
 10
-46.4522361585
 20
31.2405201325
 10
-46.5019798611
 20
31.3132245928
  0
LWPOLYLINE
  5
305
100
AcDbEntity
  8
0
100
AcDbPolyline
 62
7
  6
CONTINUOUS
 90
32
 70
0
 10
-43.1732526978
 20
31.3368977211
 10
-43.1411012657
 20
31.2769844447
 10
-43.1052513329
 20
31.1995917273
 10
-43.0739366799
 20
31.1202073401
 10
-43.0472387886
 20
31.0391750607
 10
-43.0252181055
 20
30.9568461749
 10
-43.0079137662
 20
30.8735778766
 10
-42.9953434169
 20
30.7897316394
 10
-42.9875031345
 20
30.7056715707
 10
-42.9843674437
 20
30.6217627517
 10
-42.9858894339
 20
30.5383695747
 10
-42.9920009721
 20
30.4558540825
 10
-43.0026130143
 20
30.3745743188
 10
-43.0176160104
 20
30.2948826969
 10
-43.0368804036
 20
30.2171243939
 10
-43.0602572211
 20
30.1416357781
 10
-43.0875787521
 20
30.0687428764
 10
-43.1186593128
 20
29.9987598887
 10
-43.1532960917
 20
29.9319877562
 10
-43.1912700742
 20
29.8687127904
 10
-43.2323470401
 20
29.8092053688
 10
-43.2762786313
 20
29.7537187022
 10
-43.3228034828
 20
29.702487682
 10
-43.371648414
 20
29.6557278091
 10
-43.4225296732
 20
29.6136342124
 10
-43.4751542306
 20
29.5763807599
 10
-43.5292211133
 20
29.544119266
 10
-43.5844227768
 20
29.5169788002
 10
-43.6404465061
 20
29.495065099
 10
-43.6969758406
 20
29.4784600837
 10
-43.7536920161
 20
29.4672214879
 10
-43.8014063221
 20
29.4622978039
  0
LINE
  5
306
100
AcDbEntity
  8
0
100
AcDbLine
 62
7
  6
CONTINUOUS
 10
-45.8301400334
 20
31.7332451635
 11
-45.7758996201
 21
31.6280207611
  0
LWPOLYLINE
  5
307
100
AcDbEntity
  8
0
100
AcDbPolyline
 62
7
  6
CONTINUOUS
 90
3
 70
0
 10
-46.7985336479
 20
31.2410163436
 10
-46.7877738588
 20
31.2192626648
 10
-46.7442932309
 20
31.1321371743
  0
LINE
  5
308
100
AcDbEntity
  8
0
100
AcDbLine
 62
7
  6
CONTINUOUS
 10
-45.1688592421
 20
31.1402611401
 11
-45.2286101326
 21
31.2643725879
  0
LINE
  5
309
100
AcDbEntity
  8
0
100
AcDbLine
 62
7
  6
CONTINUOUS
 10
-45.104156146
 20
31.0045977437
 11
-45.1688592421
 21
31.1402611401
  0
LWPOLYLINE
  5
30A
100
AcDbEntity
  8
0
100
AcDbPolyline
 62
7
  6
CONTINUOUS
 90
29
 70
0
 10
-43.1763585239
 20
31.2598025229
 10
-43.1552513329
 20
31.2142363882
 10
-43.1239366799
 20
31.134852001
 10
-43.0972387886
 20
31.0538197216
 10
-43.0752181055
 20
30.9714908359
 10
-43.0579137662
 20
30.8882225375
 10
-43.0453434169
 20
30.8043763004
 10
-43.0375031345
 20
30.7203162316
 10
-43.0343674437
 20
30.6364074126
 10
-43.0358894339
 20
30.5530142357
 10
-43.0420009721
 20
30.4704987435
 10
-43.0526130143
 20
30.3892189797
 10
-43.0676160104
 20
30.3095273578
 10
-43.0868804036
 20
30.2317690548
 10
-43.1102572211
 20
30.1562804391
 10
-43.1375787521
 20
30.0833875374
 10
-43.1686593128
 20
30.0134045496
 10
-43.2032960917
 20
29.9466324171
 10
-43.2412700742
 20
29.8833574514
 10
-43.2823470401
 20
29.8238500297
 10
-43.3262786313
 20
29.7683633632
 10
-43.3728034828
 20
29.7171323429
 10
-43.421648414
 20
29.67037247
 10
-43.4725296732
 20
29.6282788734
 10
-43.5251542306
 20
29.5910254208
 10
-43.5792211133
 20
29.5587639269
 10
-43.6344227768
 20
29.5316234612
 10
-43.6904465061
 20
29.5097097599
 10
-43.7277373669
 20
29.4987558841
  0
LINE
  5
30B
100
AcDbEntity
  8
0
100
AcDbLine
 62
7
  6
CONTINUOUS
 10
-17.9596627772
 20
81.0081500472
 11
-17.96067268
 21
81.0295615454
  0
LINE
  5
30C
100
AcDbEntity
  8
0
100
AcDbLine
 62
7
  6
CONTINUOUS
 10
39.2352361585
 20
40.7158494202
 11
39.1696947996
 21
40.666594554
  0
LINE
  5
30D
100
AcDbEntity
  8
0
100
AcDbLine
 62
7
  6
CONTINUOUS
 10
39.1696947996
 20
40.666594554
 11
39.1460898579
 21
40.6489823949
  0
LINE
  5
30E
100
AcDbEntity
  8
0
100
AcDbLine
 62
7
  6
CONTINUOUS
 10
39.5819066007
 20
40.9721860371
 11
39.2352361585
 21
40.7158494202
  0
LINE
  5
30F
100
AcDbEntity
  8
0
100
AcDbLine
 62
7
  6
CONTINUOUS
 10
39.9200200646
 20
42.4855488927
 11
39.8965027787
 21
42.4686852548
  0
LINE
  5
310
100
AcDbEntity
  8
0
100
AcDbLine
 62
7
  6
CONTINUOUS
 10
40.1100206998
 20
40.9026700177
 11
40.1335379857
 21
40.9195336557
  0
LINE
  5
311
100
AcDbEntity
  8
ASSI
100
AcDbLine
 62
250
  6
CONTINUOUS
 10
4.3481372902
 20
22.7988145571
 11
5.3481372902
 21
23.5059213383
  0
LINE
  5
312
100
AcDbEntity
  8
0
100
AcDbLine
 62
7
  6
CONTINUOUS
 10
39.3099769567
 20
42.7493914012
 11
39.3457523681
 21
42.7736399624
  0
LINE
  5
313
100
AcDbEntity
  8
0
100
AcDbLine
 62
7
  6
CONTINUOUS
 10
39.3457523681
 20
42.7736399624
 11
39.3816430074
 21
42.7976558852
  0
LINE
  5
314
100
AcDbEntity
  8
0
100
AcDbLine
 62
7
  6
CONTINUOUS
 10
39.3816430074
 20
42.7976558852
 11
39.4176669065
 21
42.8214970045
  0
LINE
  5
315
100
AcDbEntity
  8
0
100
AcDbLine
 62
7
  6
CONTINUOUS
 10
39.4176669065
 20
42.8214970045
 11
39.4536840461
 21
42.8450695127
  0
LINE
  5
316
100
AcDbEntity
  8
0
100
AcDbLine
 62
7
  6
CONTINUOUS
 10
39.4536840461
 20
42.8450695127
 11
39.4898697306
 21
42.8684856891
  0
LINE
  5
317
100
AcDbEntity
  8
0
100
AcDbLine
 62
7
  6
CONTINUOUS
 10
39.4898697306
 20
42.8684856891
 11
39.5265130436
 21
42.8919764816
  0
LINE
  5
318
100
AcDbEntity
  8
0
100
AcDbLine
 62
7
  6
CONTINUOUS
 10
39.5265130436
 20
42.8919764816
 11
39.584087578
 21
42.9283865226
  0
LINE
  5
319
100
AcDbEntity
  8
0
100
AcDbLine
 62
7
  6
CONTINUOUS
 10
39.584087578
 20
42.9283865226
 11
39.646676771
 21
42.9673413621
  0
LWPOLYLINE
  5
31A
100
AcDbEntity
  8
0
100
AcDbPolyline
 62
7
  6
CONTINUOUS
 90
5
 70
0
 10
39.646676771
 20
42.9673413621
 10
39.7165032805
 20
43.0100779123
 10
39.7418598393
 20
43.0255111703
 10
39.768350785
 20
43.0414623396
 10
39.7960317072
 20
43.0578806716
  0
LINE
  5
31B
100
AcDbEntity
  8
0
100
AcDbLine
 62
7
  6
CONTINUOUS
 10
39.1301031928
 20
40.6398314055
 11
39.1460898579
 21
40.6489823949
  0
LWPOLYLINE
  5
31C
100
AcDbEntity
  8
0
100
AcDbPolyline
 62
7
  6
CONTINUOUS
 90
7
 70
0
 10
13.3592336972
 20
-10.4636776835
 10
13.3284369431
 20
-10.4722419861
 10
13.2822188407
 20
-10.4803568839
 10
13.2362303785
 20
-10.4837204432
 10
13.1907911445
 20
-10.4823313401
 10
13.146201052
 20
-10.4762213684
 10
13.1074105079
 20
-10.4668448446
  0
LWPOLYLINE
  5
31D
100
AcDbEntity
  8
0
100
AcDbPolyline
 62
7
  6
CONTINUOUS
 90
34
 70
0
 10
12.7032465463
 20
-10.5589091877
 10
12.7285346756
 20
-10.5519040321
 10
12.754472968
 20
-10.5429226628
 10
12.7809442202
 20
-10.5320097626
 10
12.8078857122
 20
-10.519244941
 10
12.8351180561
 20
-10.5046666828
 10
12.8623453112
 20
-10.4882809039
 10
12.8894379445
 20
-10.4701788576
 10
12.9162775006
 20
-10.4504608316
 10
12.9425862074
 20
-10.4291719992
 10
12.9682257377
 20
-10.4064324947
 10
12.9931009495
 20
-10.3823673929
 10
13.0170049631
 20
-10.3570436722
 10
13.0398084396
 20
-10.3305950306
 10
13.0614329622
 20
-10.3031610435
 10
13.0817528879
 20
-10.2748209475
 10
13.1006559613
 20
-10.2457092184
 10
13.1180729441
 20
-10.2159765678
 10
13.1339434175
 20
-10.1857261399
 10
13.1481722136
 20
-10.1550878881
 10
13.1606976527
 20
-10.1242242636
 10
13.1715095924
 20
-10.093287822
 10
13.1805301865
 20
-10.0624057368
 10
13.1877109084
 20
-10.0317479462
 10
13.193092468
 20
-10.001531145
 10
13.1966217516
 20
-9.9718833483
 10
13.198271751
 20
-9.9429666649
 10
13.198141053
 20
-9.915041809
 10
13.196214351
 20
-9.8882368384
 10
13.1924907639
 20
-9.8626831302
 10
13.1871173208
 20
-9.8386289766
 10
13.1801636105
 20
-9.8162233311
 10
13.1716131447
 20
-9.7955218007
 10
13.1615041158
 20
-9.7766145833
  0
LINE
  5
31E
100
AcDbEntity
  8
0
100
AcDbLine
 62
7
  6
CONTINUOUS
 10
11.1815269037
 20
-9.4782733752
 11
11.202543546
 21
-9.4767234413
  0
LINE
  5
31F
100
AcDbEntity
  8
0
100
AcDbLine
 62
7
  6
CONTINUOUS
 10
9.8485138607
 20
-7.8528078044
 11
9.8274972288
 21
-7.8543577375
  0
LINE
  5
320
100
AcDbEntity
  8
0
100
AcDbLine
 62
7
  6
CONTINUOUS
 10
11.0202172378
 20
-9.4683595973
 11
11.1815269037
 21
-9.4782733752
  0
LINE
  5
321
100
AcDbEntity
  8
0
100
AcDbLine
 62
7
  6
CONTINUOUS
 10
10.905957599
 20
-9.4608241464
 11
11.0202172378
 21
-9.4683595973
  0
LINE
  5
322
100
AcDbEntity
  8
0
100
AcDbLine
 62
7
  6
CONTINUOUS
 10
10.8149589303
 20
-9.4544084099
 11
10.905957599
 21
-9.4608241464
  0
LINE
  5
323
100
AcDbEntity
  8
0
100
AcDbLine
 62
7
  6
CONTINUOUS
 10
10.724250796
 20
-9.4475496672
 11
10.8149589303
 21
-9.4544084099
  0
LWPOLYLINE
  5
324
100
AcDbEntity
  8
0
100
AcDbPolyline
 62
7
  6
CONTINUOUS
 90
3
 70
0
 10
10.1926414623
 20
-9.3962423514
 10
10.1006987529
 20
-9.389040449
 10
10.0819066007
 20
-9.3874640079
  0
LWPOLYLINE
  5
325
100
AcDbEntity
  8
0
100
AcDbPolyline
 62
7
  6
CONTINUOUS
 90
3
 70
0
 10
10.6335379857
 20
-9.4401163893
 10
10.6562279983
 20
-9.4420323712
 10
10.724250796
 20
-9.4475496672
  0
LWPOLYLINE
  5
326
100
AcDbEntity
  8
0
100
AcDbPolyline
 62
7
  6
CONTINUOUS
 90
10
 70
0
 10
-47.6134322493
 20
30.0083421103
 10
-47.5804844501
 20
29.9783665858
 10
-47.5467536159
 20
29.9495016493
 10
-47.5122647933
 20
29.9217687806
 10
-47.4770433866
 20
29.8951884679
 10
-47.4411157505
 20
29.8697806596
 10
-47.4045092111
 20
29.8455646802
 10
-47.3672512089
 20
29.822558625
 10
-47.3293692382
 20
29.8007794148
 10
-47.2908914663
 20
29.7802432021
  0
LWPOLYLINE
  5
327
100
AcDbEntity
  8
ASSI
100
AcDbPolyline
 62
7
  6
CONTINUOUS
 90
10
 70
0
 10
-45.6385472404
 20
28.4710627066
 10
-45.613686693
 20
28.4479481169
 10
-45.5227160079
 20
28.3719234508
 10
-45.4285221127
 20
28.3014011485
 10
-45.3310831357
 20
28.2364185474
 10
-45.2304209486
 20
28.17693831
 10
-45.1272170739
 20
28.1233631409
 10
-45.0214542643
 20
28.0757331101
 10
-44.9131497671
 20
28.0340081476
 10
-44.854110917
 20
28.0149281407
  0
LWPOLYLINE
  5
328
100
AcDbEntity
  8
0
100
AcDbPolyline
 62
7
  6
CONTINUOUS
 90
40
 70
0
 10
-43.8737103915
 20
33.2733361768
 10
-43.8209726937
 20
33.2168281777
 10
-43.7700751658
 20
33.1584040701
 10
-43.7210178078
 20
33.098063854
 10
-43.6737553482
 20
33.0357433677
 10
-43.6283330586
 20
32.971506773
 10
-43.5848867527
 20
32.9055465546
 10
-43.5434220929
 20
32.8378571744
 10
-43.5039334169
 20
32.7684441706
 10
-43.4665395516
 20
32.6975166423
 10
-43.4312468713
 20
32.6250701334
 10
-43.3980490016
 20
32.5511091002
 10
-43.3670456473
 20
32.4758560107
 10
-43.3382434095
 20
32.3993069862
 10
-43.311635687
 20
32.3214659056
 10
-43.2873023805
 20
32.2425668729
 10
-43.2652503303
 20
32.1626067126
 10
-43.2454726961
 20
32.0815886004
 10
-43.2280288573
 20
31.9997561668
 10
-43.2129258319
 20
31.9171069682
 10
-43.200156602
 20
31.8336434482
 10
-43.1897594927
 20
31.7496165696
 10
-43.1817416367
 20
31.6650246418
 10
-43.1760959013
 20
31.5798693552
 10
-43.1728392142
 20
31.4944067438
 10
-43.1719787582
 20
31.4086358856
 10
-43.1735073505
 20
31.3225577025
 10
-43.177420369
 20
31.2364309938
 10
-43.183724983
 20
31.1502556144
 10
-43.1924140234
 20
31.0640317094
 10
-43.2034613612
 20
30.9780185129
 10
-43.2168740872
 20
30.8922166579
 10
-43.2326451106
 20
30.8066255115
 10
-43.2507270311
 20
30.721502408
 10
-43.271126797
 20
30.6368487532
 10
-43.2938374598
 20
30.5526631413
 10
-43.318790774
 20
30.46919869
 10
-43.345963991
 20
30.3865397717
 10
-43.3753798594
 20
30.304602014
 10
-43.4070383791
 20
30.2233854167
  0
LINE
  5
329
100
AcDbEntity
  8
0
100
AcDbLine
 62
7
  6
CONTINUOUS
 10
-47.1382179736
 20
31.8261708992
 11
-47.0101959305
 21
31.6856484242
  0
LINE
  5
32A
100
AcDbEntity
  8
0
100
AcDbLine
 62
7
  6
CONTINUOUS
 10
-44.9688262518
 20
30.8427479213
 11
-45.0968482949
 21
30.9832703962
  0
LWPOLYLINE
  5
32B
100
AcDbEntity
  8
0
100
AcDbPolyline
 62
7
  6
CONTINUOUS
 90
11
 70
0
 10
-13.7626052067
 20
81.0318611529
 10
-13.7622859785
 20
81.0269918409
 10
-13.7616079464
 20
80.9553629569
 10
-13.7649167013
 20
80.8845246953
 10
-13.7721315487
 20
80.8147941444
 10
-13.7831530745
 20
80.7464848349
 10
-13.7978634018
 20
80.6799041333
 10
-13.8161271736
 20
80.6153498044
 10
-13.8377922075
 20
80.5531096617
 10
-13.8626897246
 20
80.4934615156
 10
-13.8726048478
 20
80.4733121309
  0
LINE
  5
32C
100
AcDbEntity
  8
ASSI
100
AcDbLine
 62
250
  6
CONTINUOUS
 10
-6.6451888857
 20
-95.5910731178
 11
-6.6451888857
 21
-102.6621409297
  0
LINE
  5
32D
100
AcDbEntity
  8
ASSI
100
AcDbLine
 62
250
  6
CONTINUOUS
 10
-5.4477534073
 20
-94.744358371
 11
-5.4477534073
 21
-101.8154261829
  0
LINE
  5
32E
100
AcDbEntity
  8
ASSI
100
AcDbLine
 62
250
  6
CONTINUOUS
 10
-1.4937157571
 20
-94.2513610338
 11
-1.4937157571
 21
-101.3224288457
  0
LINE
  5
32F
100
AcDbEntity
  8
ASSI
100
AcDbLine
 62
7
  6
CONTINUOUS
 10
22.9211711961
 20
44.9694327792
 11
11.3836711961
 21
25.2736882912
  0
LINE
  5
330
100
AcDbEntity
  8
ASSI
100
AcDbLine
 62
7
  6
CONTINUOUS
 10
23.1282779773
 20
44.6158793886
 11
11.5907779773
 21
24.9201349006
  0
LINE
  5
331
100
AcDbEntity
  8
ASSI
100
AcDbLine
 62
7
  6
CONTINUOUS
 10
23.7853847585
 20
44.1305240495
 11
12.2478847585
 21
24.4347795616
  0
LWPOLYLINE
  5
332
100
AcDbEntity
  8
ASSI
100
AcDbPolyline
 62
7
  6
CONTINUOUS
 90
43
 70
0
 10
11.5907779773
 20
24.9201349006
 10
11.4753454811
 20
24.7303245605
 10
11.3544908186
 20
24.5454799108
 10
11.2282139898
 20
24.3656009517
 10
11.0963233162
 20
24.1904499866
 10
10.9590104764
 20
24.020264712
 10
10.8168505061
 20
23.8557582172
 10
10.6698230716
 20
23.6969544056
 10
10.5179485067
 20
23.5438293738
 10
10.3618628485
 20
23.3970245004
 10
10.2015484432
 20
23.2565663537
 10
10.0370229446
 20
23.1224283654
 10
9.868975351
 20
22.995172209
 10
9.6973910583
 20
22.8748268556
 10
9.5222846706
 20
22.7613633341
 10
9.3443889978
 20
22.655256405
 10
9.1636923533
 20
22.5565368675
 10
8.9802064237
 20
22.4651739224
 10
8.7946990792
 20
22.3815499329
 10
8.607161727
 20
22.3056972839
 10
8.41760296
 20
22.2375835906
 10
8.2268164267
 20
22.1774940612
 10
8.0347969821
 20
22.1254623587
 10
7.8415497712
 20
22.08145482
 10
7.647883877
 20
22.0456556646
 10
7.4537976704
 20
22.0180993138
 10
7.2592927804
 20
21.9987513463
 10
7.0651831767
 20
21.987692717
 10
6.8714705072
 20
21.9849581354
 10
6.678153124
 20
21.9905128919
 10
6.4860400531
 20
22.0043338138
 10
6.295136162
 20
22.0264555787
 10
6.1054365833
 20
22.056843509
 10
5.9177357401
 20
22.0953703986
 10
5.7320419962
 20
22.1420704359
 10
5.5483469879
 20
22.1969094326
 10
5.367420048
 20
22.2596576179
 10
5.189272777
 20
22.3303482382
 10
5.0138935743
 20
22.4089480472
 10
4.8420169712
 20
22.4951275345
 10
4.6738878113
 20
22.5887768636
 10
4.509261251
 20
22.6900058711
 10
4.3481372902
 20
22.7988145571
  0
LWPOLYLINE
  5
333
100
AcDbEntity
  8
ASSI
100
AcDbPolyline
 62
7
  6
CONTINUOUS
 90
33
 70
0
 10
11.3836711961
 20
25.2736882912
 10
11.2801444763
 20
25.1038787494
 10
11.1710505403
 20
24.9383976583
 10
11.0565661682
 20
24.777513533
 10
10.9368767244
 20
24.6214872355
 10
10.8121763452
 20
24.4705721953
 10
10.6826676929
 20
24.325013927
 10
10.5485608151
 20
24.1850486746
 10
10.4100731025
 20
24.0509034849
 10
10.2674295106
 20
23.9227963805
 10
10.1208614446
 20
23.800935255
 10
9.9706065503
 20
23.6855177628
 10
9.8169087377
 20
23.5767313159
 10
9.6600173773
 20
23.4747524435
 10
9.5001868678
 20
23.3797465301
 10
9.3376764412
 20
23.2918677001
 10
9.1727496514
 20
23.2112585085
 10
9.0056740463
 20
23.1380497567
 10
8.8367207264
 20
23.0723602595
 10
8.6661636968
 20
23.0142965712
 10
8.4942796535
 20
22.9639529089
 10
8.3213476406
 20
22.9214110031
 10
8.1476482146
 20
22.8867398516
 10
7.9734630819
 20
22.8599956645
 10
7.7990748806
 20
22.8412218146
 10
7.6247665143
 20
22.8304487257
 10
7.4508206842
 20
22.8276938376
 10
7.2775195293
 20
22.8329615893
 10
7.1051440617
 20
22.8462434162
 10
6.9339739666
 20
22.8675177451
 10
6.7642871334
 20
22.8967499905
 10
6.5963587123
 20
22.9338926911
 10
6.4427141016
 20
22.9752733799
  0
LWPOLYLINE
  5
334
100
AcDbEntity
  8
ASSI
100
AcDbPolyline
 62
7
  6
CONTINUOUS
 90
33
 70
0
 10
12.2478847585
 20
24.4347795616
 10
12.1025066947
 20
24.1964256412
 10
11.9498508238
 20
23.9648681398
 10
11.7899171456
 20
23.7401070574
 10
11.6224229439
 20
23.5218002485
 10
11.447650935
 20
23.3102898586
 10
11.2664492678
 20
23.1066023239
 10
11.0787866894
 20
22.9107756692
 10
10.8846944527
 20
22.7227718697
 10
10.6851144656
 20
22.5435032866
 10
10.4800200534
 20
22.3730123797
 10
10.2694378908
 20
22.2112566893
 10
10.0543899093
 20
22.0590211975
 10
9.8348544017
 20
21.9163521797
 10
9.6108530753
 20
21.7832033606
 10
9.3834729833
 20
21.6602208964
 10
9.1526977024
 20
21.5474542033
 10
8.9185436559
 20
21.4448538651
 10
8.6821471671
 20
21.3529177897
 10
8.4434973361
 20
21.2716978136
 10
8.2026050628
 20
21.2011421003
 10
7.9606393704
 20
21.1415930488
 10
7.7175950412
 20
21.0931041597
 10
7.4734772929
 20
21.0556219325
 10
7.2294708015
 20
21.0293282641
 10
6.9855761078
 20
21.0142775393
 10
6.741792671
 20
21.0104153734
 10
6.4993035447
 20
21.017760509
 10
6.2581150202
 20
21.036367422
 10
6.0182208063
 20
21.0661816365
 10
5.7807850827
 20
21.1070584675
 10
5.5458197993
 20
21.1590516876
 10
5.3306548785
 20
21.2169664535
  0
LINE
  5
335
100
AcDbEntity
  8
0
100
AcDbLine
 62
7
  6
CONTINUOUS
 10
39.8143805531
 20
43.0663397944
 11
39.8861933261
 21
43.1366520352
  0
LINE
  5
336
100
AcDbEntity
  8
0
100
AcDbLine
 62
7
  6
CONTINUOUS
 10
39.8861933261
 20
43.1366520352
 11
39.9579434755
 21
43.2058130142
  0
LINE
  5
337
100
AcDbEntity
  8
0
100
AcDbLine
 62
7
  6
CONTINUOUS
 10
39.9579434755
 20
43.2058130142
 11
40.0290125529
 21
43.273267366
  0
LINE
  5
338
100
AcDbEntity
  8
0
100
AcDbLine
 62
7
  6
CONTINUOUS
 10
40.0290125529
 20
43.273267366
 11
40.0971097093
 21
43.3369263321
  0
LINE
  5
339
100
AcDbEntity
  8
0
100
AcDbLine
 62
7
  6
CONTINUOUS
 10
40.0971097093
 20
43.3369263321
 11
40.1615691731
 21
43.3963624584
  0
LINE
  5
33A
100
AcDbEntity
  8
0
100
AcDbLine
 62
7
  6
CONTINUOUS
 10
40.1615691731
 20
43.3963624584
 11
40.2220577386
 21
43.4513811479
  0
LINE
  5
33B
100
AcDbEntity
  8
TRASH
100
AcDbLine
 62
7
  6
CONTINUOUS
 10
40.2619789083
 20
42.2937239455
 11
40.271446979
 21
42.3022168561
  0
LWPOLYLINE
  5
33C
100
AcDbEntity
  8
0
100
AcDbPolyline
 62
7
  6
CONTINUOUS
 90
3
 70
0
 10
40.2220577386
 20
43.4513811479
 10
40.2784317218
 20
43.5020665758
 10
40.3050904423
 20
43.5257832027
  0
LWPOLYLINE
  5
33D
100
AcDbEntity
  8
ASSI
100
AcDbPolyline
 62
7
  6
CONTINUOUS
 90
9
 70
0
 10
12.4495894354
 20
-6.4505791537
 10
12.495538053
 20
-6.4443867228
 10
12.6187897763
 20
-6.4347497118
 10
12.7414794194
 20
-6.4321101061
 10
12.8636027972
 20
-6.4365200092
 10
12.9851640949
 20
-6.4479273175
 10
13.1052603941
 20
-6.4662473012
 10
13.2238807862
 20
-6.491531433
 10
13.3160516855
 20
-6.5162129805
  0
LINE
  5
33E
100
AcDbEntity
  8
0
100
AcDbLine
 62
7
  6
CONTINUOUS
 10
10.0098235266
 20
-7.8627215823
 11
9.8485138607
 21
-7.8528078044
  0
LINE
  5
33F
100
AcDbEntity
  8
0
100
AcDbLine
 62
7
  6
CONTINUOUS
 10
9.7056448903
 20
-7.6033556355
 11
9.7744666855
 21
-7.607743746
  0
LINE
  5
340
100
AcDbEntity
  8
0
100
AcDbLine
 62
7
  6
CONTINUOUS
 10
10.1240831654
 20
-7.8702570331
 11
10.0098235266
 21
-7.8627215823
  0
LINE
  5
341
100
AcDbEntity
  8
0
100
AcDbLine
 62
7
  6
CONTINUOUS
 10
10.2150818341
 20
-7.8766727696
 11
10.1240831654
 21
-7.8702570331
  0
LINE
  5
342
100
AcDbEntity
  8
0
100
AcDbLine
 62
7
  6
CONTINUOUS
 10
9.7744666855
 20
-7.607743746
 11
9.8099769567
 21
-7.6102586438
  0
LINE
  5
343
100
AcDbEntity
  8
0
100
AcDbLine
 62
7
  6
CONTINUOUS
 10
10.3057899684
 20
-7.8835315123
 11
10.2150818341
 21
-7.8766727696
  0
LWPOLYLINE
  5
344
100
AcDbEntity
  8
0
100
AcDbPolyline
 62
7
  6
CONTINUOUS
 90
3
 70
0
 10
10.3965027787
 20
-7.8909647902
 10
10.3738127661
 20
-7.8890488083
 10
10.3057899684
 20
-7.8835315123
  0
LINE
  5
345
100
AcDbEntity
  8
0
100
AcDbLine
 62
7
  6
CONTINUOUS
 10
11.4101041246
 20
-9.4962224065
 11
11.202543546
 21
-9.4767234413
  0
LWPOLYLINE
  5
346
100
AcDbEntity
  8
0
100
AcDbPolyline
 62
7
  6
CONTINUOUS
 90
18
 70
0
 10
10.6475179875
 20
-6.0105027956
 10
10.5914268583
 20
-6.0047274003
 10
10.4659858479
 20
-5.9975892564
 10
10.3397309473
 20
-5.998338515
 10
10.2130754495
 20
-6.0069937142
 10
10.0863666715
 20
-6.0235532995
 10
9.9599507558
 20
-6.0480021293
 10
9.8342679726
 20
-6.080284666
 10
9.7097985331
 20
-6.1202937745
 10
9.5869786775
 20
-6.1678913392
 10
9.4661279779
 20
-6.2229560348
 10
9.3475411035
 20
-6.2853703514
 10
9.2315073117
 20
-6.3550168917
 10
9.1184678424
 20
-6.4316678449
 10
9.0089237437
 20
-6.5149953846
 10
8.9032504449
 20
-6.6047025726
 10
8.801713384
 20
-6.7005546339
 10
8.7080892341
 20
-6.7984412914
  0
LINE
  5
347
100
AcDbEntity
  8
0
100
AcDbLine
 62
7
  6
CONTINUOUS
 10
10.1926414623
 20
-9.3962423514
 11
10.4519056436
 21
-9.422790644
  0
LINE
  5
348
100
AcDbEntity
  8
0
100
AcDbLine
 62
7
  6
CONTINUOUS
 10
10.6475408628
 20
-6.0105054806
 11
11.457149148
 21
-6.1055412717
  0
LINE
  5
349
100
AcDbEntity
  8
TRASH
100
AcDbLine
 62
7
  6
CONTINUOUS
 10
10.7276891338
 20
-8.0616314109
 11
10.7619789083
 21
-8.0659260995
  0
LINE
  5
34A
100
AcDbEntity
  8
TRASH
100
AcDbLine
 62
7
  6
CONTINUOUS
 10
10.5398079526
 20
-8.0366756449
 11
10.7276891338
 21
-8.0616314109
  0
LINE
  5
34B
100
AcDbEntity
  8
TRASH
100
AcDbLine
 62
7
  6
CONTINUOUS
 10
10.3109119792
 20
-8.0047583891
 11
10.5398079526
 21
-8.0366756449
  0
LINE
  5
34C
100
AcDbEntity
  8
TRASH
100
AcDbLine
 62
7
  6
CONTINUOUS
 10
10.0859842511
 20
-7.9723966458
 11
10.3109119792
 21
-8.0047583891
  0
LINE
  5
34D
100
AcDbEntity
  8
0
100
AcDbLine
 62
7
  6
CONTINUOUS
 10
9.6443153109
 20
-8.3276467572
 11
9.815986672
 21
-8.3535846464
  0
LINE
  5
34E
100
AcDbEntity
  8
0
100
AcDbLine
 62
7
  6
CONTINUOUS
 10
9.5583465644
 20
-8.3143515758
 11
9.6443153109
 21
-8.3276467572
  0
LINE
  5
34F
100
AcDbEntity
  8
0
100
AcDbLine
 62
7
  6
CONTINUOUS
 10
9.5656544155
 20
-8.3356789233
 11
9.8471599797
 21
-8.380093865
  0
LINE
  5
350
100
AcDbEntity
  8
TRASH
100
AcDbLine
 62
7
  6
CONTINUOUS
 10
10.0441348993
 20
-7.9641112709
 11
10.0859823613
 21
-7.972398568
  0
LINE
  5
351
100
AcDbEntity
  8
0
100
AcDbLine
 62
7
  6
CONTINUOUS
 10
10.242255424
 20
-8.9531495832
 11
9.8242492641
 21
-8.8678628257
  0
LINE
  5
352
100
AcDbEntity
  8
0
100
AcDbLine
 62
7
  6
CONTINUOUS
 10
9.6033772545
 20
-8.8227906099
 11
9.1534810467
 21
-8.7309678008
  0
LINE
  5
353
100
AcDbEntity
  8
0
100
AcDbLine
 62
7
  6
CONTINUOUS
 10
10.4519056436
 20
-9.422790644
 11
10.6100206998
 21
-9.4569800273
  0
LINE
  5
354
100
AcDbEntity
  8
0
100
AcDbLine
 62
7
  6
CONTINUOUS
 10
8.1298359142
 20
-7.8222926051
 11
8.3807675893
 21
-7.8806600358
  0
LWPOLYLINE
  5
355
100
AcDbEntity
  8
ASSI
100
AcDbPolyline
 62
7
  6
CONTINUOUS
 90
9
 70
0
 10
13.3156753448
 20
-6.5176479752
 10
13.2526014993
 20
-6.501106274
 10
13.1388594592
 20
-6.4779859862
 10
13.0240790734
 20
-6.4612097944
 10
12.908253296
 20
-6.4508207478
 10
12.791389173
 20
-6.4467757971
 10
12.6742779201
 20
-6.4491023284
 10
12.5569178605
 20
-6.4578435765
 10
12.4783330841
 20
-6.467941858
  0
LINE
  5
356
100
AcDbEntity
  8
0
100
AcDbLine
 62
7
  6
CONTINUOUS
 10
9.8806489989
 20
-9.535870359
 11
9.107869815
 21
-9.3300884996
  0
LINE
  5
357
100
AcDbEntity
  8
0
100
AcDbLine
 62
7
  6
CONTINUOUS
 10
9.8561476565
 20
-9.5539788487
 11
9.1088797177
 21
-9.3514999978
  0
LINE
  5
358
100
AcDbEntity
  8
0
100
AcDbLine
 62
7
  6
CONTINUOUS
 10
13.0494145036
 20
-10.4498582083
 11
13.1074105079
 21
-10.4668448446
  0
LWPOLYLINE
  5
359
100
AcDbEntity
  8
ASSI
100
AcDbPolyline
 62
7
  6
CONTINUOUS
 90
10
 70
0
 10
11.7139890789
 20
-11.9864410743
 10
11.6890045846
 20
-11.9789258146
 10
11.5741843822
 20
-11.9400554796
 10
11.4617167593
 20
-11.8944619249
 10
11.3515843276
 20
-11.8421948423
 10
11.2446051156
 20
-11.783642455
 10
11.1408026027
 20
-11.718757962
 10
11.0401533095
 20
-11.6475881642
 10
10.9434048268
 20
-11.5706616883
 10
10.898008188
 20
-11.5302012403
  0
LWPOLYLINE
  5
35A
100
AcDbEntity
  8
ASSI
100
AcDbPolyline
 62
7
  6
CONTINUOUS
 90
39
 70
0
 10
13.3160516855
 20
-6.5162129805
 10
13.3410361799
 20
-6.5237282401
 10
13.4558563822
 20
-6.5625985752
 10
13.5683240052
 20
-6.6081921299
 10
13.6784564369
 20
-6.6604592125
 10
13.7854356488
 20
-6.7190115998
 10
13.8892381617
 20
-6.7838960928
 10
13.9898874549
 20
-6.8550658906
 10
14.0866359376
 20
-6.9319923665
 10
14.1794545639
 20
-7.0147183855
 10
14.2683723797
 20
-7.1032010827
 10
14.3527289319
 20
-7.1967832369
 10
14.4324902569
 20
-7.2955028194
 10
14.5076903182
 20
-7.3993218588
 10
14.577770554
 20
-7.5074692207
 10
14.6426928414
 20
-7.6199771341
 10
14.7024953031
 20
-7.73681337
 10
14.7567337458
 20
-7.8571101061
 10
14.805366739
 20
-7.9808931098
 10
14.848435713
 20
-8.1081366137
 10
14.8856207654
 20
-8.2378954937
 10
14.9168780837
 20
-8.3701884798
 10
14.9422514803
 20
-8.5049968421
 10
14.9615524897
 20
-8.6413192672
 10
14.9747358963
 20
-8.779167029
 10
14.9818469157
 20
-8.9185288536
 10
14.9828327295
 20
-9.058369606
 10
14.9776477288
 20
-9.1986928523
 10
14.9663375226
 20
-9.3394950264
 10
14.9489861194
 20
-9.4797302947
 10
14.9255485358
 20
-9.6193944361
 10
14.8960697553
 20
-9.7584916717
 10
14.8607687368
 20
-9.8959888319
 10
14.8196021272
 20
-10.0318740022
 10
14.7726132796
 20
-10.166159097
 10
14.7201512121
 20
-10.2978466896
 10
14.6623322642
 20
-10.4266043044
 10
14.5990400963
 20
-10.552764417
 10
14.5302747086
 20
-10.6763270274
  0
LINE
  5
35B
100
AcDbEntity
  8
0
100
AcDbLine
 62
7
  6
CONTINUOUS
 10
12.0492731752
 20
-10.4746852124
 11
11.7252934077
 21
-10.3646649802
  0
LINE
  5
35C
100
AcDbEntity
  8
0
100
AcDbLine
 62
7
  6
CONTINUOUS
 10
12.3252934077
 20
-9.3404009115
 11
12.6492731752
 21
-9.4504211437
  0
LINE
  5
35D
100
AcDbEntity
  8
0
100
AcDbLine
 62
7
  6
CONTINUOUS
 10
9.8200203262
 20
-8.8983654059
 11
9.6033772545
 21
-8.8227906099
  0
LINE
  5
35E
100
AcDbEntity
  8
0
100
AcDbLine
 62
7
  6
CONTINUOUS
 10
10.2033774972
 20
-7.7985265689
 11
10.4200200646
 21
-7.8741011523
  0
LWPOLYLINE
  5
35F
100
AcDbEntity
  8
0
100
AcDbPolyline
 62
7
  6
CONTINUOUS
 90
22
 70
0
 10
11.7252934077
 20
-10.3646649802
 10
11.7190179636
 20
-10.3624539402
 10
11.7124092212
 20
-10.3599769824
 10
11.7054671805
 20
-10.357234107
 10
11.6981670156
 20
-10.3542143558
 10
11.6905335524
 20
-10.3509286869
 10
11.6826412683
 20
-10.347409975
 10
11.6744892352
 20
-10.3436565321
 10
11.6660783812
 20
-10.3396700461
 10
11.6574859675
 20
-10.3354884551
 10
11.6487125358
 20
-10.3311111103
 10
11.6397575444
 20
-10.3265386605
 10
11.6306966296
 20
-10.3218109899
 10
11.6215310209
 20
-10.316928091
 10
11.6122594888
 20
-10.3118899712
 10
11.6029539815
 20
-10.3067365378
 10
11.5936148032
 20
-10.3014674316
 10
11.5842416497
 20
-10.2960830118
 10
11.574905556
 20
-10.2906242622
 10
11.5656302007
 20
-10.2851048444
 10
11.5563919052
 20
-10.2795110969
 10
11.5471906696
 20
-10.2738430197
  0
LWPOLYLINE
  5
360
100
AcDbEntity
  8
0
100
AcDbPolyline
 62
7
  6
CONTINUOUS
 90
33
 70
0
 10
12.0467580336
 20
-6.2684062537
 10
12.0748651291
 20
-6.2785847368
 10
12.1038091378
 20
-6.2893723048
 10
12.1335745816
 20
-6.3008046596
 10
12.1643180359
 20
-6.3129923139
 10
12.1958444336
 20
-6.3259100071
 10
12.2276114928
 20
-6.3393862025
 10
12.2595988023
 20
-6.3534660611
 10
12.2917843607
 20
-6.3681882319
 10
12.323631072
 20
-6.3833520186
 10
12.3550995945
 20
-6.3989846192
 10
12.3861900876
 20
-6.4151249157
 10
12.4164366813
 20
-6.4315625951
 10
12.4458005699
 20
-6.4483075938
 10
12.4742909541
 20
-6.4653885948
 10
12.5015286631
 20
-6.4825936428
 10
12.5274897919
 20
-6.4999210281
 10
12.5521823907
 20
-6.5173813703
 10
12.5752914272
 20
-6.5347519154
 10
12.5968090598
 20
-6.5520222007
 10
12.6167439404
 20
-6.5691831492
 10
12.6348233343
 20
-6.585985741
 10
12.6510457681
 20
-6.6024067481
 10
12.6654324488
 20
-6.6184237923
 10
12.6777632356
 20
-6.6337621064
 10
12.6880329991
 20
-6.6483793276
 10
12.6962853809
 20
-6.6622512661
 10
12.7023909272
 20
-6.6751071928
 10
12.7063388777
 20
-6.6868852147
 10
12.7081918654
 20
-6.6975700836
 10
12.7079434529
 20
-6.7069454372
 10
12.7056120062
 20
-6.7149116327
 10
12.7044105501
 20
-6.7172075342
  0
LWPOLYLINE
  5
361
100
AcDbEntity
  8
ASSI
100
AcDbPolyline
 62
7
  6
CONTINUOUS
 90
39
 70
0
 10
13.2045380411
 20
-7.5322267083
 10
13.2257782539
 20
-7.5404095166
 10
13.294432613
 20
-7.5713275458
 10
13.3614258558
 20
-7.6061048404
 10
13.4267691845
 20
-7.6447153889
 10
13.4900201832
 20
-7.686897775
 10
13.5511646551
 20
-7.732676239
 10
13.610216797
 20
-7.7820265405
 10
13.6667767833
 20
-7.834614542
 10
13.7208277027
 20
-7.8904622179
 10
13.7723864666
 20
-7.9495475937
 10
13.8211039837
 20
-8.0114706091
 10
13.866960976
 20
-8.0762505354
 10
13.9099767214
 20
-8.1438681012
 10
13.9498599629
 20
-8.2138654316
 10
13.9865894345
 20
-8.2862586852
 10
14.0201864021
 20
-8.3610317033
 10
14.0504234068
 20
-8.437678136
 10
14.0772776314
 20
-8.5162106623
 10
14.100771893
 20
-8.596616603
 10
14.1207471843
 20
-8.678351571
 10
14.1371796319
 20
-8.7614245318
 10
14.1500931092
 20
-8.8458265198
 10
14.1594002296
 20
-8.9309862505
 10
14.1650765421
 20
-9.0169089021
 10
14.1671464976
 20
-9.1035892963
 10
14.1655960621
 20
-9.1904406134
 10
14.1604006437
 20
-9.2774641239
 10
14.1515848343
 20
-9.3646585573
 10
14.1392083746
 20
-9.4514332824
 10
14.1232470399
 20
-9.5377854786
 10
14.1037250549
 20
-9.6237179666
 10
14.0807748343
 20
-9.7086485774
 10
14.0543730151
 20
-9.7925705434
 10
14.0245429604
 20
-9.8754906323
 10
13.9914871738
 20
-9.9568469778
 10
13.9552731568
 20
-10.0364522913
 10
13.915833408
 20
-10.1144938615
 10
13.8731679274
 20
-10.1909716883
  0
LINE
  5
362
100
AcDbEntity
  8
0
100
AcDbLine
 62
7
  6
CONTINUOUS
 10
9.6033772545
 20
-8.8227906099
 11
9.1056436832
 21
-8.6276188081
  0
LINE
  5
363
100
AcDbEntity
  8
0
100
AcDbLine
 62
7
  6
CONTINUOUS
 10
9.7056448903
 20
-7.6033556355
 11
10.2033774972
 21
-7.7985265689
  0
LINE
  5
364
100
AcDbEntity
  8
0
100
AcDbLine
 62
7
  6
CONTINUOUS
 10
10.3143805531
 20
-7.2933102506
 11
10.8951618803
 21
-7.5341619695
  0
LINE
  5
365
100
AcDbEntity
  8
0
100
AcDbLine
 62
7
  6
CONTINUOUS
 10
10.2960317072
 20
-7.3017693734
 11
10.8879269678
 21
-7.5495014459
  0
LINE
  5
366
100
AcDbEntity
  8
0
100
AcDbLine
 62
7
  6
CONTINUOUS
 10
10.0519401597
 20
-11.3848994628
 11
9.9832827308
 21
-11.3555681447
  0
LWPOLYLINE
  5
367
100
AcDbEntity
  8
0
100
AcDbPolyline
 62
7
  6
CONTINUOUS
 90
10
 70
0
 10
12.0467580336
 20
-6.2684062537
 10
11.9781006047
 20
-6.2390749355
 10
11.9086180429
 20
-6.2123774654
 10
11.8383103481
 20
-6.1883138432
 10
11.7671056151
 20
-6.1668653743
 10
11.6950757492
 20
-6.1480507534
 10
11.622436466
 20
-6.1319260645
 10
11.549185523
 20
-6.1184992641
 10
11.4753251626
 20
-6.1077623956
 10
11.4571805209
 20
-6.1055449546
  0
LWPOLYLINE
  5
368
100
AcDbEntity
  8
0
100
AcDbPolyline
 62
250
  6
CONTINUOUS
 90
25
 70
0
 10
9.2090768782
 20
-10.9796938254
 10
9.3102143798
 20
-11.0243263403
 10
9.4135954328
 20
-11.0629807403
 10
9.5190973524
 20
-11.0955988321
 10
9.6265545126
 20
-11.1220969543
 10
9.7356245671
 20
-11.1423587115
 10
9.8459135724
 20
-11.1562986436
 10
9.9571063028
 20
-11.1638798626
 10
10.0689708694
 20
-11.1650894876
 10
10.1812300038
 20
-11.1599238527
 10
10.2936049253
 20
-11.1483953859
 10
10.4058201389
 20
-11.1305319504
 10
10.5176027582
 20
-11.1063760864
 10
10.6287136797
 20
-11.0759750169
 10
10.7388409219
 20
-11.0394096274
 10
10.8476079924
 20
-10.9968130298
 10
10.9546912926
 20
-10.9483350914
 10
11.0598928576
 20
-10.8940888735
 10
11.1630316202
 20
-10.8341788187
 10
11.2638669148
 20
-10.7687476147
 10
11.3621412226
 20
-10.6979653212
 10
11.4576500569
 20
-10.6219794506
 10
11.5501688806
 20
-10.5409633832
 10
11.6394569889
 20
-10.4551224653
 10
11.7252934077
 20
-10.3646649802
  0
LINE
  5
369
100
AcDbEntity
  8
0
100
AcDbLine
 62
7
  6
CONTINUOUS
 10
9.6584120325
 20
-7.7844752211
 11
10.0441518746
 21
-7.9640685942
  0
LINE
  5
36A
100
AcDbEntity
  8
0
100
AcDbLine
 62
7
  6
CONTINUOUS
 10
9.8158644345
 20
-8.3537414957
 11
9.4303245213
 21
-8.1738291008
  0
LINE
  5
36B
100
AcDbEntity
  8
0
100
AcDbLine
 62
7
  6
CONTINUOUS
 10
9.9832827308
 20
-11.3555681447
 11
9.9271460419
 21
-11.3292986268
  0
LWPOLYLINE
  5
36C
100
AcDbEntity
  8
0
100
AcDbPolyline
 62
7
  6
CONTINUOUS
 90
7
 70
0
 10
12.0467580336
 20
-6.2684062537
 10
12.1060547004
 20
-6.2962173082
 10
12.1645814522
 20
-6.3260138044
 10
12.222289572
 20
-6.3577800552
 10
12.2791306866
 20
-6.3914987011
 10
12.335056809
 20
-6.4271507092
 10
12.3900203822
 20
-6.464715375
  0
LINE
  5
36D
100
AcDbEntity
  8
0
100
AcDbLine
 62
7
  6
CONTINUOUS
 10
10.2033774972
 20
-7.7985265689
 11
9.8099769567
 21
-7.6102586438
  0
LINE
  5
36E
100
AcDbEntity
  8
0
100
AcDbLine
 62
7
  6
CONTINUOUS
 10
10.7619789082
 20
-8.065926099
 11
10.3965027787
 21
-7.8909647902
  0
LINE
  5
36F
100
AcDbEntity
  8
0
100
AcDbLine
 62
7
  6
CONTINUOUS
 10
9.1941975316
 20
-10.9725299928
 11
9.9271460419
 21
-11.3292986268
  0
LWPOLYLINE
  5
370
100
AcDbEntity
  8
ASSI
100
AcDbPolyline
 62
7
  6
CONTINUOUS
 90
34
 70
0
 10
13.3596354048
 20
-8.1091607348
 10
13.3865351638
 20
-8.1226507781
 10
13.4391332409
 20
-8.1531487891
 10
13.4900204997
 20
-8.1868979988
 10
13.5390574473
 20
-8.2238058943
 10
13.586109663
 20
-8.2637713041
 10
13.6310477876
 20
-8.3066842919
 10
13.6737486953
 20
-8.3524271532
 10
13.7140953962
 20
-8.4008744293
 10
13.7519770405
 20
-8.4518928004
 10
13.787289807
 20
-8.5053421053
 10
13.8199371813
 20
-8.5610758994
 10
13.8498298764
 20
-8.6189414209
 10
13.8768858154
 20
-8.6787793183
 10
13.9010313266
 20
-8.7404261384
 10
13.9222010585
 20
-8.8037150805
 10
13.9403370288
 20
-8.8684736037
 10
13.9553890731
 20
-8.9345235221
 10
13.9673157292
 20
-9.0016836849
 10
13.9760841646
 20
-9.069770175
 10
13.9816701667
 20
-9.1385962964
 10
13.9840582608
 20
-9.2079728808
 10
13.983241816
 20
-9.2777098297
 10
13.9792229838
 20
-9.3476159252
 10
13.9720127899
 20
-9.4174988121
 10
13.9616310071
 20
-9.4871669777
 10
13.9481061156
 20
-9.5564293932
 10
13.9314754377
 20
-9.6250953297
 10
13.9117846625
 20
-9.692976695
 10
13.8890879186
 20
-9.759887355
 10
13.8634480132
 20
-9.8256428327
 10
13.8349356691
 20
-9.8900626563
 10
13.8036291584
 20
-9.9529707913
 10
13.7696145368
 20
-10.014194993
  0
LINE
  5
371
100
AcDbEntity
  8
0
100
AcDbLine
 62
7
  6
CONTINUOUS
 10
10.0859823613
 20
-7.972398568
 11
9.8485138607
 21
-7.8528078044
  0
LINE
  5
372
100
AcDbEntity
  8
0
100
AcDbLine
 62
7
  6
CONTINUOUS
 10
10.0441348993
 20
-7.9641112709
 11
9.8274972288
 21
-7.8543577375
  0
LWPOLYLINE
  5
373
100
AcDbEntity
  8
0
100
AcDbPolyline
 62
7
  6
CONTINUOUS
 90
22
 70
0
 10
12.1471906696
 20
-9.249578951
 10
12.156429997
 20
-9.2552704211
 10
12.1657091152
 20
-9.2608882459
 10
12.1750280241
 20
-9.2664324254
 10
12.1844133903
 20
-9.2719182942
 10
12.1938385473
 20
-9.2773305177
 10
12.2032234953
 20
-9.2826230921
 10
12.2125675357
 20
-9.2877948002
 10
12.2218713671
 20
-9.2928468591
 10
12.2310570862
 20
-9.2977369165
 10
12.2401233793
 20
-9.3024634907
 10
12.2490715601
 20
-9.3070280634
 10
12.2578276663
 20
-9.3113927263
 10
12.2663901825
 20
-9.3155559539
 10
12.274760624
 20
-9.3195192718
 10
12.2828695749
 20
-9.3232493483
 10
12.2907161088
 20
-9.3267448569
 10
12.2983011521
 20
-9.3300071242
 10
12.3055580674
 20
-9.3330067985
 10
12.3124646422
 20
-9.3357340959
 10
12.319043089
 20
-9.3381988002
 10
12.3252934077
 20
-9.3404009115
  0
LINE
  5
374
100
AcDbEntity
  8
0
100
AcDbLine
 62
7
  6
CONTINUOUS
 10
11.5471906696
 20
-10.2738430197
 11
11.3781113701
 21
-10.168239712
  0
LINE
  5
375
100
AcDbEntity
  8
0
100
AcDbLine
 62
7
  6
CONTINUOUS
 10
11.9781134453
 20
-9.1439769462
 11
12.1471906696
 21
-9.249578951
  0
LINE
  5
376
100
AcDbEntity
  8
0
100
AcDbLine
 62
7
  6
CONTINUOUS
 10
-45.1483922856
 20
29.8054066831
 11
-45.3158410447
 21
29.9107670363
  0
LINE
  5
377
100
AcDbEntity
  8
0
100
AcDbLine
 62
7
  6
CONTINUOUS
 10
11.3781113701
 20
-10.168239712
 11
11.2110793331
 21
-10.0628817239
  0
LINE
  5
378
100
AcDbEntity
  8
0
100
AcDbLine
 62
7
  6
CONTINUOUS
 10
11.8110841384
 20
-9.0386207016
 11
11.9781134453
 21
-9.1439769462
  0
LINE
  5
379
100
AcDbEntity
  8
0
100
AcDbLine
 62
7
  6
CONTINUOUS
 10
-45.3158410447
 20
29.9107670363
 11
-45.4821427681
 21
30.0164482838
  0
LINE
  5
37A
100
AcDbEntity
  8
0
100
AcDbLine
 62
7
  6
CONTINUOUS
 10
11.2110793331
 20
-10.0628817239
 11
11.0449023768
 21
-9.957015318
  0
LINE
  5
37B
100
AcDbEntity
  8
0
100
AcDbLine
 62
7
  6
CONTINUOUS
 10
11.6449090122
 20
-8.9327554977
 11
11.8110841384
 21
-9.0386207016
  0
LINE
  5
37C
100
AcDbEntity
  8
0
100
AcDbLine
 62
7
  6
CONTINUOUS
 10
-45.4821427681
 20
30.0164482838
 11
-45.6479489637
 21
30.122880305
  0
LINE
  5
37D
100
AcDbEntity
  8
0
100
AcDbLine
 62
7
  6
CONTINUOUS
 10
11.0449023768
 20
-9.957015318
 11
10.8794063574
 21
-9.850512432
  0
LINE
  5
37E
100
AcDbEntity
  8
0
100
AcDbLine
 62
7
  6
CONTINUOUS
 10
11.4794134854
 20
-8.8262529739
 11
11.6449090122
 21
-8.9327554977
  0
LINE
  5
37F
100
AcDbEntity
  8
0
100
AcDbLine
 62
7
  6
CONTINUOUS
 10
-45.6479489637
 20
30.122880305
 11
-45.8118587582
 21
30.2291750305
  0
LINE
  5
380
100
AcDbEntity
  8
0
100
AcDbLine
 62
7
  6
CONTINUOUS
 10
10.8794063574
 20
-9.850512432
 11
10.7160821551
 21
-9.7443246418
  0
LINE
  5
381
100
AcDbEntity
  8
0
100
AcDbLine
 62
7
  6
CONTINUOUS
 10
11.3160900255
 20
-8.7200657173
 11
11.4794134854
 21
-8.8262529739
  0
LINE
  5
382
100
AcDbEntity
  8
0
100
AcDbLine
 62
7
  6
CONTINUOUS
 10
-45.8118587582
 20
30.2291750305
 11
-45.9741535483
 21
30.3355198897
  0
LINE
  5
383
100
AcDbEntity
  8
0
100
AcDbLine
 62
7
  6
CONTINUOUS
 10
10.7160821551
 20
-9.7443246418
 11
10.5538483543
 21
-9.6377398883
  0
LINE
  5
384
100
AcDbEntity
  8
0
100
AcDbLine
 62
7
  6
CONTINUOUS
 10
11.1538559063
 20
-8.6134808074
 11
11.3160900255
 21
-8.7200657173
  0
LINE
  5
385
100
AcDbEntity
  8
0
100
AcDbLine
 62
7
  6
CONTINUOUS
 10
-45.4958288275
 20
31.4402549959
 11
-45.3335997556
 21
31.3331066144
  0
LINE
  5
386
100
AcDbEntity
  8
0
100
AcDbLine
 62
7
  6
CONTINUOUS
 10
-45.9741535483
 20
30.3355198897
 11
-46.1363077131
 21
30.4429065804
  0
LWPOLYLINE
  5
387
100
AcDbEntity
  8
0
100
AcDbPolyline
 62
250
  6
CONTINUOUS
 90
10
 70
0
 10
11.5336712123
 20
-6.3516834075
 10
11.4406899076
 20
-6.2897969098
 10
11.3447386258
 20
-6.2335231266
 10
11.2460524437
 20
-6.1829996911
 10
11.1449149421
 20
-6.1383671762
 10
11.0415338891
 20
-6.0997127762
 10
10.9360319695
 20
-6.0670946845
 10
10.8285748093
 20
-6.0405965623
 10
10.7195047548
 20
-6.0203348051
 10
10.6475408628
 20
-6.0105054806
  0
LINE
  5
388
100
AcDbEntity
  8
0
100
AcDbLine
 62
7
  6
CONTINUOUS
 10
10.5538483543
 20
-9.6377398883
 11
10.3918486822
 21
-9.5301654663
  0
LINE
  5
389
100
AcDbEntity
  8
0
100
AcDbLine
 62
7
  6
CONTINUOUS
 10
10.9918535698
 20
-8.5059046604
 11
11.1538559063
 21
-8.6134808074
  0
LINE
  5
38A
100
AcDbEntity
  8
0
100
AcDbLine
 62
7
  6
CONTINUOUS
 10
-45.6570590136
 20
31.5479032372
 11
-45.4958288275
 21
31.4402549959
  0
LINE
  5
38B
100
AcDbEntity
  8
0
100
AcDbLine
 62
7
  6
CONTINUOUS
 10
-46.1363077131
 20
30.4429065804
 11
-46.2968880424
 21
30.5504154963
  0
LWPOLYLINE
  5
38C
100
AcDbEntity
  8
0
100
AcDbPolyline
 62
7
  6
CONTINUOUS
 90
3
 70
0
 10
10.3918486822
 20
-9.5301654663
 10
10.2320415262
 20
-9.4228790688
 10
10.1926414623
 20
-9.3962423514
  0
LWPOLYLINE
  5
38D
100
AcDbEntity
  8
0
100
AcDbPolyline
 62
7
  6
CONTINUOUS
 90
3
 70
0
 10
10.7926428748
 20
-8.3719792389
 10
10.8320434796
 20
-8.3986163194
 10
10.9918535698
 20
-8.5059046604
  0
LINE
  5
38E
100
AcDbEntity
  8
0
100
AcDbLine
 62
7
  6
CONTINUOUS
 10
-46.2968880424
 20
30.5504154963
 11
-46.3759010326
 21
30.6037576486
  0
LINE
  5
38F
100
AcDbEntity
  8
0
100
AcDbLine
 62
7
  6
CONTINUOUS
 10
-45.7758996201
 20
31.6280207611
 11
-45.6570590136
 21
31.5479032372
  0
LINE
  5
390
100
AcDbEntity
  8
0
100
AcDbLine
 62
7
  6
CONTINUOUS
 10
-48.1877749057
 20
32.1193399642
 11
-46.7485221688
 21
31.1016345941
  0
LINE
  5
391
100
AcDbEntity
  8
0
100
AcDbLine
 62
7
  6
CONTINUOUS
 10
-45.9585217951
 20
30.5430199727
 11
-44.5192693198
 21
29.5253147876
  0
LINE
  5
392
100
AcDbEntity
  8
0
100
AcDbLine
 62
7
  6
CONTINUOUS
 10
8.3807675893
 20
-7.8806600358
 11
9.8200203262
 21
-8.8983654059
  0
LINE
  5
393
100
AcDbEntity
  8
0
100
AcDbLine
 62
7
  6
CONTINUOUS
 10
10.6100206998
 20
-9.4569800273
 11
12.0492731752
 21
-10.4746852124
  0
LWPOLYLINE
  5
394
100
AcDbEntity
  8
0
100
AcDbPolyline
 62
7
  6
CONTINUOUS
 90
7
 70
0
 10
-44.1785221127
 20
33.535284625
 10
-44.1246358672
 20
33.4958808458
 10
-44.0719354181
 20
33.4547222687
 10
-44.0204576168
 20
33.4118478746
 10
-43.9702381071
 20
33.3672977666
 10
-43.921311307
 20
33.3211131277
 10
-43.8737103915
 20
33.2733361768
  0
LINE
  5
395
100
AcDbEntity
  8
0
100
AcDbLine
 62
7
  6
CONTINUOUS
 10
-47.4628988117
 20
31.3723811919
 11
-47.5628338331
 21
31.446961398
  0
LINE
  5
396
100
AcDbEntity
  8
0
100
AcDbLine
 62
7
  6
CONTINUOUS
 10
-46.9628311522
 20
32.4712234553
 11
-46.8628976047
 21
32.3966443645
  0
LINE
  5
397
100
AcDbEntity
  8
0
100
AcDbLine
 62
7
  6
CONTINUOUS
 10
9.1056436832
 20
-8.6276188081
 11
9.0057086618
 21
-8.553038602
  0
LINE
  5
398
100
AcDbEntity
  8
0
100
AcDbLine
 62
7
  6
CONTINUOUS
 10
9.6057113427
 20
-7.5287765447
 11
9.7056448903
 21
-7.6033556355
  0
LINE
  5
399
100
AcDbEntity
  8
0
100
AcDbLine
 62
7
  6
CONTINUOUS
 10
-47.5628338331
 20
31.446961398
 11
-47.6611303737
 21
31.5211192583
  0
LINE
  5
39A
100
AcDbEntity
  8
0
100
AcDbLine
 62
7
  6
CONTINUOUS
 10
-47.0611258239
 20
32.5453798753
 11
-46.9628311522
 21
32.4712234553
  0
LINE
  5
39B
100
AcDbEntity
  8
0
100
AcDbLine
 62
7
  6
CONTINUOUS
 10
9.0057086618
 20
-8.553038602
 11
8.9074121212
 21
-8.4788807417
  0
LINE
  5
39C
100
AcDbEntity
  8
0
100
AcDbLine
 62
7
  6
CONTINUOUS
 10
9.5074166711
 20
-7.4546201247
 11
9.6057113427
 21
-7.5287765447
  0
LWPOLYLINE
  5
39D
100
AcDbEntity
  8
0
100
AcDbPolyline
 62
7
  6
CONTINUOUS
 90
21
 70
0
 10
-43.1725071194
 20
31.4613033016
 10
-43.126844699
 20
31.4266587264
 10
-43.0698944474
 20
31.3773781113
 10
-43.0157180239
 20
31.3240645944
 10
-42.9646986342
 20
31.2670163334
 10
-42.9173782642
 20
31.2068583172
 10
-42.8739269652
 20
31.143915865
 10
-42.8344550152
 20
31.0784731279
 10
-42.7992507585
 20
31.0112161843
 10
-42.7684542609
 20
30.9427849403
 10
-42.7419138743
 20
30.8732613646
 10
-42.7194659625
 20
30.8024990855
 10
-42.7011424962
 20
30.7307802913
 10
-42.6869773206
 20
30.6584676933
 10
-42.6769294711
 20
30.5855063046
 10
-42.671031115
 20
30.5119518831
 10
-42.6693536756
 20
30.4384287282
 10
-42.6718719648
 20
30.3657322528
 10
-42.678485761
 20
30.2942454822
 10
-42.6890808186
 20
30.2242538524
 10
-42.693170548
 20
30.2049369976
  0
LWPOLYLINE
  5
39E
100
AcDbEntity
  8
0
100
AcDbPolyline
 62
7
  6
CONTINUOUS
 90
21
 70
0
 10
13.3960353755
 20
-8.5386966984
 10
13.441697796
 20
-8.5733412736
 10
13.4986480475
 20
-8.6226218887
 10
13.552824471
 20
-8.6759354056
 10
13.6038438608
 20
-8.7329836666
 10
13.6511642307
 20
-8.7931416828
 10
13.6946155297
 20
-8.856084135
 10
13.7340874798
 20
-8.9215268721
 10
13.7692917364
 20
-8.9887838157
 10
13.800088234
 20
-9.0572150597
 10
13.8266286206
 20
-9.1267386354
 10
13.8490765325
 20
-9.1975009145
 10
13.8673999987
 20
-9.2692197087
 10
13.8815651743
 20
-9.3415323067
 10
13.8916130238
 20
-9.4144936954
 10
13.89751138
 20
-9.4880481169
 10
13.8991888193
 20
-9.5615712718
 10
13.8966705302
 20
-9.6342677472
 10
13.8900567339
 20
-9.7057545178
 10
13.8794616763
 20
-9.7757461476
 10
13.8753719469
 20
-9.7950630024
  0
LINE
  5
39F
100
AcDbEntity
  8
0
100
AcDbLine
 62
7
  6
CONTINUOUS
 10
-47.6611303737
 20
31.5211192583
 11
-47.756926136
 21
31.5942045223
  0
LINE
  5
3A0
100
AcDbEntity
  8
0
100
AcDbLine
 62
7
  6
CONTINUOUS
 10
-47.1569202849
 20
32.6184641014
 11
-47.0611258239
 21
32.5453798753
  0
LINE
  5
3A1
100
AcDbEntity
  8
0
100
AcDbLine
 62
7
  6
CONTINUOUS
 10
8.9074121212
 20
-8.4788807417
 11
8.8116163589
 21
-8.4057954777
  0
LINE
  5
3A2
100
AcDbEntity
  8
0
100
AcDbLine
 62
7
  6
CONTINUOUS
 10
9.4116222101
 20
-7.3815358986
 11
9.5074166711
 21
-7.4546201247
  0
LINE
  5
3A3
100
AcDbEntity
  8
0
100
AcDbLine
 62
7
  6
CONTINUOUS
 10
-47.756926136
 20
31.5942045223
 11
-47.8496470842
 21
31.6657618164
  0
LINE
  5
3A4
100
AcDbEntity
  8
0
100
AcDbLine
 62
7
  6
CONTINUOUS
 10
-47.2496410885
 20
32.6900212308
 11
-47.1569202849
 21
32.6184641014
  0
LINE
  5
3A5
100
AcDbEntity
  8
0
100
AcDbLine
 62
7
  6
CONTINUOUS
 10
8.8116163589
 20
-8.4057954777
 11
8.7188954108
 21
-8.3342381836
  0
LINE
  5
3A6
100
AcDbEntity
  8
0
100
AcDbLine
 62
7
  6
CONTINUOUS
 10
9.3189014064
 20
-7.3099787692
 11
9.4116222101
 21
-7.3815358986
  0
LINE
  5
3A7
100
AcDbEntity
  8
0
100
AcDbLine
 62
7
  6
CONTINUOUS
 10
-47.8496470842
 20
31.6657618164
 11
-47.9395335487
 21
31.7359544849
  0
LINE
  5
3A8
100
AcDbEntity
  8
0
100
AcDbLine
 62
7
  6
CONTINUOUS
 10
-47.3395281796
 20
32.7602143356
 11
-47.2496410885
 21
32.6900212308
  0
LINE
  5
3A9
100
AcDbEntity
  8
0
100
AcDbLine
 62
7
  6
CONTINUOUS
 10
8.7188954108
 20
-8.3342381836
 11
8.6290089463
 21
-8.2640455151
  0
LINE
  5
3AA
100
AcDbEntity
  8
0
100
AcDbLine
 62
7
  6
CONTINUOUS
 10
9.2290143153
 20
-7.2397856644
 11
9.3189014064
 21
-7.3099787692
  0
LINE
  5
3AB
100
AcDbEntity
  8
0
100
AcDbLine
 62
7
  6
CONTINUOUS
 10
-47.9395335487
 20
31.7359544849
 11
-48.0273519663
 21
31.805372737
  0
LINE
  5
3AC
100
AcDbEntity
  8
0
100
AcDbLine
 62
7
  6
CONTINUOUS
 10
-47.4273470565
 20
32.8296329003
 11
-47.3395281796
 21
32.7602143356
  0
LINE
  5
3AD
100
AcDbEntity
  8
0
100
AcDbLine
 62
7
  6
CONTINUOUS
 10
8.6290089463
 20
-8.2640455151
 11
8.5411905287
 21
-8.194627263
  0
LINE
  5
3AE
100
AcDbEntity
  8
0
100
AcDbLine
 62
7
  6
CONTINUOUS
 10
9.1411954384
 20
-7.1703670997
 11
9.2290143153
 21
-7.2397856644
  0
LINE
  5
3AF
100
AcDbEntity
  8
0
100
AcDbLine
 62
7
  6
CONTINUOUS
 10
-48.0273519663
 20
31.805372737
 11
-48.1130136428
 21
31.8739487039
  0
LINE
  5
3B0
100
AcDbEntity
  8
0
100
AcDbLine
 62
7
  6
CONTINUOUS
 10
-47.5130091486
 20
32.8982091512
 11
-47.4273470565
 21
32.8296329003
  0
LINE
  5
3B1
100
AcDbEntity
  8
0
100
AcDbLine
 62
7
  6
CONTINUOUS
 10
8.5411905287
 20
-8.194627263
 11
8.4555288521
 21
-8.1260512961
  0
LINE
  5
3B2
100
AcDbEntity
  8
0
100
AcDbLine
 62
7
  6
CONTINUOUS
 10
9.0555333463
 20
-7.1017908488
 11
9.1411954384
 21
-7.1703670997
  0
LINE
  5
3B3
100
AcDbEntity
  8
0
100
AcDbLine
 62
7
  6
CONTINUOUS
 10
-48.1130136428
 20
31.8739487039
 11
-48.1959495914
 21
31.9412201451
  0
LINE
  5
3B4
100
AcDbEntity
  8
0
100
AcDbLine
 62
7
  6
CONTINUOUS
 10
-47.59594606
 20
32.9654813301
 11
-47.5130091486
 21
32.8982091512
  0
LINE
  5
3B5
100
AcDbEntity
  8
0
100
AcDbLine
 62
7
  6
CONTINUOUS
 10
8.4555288521
 20
-8.1260512961
 11
8.3725929035
 21
-8.0587798549
  0
LINE
  5
3B6
100
AcDbEntity
  8
0
100
AcDbLine
 62
7
  6
CONTINUOUS
 10
8.9725964349
 20
-7.0345186699
 11
9.0555333463
 21
-7.1017908488
  0
LINE
  5
3B7
100
AcDbEntity
  8
0
100
AcDbLine
 62
7
  6
CONTINUOUS
 10
-48.1959495914
 20
31.9412201451
 11
-48.2497437162
 21
31.9853498196
  0
LINE
  5
3B8
100
AcDbEntity
  8
0
100
AcDbLine
 62
7
  6
CONTINUOUS
 10
-47.6497410744
 20
33.0096117113
 11
-47.59594606
 21
32.9654813301
  0
LINE
  5
3B9
100
AcDbEntity
  8
0
100
AcDbLine
 62
7
  6
CONTINUOUS
 10
8.3725929035
 20
-8.0587798549
 11
8.3187987787
 21
-8.0146501804
  0
LINE
  5
3BA
100
AcDbEntity
  8
0
100
AcDbLine
 62
7
  6
CONTINUOUS
 10
8.9188014206
 20
-6.9903882887
 11
8.9725964349
 21
-7.0345186699
  0
LINE
  5
3BB
100
AcDbEntity
  8
0
100
AcDbLine
 62
7
  6
CONTINUOUS
 10
-48.2497437162
 20
31.9853498196
 11
-48.3024739817
 21
32.0290114034
  0
LINE
  5
3BC
100
AcDbEntity
  8
0
100
AcDbLine
 62
7
  6
CONTINUOUS
 10
-47.7024722536
 20
33.0532740347
 11
-47.6497410744
 21
33.0096117113
  0
LINE
  5
3BD
100
AcDbEntity
  8
0
100
AcDbLine
 62
7
  6
CONTINUOUS
 10
8.3187987787
 20
-8.0146501804
 11
8.2660685132
 21
-7.9709885966
  0
LINE
  5
3BE
100
AcDbEntity
  8
0
100
AcDbLine
 62
7
  6
CONTINUOUS
 10
8.8660702413
 20
-6.9467259653
 11
8.9188014206
 21
-6.9903882887
  0
LINE
  5
3BF
100
AcDbEntity
  8
0
100
AcDbLine
 62
7
  6
CONTINUOUS
 10
-48.3024739817
 20
32.0290114034
 11
-48.3542096763
 21
32.0722620163
  0
LINE
  5
3C0
100
AcDbEntity
  8
0
100
AcDbLine
 62
7
  6
CONTINUOUS
 10
-47.7542087965
 20
33.0965253459
 11
-47.7024722536
 21
33.0532740347
  0
LINE
  5
3C1
100
AcDbEntity
  8
0
100
AcDbLine
 62
7
  6
CONTINUOUS
 10
8.2660685132
 20
-7.9709885966
 11
8.2143328186
 21
-7.9277379837
  0
LINE
  5
3C2
100
AcDbEntity
  8
0
100
AcDbLine
 62
7
  6
CONTINUOUS
 10
8.8143336985
 20
-6.9034746541
 11
8.8660702413
 21
-6.9467259653
  0
LWPOLYLINE
  5
3C3
100
AcDbEntity
  8
0
100
AcDbPolyline
 62
7
  6
CONTINUOUS
 90
3
 70
0
 10
-48.3542096763
 20
32.0722620163
 10
-48.4050665445
 20
32.1152008475
 10
-48.4301574086
 20
32.1365465241
  0
LWPOLYLINE
  5
3C4
100
AcDbEntity
  8
0
100
AcDbPolyline
 62
7
  6
CONTINUOUS
 90
3
 70
0
 10
8.2143328186
 20
-7.9277379837
 10
8.1634759504
 20
-7.8847991525
 10
8.1383850863
 20
-7.8634534759
  0
LINE
  5
3C5
100
AcDbEntity
  8
TRASH
100
AcDbLine
 62
7
  6
CONTINUOUS
 10
-46.7213825153
 20
31.619906135
 11
-46.752555823
 21
31.6464153536
  0
LINE
  5
3C6
100
AcDbEntity
  8
TRASH
100
AcDbLine
 62
7
  6
CONTINUOUS
 10
9.8471599797
 20
-8.380093865
 11
9.815986672
 21
-8.3535846464
  0
LWPOLYLINE
  5
3C7
100
AcDbEntity
  8
0
100
AcDbPolyline
 62
7
  6
CONTINUOUS
 90
3
 70
0
 10
-47.8301574086
 20
33.1608105928
 10
-47.805066298
 20
33.1394647062
 10
-47.7542087965
 20
33.0965253459
  0
LWPOLYLINE
  5
3C8
100
AcDbEntity
  8
0
100
AcDbPolyline
 62
7
  6
CONTINUOUS
 90
3
 70
0
 10
8.7383850863
 20
-6.8391894072
 10
8.7634761969
 20
-6.8605352938
 10
8.8143336985
 20
-6.9034746541
  0
LWPOLYLINE
  5
3C9
100
AcDbEntity
  8
0
100
AcDbPolyline
 62
7
  6
CONTINUOUS
 90
14
 70
0
 10
-48.4301574086
 20
32.1365465241
 10
-48.4353325477
 20
32.141047621
 10
-48.4400560325
 20
32.1453311317
 10
-48.444327863
 20
32.1493970561
 10
-48.4481577024
 20
32.1532557488
 10
-48.4515358876
 20
32.1568968553
 10
-48.4544334284
 20
32.1602893121
 10
-48.4568461351
 20
32.1634308796
 10
-48.4587781974
 20
32.1663237973
 10
-48.4602131952
 20
32.1689437209
 10
-48.4611471469
 20
32.1712883876
 10
-48.4615840339
 20
32.17336006
 10
-48.4615193804
 20
32.1751411822
 10
-48.4613523109
 20
32.1757698821
  0
LWPOLYLINE
  5
3CA
100
AcDbEntity
  8
0
100
AcDbPolyline
 62
7
  6
CONTINUOUS
 90
14
 70
0
 10
8.1383850863
 20
-7.8634534759
 10
8.1332099472
 20
-7.858952379
 10
8.1284864624
 20
-7.8546688683
 10
8.1242146319
 20
-7.8506029439
 10
8.1203847925
 20
-7.8467442512
 10
8.1170066074
 20
-7.8431031447
 10
8.1141090665
 20
-7.8397106879
 10
8.1116963599
 20
-7.8365691204
 10
8.1097642975
 20
-7.8336762027
 10
8.1083292997
 20
-7.8310562791
 10
8.1073953481
 20
-7.8287116124
 10
8.106958461
 20
-7.82663994
 10
8.1070231145
 20
-7.8248588178
 10
8.107190184
 20
-7.8242301179
  0
LWPOLYLINE
  5
3CB
100
AcDbEntity
  8
0
100
AcDbPolyline
 62
7
  6
CONTINUOUS
 90
10
 70
0
 10
-45.4409112702
 20
32.9380342499
 10
-45.4738590694
 20
32.9680097743
 10
-45.5075899035
 20
32.9968747108
 10
-45.542078726
 20
33.0246075795
 10
-45.5773001327
 20
33.0511878921
 10
-45.6132277688
 20
33.0765957004
 10
-45.6498343081
 20
33.1008116796
 10
-45.6870923102
 20
33.1238177348
 10
-45.7249742808
 20
33.1455969449
 10
-45.7634520526
 20
33.1661331577
  0
LWPOLYLINE
  5
3CC
100
AcDbEntity
  8
0
100
AcDbPolyline
 62
7
  6
CONTINUOUS
 90
10
 70
0
 10
8.9551102456
 20
-9.9916578897
 10
8.9880580448
 20
-10.0216334142
 10
9.021788879
 20
-10.0504983507
 10
9.0562777016
 20
-10.0782312194
 10
9.0914991084
 20
-10.1048115321
 10
9.1274267445
 20
-10.1302193404
 10
9.1640332838
 20
-10.1544353198
 10
9.201291286
 20
-10.177441375
 10
9.2391732567
 20
-10.1992205852
 10
9.2776510286
 20
-10.2197567979
  0
LWPOLYLINE
  5
3CD
100
AcDbEntity
  8
ASSI
100
AcDbPolyline
 62
7
  6
CONTINUOUS
 90
10
 70
0
 10
10.9299952545
 20
-11.5289372934
 10
10.9548558019
 20
-11.5520518831
 10
11.045826487
 20
-11.6280765492
 10
11.1400203822
 20
-11.6985988515
 10
11.2374593592
 20
-11.7635814526
 10
11.3381215463
 20
-11.82306169
 10
11.4413254211
 20
-11.8766368591
 10
11.5470882306
 20
-11.9242668899
 10
11.6553927278
 20
-11.9659918524
 10
11.7144315779
 20
-11.9850718593
  0
LINE
  5
3CE
100
AcDbEntity
  8
0
100
AcDbLine
 62
7
  6
CONTINUOUS
 10
9.1088797177
 20
-9.3514999978
 11
9.107869815
 21
-9.3300884996
  0
LINE
  5
3CF
100
AcDbEntity
  8
ASSI
100
AcDbLine
 62
250
  6
CONTINUOUS
 10
3.5008609793
 20
65.7371997321
 11
3.5008609793
 21
64.7371997321
  0
LINE
  5
3D0
100
AcDbEntity
  8
0
100
AcDbLine
 62
7
  6
CONTINUOUS
 10
9.107869815
 20
-9.3300884996
 11
9.1091678228
 21
-9.3005719165
  0
LINE
  5
3D1
100
AcDbEntity
  8
0
100
AcDbLine
 62
7
  6
CONTINUOUS
 10
9.1091678228
 20
-9.3005719165
 11
9.1120385119
 21
-9.2441842822
  0
LINE
  5
3D2
100
AcDbEntity
  8
0
100
AcDbLine
 62
7
  6
CONTINUOUS
 10
9.1120385119
 20
-9.2441842822
 11
9.1149687614
 21
-9.1911747744
  0
LINE
  5
3D3
100
AcDbEntity
  8
0
100
AcDbLine
 62
7
  6
CONTINUOUS
 10
9.1149687614
 20
-9.1911747744
 11
9.1195162125
 21
-9.1178945389
  0
LINE
  5
3D4
100
AcDbEntity
  8
0
100
AcDbLine
 62
7
  6
CONTINUOUS
 10
9.1195162125
 20
-9.1178945389
 11
9.1241480011
 21
-9.0512326029
  0
LINE
  5
3D5
100
AcDbEntity
  8
0
100
AcDbLine
 62
7
  6
CONTINUOUS
 10
9.1241480011
 20
-9.0512326029
 11
9.1288839553
 21
-8.9893029302
  0
LINE
  5
3D6
100
AcDbEntity
  8
0
100
AcDbLine
 62
7
  6
CONTINUOUS
 10
9.1288839553
 20
-8.9893029302
 11
9.1321582012
 21
-8.9494542518
  0
LINE
  5
3D7
100
AcDbEntity
  8
0
100
AcDbLine
 62
7
  6
CONTINUOUS
 10
9.1321582012
 20
-8.9494542518
 11
9.1355628342
 21
-8.9101107939
  0
LINE
  5
3D8
100
AcDbEntity
  8
0
100
AcDbLine
 62
7
  6
CONTINUOUS
 10
9.1355628342
 20
-8.9101107939
 11
9.1391843238
 21
-8.8704915138
  0
LINE
  5
3D9
100
AcDbEntity
  8
0
100
AcDbLine
 62
7
  6
CONTINUOUS
 10
9.1391843238
 20
-8.8704915138
 11
9.1430043573
 21
-8.8307198858
  0
LINE
  5
3DA
100
AcDbEntity
  8
0
100
AcDbLine
 62
7
  6
CONTINUOUS
 10
9.1430043573
 20
-8.8307198858
 11
9.1470441778
 21
-8.7908170676
  0
LWPOLYLINE
  5
3DB
100
AcDbEntity
  8
0
100
AcDbPolyline
 62
7
  6
CONTINUOUS
 90
3
 70
0
 10
9.1470441778
 20
-8.7908170676
 10
9.1512746875
 20
-8.7509352716
 10
9.1534810467
 20
-8.7309678008
  0
LINE
  5
3DC
100
AcDbEntity
  8
0
100
AcDbLine
 62
7
  6
CONTINUOUS
 10
9.8242492641
 20
-8.8678628257
 11
9.8200203262
 21
-8.8983654059
  0
LINE
  5
3DD
100
AcDbEntity
  8
0
100
AcDbLine
 62
7
  6
CONTINUOUS
 10
8.9551102456
 20
-9.9916578897
 11
8.9730732272
 21
-9.9069338726
  0
LINE
  5
3DE
100
AcDbEntity
  8
0
100
AcDbLine
 62
7
  6
CONTINUOUS
 10
8.9730732272
 20
-9.9069338726
 11
8.9918596066
 21
-9.8218067966
  0
LINE
  5
3DF
100
AcDbEntity
  8
0
100
AcDbLine
 62
7
  6
CONTINUOUS
 10
8.9918596066
 20
-9.8218067966
 11
9.0114796901
 21
-9.7362504299
  0
LINE
  5
3E0
100
AcDbEntity
  8
0
100
AcDbLine
 62
7
  6
CONTINUOUS
 10
9.0114796901
 20
-9.7362504299
 11
9.0319951838
 21
-9.6500656709
  0
LWPOLYLINE
  5
3E1
100
AcDbEntity
  8
0
100
AcDbPolyline
 62
7
  6
CONTINUOUS
 90
3
 70
0
 10
9.0319951838
 20
-9.6500656709
 10
9.0533023506
 20
-9.5637250876
 10
9.0642433333
 20
-9.5205415056
  0
LWPOLYLINE
  5
3E2
100
AcDbEntity
  8
0
100
AcDbPolyline
 62
250
  6
CONTINUOUS
 90
49
 70
0
 10
8.1383850863
 20
-7.8634534759
 10
8.0982959216
 20
-7.9947738356
 10
8.0644539399
 20
-8.1278106656
 10
8.0369625495
 20
-8.2621574564
 10
8.0159057536
 20
-8.3974036967
 10
8.0013478941
 20
-8.5331361249
 10
7.9933334543
 20
-8.6689399922
 10
7.9918869232
 20
-8.8044003312
 10
7.9970127203
 20
-8.93910323
 10
8.0086951836
 20
-9.0726370946
 10
8.0268986184
 20
-9.2045939058
 10
8.0515674018
 20
-9.3345704444
 10
8.0826261508
 20
-9.4621695308
 10
8.1199799499
 20
-9.5870012439
 10
8.1635146644
 20
-9.7086841766
 10
8.2130972938
 20
-9.8268465745
 10
8.2685763677
 20
-9.941127428
 10
8.3297823475
 20
-10.051177476
 10
8.3965281537
 20
-10.1566603471
 10
8.4686097872
 20
-10.25725368
 10
8.545807021
 20
-10.3526501668
 10
8.6278840227
 20
-10.4425583835
 10
8.7145900216
 20
-10.5267036225
 10
8.8056600604
 20
-10.6048287419
 10
8.9008158632
 20
-10.6766950159
 10
8.9997666899
 20
-10.7420828565
 10
9.10221017
 20
-10.8007924472
 10
9.2078332168
 20
-10.8526443637
 10
9.316313025
 20
-10.8974801528
 10
9.4273181743
 20
-10.9351628516
 10
9.5405095909
 20
-10.9655773527
 10
9.6555414928
 20
-10.9886307213
 10
9.7720623084
 20
-11.0042524767
 10
9.8897158629
 20
-11.0123948656
 10
10.0081425715
 20
-11.0130330214
 10
10.1269806444
 20
-11.0061650134
 10
10.2458670597
 20
-10.9918118233
 10
10.3644386023
 20
-10.9700172891
 10
10.4823329059
 20
-10.9408480037
 10
10.5991896638
 20
-10.9043931124
 10
10.7146517802
 20
-10.860764023
 10
10.8283664756
 20
-10.8100940463
 10
10.939986298
 20
-10.7525380061
 10
11.0491701814
 20
-10.6882717727
 10
11.1555845018
 20
-10.6174917207
 10
11.2589041114
 20
-10.5404141181
 10
11.3588133089
 20
-10.4572744798
 10
11.4550068053
 20
-10.3683268507
 10
11.5471906696
 20
-10.2738430197
  0
LWPOLYLINE
  5
3E3
100
AcDbEntity
  8
0
100
AcDbPolyline
 62
7
  6
CONTINUOUS
 90
28
 70
0
 10
8.1071894921
 20
-7.8242297166
 10
8.0655186869
 20
-7.9565134127
 10
8.0283912279
 20
-8.0970784022
 10
7.9980892704
 20
-8.2391453565
 10
7.9746992106
 20
-8.3823289921
 10
7.9583041733
 20
-8.5261608028
 10
7.9489641253
 20
-8.6700891449
 10
7.9466971549
 20
-8.8136335056
 10
7.9514984375
 20
-8.9564150679
 10
7.963351861
 20
-9.098036656
 10
7.9822328206
 20
-9.2381322873
 10
8.008085225
 20
-9.3762241456
 10
8.0408004613
 20
-9.5117599683
 10
8.0802505212
 20
-9.6442886866
 10
8.1263176491
 20
-9.7734737448
 10
8.1788629465
 20
-9.8989531553
 10
8.2377392873
 20
-10.0203842564
 10
8.3027543134
 20
-10.1373748132
 10
8.373665884
 20
-10.249510179
 10
8.4502344211
 20
-10.3564452569
 10
8.5322286007
 20
-10.4578870402
 10
8.6193792651
 20
-10.5535288208
 10
8.7113829951
 20
-10.6430687892
 10
8.8079704442
 20
-10.7262746137
 10
8.908905401
 20
-10.8029569255
 10
9.0138977959
 20
-10.8728964206
 10
9.122597136
 20
-10.9358619968
 10
9.1939938804
 20
-10.9724308491
  0
LWPOLYLINE
  5
3E4
100
AcDbEntity
  8
0
100
AcDbPolyline
 62
7
  6
CONTINUOUS
 90
9
 70
0
 10
8.3807675893
 20
-7.8806600358
 10
8.4277390083
 20
-7.7543201141
 10
8.4797785761
 20
-7.6308669946
 10
8.5368862928
 20
-7.5103006775
 10
8.5992546073
 20
-7.3922926313
 10
8.6666910706
 20
-7.2771713875
 10
8.7386183352
 20
-7.1659225398
 10
8.814843952
 20
-7.0588746194
 10
8.8882068537
 20
-6.9650987057
  0
LWPOLYLINE
  5
3E5
100
AcDbEntity
  8
0
100
AcDbPolyline
 62
7
  6
CONTINUOUS
 90
10
 70
0
 10
8.107190184
 20
-7.8242301179
 10
8.1075930161
 20
-7.8233704134
 10
8.1086644583
 20
-7.8221725593
 10
8.1102307947
 20
-7.8212763088
 10
8.1122961948
 20
-7.8206839384
 10
8.1148564891
 20
-7.8203931717
 10
8.1178925237
 20
-7.8204082326
 10
8.1213979137
 20
-7.8207305292
 10
8.1253790438
 20
-7.8213586533
 10
8.1298359142
 20
-7.8222926051
  0
LINE
  5
3E6
100
AcDbEntity
  8
0
100
AcDbLine
 62
7
  6
CONTINUOUS
 10
38.7776510286
 20
40.1398932471
 11
38.812526453
 21
40.1915659768
  0
LINE
  5
3E7
100
AcDbEntity
  8
0
100
AcDbLine
 62
7
  6
CONTINUOUS
 10
38.812526453
 20
40.1915659768
 11
38.8509020358
 21
40.2477682906
  0
LINE
  5
3E8
100
AcDbEntity
  8
0
100
AcDbLine
 62
7
  6
CONTINUOUS
 10
38.8509020358
 20
40.2477682906
 11
38.8929588084
 21
40.3086989887
  0
LINE
  5
3E9
100
AcDbEntity
  8
0
100
AcDbLine
 62
7
  6
CONTINUOUS
 10
38.8929588084
 20
40.3086989887
 11
38.9394599378
 21
40.3752566335
  0
LINE
  5
3EA
100
AcDbEntity
  8
0
100
AcDbLine
 62
7
  6
CONTINUOUS
 10
38.9394599378
 20
40.3752566335
 11
38.9902021641
 21
40.4469174144
  0
LINE
  5
3EB
100
AcDbEntity
  8
0
100
AcDbLine
 62
7
  6
CONTINUOUS
 10
38.9902021641
 20
40.4469174144
 11
39.0446718949
 21
40.5228395981
  0
LWPOLYLINE
  5
3EC
100
AcDbEntity
  8
0
100
AcDbPolyline
 62
7
  6
CONTINUOUS
 90
3
 70
0
 10
39.0446718949
 20
40.5228395981
 10
39.1010685292
 20
40.6003281068
 10
39.1301031928
 20
40.6398314055
  0
LWPOLYLINE
  5
3ED
100
AcDbEntity
  8
0
100
AcDbPolyline
 62
7
  6
CONTINUOUS
 90
15
 70
0
 10
38.208092263
 20
43.561206961
 10
38.2075644119
 20
43.5604934262
 10
38.2070109977
 20
43.5589905862
 10
38.20696575
 20
43.5571961728
 10
38.207424229
 20
43.5551122939
 10
38.2083764586
 20
43.5527596022
 10
38.2098254436
 20
43.55013685
 10
38.2117681792
 20
43.547245285
 10
38.2141856751
 20
43.5441093034
 10
38.2170803993
 20
43.5407277342
 10
38.2204498838
 20
43.5371017482
 10
38.2242677342
 20
43.5332592547
 10
38.2285251523
 20
43.5292095567
 10
38.2332309364
 20
43.524943351
 10
38.2383850863
 20
43.5204606378
  0
LWPOLYLINE
  5
3EE
100
AcDbEntity
  8
0
100
AcDbPolyline
 62
7
  6
CONTINUOUS
 90
15
 70
0
 10
8.708092263
 20
-6.798443084
 10
8.7075644119
 20
-6.7991566188
 10
8.7070109977
 20
-6.8006594588
 10
8.70696575
 20
-6.8024538722
 10
8.707424229
 20
-6.8045377511
 10
8.7083764586
 20
-6.8068904428
 10
8.7098254436
 20
-6.809513195
 10
8.7117681792
 20
-6.81240476
 10
8.7141856751
 20
-6.8155407416
 10
8.7170803993
 20
-6.8189223108
 10
8.7204498838
 20
-6.8225482968
 10
8.7242677342
 20
-6.8263907903
 10
8.7285251523
 20
-6.8304404883
 10
8.7332309364
 20
-6.834706694
 10
8.7383850863
 20
-6.8391894072
  0
LWPOLYLINE
  5
3EF
100
AcDbEntity
  8
0
100
AcDbPolyline
 62
7
  6
CONTINUOUS
 90
3
 70
0
 10
42.2044105501
 20
43.6424425108
 10
42.2012338352
 20
43.638155529
 10
42.1948321034
 20
43.6329862218
  0
LWPOLYLINE
  5
3F0
100
AcDbEntity
  8
0
100
AcDbPolyline
 62
7
  6
CONTINUOUS
 90
10
 70
0
 10
39.1584120325
 20
42.5751748239
 10
39.1279589792
 20
42.5358733505
 10
39.0987475314
 20
42.4955205872
 10
39.0707776893
 20
42.454116534
 10
39.0440015949
 20
42.4115794939
 10
39.0184671061
 20
42.3679911639
 10
38.9943177969
 20
42.3235966349
 10
38.9716015254
 20
42.2784776037
 10
38.9502704335
 20
42.2325523735
 10
38.9303245213
 20
42.1858209442
  0
LWPOLYLINE
  5
3F1
100
AcDbEntity
  8
0
100
AcDbPolyline
 62
7
  6
CONTINUOUS
 90
10
 70
0
 10
40.8716287348
 20
40.8130440903
 10
40.9020817878
 20
40.8523455633
 10
40.9312932351
 20
40.8926983263
 10
40.9592630768
 20
40.9341023792
 10
40.9860391709
 20
40.9766394188
 10
41.0115736594
 20
41.0202277484
 10
41.0357229683
 20
41.064622277
 10
41.0584392395
 20
41.1097413078
 10
41.0797703311
 20
41.1556665375
 10
41.0997162431
 20
41.2023979663
  0
LWPOLYLINE
  5
3F2
100
AcDbEntity
  8
0
100
AcDbPolyline
 62
7
  6
CONTINUOUS
 90
39
 70
0
 10
42.2032465463
 20
39.8007408573
 10
42.1490779025
 20
39.7354413216
 10
42.093382893
 20
39.6720857227
 10
42.036161518
 20
39.6106740607
 10
41.9773533038
 20
39.5511486388
 10
41.917018724
 20
39.4935671537
 10
41.8553391998
 20
39.4381026959
 10
41.7923106886
 20
39.3847616315
 10
41.727937233
 20
39.3335375944
 10
41.6624123821
 20
39.2845845765
 10
41.5957326741
 20
39.237909406
 10
41.5279015708
 20
39.1935052548
 10
41.4591230056
 20
39.15150563
 10
41.3893941293
 20
39.1119177605
 10
41.3187177912
 20
39.0747344175
 10
41.2473064733
 20
39.0400674207
 10
41.1751579638
 20
39.0079243351
 10
41.1022744745
 20
38.9782975959
 10
41.0288751223
 20
38.9512763281
 10
40.9549583531
 20
38.9268683647
 10
40.880525721
 20
38.9050658727
 10
40.8058010051
 20
38.8859344791
 10
40.7307833228
 20
38.8694822141
 10
40.6554735567
 20
38.8557010474
 10
40.5800981328
 20
38.8446325147
 10
40.5046568484
 20
38.8362847718
 10
40.4291499063
 20
38.830649663
 10
40.3538043406
 20
38.8277442567
 10
40.2786206301
 20
38.8275767607
 10
40.2035982962
 20
38.8301389673
 10
40.1289629362
 20
38.8354233212
 10
40.0547156018
 20
38.8434380423
 10
39.9808552415
 20
38.8541749107
 10
39.9076042984
 20
38.8676017112
 10
39.8349650152
 20
38.8837264
 10
39.7629351493
 20
38.9025410209
 10
39.6917304164
 20
38.9239894898
 10
39.6214227216
 20
38.948053112
 10
39.5519401597
 20
38.9747505822
  0
LINE
  5
3F3
100
AcDbEntity
  8
0
100
AcDbLine
 62
7
  6
CONTINUOUS
 10
10.2960317072
 20
-7.3017693734
 11
10.3143805531
 21
-7.2933102506
  0
LINE
  5
3F4
100
AcDbEntity
  8
0
100
AcDbLine
 62
7
  6
CONTINUOUS
 10
-46.5166023352
 20
28.6151005372
 11
-46.5852597641
 21
28.6444318553
  0
LWPOLYLINE
  5
3F5
100
AcDbEntity
  8
0
100
AcDbPolyline
 62
250
  6
CONTINUOUS
 90
25
 70
0
 10
-47.3594656167
 20
29.0203061746
 10
-47.2583281151
 20
28.9756736597
 10
-47.1549470621
 20
28.9370192597
 10
-47.0494451425
 20
28.9044011679
 10
-46.9419879823
 20
28.8779030457
 10
-46.8329179279
 20
28.8576412885
 10
-46.7226289225
 20
28.8437013564
 10
-46.6114361922
 20
28.8361201374
 10
-46.4995716256
 20
28.8349105124
 10
-46.3873124912
 20
28.8400761473
 10
-46.2749375696
 20
28.8516046141
 10
-46.162722356
 20
28.8694680496
 10
-46.0509397368
 20
28.8936239136
 10
-45.9398288152
 20
28.9240249831
 10
-45.829701573
 20
28.9605903726
 10
-45.7209345025
 20
29.0031869702
 10
-45.6138512023
 20
29.0516649086
 10
-45.5086496373
 20
29.1059111265
 10
-45.4055108747
 20
29.1658211813
 10
-45.3046755801
 20
29.2312523853
 10
-45.2064012723
 20
29.3020346788
 10
-45.1108924381
 20
29.3780205494
 10
-45.0183736144
 20
29.4590366168
 10
-44.9290855061
 20
29.5448775347
 10
-44.8432490872
 20
29.6353350198
  0
LINE
  5
3F6
100
AcDbEntity
  8
0
100
AcDbLine
 62
7
  6
CONTINUOUS
 10
-46.9101304624
 20
32.2155247789
 11
-46.5243906203
 21
32.0359314058
  0
LINE
  5
3F7
100
AcDbEntity
  8
0
100
AcDbLine
 62
7
  6
CONTINUOUS
 10
-46.7526780605
 20
31.6462585043
 11
-47.1382179736
 21
31.8261708992
  0
LINE
  5
3F8
100
AcDbEntity
  8
0
100
AcDbLine
 62
7
  6
CONTINUOUS
 10
-46.5852597641
 20
28.6444318553
 11
-46.641396453
 21
28.6707013732
  0
LINE
  5
3F9
100
AcDbEntity
  8
0
100
AcDbLine
 62
7
  6
CONTINUOUS
 10
-45.8065635868
 20
31.934073901
 11
-46.1720397162
 21
32.1090352098
  0
LINE
  5
3FA
100
AcDbEntity
  8
0
100
AcDbLine
 62
7
  6
CONTINUOUS
 10
-46.3651649977
 20
32.2014734311
 11
-46.7585655382
 21
32.3897413562
  0
LINE
  5
3FB
100
AcDbEntity
  8
0
100
AcDbLine
 62
7
  6
CONTINUOUS
 10
-47.3743449633
 20
29.0274700072
 11
-46.641396453
 21
28.6707013732
  0
LWPOLYLINE
  5
3FC
100
AcDbEntity
  8
ASSI
100
AcDbPolyline
 62
7
  6
CONTINUOUS
 90
34
 70
0
 10
-43.2089070901
 20
31.8908392652
 10
-43.1820073312
 20
31.8773492219
 10
-43.129409254
 20
31.8468512109
 10
-43.0785219952
 20
31.8131020012
 10
-43.0294850476
 20
31.7761941057
 10
-42.9824328319
 20
31.7362286959
 10
-42.9374947074
 20
31.6933157081
 10
-42.8947937997
 20
31.6475728468
 10
-42.8544470987
 20
31.5991255707
 10
-42.8165654544
 20
31.5481071996
 10
-42.7812526879
 20
31.4946578947
 10
-42.7486053136
 20
31.4389241006
 10
-42.7187126185
 20
31.3810585791
 10
-42.6916566795
 20
31.3212206817
 10
-42.6675111683
 20
31.2595738616
 10
-42.6463414364
 20
31.1962849195
 10
-42.6282054661
 20
31.1315263963
 10
-42.6131534218
 20
31.0654764779
 10
-42.6012267657
 20
30.9983163151
 10
-42.5924583303
 20
30.930229825
 10
-42.5868723282
 20
30.8614037036
 10
-42.5844842341
 20
30.7920271192
 10
-42.585300679
 20
30.7222901703
 10
-42.5893195111
 20
30.6523840748
 10
-42.5965297051
 20
30.5825011879
 10
-42.6069114878
 20
30.5128330223
 10
-42.6204363793
 20
30.4435706068
 10
-42.6370670572
 20
30.3749046703
 10
-42.6567578324
 20
30.307023305
 10
-42.6794545763
 20
30.240112645
 10
-42.7050944817
 20
30.1743571673
 10
-42.7336068259
 20
30.1099373437
 10
-42.7649133365
 20
30.0470292087
 10
-42.7989279581
 20
29.985805007
  0
LINE
  5
3FD
100
AcDbEntity
  8
0
100
AcDbLine
 62
7
  6
CONTINUOUS
 10
-46.4825601336
 20
32.027601432
 11
-46.7200286342
 21
32.1471921956
  0
LINE
  5
3FE
100
AcDbEntity
  8
0
100
AcDbLine
 62
7
  6
CONTINUOUS
 10
-46.5244075957
 20
32.0358887291
 11
-46.7410452661
 21
32.1456422625
  0
LWPOLYLINE
  5
3FF
100
AcDbEntity
  8
0
100
AcDbPolyline
 62
7
  6
CONTINUOUS
 90
22
 70
0
 10
-44.4213518253
 20
30.750421049
 10
-44.4121124979
 20
30.7447295789
 10
-44.4028333798
 20
30.7391117541
 10
-44.3935144708
 20
30.7335675746
 10
-44.3841291046
 20
30.7280817058
 10
-44.3747039476
 20
30.7226694823
 10
-44.3653189996
 20
30.7173769079
 10
-44.3559749592
 20
30.7122051998
 10
-44.3466711278
 20
30.7071531409
 10
-44.3374854087
 20
30.7022630835
 10
-44.3284191156
 20
30.6975365093
 10
-44.3194709348
 20
30.6929719366
 10
-44.3107148286
 20
30.6886072737
 10
-44.3021523125
 20
30.6844440461
 10
-44.2937818709
 20
30.6804807282
 10
-44.28567292
 20
30.6767506517
 10
-44.2778263861
 20
30.6732551431
 10
-44.2702413428
 20
30.6699928758
 10
-44.2629844276
 20
30.6669932015
 10
-44.2560778528
 20
30.6642659041
 10
-44.249499406
 20
30.6618011998
 10
-44.2432490872
 20
30.6595990885
  0
LINE
  5
400
100
AcDbEntity
  8
0
100
AcDbLine
 62
7
  6
CONTINUOUS
 10
-45.0213518253
 20
29.7261569803
 11
-45.1483922856
 21
29.8054066831
  0
LINE
  5
401
100
AcDbEntity
  8
0
100
AcDbLine
 62
7
  6
CONTINUOUS
 10
-44.5904290496
 20
30.8560230538
 11
-44.4213518253
 21
30.750421049
  0
LINE
  5
402
100
AcDbEntity
  8
0
100
AcDbLine
 62
7
  6
CONTINUOUS
 10
-44.7574583565
 20
30.9613792984
 11
-44.5904290496
 21
30.8560230538
  0
LINE
  5
403
100
AcDbEntity
  8
0
100
AcDbLine
 62
7
  6
CONTINUOUS
 10
-44.9236334827
 20
31.0672445023
 11
-44.7574583565
 21
30.9613792984
  0
LINE
  5
404
100
AcDbEntity
  8
0
100
AcDbLine
 62
7
  6
CONTINUOUS
 10
-45.0891290096
 20
31.1737470261
 11
-44.9236334827
 21
31.0672445023
  0
LINE
  5
405
100
AcDbEntity
  8
0
100
AcDbLine
 62
7
  6
CONTINUOUS
 10
-45.2524524695
 20
31.2799342827
 11
-45.0891290096
 21
31.1737470261
  0
LINE
  5
406
100
AcDbEntity
  8
0
100
AcDbLine
 62
7
  6
CONTINUOUS
 10
-45.3335997556
 20
31.3331066144
 11
-45.2524524695
 21
31.2799342827
  0
LWPOLYLINE
  5
407
100
AcDbEntity
  8
0
100
AcDbPolyline
 62
250
  6
CONTINUOUS
 90
10
 70
0
 10
-45.0348712826
 20
33.6483165925
 10
-45.1278525873
 20
33.7102030902
 10
-45.2238038692
 20
33.7664768734
 10
-45.3224900512
 20
33.8170003089
 10
-45.4236275529
 20
33.8616328238
 10
-45.5270086058
 20
33.9002872238
 10
-45.6325105254
 20
33.9329053155
 10
-45.7399676856
 20
33.9594034377
 10
-45.8490377401
 20
33.9796651949
 10
-45.9210016321
 20
33.9894945194
  0
LWPOLYLINE
  5
408
100
AcDbEntity
  8
0
100
AcDbPolyline
 62
7
  6
CONTINUOUS
 90
7
 70
0
 10
12.3900203822
 20
-6.464715375
 10
12.4439066278
 20
-6.5041191542
 10
12.4966070768
 20
-6.5452777313
 10
12.5480848781
 20
-6.5881521254
 10
12.5983043879
 20
-6.6327022334
 10
12.6472311879
 20
-6.6788868723
 10
12.6948321034
 20
-6.7266638232
  0
LWPOLYLINE
  5
409
100
AcDbEntity
  8
0
100
AcDbPolyline
 62
7
  6
CONTINUOUS
 90
10
 70
0
 10
11.1276312247
 20
-7.0619657501
 10
11.0946834255
 20
-7.0319902257
 10
11.0609525914
 20
-7.0031252892
 10
11.0264637689
 20
-6.9753924205
 10
10.9912423622
 20
-6.9488121079
 10
10.9553147262
 20
-6.9234042996
 10
10.9187081869
 20
-6.8991883204
 10
10.8814501847
 20
-6.8761822652
 10
10.8435682141
 20
-6.8544030551
 10
10.8050904423
 20
-6.8338668423
  0
LWPOLYLINE
  5
40A
100
AcDbEntity
  8
0
100
AcDbPolyline
 62
7
  6
CONTINUOUS
 90
40
 70
0
 10
12.6948321034
 20
-6.7266638232
 10
12.7475698012
 20
-6.7831718223
 10
12.7984673291
 20
-6.8415959299
 10
12.8475246872
 20
-6.901936146
 10
12.8947871467
 20
-6.9642566323
 10
12.9402094363
 20
-7.028493227
 10
12.9836557422
 20
-7.0944534454
 10
13.025120402
 20
-7.1621428256
 10
13.064609078
 20
-7.2315558294
 10
13.1020029433
 20
-7.3024833577
 10
13.1372956237
 20
-7.3749298666
 10
13.1704934933
 20
-7.4488908998
 10
13.2014968477
 20
-7.5241439893
 10
13.2302990854
 20
-7.6006930138
 10
13.2569068079
 20
-7.6785340944
 10
13.2812401144
 20
-7.7574331271
 10
13.3032921646
 20
-7.8373932874
 10
13.3230697988
 20
-7.9184113996
 10
13.3405136376
 20
-8.0002438332
 10
13.355616663
 20
-8.0828930318
 10
13.368385893
 20
-8.1663565518
 10
13.3787830023
 20
-8.2503834304
 10
13.3868008583
 20
-8.3349753582
 10
13.3924465936
 20
-8.4201306448
 10
13.3957032807
 20
-8.5055932562
 10
13.3965637367
 20
-8.5913641144
 10
13.3950351445
 20
-8.6774422975
 10
13.3911221259
 20
-8.7635690062
 10
13.3848175119
 20
-8.8497443856
 10
13.3761284716
 20
-8.9359682906
 10
13.3650811337
 20
-9.0219814871
 10
13.3516684077
 20
-9.1077833421
 10
13.3358973843
 20
-9.1933744885
 10
13.3178154638
 20
-9.278497592
 10
13.297415698
 20
-9.3631512468
 10
13.2747050351
 20
-9.4473368587
 10
13.2497517209
 20
-9.53080131
 10
13.2225785039
 20
-9.6134602283
 10
13.1931626355
 20
-9.695397986
 10
13.1615041158
 20
-9.7766145833
  0
LINE
  5
40B
100
AcDbEntity
  8
0
100
AcDbLine
 62
7
  6
CONTINUOUS
 10
9.4303245213
 20
-8.1738291008
 11
9.5583465644
 21
-8.3143515758
  0
LINE
  5
40C
100
AcDbEntity
  8
0
100
AcDbLine
 62
7
  6
CONTINUOUS
 10
11.5997162431
 20
-9.1572520787
 11
11.4716942
 21
-9.0167296038
  0
LWPOLYLINE
  5
40D
100
AcDbEntity
  8
TRASH
100
AcDbPolyline
 62
7
  6
CONTINUOUS
 90
3
 70
0
 10
9.9817908143
 20
-8.566212296
 10
9.950544166
 20
-8.5225437226
 10
9.8471625147
 20
-8.3800992622
  0
LWPOLYLINE
  5
40E
100
AcDbEntity
  8
TRASH
100
AcDbPolyline
 62
7
  6
CONTINUOUS
 90
3
 70
0
 10
10.0665626338
 20
-8.6867754072
 10
10.0397094712
 20
-8.6482823531
 10
9.9817908143
 20
-8.566212296
  0
LWPOLYLINE
  5
40F
100
AcDbEntity
  8
TRASH
100
AcDbPolyline
 62
7
  6
CONTINUOUS
 90
8
 70
0
 10
10.2422566337
 20
-8.9531429223
 10
10.2233020861
 20
-8.9226503908
 10
10.2035548152
 20
-8.8916026809
 10
10.1829904828
 20
-8.8598764964
 10
10.1616946908
 20
-8.8273672508
 10
10.1395632043
 20
-8.7939578061
 10
10.1163063364
 20
-8.7594798675
 10
10.0665626338
 20
-8.6867754072
  0
LWPOLYLINE
  5
410
100
AcDbEntity
  8
0
100
AcDbPolyline
 62
7
  6
CONTINUOUS
 90
32
 70
0
 10
13.3952897972
 20
-8.6631022789
 10
13.4274412292
 20
-8.7230155553
 10
13.463291162
 20
-8.8004082727
 10
13.494605815
 20
-8.8797926599
 10
13.5213037064
 20
-8.9608249393
 10
13.5433243895
 20
-9.0431538251
 10
13.5606287288
 20
-9.1264221234
 10
13.573199078
 20
-9.2102683606
 10
13.5810393604
 20
-9.2943284293
 10
13.5841750512
 20
-9.3782372483
 10
13.5826530611
 20
-9.4616304253
 10
13.5765415228
 20
-9.5441459175
 10
13.5659294806
 20
-9.6254256812
 10
13.5509264846
 20
-9.7051173031
 10
13.5316620913
 20
-9.7828756061
 10
13.5082852738
 20
-9.8583642219
 10
13.4809637428
 20
-9.9312571236
 10
13.4498831821
 20
-10.0012401113
 10
13.4152464032
 20
-10.0680122438
 10
13.3772724207
 20
-10.1312872096
 10
13.3361954548
 20
-10.1907946312
 10
13.2922638636
 20
-10.2462812978
 10
13.2457390121
 20
-10.297512318
 10
13.196894081
 20
-10.3442721909
 10
13.1460128218
 20
-10.3863657876
 10
13.0933882644
 20
-10.4236192401
 10
13.0393213816
 20
-10.455880734
 10
12.9841197182
 20
-10.4830211998
 10
12.9280959889
 20
-10.504934901
 10
12.8715666543
 20
-10.5215399163
 10
12.8148504788
 20
-10.5327785121
 10
12.7671361728
 20
-10.5377021961
  0
LINE
  5
411
100
AcDbEntity
  8
0
100
AcDbLine
 62
7
  6
CONTINUOUS
 10
10.7384024615
 20
-8.2667548365
 11
10.7926428748
 21
-8.3719792389
  0
LINE
  5
412
100
AcDbEntity
  8
0
100
AcDbLine
 62
7
  6
CONTINUOUS
 10
9.7807686361
 20
-8.7807373352
 11
9.8242492641
 21
-8.8678628257
  0
LINE
  5
413
100
AcDbEntity
  8
0
100
AcDbLine
 62
7
  6
CONTINUOUS
 10
9.7378379078
 20
-8.6935386695
 11
9.7807686361
 21
-8.7807373352
  0
LINE
  5
414
100
AcDbEntity
  8
0
100
AcDbLine
 62
7
  6
CONTINUOUS
 10
9.6842323063
 20
-8.5833143119
 11
9.7378379078
 21
-8.6935386695
  0
LINE
  5
415
100
AcDbEntity
  8
0
100
AcDbLine
 62
7
  6
CONTINUOUS
 10
11.3996832529
 20
-8.8597388599
 11
11.3399323624
 21
-8.7356274121
  0
LINE
  5
416
100
AcDbEntity
  8
0
100
AcDbLine
 62
7
  6
CONTINUOUS
 10
9.608768165
 20
-8.4262011546
 11
9.6842323063
 21
-8.5833143119
  0
LINE
  5
417
100
AcDbEntity
  8
0
100
AcDbLine
 62
7
  6
CONTINUOUS
 10
9.5656544155
 20
-8.3356789233
 11
9.608768165
 21
-8.4262011546
  0
LINE
  5
418
100
AcDbEntity
  8
0
100
AcDbLine
 62
7
  6
CONTINUOUS
 10
11.4643863489
 20
-8.9954022563
 11
11.3996832529
 21
-8.8597388599
  0
LINE
  5
419
100
AcDbEntity
  8
0
100
AcDbLine
 62
7
  6
CONTINUOUS
 10
9.1534810467
 20
-8.7309678008
 11
9.1373003175
 21
-8.6965002973
  0
LWPOLYLINE
  5
41A
100
AcDbEntity
  8
0
100
AcDbPolyline
 62
7
  6
CONTINUOUS
 90
29
 70
0
 10
13.392183971
 20
-8.7401974771
 10
13.413291162
 20
-8.7857636118
 10
13.444605815
 20
-8.865147999
 10
13.4713037064
 20
-8.9461802784
 10
13.4933243895
 20
-9.0285091641
 10
13.5106287288
 20
-9.1117774625
 10
13.523199078
 20
-9.1956236996
 10
13.5310393604
 20
-9.2796837684
 10
13.5341750512
 20
-9.3635925874
 10
13.5326530611
 20
-9.4469857643
 10
13.5265415228
 20
-9.5295012565
 10
13.5159294806
 20
-9.6107810203
 10
13.5009264846
 20
-9.6904726422
 10
13.4816620913
 20
-9.7682309452
 10
13.4582852738
 20
-9.8437195609
 10
13.4309637428
 20
-9.9166124626
 10
13.3998831821
 20
-9.9865954504
 10
13.3652464032
 20
-10.0533675829
 10
13.3272724207
 20
-10.1166425486
 10
13.2861954548
 20
-10.1761499703
 10
13.2422638636
 20
-10.2316366368
 10
13.1957390121
 20
-10.2828676571
 10
13.146894081
 20
-10.32962753
 10
13.0960128218
 20
-10.3717211266
 10
13.0433882644
 20
-10.4089745792
 10
12.9893213816
 20
-10.4412360731
 10
12.9341197182
 20
-10.4683765388
 10
12.8780959889
 20
-10.4902902401
 10
12.840805128
 20
-10.5012441159
  0
LINE
  5
41B
100
AcDbEntity
  8
0
100
AcDbLine
 62
7
  6
CONTINUOUS
 10
9.1373003175
 20
-8.6965002973
 11
9.121376493
 21
-8.6620622265
  0
LINE
  5
41C
100
AcDbEntity
  8
0
100
AcDbLine
 62
7
  6
CONTINUOUS
 10
9.121376493
 20
-8.6620622265
 11
9.1056436832
 21
-8.6276188081
  0
LINE
  5
41D
100
AcDbEntity
  8
0
100
AcDbLine
 62
7
  6
CONTINUOUS
 10
11.0069059873
 20
-7.3022892467
 11
10.8050904423
 21
-6.8338668423
  0
LINE
  5
41E
100
AcDbEntity
  8
0
100
AcDbLine
 62
7
  6
CONTINUOUS
 10
9.5583465644
 20
-8.3143515758
 11
9.5656544155
 21
-8.3356789233
  0
LINE
  5
41F
100
AcDbEntity
  8
0
100
AcDbLine
 62
7
  6
CONTINUOUS
 10
11.4716942
 20
-9.0167296038
 11
11.4643863489
 21
-8.9954022563
  0
LINE
  5
420
100
AcDbEntity
  8
0
100
AcDbLine
 62
7
  6
CONTINUOUS
 10
-17.5101959305
 20
82.0452984693
 11
-17.5028880794
 21
82.0239711217
  0
LWPOLYLINE
  5
421
100
AcDbEntity
  8
0
100
AcDbPolyline
 62
7
  6
CONTINUOUS
 90
11
 70
0
 10
13.3059372882
 20
-9.3277888921
 10
13.3062565164
 20
-9.3326582041
 10
13.3069345485
 20
-9.4042870881
 10
13.3036257936
 20
-9.4751253497
 10
13.2964109462
 20
-9.5448559006
 10
13.2853894204
 20
-9.6131652101
 10
13.2706790932
 20
-9.6797459117
 10
13.2524153213
 20
-9.7443002406
 10
13.2307502875
 20
-9.8065403833
 10
13.2058527703
 20
-9.8661885294
 10
13.1959376471
 20
-9.8863379141
  0
LINE
  5
422
100
AcDbEntity
  8
ASSI
100
AcDbLine
 62
250
  6
CONTINUOUS
 10
16.9113638827
 20
-107.3911230043
 11
16.9113638827
 21
-100.3200551924
  0
LINE
  5
423
100
AcDbEntity
  8
ASSI
100
AcDbLine
 62
250
  6
CONTINUOUS
 10
20.6530651592
 20
-107.0363688576
 11
20.6530651592
 21
-99.9653010457
  0
LINE
  5
424
100
AcDbEntity
  8
0
100
AcDbLine
 62
7
  6
CONTINUOUS
 10
10.8342517369
 20
-7.68234852
 11
10.8356323741
 21
-7.6616371921
  0
LINE
  5
425
100
AcDbEntity
  8
0
100
AcDbLine
 62
7
  6
CONTINUOUS
 10
10.7918701213
 20
-7.9315681894
 11
10.7384024615
 21
-8.2667548365
  0
LWPOLYLINE
  5
426
100
AcDbEntity
  8
0
100
AcDbPolyline
 62
7
  6
CONTINUOUS
 90
3
 70
0
 10
10.8342517369
 20
-7.68234852
 10
10.8198380529
 20
-7.7652520501
 10
10.7918701213
 20
-7.9315681894
  0
LINE
  5
427
100
AcDbEntity
  8
0
100
AcDbLine
 62
7
  6
CONTINUOUS
 10
9.0642433333
 20
-9.5205415056
 11
9.0863841834
 21
-9.4352930748
  0
LINE
  5
428
100
AcDbEntity
  8
0
100
AcDbLine
 62
7
  6
CONTINUOUS
 10
9.0863841834
 20
-9.4352930748
 11
9.1088797177
 21
-9.3514999978
  0
LWPOLYLINE
  5
429
100
AcDbEntity
  8
0
100
AcDbPolyline
 62
250
  6
CONTINUOUS
 90
49
 70
0
 10
12.1471906696
 20
-9.249578951
 10
12.1872798343
 20
-9.1182585913
 10
12.221121816
 20
-8.9852217613
 10
12.2486132064
 20
-8.8508749705
 10
12.2696700023
 20
-8.7156287302
 10
12.2842278619
 20
-8.579896302
 10
12.2922423016
 20
-8.4440924347
 10
12.2936888327
 20
-8.3086320957
 10
12.2885630356
 20
-8.1739291969
 10
12.2768805723
 20
-8.0403953323
 10
12.2586771376
 20
-7.9084385211
 10
12.2340083541
 20
-7.7784619824
 10
12.2029496051
 20
-7.6508628961
 10
12.165595806
 20
-7.526031183
 10
12.1220610915
 20
-7.4043482503
 10
12.0724784621
 20
-7.2861858524
 10
12.0169993882
 20
-7.1719049989
 10
11.9557934084
 20
-7.0618549509
 10
11.8890476023
 20
-6.9563720798
 10
11.8169659687
 20
-6.8557787469
 10
11.7397687349
 20
-6.7603822601
 10
11.6576917332
 20
-6.6704740434
 10
11.5709857343
 20
-6.5863288044
 10
11.4799156956
 20
-6.508203685
 10
11.3847598928
 20
-6.436337411
 10
11.285809066
 20
-6.3709495704
 10
11.1833655859
 20
-6.3122399796
 10
11.0777425391
 20
-6.2603880632
 10
10.9692627309
 20
-6.2155522741
 10
10.8582575816
 20
-6.1778695753
 10
10.745066165
 20
-6.1474550742
 10
10.6300342631
 20
-6.1244017056
 10
10.5135134475
 20
-6.1087799502
 10
10.395859893
 20
-6.1006375613
 10
10.2774331844
 20
-6.0999994054
 10
10.1585951115
 20
-6.1068674135
 10
10.0397086962
 20
-6.1212206036
 10
9.9211371536
 20
-6.1430151378
 10
9.80324285
 20
-6.1721844232
 10
9.6863860921
 20
-6.2086393145
 10
9.5709239757
 20
-6.2522684038
 10
9.4572092804
 20
-6.3029383806
 10
9.3455894579
 20
-6.3604944208
 10
9.2364055745
 20
-6.4247606542
 10
9.1299912541
 20
-6.4955407062
 10
9.0266716445
 20
-6.5726183088
 10
8.926762447
 20
-6.6557579471
 10
8.8305689506
 20
-6.7447055762
 10
8.7383850863
 20
-6.8391894072
  0
LWPOLYLINE
  5
42A
100
AcDbEntity
  8
0
100
AcDbPolyline
 62
250
  6
CONTINUOUS
 90
28
 70
0
 10
12.3252934077
 20
-9.3404009115
 10
12.3647350042
 20
-9.216897357
 10
12.398910375
 20
-9.0918301775
 10
12.4277356079
 20
-8.9655075846
 10
12.4511398085
 20
-8.8382419077
 10
12.4690658752
 20
-8.710345676
 10
12.4814701845
 20
-8.5821308065
 10
12.4883221619
 20
-8.4539101878
 10
12.4896044646
 20
-8.326002674
 10
12.4853141378
 20
-8.1987290575
 10
12.4754628252
 20
-8.0724071741
 10
12.460075371
 20
-7.9473435882
 10
12.4391888822
 20
-7.8238387937
 10
12.4128531119
 20
-7.7021915844
 10
12.3811334055
 20
-7.5827074435
 10
12.3441106072
 20
-7.4656897944
 10
12.3018784157
 20
-7.3514305652
 10
12.2545404345
 20
-7.2402063528
 10
12.2022122902
 20
-7.1322870814
 10
12.1449992049
 20
-7.0278970355
 10
12.0830625425
 20
-6.9273372979
 10
12.0166359271
 20
-6.8309661682
 10
11.9459572631
 20
-6.7390775849
 10
11.8711635843
 20
-6.6518017404
 10
11.7923526531
 20
-6.5692362407
 10
11.7096818169
 20
-6.4915523239
 10
11.6233844531
 20
-6.418975389
 10
11.5336712123
 20
-6.3516834075
  0
LWPOLYLINE
  5
42B
100
AcDbEntity
  8
TRASH
100
AcDbPolyline
 62
7
  6
CONTINUOUS
 90
12
 70
0
 10
10.1060469111
 20
-9.3782812861
 10
10.1224069034
 20
-9.333408704
 10
10.1379305939
 20
-9.2901670334
 10
10.1525228395
 20
-9.2485241136
 10
10.1661209277
 20
-9.2083221074
 10
10.1790214675
 20
-9.169313034
 10
10.191202785
 20
-9.1314050543
 10
10.2025735944
 20
-9.0944858408
 10
10.2133611654
 20
-9.0583196123
 10
10.223630079
 20
-9.0227675374
 10
10.2332672487
 20
-8.9877550236
 10
10.2422585696
 20
-8.9531555743
  0
LWPOLYLINE
  5
42C
100
AcDbEntity
  8
0
100
AcDbPolyline
 62
7
  6
CONTINUOUS
 90
10
 70
0
 10
12.6492731752
 20
-9.4504211437
 10
12.6023017561
 20
-9.5767610655
 10
12.5502621883
 20
-9.7002141849
 10
12.4931544717
 20
-9.8207805021
 10
12.4307861571
 20
-9.9387885482
 10
12.3633496938
 20
-10.053909792
 10
12.2914224292
 20
-10.1651586398
 10
12.2151968125
 20
-10.2722065601
 10
12.1344803945
 20
-10.3753820843
 10
12.0492731752
 20
-10.4746852124
  0
LWPOLYLINE
  5
42D
100
AcDbEntity
  8
0
100
AcDbPolyline
 62
7
  6
CONTINUOUS
 90
9
 70
0
 10
37.8807675893
 20
42.4789900092
 10
37.9277390083
 20
42.6053299309
 10
37.9797785761
 20
42.7287830504
 10
38.0368862928
 20
42.8493493675
 10
38.0992546073
 20
42.9673574137
 10
38.1666910706
 20
43.0824786575
 10
38.2386183352
 20
43.1937275052
 10
38.314843952
 20
43.3007754256
 10
38.3882068537
 20
43.3945513393
  0
LINE
  5
42E
100
AcDbEntity
  8
TRASH
100
AcDbLine
 62
7
  6
CONTINUOUS
 10
10.1019813601
 20
-9.3891439524
 11
10.1060469111
 21
-9.3782812861
  0
LWPOLYLINE
  5
42F
100
AcDbEntity
  8
TRASH
100
AcDbPolyline
 62
7
  6
CONTINUOUS
 90
10
 70
0
 10
9.8471625147
 20
-8.3800992622
 10
9.8663853038
 20
-8.3303950338
 10
9.8875501399
 20
-8.2815549953
 10
9.9106131053
 20
-8.2336859743
 10
9.9355234086
 20
-8.1869002656
 10
9.9622309335
 20
-8.1412929377
 10
9.9906891817
 20
-8.0969429783
 10
10.0208439943
 20
-8.0539426549
 10
10.0526308161
 20
-8.0123959118
 10
10.0859842511
 20
-7.9723966458
  0
LWPOLYLINE
  5
430
100
AcDbEntity
  8
0
100
AcDbPolyline
 62
7
  6
CONTINUOUS
 90
10
 70
0
 10
13.1615041158
 20
-9.7766145833
 10
13.1216436576
 20
-9.8705548279
 10
13.0788670825
 20
-9.9630315658
 10
13.0332334532
 20
-10.0539167384
 10
12.9848052587
 20
-10.1430854237
 10
12.9336498679
 20
-10.2304131382
 10
12.8798397253
 20
-10.3157762115
 10
12.8234500512
 20
-10.3990557119
 10
12.7645584507
 20
-10.4801374061
 10
12.7032465463
 20
-10.5589091877
  0
LINE
  5
431
100
AcDbEntity
  8
0
100
AcDbLine
 62
7
  6
CONTINUOUS
 10
10.8726129199
 20
-7.5820866833
 11
10.8356323741
 21
-7.6616371921
  0
LINE
  5
432
100
AcDbEntity
  8
0
100
AcDbLine
 62
7
  6
CONTINUOUS
 10
40.3726129199
 20
42.7775633617
 11
40.3356323741
 21
42.6980128529
  0
LWPOLYLINE
  5
433
100
AcDbEntity
  8
0
100
AcDbPolyline
 62
7
  6
CONTINUOUS
 90
10
 70
0
 10
37.607190184
 20
42.5354199271
 10
37.6075930161
 20
42.5362796316
 10
37.6086644583
 20
42.5374774857
 10
37.6102307947
 20
42.5383737362
 10
37.6122961948
 20
42.5389661066
 10
37.6148564891
 20
42.5392568733
 10
37.6178925237
 20
42.5392418124
 10
37.6213979137
 20
42.5389195158
 10
37.6253790438
 20
42.5382913917
 10
37.6298359142
 20
42.5373574399
  0
LINE
  5
434
100
AcDbEntity
  8
0
100
AcDbLine
 62
7
  6
CONTINUOUS
 10
10.9106263008
 20
-7.50148721
 11
10.8726129199
 21
-7.5820866833
  0
LINE
  5
435
100
AcDbEntity
  8
0
100
AcDbLine
 62
7
  6
CONTINUOUS
 10
40.4106263008
 20
42.858162835
 11
40.3726129199
 21
42.7775633617
  0
LINE
  5
436
100
AcDbEntity
  8
0
100
AcDbLine
 62
7
  6
CONTINUOUS
 10
10.9495296044
 20
-7.4201481071
 11
10.9106263008
 21
-7.50148721
  0
LINE
  5
437
100
AcDbEntity
  8
0
100
AcDbLine
 62
7
  6
CONTINUOUS
 10
40.4495296044
 20
42.9395019379
 11
40.4106263008
 21
42.858162835
  0
LINE
  5
438
100
AcDbEntity
  8
0
100
AcDbLine
 62
7
  6
CONTINUOUS
 10
10.9887966642
 20
-7.3392201611
 11
10.9495296044
 21
-7.4201481071
  0
LINE
  5
439
100
AcDbEntity
  8
0
100
AcDbLine
 62
7
  6
CONTINUOUS
 10
40.4887966642
 20
43.0204298839
 11
40.4495296044
 21
42.9395019379
  0
LINE
  5
43A
100
AcDbEntity
  8
0
100
AcDbLine
 62
7
  6
CONTINUOUS
 10
11.0282576976
 20
-7.259029742
 11
10.9887966642
 21
-7.3392201611
  0
LINE
  5
43B
100
AcDbEntity
  8
0
100
AcDbLine
 62
7
  6
CONTINUOUS
 10
40.5282576976
 20
43.100620303
 11
40.4887966642
 21
43.0204298839
  0
LINE
  5
43C
100
AcDbEntity
  8
0
100
AcDbLine
 62
7
  6
CONTINUOUS
 10
11.0678575724
 20
-7.1796815778
 11
11.0282576976
 21
-7.259029742
  0
LINE
  5
43D
100
AcDbEntity
  8
0
100
AcDbLine
 62
7
  6
CONTINUOUS
 10
40.5678575724
 20
43.1799684672
 11
40.5282576976
 21
43.100620303
  0
LWPOLYLINE
  5
43E
100
AcDbEntity
  8
0
100
AcDbPolyline
 62
7
  6
CONTINUOUS
 90
3
 70
0
 10
11.1276312247
 20
-7.0619657501
 10
11.1076581089
 20
-7.1010266353
 10
11.0678575724
 20
-7.1796815778
  0
LWPOLYLINE
  5
43F
100
AcDbEntity
  8
0
100
AcDbPolyline
 62
7
  6
CONTINUOUS
 90
3
 70
0
 10
40.6276312247
 20
43.2976842949
 10
40.6076581089
 20
43.2586234097
 10
40.5678575724
 20
43.1799684672
  0
LINE
  5
440
100
AcDbEntity
  8
0
100
AcDbLine
 62
7
  6
CONTINUOUS
 10
12.6978518565
 20
-6.7284327536
 11
12.7022231732
 21
-6.7209704491
  0
LINE
  5
441
100
AcDbEntity
  8
0
100
AcDbLine
 62
7
  6
CONTINUOUS
 10
42.1978518565
 20
43.6312172914
 11
42.2022231732
 21
43.6386795959
  0
LWPOLYLINE
  5
442
100
AcDbEntity
  8
ASSI
100
AcDbPolyline
 62
7
  6
CONTINUOUS
 90
27
 70
0
 10
43.3731679274
 20
40.1686783567
 10
43.3274843183
 20
40.0943348362
 10
43.2791691174
 20
40.0225693066
 10
43.2282223247
 20
39.9533817677
 10
43.1745167662
 20
39.8866271546
 10
43.1181796159
 20
39.8224505322
 10
43.0595923961
 20
39.7612870955
 10
42.9987397613
 20
39.7031573537
 10
42.935637057
 20
39.6480407974
 10
42.8707118419
 20
39.5963110935
 10
42.8039517945
 20
39.5479913493
 10
42.7353692362
 20
39.5030584575
 10
42.6654286905
 20
39.4618167623
 10
42.5941210348
 20
39.4242913761
 10
42.5214553918
 20
39.3904571865
 10
42.4479236533
 20
39.3605432009
 10
42.3735199629
 20
39.3345760012
 10
42.2982501769
 20
39.3125290055
 10
42.2226237564
 20
39.2945514749
 10
42.1466382276
 20
39.2806709975
 10
42.0702960642
 20
39.2708599851
 10
41.9941141485
 20
39.2651849342
 10
41.9180935402
 20
39.2636739193
 10
41.8422331797
 20
39.2662988657
 10
41.76704677
 20
39.2730420467
 10
41.6925388984
 20
39.2839314196
 10
41.6681685718
 20
39.2888849733
  0
LWPOLYLINE
  5
443
100
AcDbEntity
  8
ASSI
100
AcDbPolyline
 62
7
  6
CONTINUOUS
 90
27
 70
0
 10
13.8731679274
 20
-10.1909716883
 10
13.8274843183
 20
-10.2653152088
 10
13.7791691174
 20
-10.3370807384
 10
13.7282223247
 20
-10.4062682774
 10
13.6745167662
 20
-10.4730228904
 10
13.6181796159
 20
-10.5371995128
 10
13.5595923961
 20
-10.5983629495
 10
13.4987397613
 20
-10.6564926914
 10
13.435637057
 20
-10.7116092476
 10
13.3707118419
 20
-10.7633389515
 10
13.3039517945
 20
-10.8116586957
 10
13.2353692362
 20
-10.8565915875
 10
13.1654286905
 20
-10.8978332827
 10
13.0941210348
 20
-10.9353586689
 10
13.0214553918
 20
-10.9691928585
 10
12.9479236533
 20
-10.9991068441
 10
12.8735199629
 20
-11.0250740438
 10
12.7982501769
 20
-11.0471210395
 10
12.7226237564
 20
-11.0650985701
 10
12.6466382276
 20
-11.0789790475
 10
12.5702960642
 20
-11.0887900599
 10
12.4941141485
 20
-11.0944651108
 10
12.4180935402
 20
-11.0959761257
 10
12.3422331797
 20
-11.0933511793
 10
12.26704677
 20
-11.0866079983
 10
12.1925388984
 20
-11.0757186254
 10
12.1681685718
 20
-11.0707650717
  0
LWPOLYLINE
  5
444
100
AcDbEntity
  8
ASSI
100
AcDbPolyline
 62
7
  6
CONTINUOUS
 90
27
 70
0
 10
44.0302747086
 20
39.6833230176
 10
43.9563956468
 20
39.5633763209
 10
43.8780976617
 20
39.4478269234
 10
43.7953807535
 20
39.3366748251
 10
43.7080176797
 20
39.2296659708
 10
43.6162356826
 20
39.1270544157
 10
43.5207164897
 20
39.0296023256
 10
43.4214322733
 20
38.9373481186
 10
43.318410861
 20
38.8502533765
 10
43.2124174629
 20
38.7689650114
 10
43.1034299493
 20
38.6935262582
 10
42.9914704499
 20
38.6238938818
 10
42.877370564
 20
38.5605850894
 10
42.7611143541
 20
38.503646967
 10
42.6427177578
 20
38.4530324286
 10
42.5230601871
 20
38.4091174227
 10
42.4021322525
 20
38.3719518348
 10
42.2799433436
 20
38.3414857794
 10
42.1574010403
 20
38.3179455487
 10
42.0345027114
 20
38.3013827131
 10
41.9112509882
 20
38.2917457021
 10
41.788561345
 20
38.2891060964
 10
41.6664379672
 20
38.2935159994
 10
41.5448766695
 20
38.3049233077
 10
41.4247803704
 20
38.3232432914
 10
41.3061599782
 20
38.3485274232
 10
41.2139890789
 20
38.3732089707
  0
LWPOLYLINE
  5
445
100
AcDbEntity
  8
ASSI
100
AcDbPolyline
 62
7
  6
CONTINUOUS
 90
27
 70
0
 10
14.5302747086
 20
-10.6763270274
 10
14.4563956468
 20
-10.7962737241
 10
14.3780976617
 20
-10.9118231216
 10
14.2953807535
 20
-11.0229752199
 10
14.2080176797
 20
-11.1299840742
 10
14.1162356826
 20
-11.2325956293
 10
14.0207164897
 20
-11.3300477194
 10
13.9214322733
 20
-11.4223019265
 10
13.818410861
 20
-11.5093966685
 10
13.7124174629
 20
-11.5906850336
 10
13.6034299493
 20
-11.6661237868
 10
13.4914704499
 20
-11.7357561632
 10
13.377370564
 20
-11.7990649556
 10
13.2611143541
 20
-11.856003078
 10
13.1427177578
 20
-11.9066176164
 10
13.0230601871
 20
-11.9505326223
 10
12.9021322525
 20
-11.9876982102
 10
12.7799433436
 20
-12.0181642656
 10
12.6574010403
 20
-12.0417044963
 10
12.5345027114
 20
-12.0582673319
 10
12.4112509882
 20
-12.0679043429
 10
12.288561345
 20
-12.0705439486
 10
12.1664379672
 20
-12.0661340456
 10
12.0448766695
 20
-12.0547267373
 10
11.9247803704
 20
-12.0364067536
 10
11.8061599782
 20
-12.0111226218
 10
11.7139890789
 20
-11.9864410743
  0
LWPOLYLINE
  5
446
100
AcDbEntity
  8
ASSI
100
AcDbPolyline
 62
7
  6
CONTINUOUS
 90
23
 70
0
 10
43.2696145368
 20
40.345455052
 10
43.2329838817
 20
40.2860802532
 10
43.1938365139
 20
40.2287161663
 10
43.152279493
 20
40.1735201843
 10
43.1084262771
 20
40.120643527
 10
43.0623970575
 20
40.0702316141
 10
43.0143185358
 20
40.0224235415
 10
42.9643224175
 20
39.9773504855
 10
42.9125456558
 20
39.9351361173
 10
42.8591308761
 20
39.8958968275
 10
42.8042245864
 20
39.8597402464
 10
42.7479772083
 20
39.826765432
 10
42.6905434697
 20
39.7970630499
 10
42.6320808693
 20
39.7707144518
 10
42.5727496532
 20
39.7477917611
 10
42.5127129375
 20
39.7283578609
 10
42.4521354027
 20
39.7124658719
 10
42.3911830221
 20
39.7001591513
 10
42.3300230727
 20
39.69147128
 10
42.268823951
 20
39.6864258992
 10
42.2077526091
 20
39.6850364937
 10
42.1469743217
 20
39.6873067999
 10
42.1099592677
 20
39.6909421007
  0
LWPOLYLINE
  5
447
100
AcDbEntity
  8
ASSI
100
AcDbPolyline
 62
7
  6
CONTINUOUS
 90
23
 70
0
 10
13.7696145368
 20
-10.014194993
 10
13.7329838817
 20
-10.0735697918
 10
13.6938365139
 20
-10.1309338787
 10
13.652279493
 20
-10.1861298607
 10
13.6084262771
 20
-10.239006518
 10
13.5623970575
 20
-10.2894184309
 10
13.5143185358
 20
-10.3372265035
 10
13.4643224175
 20
-10.3822995595
 10
13.4125456558
 20
-10.4245139277
 10
13.3591308761
 20
-10.4637532175
 10
13.3042245864
 20
-10.4999097986
 10
13.2479772083
 20
-10.532884613
 10
13.1905434697
 20
-10.5625869951
 10
13.1320808693
 20
-10.5889355932
 10
13.0727496532
 20
-10.6118582839
 10
13.0127129375
 20
-10.6312921841
 10
12.9521354027
 20
-10.6471841731
 10
12.8911830221
 20
-10.6594908937
 10
12.8300230727
 20
-10.668178765
 10
12.768823951
 20
-10.6732241458
 10
12.7077526091
 20
-10.6746135513
 10
12.6469743217
 20
-10.6723432451
 10
12.6099592677
 20
-10.6687079444
  0
LINE
  5
448
100
AcDbEntity
  8
0
100
AcDbLine
 62
7
  6
CONTINUOUS
 10
9.2776510286
 20
-10.2197567979
 11
9.312526453
 21
-10.1680840682
  0
LINE
  5
449
100
AcDbEntity
  8
0
100
AcDbLine
 62
7
  6
CONTINUOUS
 10
9.312526453
 20
-10.1680840682
 11
9.3509020358
 21
-10.1118817544
  0
LINE
  5
44A
100
AcDbEntity
  8
0
100
AcDbLine
 62
7
  6
CONTINUOUS
 10
9.3509020358
 20
-10.1118817544
 11
9.3929588084
 21
-10.0509510563
  0
LINE
  5
44B
100
AcDbEntity
  8
0
100
AcDbLine
 62
7
  6
CONTINUOUS
 10
9.3929588084
 20
-10.0509510563
 11
9.4394599378
 21
-9.9843934115
  0
LINE
  5
44C
100
AcDbEntity
  8
0
100
AcDbLine
 62
7
  6
CONTINUOUS
 10
9.4394599378
 20
-9.9843934115
 11
9.4902021641
 21
-9.9127326306
  0
LINE
  5
44D
100
AcDbEntity
  8
0
100
AcDbLine
 62
7
  6
CONTINUOUS
 10
9.4902021641
 20
-9.9127326306
 11
9.5446718949
 21
-9.8368104469
  0
LWPOLYLINE
  5
44E
100
AcDbEntity
  8
0
100
AcDbPolyline
 62
7
  6
CONTINUOUS
 90
3
 70
0
 10
9.5446718949
 20
-9.8368104469
 10
9.6010685292
 20
-9.7593219382
 10
9.6301031928
 20
-9.7198186395
  0
LWPOLYLINE
  5
44F
100
AcDbEntity
  8
0
100
AcDbPolyline
 62
7
  6
CONTINUOUS
 90
3
 70
0
 10
12.7044105501
 20
-6.7172075342
 10
12.7012338352
 20
-6.721494516
 10
12.6948321034
 20
-6.7266638232
  0
LWPOLYLINE
  5
450
100
AcDbEntity
  8
0
100
AcDbPolyline
 62
7
  6
CONTINUOUS
 90
10
 70
0
 10
9.6584120325
 20
-7.7844752211
 10
9.6279589792
 20
-7.8237766945
 10
9.5987475314
 20
-7.8641294578
 10
9.5707776893
 20
-7.905533511
 10
9.5440015949
 20
-7.9480705511
 10
9.5184671061
 20
-7.9916588811
 10
9.4943177969
 20
-8.0360534101
 10
9.4716015254
 20
-8.0811724413
 10
9.4502704335
 20
-8.1270976715
 10
9.4303245213
 20
-8.1738291008
  0
LWPOLYLINE
  5
451
100
AcDbEntity
  8
0
100
AcDbPolyline
 62
7
  6
CONTINUOUS
 90
10
 70
0
 10
11.3716287348
 20
-9.5466059548
 10
11.4020817878
 20
-9.5073044817
 10
11.4312932351
 20
-9.4669517187
 10
11.4592630768
 20
-9.4255476658
 10
11.4860391709
 20
-9.3830106262
 10
11.5115736594
 20
-9.3394222966
 10
11.5357229683
 20
-9.295027768
 10
11.5584392395
 20
-9.2499087372
 10
11.5797703311
 20
-9.2039835075
 10
11.5997162431
 20
-9.1572520787
  0
LWPOLYLINE
  5
452
100
AcDbEntity
  8
0
100
AcDbPolyline
 62
7
  6
CONTINUOUS
 90
39
 70
0
 10
12.7032465463
 20
-10.5589091877
 10
12.6490779025
 20
-10.6242087234
 10
12.593382893
 20
-10.6875643223
 10
12.536161518
 20
-10.7489759843
 10
12.4773533038
 20
-10.8085014062
 10
12.417018724
 20
-10.8660828913
 10
12.3553391998
 20
-10.9215473491
 10
12.2923106886
 20
-10.9748884135
 10
12.227937233
 20
-11.0261124506
 10
12.1624123821
 20
-11.0750654685
 10
12.0957326741
 20
-11.121740639
 10
12.0279015708
 20
-11.1661447902
 10
11.9591230056
 20
-11.208144415
 10
11.8893941293
 20
-11.2477322845
 10
11.8187177912
 20
-11.2849156275
 10
11.7473064733
 20
-11.3195826243
 10
11.6751579638
 20
-11.3517257099
 10
11.6022744745
 20
-11.3813524491
 10
11.5288751223
 20
-11.4083737169
 10
11.4549583531
 20
-11.4327816803
 10
11.380525721
 20
-11.4545841723
 10
11.3058010051
 20
-11.4737155659
 10
11.2307833228
 20
-11.4901678309
 10
11.1554735567
 20
-11.5039489976
 10
11.0800981328
 20
-11.5150175303
 10
11.0046568484
 20
-11.5233652732
 10
10.9291499063
 20
-11.529000382
 10
10.8538043406
 20
-11.5319057883
 10
10.7786206301
 20
-11.5320732843
 10
10.7035982962
 20
-11.5295110777
 10
10.6289629362
 20
-11.5242267238
 10
10.5547156018
 20
-11.5162120027
 10
10.4808552415
 20
-11.5054751343
 10
10.4076042984
 20
-11.4920483338
 10
10.3349650152
 20
-11.475923645
 10
10.2629351493
 20
-11.4571090241
 10
10.1917304164
 20
-11.4356605552
 10
10.1214227216
 20
-11.411596933
 10
10.0519401597
 20
-11.3848994628
  0
LINE
  5
453
100
AcDbEntity
  8
0
100
AcDbLine
 62
7
  6
CONTINUOUS
 10
10.3143805531
 20
-7.2933102506
 11
10.3861933261
 21
-7.2229980098
  0
LINE
  5
454
100
AcDbEntity
  8
0
100
AcDbLine
 62
7
  6
CONTINUOUS
 10
10.3861933261
 20
-7.2229980098
 11
10.4579434755
 21
-7.1538370308
  0
LINE
  5
455
100
AcDbEntity
  8
0
100
AcDbLine
 62
7
  6
CONTINUOUS
 10
10.4579434755
 20
-7.1538370308
 11
10.5290125529
 21
-7.086382679
  0
LINE
  5
456
100
AcDbEntity
  8
0
100
AcDbLine
 62
7
  6
CONTINUOUS
 10
10.5290125529
 20
-7.086382679
 11
10.5971097093
 21
-7.0227237129
  0
LINE
  5
457
100
AcDbEntity
  8
0
100
AcDbLine
 62
7
  6
CONTINUOUS
 10
10.5971097093
 20
-7.0227237129
 11
10.6615691731
 21
-6.9632875866
  0
LINE
  5
458
100
AcDbEntity
  8
0
100
AcDbLine
 62
7
  6
CONTINUOUS
 10
10.6615691731
 20
-6.9632875866
 11
10.7220577386
 21
-6.9082688971
  0
LINE
  5
459
100
AcDbEntity
  8
TRASH
100
AcDbLine
 62
7
  6
CONTINUOUS
 10
10.7619789083
 20
-8.0659260995
 11
10.771446979
 21
-8.0574331889
  0
LWPOLYLINE
  5
45A
100
AcDbEntity
  8
0
100
AcDbPolyline
 62
7
  6
CONTINUOUS
 90
3
 70
0
 10
10.7220577386
 20
-6.9082688971
 10
10.7784317218
 20
-6.8575834692
 10
10.8050904423
 20
-6.8338668423
  0
LINE
  5
45B
100
AcDbEntity
  8
0
100
AcDbLine
 62
7
  6
CONTINUOUS
 10
9.7352361585
 20
-9.6438006248
 11
9.6696947996
 21
-9.693055491
  0
LINE
  5
45C
100
AcDbEntity
  8
0
100
AcDbLine
 62
7
  6
CONTINUOUS
 10
9.6696947996
 20
-9.693055491
 11
9.6460898579
 21
-9.7106676501
  0
LINE
  5
45D
100
AcDbEntity
  8
0
100
AcDbLine
 62
7
  6
CONTINUOUS
 10
10.0819066007
 20
-9.3874640079
 11
9.7352361585
 21
-9.6438006248
  0
LINE
  5
45E
100
AcDbEntity
  8
0
100
AcDbLine
 62
7
  6
CONTINUOUS
 10
10.4200200646
 20
-7.8741011523
 11
10.3965027787
 21
-7.8909647902
  0
LINE
  5
45F
100
AcDbEntity
  8
0
100
AcDbLine
 62
7
  6
CONTINUOUS
 10
10.6100206998
 20
-9.4569800273
 11
10.6335379857
 21
-9.4401163893
  0
LINE
  5
460
100
AcDbEntity
  8
0
100
AcDbLine
 62
7
  6
CONTINUOUS
 10
9.8099769567
 20
-7.6102586438
 11
9.8457523681
 21
-7.5860100826
  0
LINE
  5
461
100
AcDbEntity
  8
0
100
AcDbLine
 62
7
  6
CONTINUOUS
 10
9.8457523681
 20
-7.5860100826
 11
9.8816430074
 21
-7.5619941598
  0
LINE
  5
462
100
AcDbEntity
  8
0
100
AcDbLine
 62
7
  6
CONTINUOUS
 10
9.8816430074
 20
-7.5619941598
 11
9.9176669065
 21
-7.5381530405
  0
LINE
  5
463
100
AcDbEntity
  8
0
100
AcDbLine
 62
7
  6
CONTINUOUS
 10
9.9176669065
 20
-7.5381530405
 11
9.9536840461
 21
-7.5145805323
  0
LINE
  5
464
100
AcDbEntity
  8
0
100
AcDbLine
 62
7
  6
CONTINUOUS
 10
9.9536840461
 20
-7.5145805323
 11
9.9898697306
 21
-7.4911643559
  0
LINE
  5
465
100
AcDbEntity
  8
0
100
AcDbLine
 62
7
  6
CONTINUOUS
 10
9.9898697306
 20
-7.4911643559
 11
10.0265130436
 21
-7.4676735634
  0
LINE
  5
466
100
AcDbEntity
  8
0
100
AcDbLine
 62
7
  6
CONTINUOUS
 10
10.0265130436
 20
-7.4676735634
 11
10.084087578
 21
-7.4312635224
  0
LINE
  5
467
100
AcDbEntity
  8
0
100
AcDbLine
 62
7
  6
CONTINUOUS
 10
10.084087578
 20
-7.4312635224
 11
10.146676771
 21
-7.3923086829
  0
LWPOLYLINE
  5
468
100
AcDbEntity
  8
0
100
AcDbPolyline
 62
7
  6
CONTINUOUS
 90
5
 70
0
 10
10.146676771
 20
-7.3923086829
 10
10.2165032805
 20
-7.3495721327
 10
10.2418598393
 20
-7.3341388747
 10
10.268350785
 20
-7.3181877054
 10
10.2960317072
 20
-7.3017693734
  0
LINE
  5
469
100
AcDbEntity
  8
0
100
AcDbLine
 62
7
  6
CONTINUOUS
 10
9.6301031928
 20
-9.7198186395
 11
9.6460898579
 21
-9.7106676501
  0
LINE
  5
46A
100
AcDbEntity
  8
0
100
AcDbLine
 62
7
  6
CONTINUOUS
 10
8.9551102456
 20
-9.9916578897
 11
9.6123718475
 21
-9.7439431357
  0
LINE
  5
46B
100
AcDbEntity
  8
0
100
AcDbLine
 62
7
  6
CONTINUOUS
 10
-46.1166368513
 20
30.577209356
 11
-45.9585217951
 21
30.5430199727
  0
LINE
  5
46C
100
AcDbEntity
  8
0
100
AcDbLine
 62
7
  6
CONTINUOUS
 10
-48.4387065808
 20
32.1777073949
 11
-48.1877749057
 21
32.1193399642
  0
LINE
  5
46D
100
AcDbEntity
  8
0
100
AcDbLine
 62
7
  6
CONTINUOUS
 10
-46.687893496
 20
30.464129641
 11
-47.46067268
 21
30.6699115004
  0
LINE
  5
46E
100
AcDbEntity
  8
0
100
AcDbLine
 62
7
  6
CONTINUOUS
 10
-46.7123948384
 20
30.4460211513
 11
-47.4596627772
 21
30.6485000022
  0
LINE
  5
46F
100
AcDbEntity
  8
0
100
AcDbLine
 62
7
  6
CONTINUOUS
 10
-43.5191279913
 20
29.5501417917
 11
-43.4611319871
 21
29.5331551554
  0
LWPOLYLINE
  5
470
100
AcDbEntity
  8
ASSI
100
AcDbPolyline
 62
7
  6
CONTINUOUS
 90
10
 70
0
 10
-44.854553416
 20
28.0135589257
 10
-44.8795379104
 20
28.0210741854
 10
-44.9943581127
 20
28.0599445204
 10
-45.1068257357
 20
28.1055380751
 10
-45.2169581674
 20
28.1578051577
 10
-45.3239373793
 20
28.216357545
 10
-45.4277398922
 20
28.281242038
 10
-45.5283891854
 20
28.3524118358
 10
-45.6251376681
 20
28.4293383117
 10
-45.6705343069
 20
28.4697987597
  0
LWPOLYLINE
  5
471
100
AcDbEntity
  8
ASSI
100
AcDbPolyline
 62
7
  6
CONTINUOUS
 90
39
 70
0
 10
-43.2524908094
 20
33.4837870195
 10
-43.2275063151
 20
33.4762717599
 10
-43.1126861127
 20
33.4374014248
 10
-43.0002184898
 20
33.3918078701
 10
-42.8900860581
 20
33.3395407875
 10
-42.7831068461
 20
33.2809884002
 10
-42.6793043332
 20
33.2161039072
 10
-42.57865504
 20
33.1449341094
 10
-42.4819065573
 20
33.0680076335
 10
-42.389087931
 20
32.9852816145
 10
-42.3001701152
 20
32.8967989173
 10
-42.215813563
 20
32.8032167631
 10
-42.1360522381
 20
32.7044971806
 10
-42.0608521767
 20
32.6006781412
 10
-41.9907719409
 20
32.4925307793
 10
-41.9258496536
 20
32.3800228659
 10
-41.8660471918
 20
32.26318663
 10
-41.8118087491
 20
32.1428898939
 10
-41.7631757559
 20
32.0191068902
 10
-41.7201067819
 20
31.8918633863
 10
-41.6829217295
 20
31.7621045063
 10
-41.6516644113
 20
31.6298115202
 10
-41.6262910147
 20
31.4950031579
 10
-41.6069900052
 20
31.3586807328
 10
-41.5938065987
 20
31.220832971
 10
-41.5866955793
 20
31.0814711464
 10
-41.5857097654
 20
30.941630394
 10
-41.5908947661
 20
30.8013071477
 10
-41.6022049723
 20
30.6605049736
 10
-41.6195563755
 20
30.5202697053
 10
-41.6429939591
 20
30.3806055639
 10
-41.6724727396
 20
30.2415083283
 10
-41.7077737581
 20
30.1040111681
 10
-41.7489403677
 20
29.9681259978
 10
-41.7959292153
 20
29.833840903
 10
-41.8483912828
 20
29.7021533104
 10
-41.9062102308
 20
29.5733956956
 10
-41.9695023986
 20
29.447235583
 10
-42.0382677863
 20
29.3236729726
  0
LINE
  5
472
100
AcDbEntity
  8
0
100
AcDbLine
 62
7
  6
CONTINUOUS
 10
-44.5192693198
 20
29.5253147876
 11
-44.8432490872
 21
29.6353350198
  0
LINE
  5
473
100
AcDbEntity
  8
0
100
AcDbLine
 62
7
  6
CONTINUOUS
 10
-44.2432490872
 20
30.6595990885
 11
-43.9192693198
 21
30.5495788563
  0
LINE
  5
474
100
AcDbEntity
  8
0
100
AcDbLine
 62
7
  6
CONTINUOUS
 10
-46.7485221688
 20
31.1016345941
 11
-46.9651652404
 21
31.1772093901
  0
LINE
  5
475
100
AcDbEntity
  8
0
100
AcDbLine
 62
7
  6
CONTINUOUS
 10
-46.3651649977
 20
32.2014734311
 11
-46.1485224303
 21
32.1258988477
  0
LWPOLYLINE
  5
476
100
AcDbEntity
  8
0
100
AcDbPolyline
 62
7
  6
CONTINUOUS
 90
22
 70
0
 10
-44.8432490872
 20
29.6353350198
 10
-44.8495245313
 20
29.6375460598
 10
-44.8561332737
 20
29.6400230176
 10
-44.8630753145
 20
29.642765893
 10
-44.8703754793
 20
29.6457856442
 10
-44.8780089425
 20
29.6490713131
 10
-44.8859012267
 20
29.652590025
 10
-44.8940532597
 20
29.6563434679
 10
-44.9024641137
 20
29.6603299539
 10
-44.9110565274
 20
29.6645115449
 10
-44.9198299592
 20
29.6688888897
 10
-44.9287849506
 20
29.6734613395
 10
-44.9378458653
 20
29.6781890101
 10
-44.947011474
 20
29.683071909
 10
-44.9562830061
 20
29.6881100288
 10
-44.9655885134
 20
29.6932634622
 10
-44.9749276917
 20
29.6985325684
 10
-44.9843008452
 20
29.7039169882
 10
-44.9936369389
 20
29.7093757378
 10
-45.0029122942
 20
29.7148951556
 10
-45.0121505897
 20
29.7204889031
 10
-45.0213518253
 20
29.7261569803
  0
LWPOLYLINE
  5
477
100
AcDbEntity
  8
0
100
AcDbPolyline
 62
7
  6
CONTINUOUS
 90
33
 70
0
 10
-44.5217844613
 20
33.7315937463
 10
-44.4936773658
 20
33.7214152632
 10
-44.4647333571
 20
33.7106276952
 10
-44.4349679133
 20
33.6991953404
 10
-44.4042244591
 20
33.6870076861
 10
-44.3726980614
 20
33.6740899929
 10
-44.3409310021
 20
33.6606137975
 10
-44.3089436926
 20
33.6465339389
 10
-44.2767581342
 20
33.6318117681
 10
-44.2449114229
 20
33.6166479814
 10
-44.2134429005
 20
33.6010153808
 10
-44.1823524073
 20
33.5848750843
 10
-44.1521058137
 20
33.5684374049
 10
-44.122741925
 20
33.5516924062
 10
-44.0942515408
 20
33.5346114052
 10
-44.0670138318
 20
33.5174063572
 10
-44.041052703
 20
33.5000789719
 10
-44.0163601042
 20
33.4826186297
 10
-43.9932510677
 20
33.4652480846
 10
-43.9717334351
 20
33.4479777993
 10
-43.9517985545
 20
33.4308168508
 10
-43.9337191606
 20
33.414014259
 10
-43.9174967268
 20
33.3975932519
 10
-43.9031100461
 20
33.3815762077
 10
-43.8907792593
 20
33.3662378936
 10
-43.8805094959
 20
33.3516206724
 10
-43.872257114
 20
33.3377487339
 10
-43.8661515677
 20
33.3248928072
 10
-43.8622036173
 20
33.3131147853
 10
-43.8603506295
 20
33.3024299164
 10
-43.860599042
 20
33.2930545628
 10
-43.8629304887
 20
33.2850883673
 10
-43.8641319448
 20
33.2827924658
  0
LWPOLYLINE
  5
478
100
AcDbEntity
  8
ASSI
100
AcDbPolyline
 62
7
  6
CONTINUOUS
 90
39
 70
0
 10
-43.3640044538
 20
32.4677732917
 10
-43.342764241
 20
32.4595904834
 10
-43.2741098819
 20
32.4286724542
 10
-43.2071166391
 20
32.3938951596
 10
-43.1417733104
 20
32.3552846111
 10
-43.0785223117
 20
32.313102225
 10
-43.0173778398
 20
32.267323761
 10
-42.958325698
 20
32.2179734595
 10
-42.9017657116
 20
32.165385458
 10
-42.8477147922
 20
32.1095377821
 10
-42.7961560283
 20
32.0504524063
 10
-42.7474385112
 20
31.9885293909
 10
-42.7015815189
 20
31.9237494646
 10
-42.6585657735
 20
31.8561318988
 10
-42.618682532
 20
31.7861345684
 10
-42.5819530604
 20
31.7137413148
 10
-42.5483560928
 20
31.6389682967
 10
-42.5181190881
 20
31.562321864
 10
-42.4912648636
 20
31.4837893377
 10
-42.467770602
 20
31.403383397
 10
-42.4477953106
 20
31.321648429
 10
-42.431362863
 20
31.2385754682
 10
-42.4184493857
 20
31.1541734802
 10
-42.4091422653
 20
31.0690137495
 10
-42.4034659528
 20
30.9830910979
 10
-42.4013959973
 20
30.8964107037
 10
-42.4029464329
 20
30.8095593866
 10
-42.4081418512
 20
30.7225358761
 10
-42.4169576606
 20
30.6353414427
 10
-42.4293341203
 20
30.5485667176
 10
-42.445295455
 20
30.4622145214
 10
-42.46481744
 20
30.3762820334
 10
-42.4877676606
 20
30.2913514226
 10
-42.5141694798
 20
30.2074294566
 10
-42.5439995346
 20
30.1245093677
 10
-42.5770553211
 20
30.0431530222
 10
-42.6132693381
 20
29.9635477087
 10
-42.6527090869
 20
29.8855061385
 10
-42.6953745675
 20
29.8090283117
  0
LINE
  5
479
100
AcDbEntity
  8
0
100
AcDbLine
 62
7
  6
CONTINUOUS
 10
-46.9651652404
 20
31.1772093901
 11
-47.4628988117
 21
31.3723811919
  0
LINE
  5
47A
100
AcDbEntity
  8
0
100
AcDbLine
 62
7
  6
CONTINUOUS
 10
-46.8628976047
 20
32.3966443645
 11
-46.3651649977
 21
32.2014734311
  0
LINE
  5
47B
100
AcDbEntity
  8
0
100
AcDbLine
 62
7
  6
CONTINUOUS
 10
-46.2541619419
 20
32.7066897494
 11
-45.6733806146
 21
32.4658380305
  0
LINE
  5
47C
100
AcDbEntity
  8
0
100
AcDbLine
 62
7
  6
CONTINUOUS
 10
-46.2725107877
 20
32.6982306266
 11
-45.6806155271
 21
32.4504985541
  0
LWPOLYLINE
  5
47D
100
AcDbEntity
  8
0
100
AcDbPolyline
 62
7
  6
CONTINUOUS
 90
10
 70
0
 10
-44.5217844613
 20
33.7315937463
 10
-44.5904418902
 20
33.7609250645
 10
-44.6599244521
 20
33.7876225346
 10
-44.7302321469
 20
33.8116861568
 10
-44.8014368798
 20
33.8331346257
 10
-44.8734667457
 20
33.8519492466
 10
-44.9461060289
 20
33.8680739355
 10
-45.019356972
 20
33.8815007359
 10
-45.0932173323
 20
33.8922376044
 10
-45.111361974
 20
33.8944550454
  0
LWPOLYLINE
  5
47E
100
AcDbEntity
  8
0
100
AcDbPolyline
 62
7
  6
CONTINUOUS
 90
7
 70
0
 10
-44.5217844613
 20
33.7315937463
 10
-44.4624877945
 20
33.7037826918
 10
-44.4039610427
 20
33.6739861956
 10
-44.3462529229
 20
33.6422199448
 10
-44.2894118084
 20
33.6085012989
 10
-44.2334856859
 20
33.5728492908
 10
-44.1785221127
 20
33.535284625
  0
LWPOLYLINE
  5
47F
100
AcDbEntity
  8
ASSI
100
AcDbPolyline
 62
7
  6
CONTINUOUS
 90
9
 70
0
 10
3.8481372902
 20
21.9452611665
 10
4.0361196236
 20
21.8183151818
 10
4.2281873394
 20
21.700212877
 10
4.4243404377
 20
21.5909542521
 10
4.6248644174
 20
21.4904113557
 10
4.8294737795
 20
21.3987121393
 10
5.037312027
 20
21.3162404566
 10
5.248392695
 20
21.2430349883
 10
5.3308644117
 20
21.2176471155
  0
LINE
  5
480
100
AcDbEntity
  8
ASSI
100
AcDbLine
 62
7
  6
CONTINUOUS
 10
99.6632544215
 20
-49.1183384004
 11
46.6823980758
 21
-11.6552156053
  0
LINE
  5
481
100
AcDbEntity
  8
ASSI
100
AcDbLine
 62
7
  6
CONTINUOUS
 10
3.7981372902
 20
21.9599058274
 11
-14.5866390207
 21
34.9599058274
  0
LINE
  5
482
100
AcDbEntity
  8
ASSI
100
AcDbLine
 62
7
  6
CONTINUOUS
 10
3.8481372902
 20
21.9452611665
 11
-14.5366390207
 21
34.9452611665
  0
LWPOLYLINE
  5
483
100
AcDbEntity
  8
ASSI
100
AcDbPolyline
 62
7
  6
CONTINUOUS
 90
43
 70
0
 10
-14.0366390207
 20
35.7988145571
 10
-14.1935189625
 20
35.9148685981
 10
-14.3455705048
 20
36.0375648521
 10
-14.4927936475
 20
36.1669033192
 10
-14.6353808063
 20
36.3030833574
 10
-14.7731395656
 20
36.4459056086
 10
-14.9054926785
 20
36.5947719984
 10
-15.0324173972
 20
36.7497078889
 10
-15.1539364697
 20
36.9106879179
 10
-15.2695408928
 20
37.0770379244
 10
-15.3792058072
 20
37.2487804267
 10
-15.4829560722
 20
37.4258929065
 10
-15.5803572636
 20
37.6076336482
 10
-15.6713826722
 20
37.7940218796
 10
-15.756059007
 20
37.9850383728
 10
-15.834031971
 20
38.1798837282
 10
-15.9052734989
 20
38.3785739862
 10
-15.9698116559
 20
38.5810931065
 10
-16.02737634
 20
38.7865935684
 10
-16.0779383581
 20
38.9950880014
 10
-16.1215269034
 20
39.206563776
 10
-16.1579594534
 20
39.4201354837
 10
-16.1872059879
 20
39.6358119104
 10
-16.209296527
 20
39.8535842701
 10
-16.2241386095
 20
40.072540796
 10
-16.23170185
 20
40.2926863083
 10
-16.2320166339
 20
40.5140159867
 10
-16.225081655
 20
40.7356036033
 10
-16.2108665564
 20
40.9574502465
 10
-16.1894016952
 20
41.1795548277
 10
-16.1607768363
 20
41.4009878542
 10
-16.1249619268
 20
41.6217467202
 10
-16.0819870196
 20
41.8418340313
 10
-16.0320320388
 20
42.0603281111
 10
-15.9750676613
 20
42.2772223041
 10
-15.9111232102
 20
42.4925232657
 10
-15.8404665786
 20
42.7053292858
 10
-15.7630695489
 20
42.9156299171
 10
-15.6789603387
 20
43.123435607
 10
-15.5884914949
 20
43.327875987
 10
-15.4917805329
 20
43.5286609347
 10
-15.3887099372
 20
43.7260805725
 10
-15.2792797078
 20
43.9201349006
  0
LWPOLYLINE
  5
484
100
AcDbEntity
  8
ASSI
100
AcDbPolyline
 62
7
  6
CONTINUOUS
 90
40
 70
0
 10
-14.5866390207
 20
34.9599058274
 10
-14.7836042953
 20
35.106126482
 10
-14.9739733578
 20
35.2612737945
 10
-15.157746208
 20
35.425347765
 10
-15.3351992289
 20
35.5986431611
 10
-15.5060560376
 20
35.7808652153
 10
-15.6694874851
 20
35.9711296243
 10
-15.8254574787
 20
36.1694754799
 10
-15.9740021111
 20
36.3758636903
 10
-16.114400512
 20
36.5892926768
 10
-16.2466130845
 20
36.8097966627
 10
-16.3706794254
 20
37.0373414246
 10
-16.4859974547
 20
37.2708227133
 10
-16.5925246492
 20
37.5102693848
 10
-16.690303532
 20
37.7556525831
 10
-16.7788595933
 20
38.0057814912
 10
-16.8581480032
 20
38.2606791766
 10
-16.9282135916
 20
38.5203225718
 10
-16.9887163381
 20
38.7834516564
 10
-17.03960976
 20
39.0500833736
 10
-17.0809403399
 20
39.3202007803
 10
-17.1125075053
 20
39.5924930269
 10
-17.1342637985
 20
39.866970685
 10
-17.146256677
 20
40.1436231831
 10
-17.1484279409
 20
40.4211079577
 10
-17.1407298496
 20
40.6994290543
 10
-17.1232101436
 20
40.9785824274
 10
-17.0959538441
 20
41.2572133771
 10
-17.0589136239
 20
41.5353193639
 10
-17.0121368101
 20
41.8129029273
 10
-16.9558504054
 20
42.0886169854
 10
-16.890008186
 20
42.3624524509
 10
-16.8146563757
 20
42.6344184112
 10
-16.7301606484
 20
42.9031950458
 10
-16.6364765577
 20
43.1687668524
 10
-16.5336485499
 20
43.4311493334
 10
-16.4221756379
 20
43.6890691761
 10
-16.3022241592
 20
43.9421019429
 10
-16.1736277762
 20
44.1906720714
 10
-16.036386489
 20
44.4347795616
  0
LINE
  5
485
100
AcDbEntity
  8
0
100
AcDbLine
 62
7
  6
CONTINUOUS
 10
-17.3092750371
 20
81.6224500966
 11
-17.266121059
 21
81.535370874
  0
LINE
  5
486
100
AcDbEntity
  8
0
100
AcDbLine
 62
7
  6
CONTINUOUS
 10
-17.3628408091
 20
81.732031678
 11
-17.3092750371
 21
81.6224500966
  0
LINE
  5
487
100
AcDbEntity
  8
0
100
AcDbLine
 62
7
  6
CONTINUOUS
 10
-17.427394382
 20
81.8658002949
 11
-17.3628408091
 21
81.732031678
  0
LINE
  5
488
100
AcDbEntity
  8
0
100
AcDbLine
 62
7
  6
CONTINUOUS
 10
-17.5028880794
 20
82.0239711217
 11
-17.427394382
 21
81.8658002949
  0
LINE
  5
489
100
AcDbEntity
  8
0
100
AcDbLine
 62
7
  6
CONTINUOUS
 10
-15.604156146
 20
81.3642477887
 11
-15.6472698955
 21
81.4547700201
  0
LINE
  5
48A
100
AcDbEntity
  8
0
100
AcDbLine
 62
7
  6
CONTINUOUS
 10
-17.9150614482
 20
81.6286822442
 11
-17.9312421774
 21
81.6631497477
  0
LINE
  5
48B
100
AcDbEntity
  8
0
100
AcDbLine
 62
7
  6
CONTINUOUS
 10
-17.9312421774
 20
81.6631497477
 11
-17.9471660019
 21
81.6975878185
  0
LINE
  5
48C
100
AcDbEntity
  8
0
100
AcDbLine
 62
7
  6
CONTINUOUS
 10
-17.9471660019
 20
81.6975878185
 11
-17.9628988117
 21
81.7320312369
  0
LINE
  5
48D
100
AcDbEntity
  8
0
100
AcDbLine
 62
7
  6
CONTINUOUS
 10
-16.0616365076
 20
83.0573607983
 11
-16.2634520526
 21
83.5257832027
  0
LINE
  5
48E
100
AcDbEntity
  8
0
100
AcDbLine
 62
7
  6
CONTINUOUS
 10
-15.5968482949
 20
81.3429204412
 11
-15.604156146
 21
81.3642477887
  0
LINE
  5
48F
100
AcDbEntity
  8
ASSI
100
AcDbLine
 62
250
  6
CONTINUOUS
 10
21.8856372902
 20
52.7371997321
 11
21.8856372902
 21
51.7371997321
  0
LINE
  5
490
100
AcDbEntity
  8
0
100
AcDbLine
 62
7
  6
CONTINUOUS
 10
38.4551102456
 20
40.3679921553
 11
38.4730732272
 21
40.4527161724
  0
LINE
  5
491
100
AcDbEntity
  8
0
100
AcDbLine
 62
7
  6
CONTINUOUS
 10
38.4730732272
 20
40.4527161724
 11
38.4918596066
 21
40.5378432484
  0
LINE
  5
492
100
AcDbEntity
  8
0
100
AcDbLine
 62
7
  6
CONTINUOUS
 10
38.4918596066
 20
40.5378432484
 11
38.5114796901
 21
40.6233996151
  0
LINE
  5
493
100
AcDbEntity
  8
0
100
AcDbLine
 62
7
  6
CONTINUOUS
 10
38.5114796901
 20
40.6233996151
 11
38.5319951838
 21
40.7095843741
  0
LINE
  5
494
100
AcDbEntity
  8
0
100
AcDbLine
 62
7
  6
CONTINUOUS
 10
38.5319951838
 20
40.7095843741
 11
38.5533023506
 21
40.7959249575
  0
LINE
  5
495
100
AcDbEntity
  8
0
100
AcDbLine
 62
7
  6
CONTINUOUS
 10
38.5533023506
 20
40.7959249575
 11
38.5752805246
 21
40.8819553309
  0
LWPOLYLINE
  5
496
100
AcDbEntity
  8
0
100
AcDbPolyline
 62
7
  6
CONTINUOUS
 90
3
 70
0
 10
38.5752805246
 20
40.8819553309
 10
38.5975839318
 20
40.9664218684
 10
38.6088797177
 20
41.0081500472
  0
LWPOLYLINE
  5
497
100
AcDbEntity
  8
0
100
AcDbPolyline
 62
250
  6
CONTINUOUS
 90
49
 70
0
 10
37.6383850863
 20
42.4961965691
 10
37.5982959216
 20
42.3648762094
 10
37.5644539399
 20
42.2318393794
 10
37.5369625495
 20
42.0974925886
 10
37.5159057536
 20
41.9622463483
 10
37.5013478941
 20
41.8265139201
 10
37.4933334543
 20
41.6907100528
 10
37.4918869232
 20
41.5552497138
 10
37.4970127203
 20
41.420546815
 10
37.5086951836
 20
41.2870129504
 10
37.5268986184
 20
41.1550561392
 10
37.5515674018
 20
41.0250796006
 10
37.5826261508
 20
40.8974805142
 10
37.6199799499
 20
40.7726488011
 10
37.6635146644
 20
40.6509658684
 10
37.7130972938
 20
40.5328034705
 10
37.7685763677
 20
40.418522617
 10
37.8297823475
 20
40.308472569
 10
37.8965281537
 20
40.2029896979
 10
37.9686097872
 20
40.102396365
 10
38.045807021
 20
40.0069998782
 10
38.1278840227
 20
39.9170916615
 10
38.2145900216
 20
39.8329464225
 10
38.3056600604
 20
39.7548213031
 10
38.4008158632
 20
39.6829550291
 10
38.4997666899
 20
39.6175671885
 10
38.60221017
 20
39.5588575978
 10
38.7078332168
 20
39.5070056813
 10
38.816313025
 20
39.4621698922
 10
38.9273181743
 20
39.4244871934
 10
39.0405095909
 20
39.3940726923
 10
39.1555414928
 20
39.3710193237
 10
39.2720623084
 20
39.3553975683
 10
39.3897158629
 20
39.3472551794
 10
39.5081425715
 20
39.3466170236
 10
39.6269806444
 20
39.3534850316
 10
39.7458670597
 20
39.3678382217
 10
39.8644386023
 20
39.3896327559
 10
39.9823329059
 20
39.4188020413
 10
40.0991896638
 20
39.4552569326
 10
40.2146517802
 20
39.498886022
 10
40.3283664756
 20
39.5495559987
 10
40.439986298
 20
39.6071120389
 10
40.5491701814
 20
39.6713782723
 10
40.6555845018
 20
39.7421583243
 10
40.7589041114
 20
39.8192359269
 10
40.8588133089
 20
39.9023755652
 10
40.9550068053
 20
39.9913231943
 10
41.0471906696
 20
40.0858070253
  0
LWPOLYLINE
  5
498
100
AcDbEntity
  8
0
100
AcDbPolyline
 62
250
  6
CONTINUOUS
 90
49
 70
0
 10
41.6471906696
 20
41.110071094
 10
41.6872798343
 20
41.2413914537
 10
41.721121816
 20
41.3744282837
 10
41.7486132064
 20
41.5087750745
 10
41.7696700023
 20
41.6440213148
 10
41.7842278619
 20
41.779753743
 10
41.7922423016
 20
41.9155576103
 10
41.7936888327
 20
42.0510179493
 10
41.7885630356
 20
42.1857208481
 10
41.7768805723
 20
42.3192547127
 10
41.7586771376
 20
42.4512115239
 10
41.7340083541
 20
42.5811880626
 10
41.7029496051
 20
42.7087871489
 10
41.665595806
 20
42.833618862
 10
41.6220610915
 20
42.9553017947
 10
41.5724784621
 20
43.0734641926
 10
41.5169993882
 20
43.1877450462
 10
41.4557934084
 20
43.2977950941
 10
41.3890476023
 20
43.4032779652
 10
41.3169659687
 20
43.5038712981
 10
41.2397687349
 20
43.5992677849
 10
41.1576917332
 20
43.6891760016
 10
41.0709857343
 20
43.7733212406
 10
40.9799156956
 20
43.85144636
 10
40.8847598928
 20
43.923312634
 10
40.785809066
 20
43.9887004746
 10
40.6833655859
 20
44.0474100654
 10
40.5777425391
 20
44.0992619818
 10
40.4692627309
 20
44.1440977709
 10
40.3582575816
 20
44.1817804697
 10
40.245066165
 20
44.2121949708
 10
40.1300342631
 20
44.2352483394
 10
40.0135134475
 20
44.2508700948
 10
39.895859893
 20
44.2590124837
 10
39.7774331844
 20
44.2596506396
 10
39.6585951115
 20
44.2527826315
 10
39.5397086962
 20
44.2384294414
 10
39.4211371536
 20
44.2166349072
 10
39.30324285
 20
44.1874656218
 10
39.1863860921
 20
44.1510107305
 10
39.0709239757
 20
44.1073816412
 10
38.9572092804
 20
44.0567116644
 10
38.8455894579
 20
43.9991556242
 10
38.7364055745
 20
43.9348893908
 10
38.6299912541
 20
43.8641093388
 10
38.5266716445
 20
43.7870317362
 10
38.426762447
 20
43.7038920979
 10
38.3305689506
 20
43.6149444688
 10
38.2383850863
 20
43.5204606378
  0
LWPOLYLINE
  5
499
100
AcDbEntity
  8
0
100
AcDbPolyline
 62
7
  6
CONTINUOUS
 90
28
 70
0
 10
37.6071894921
 20
42.5354203284
 10
37.5655186869
 20
42.4031366323
 10
37.5283912279
 20
42.2625716428
 10
37.4980892704
 20
42.1205046885
 10
37.4746992106
 20
41.9773210529
 10
37.4583041733
 20
41.8334892422
 10
37.4489641253
 20
41.6895609001
 10
37.4466971549
 20
41.5460165394
 10
37.4514984375
 20
41.4032349771
 10
37.463351861
 20
41.261613389
 10
37.4822328206
 20
41.1215177577
 10
37.508085225
 20
40.9834258994
 10
37.5408004613
 20
40.8478900767
 10
37.5802505212
 20
40.7153613584
 10
37.6263176491
 20
40.5861763002
 10
37.6788629465
 20
40.4606968897
 10
37.7377392873
 20
40.3392657886
 10
37.8027543134
 20
40.2222752318
 10
37.873665884
 20
40.110139866
 10
37.9502344211
 20
40.0032047881
 10
38.0322286007
 20
39.9017630048
 10
38.1193792651
 20
39.8061212242
 10
38.2113829951
 20
39.7165812558
 10
38.3079704442
 20
39.6333754313
 10
38.408905401
 20
39.5566931195
 10
38.5138977959
 20
39.4867536244
 10
38.622597136
 20
39.4237880482
 10
38.6939938804
 20
39.3872191959
  0
LWPOLYLINE
  5
49A
100
AcDbEntity
  8
0
100
AcDbPolyline
 62
250
  6
CONTINUOUS
 90
28
 70
0
 10
41.8252934077
 20
41.0192491335
 10
41.8647350042
 20
41.142752688
 10
41.898910375
 20
41.2678198675
 10
41.9277356079
 20
41.3941424604
 10
41.9511398085
 20
41.5214081373
 10
41.9690658752
 20
41.649304369
 10
41.9814701845
 20
41.7775192385
 10
41.9883221619
 20
41.9057398572
 10
41.9896044646
 20
42.033647371
 10
41.9853141378
 20
42.1609209875
 10
41.9754628252
 20
42.2872428709
 10
41.960075371
 20
42.4123064568
 10
41.9391888822
 20
42.5358112513
 10
41.9128531119
 20
42.6574584606
 10
41.8811334055
 20
42.7769426015
 10
41.8441106072
 20
42.8939602506
 10
41.8018784157
 20
43.0082194798
 10
41.7545404345
 20
43.1194436922
 10
41.7022122902
 20
43.2273629636
 10
41.6449992049
 20
43.3317530095
 10
41.5830625425
 20
43.4323127471
 10
41.5166359271
 20
43.5286838768
 10
41.4459572631
 20
43.6205724601
 10
41.3711635843
 20
43.7078483046
 10
41.2923526531
 20
43.7904138043
 10
41.2096818169
 20
43.8680977211
 10
41.1233844531
 20
43.940674656
 10
41.0336712123
 20
44.0079666375
  0
LWPOLYLINE
  5
49B
100
AcDbEntity
  8
TRASH
100
AcDbPolyline
 62
7
  6
CONTINUOUS
 90
12
 70
0
 10
39.6060469111
 20
40.9813687589
 10
39.6224069034
 20
41.026241341
 10
39.6379305939
 20
41.0694830116
 10
39.6525228395
 20
41.1111259314
 10
39.6661209277
 20
41.1513279376
 10
39.6790214675
 20
41.190337011
 10
39.691202785
 20
41.2282449907
 10
39.7025735944
 20
41.2651642042
 10
39.7133611654
 20
41.3013304327
 10
39.723630079
 20
41.3368825076
 10
39.7332672487
 20
41.3718950214
 10
39.7422585696
 20
41.4064944707
  0
LWPOLYLINE
  5
49C
100
AcDbEntity
  8
0
100
AcDbPolyline
 62
7
  6
CONTINUOUS
 90
10
 70
0
 10
42.1492731752
 20
40.9092289013
 10
42.1023017561
 20
40.7828889796
 10
42.0502621883
 20
40.6594358601
 10
41.9931544717
 20
40.5388695429
 10
41.9307861571
 20
40.4208614968
 10
41.8633496938
 20
40.305740253
 10
41.7914224292
 20
40.1944914053
 10
41.7151968125
 20
40.0874434849
 10
41.6344803945
 20
39.9842679607
 10
41.5492731752
 20
39.8849648326
  0
LINE
  5
49D
100
AcDbEntity
  8
TRASH
100
AcDbLine
 62
7
  6
CONTINUOUS
 10
39.6019813601
 20
40.9705060926
 11
39.6060469111
 21
40.9813687589
  0
LWPOLYLINE
  5
49E
100
AcDbEntity
  8
TRASH
100
AcDbPolyline
 62
7
  6
CONTINUOUS
 90
10
 70
0
 10
39.3471625147
 20
41.9795507828
 10
39.3663853038
 20
42.0292550112
 10
39.3875501399
 20
42.0780950497
 10
39.4106131053
 20
42.1259640707
 10
39.4355234086
 20
42.1727497794
 10
39.4622309335
 20
42.2183571073
 10
39.4906891817
 20
42.2627070667
 10
39.5208439943
 20
42.3057073901
 10
39.5526308161
 20
42.3472541332
 10
39.5859842511
 20
42.3872533992
  0
LWPOLYLINE
  5
49F
100
AcDbEntity
  8
0
100
AcDbPolyline
 62
7
  6
CONTINUOUS
 90
10
 70
0
 10
42.6615041158
 20
40.5830354617
 10
42.6216436576
 20
40.4890952171
 10
42.5788670825
 20
40.3966184792
 10
42.5332334532
 20
40.3057333066
 10
42.4848052587
 20
40.2165646213
 10
42.4336498679
 20
40.1292369068
 10
42.3798397253
 20
40.0438738335
 10
42.3234500512
 20
39.9605943331
 10
42.2645584507
 20
39.879512639
 10
42.2032465463
 20
39.8007408573
  0
LWPOLYLINE
  5
4A0
100
AcDbEntity
  8
ASSI
100
AcDbPolyline
 62
7
  6
CONTINUOUS
 90
51
 70
0
 10
-15.6451888857
 20
-87.298179899
 10
-15.8940622065
 20
-87.7300952732
 10
-16.1354339849
 20
-88.1633434536
 10
-16.3693042209
 20
-88.5979244402
 10
-16.5959326017
 20
-89.0343543539
 10
-16.8150594401
 20
-89.4721170738
 10
-17.0259056744
 20
-89.9096642374
 10
-17.2283329858
 20
-90.3467731775
 10
-17.4224796932
 20
-90.7836665613
 10
-17.6079816917
 20
-91.219464028
 10
-17.7848028829
 20
-91.6540736445
 10
-17.9529793653
 20
-92.0875873439
 10
-18.1122553294
 20
-92.5194005651
 10
-18.2627169266
 20
-92.9498166192
 10
-18.4042780056
 20
-93.378532195
 10
-18.5364243029
 20
-93.804032798
 10
-18.6590648206
 20
-94.2261541217
 10
-18.7722905566
 20
-94.6450604725
 10
-18.8758602413
 20
-95.0597302751
 10
-18.9697266794
 20
-95.4699633967
 10
-19.0539370661
 20
-95.8759599702
 10
-19.1283917179
 20
-96.2772988195
 10
-19.1931287239
 20
-96.6742927584
 10
-19.248109995
 20
-97.0666289732
 10
-19.2931215793
 20
-97.4529478465
 10
-19.328101797
 20
-97.833127531
 10
-19.353112328
 20
-98.207289874
 10
-19.3681242604
 20
-98.5744408001
 10
-19.3731297029
 20
-98.9343571755
 10
-19.3681365467
 20
-99.2872621342
 10
-19.3531395539
 20
-99.6328310028
 10
-19.3281084046
 20
-99.9713318471
 10
-19.2930734187
 20
-100.3024966014
 10
-19.2481203169
 20
-100.625196396
 10
-19.193201723
 20
-100.9393419982
 10
-19.1283650133
 20
-101.2450226407
 10
-19.0538380376
 20
-101.541377152
 10
-18.9696738097
 20
-101.8281937918
 10
-18.8758193158
 20
-102.1056843003
 10
-18.772343364
 20
-102.3736227267
 10
-18.6591497429
 20
-102.6322123696
 10
-18.5363346639
 20
-102.8812499304
 10
-18.4042555696
 20
-103.1198995622
 10
-18.2628592726
 20
-103.3481016253
 10
-18.1121989604
 20
-103.5659157594
 10
-17.9527916368
 20
-103.7726850377
 10
-17.7847611299
 20
-103.9682371281
 10
-17.6079836117
 20
-104.1527443626
 10
-17.4226046031
 20
-104.3260668097
 10
-17.2284853606
 20
-104.4883200793
 10
-17.0375436937
 20
-104.6311219956
  0
LINE
  5
4A1
100
AcDbEntity
  8
ASSI
100
AcDbLine
 62
7
  6
CONTINUOUS
 10
-15.6451888857
 20
-87.298179899
 11
-1.6670447851
 21
-63.4359953165
  0
LWPOLYLINE
  5
4A2
100
AcDbEntity
  8
0
100
AcDbPolyline
 62
7
  6
CONTINUOUS
 90
7
 70
0
 10
42.8592336972
 20
39.8959723615
 10
42.8284369431
 20
39.8874080589
 10
42.7822188407
 20
39.8792931611
 10
42.7362303785
 20
39.8759296018
 10
42.6907911445
 20
39.8773187049
 10
42.646201052
 20
39.8834286766
 10
42.6074105079
 20
39.8928052004
  0
LWPOLYLINE
  5
4A3
100
AcDbEntity
  8
0
100
AcDbPolyline
 62
7
  6
CONTINUOUS
 90
34
 70
0
 10
42.2032465463
 20
39.8007408573
 10
42.2285346756
 20
39.8077460129
 10
42.254472968
 20
39.8167273822
 10
42.2809442202
 20
39.8276402824
 10
42.3078857122
 20
39.840405104
 10
42.3351180561
 20
39.8549833622
 10
42.3623453112
 20
39.8713691411
 10
42.3894379445
 20
39.8894711874
 10
42.4162775006
 20
39.9091892134
 10
42.4425862074
 20
39.9304780458
 10
42.4682257377
 20
39.9532175503
 10
42.4931009495
 20
39.9772826521
 10
42.5170049631
 20
40.0026063728
 10
42.5398084396
 20
40.0290550144
 10
42.5614329622
 20
40.0564890015
 10
42.5817528879
 20
40.0848290975
 10
42.6006559613
 20
40.1139408266
 10
42.6180729441
 20
40.1436734772
 10
42.6339434175
 20
40.1739239051
 10
42.6481722136
 20
40.2045621569
 10
42.6606976527
 20
40.2354257814
 10
42.6715095924
 20
40.266362223
 10
42.6805301865
 20
40.2972443082
 10
42.6877109084
 20
40.3279020988
 10
42.693092468
 20
40.3581189
 10
42.6966217516
 20
40.3877666967
 10
42.698271751
 20
40.4166833801
 10
42.698141053
 20
40.4446082361
 10
42.696214351
 20
40.4714132066
 10
42.6924907639
 20
40.4969669148
 10
42.6871173208
 20
40.5210210684
 10
42.6801636105
 20
40.5434267139
 10
42.6716131447
 20
40.5641282443
 10
42.6615041158
 20
40.5830354617
  0
LINE
  5
4A4
100
AcDbEntity
  8
0
100
AcDbLine
 62
7
  6
CONTINUOUS
 10
-45.5483252571
 20
30.5316404027
 11
-45.3870155912
 21
30.5217266248
  0
LINE
  5
4A5
100
AcDbEntity
  8
0
100
AcDbLine
 62
7
  6
CONTINUOUS
 10
-46.5587189683
 20
32.1372784177
 11
-46.7200286342
 21
32.1471921956
  0
LINE
  5
4A6
100
AcDbEntity
  8
0
100
AcDbLine
 62
7
  6
CONTINUOUS
 10
-46.8628976047
 20
32.3966443645
 11
-46.7940758095
 21
32.392256254
  0
LINE
  5
4A7
100
AcDbEntity
  8
0
100
AcDbLine
 62
7
  6
CONTINUOUS
 10
-45.6625848959
 20
30.5391758536
 11
-45.5483252571
 21
30.5316404027
  0
LINE
  5
4A8
100
AcDbEntity
  8
0
100
AcDbLine
 62
7
  6
CONTINUOUS
 10
-46.4444593295
 20
32.1297429669
 11
-46.5587189683
 21
32.1372784177
  0
LINE
  5
4A9
100
AcDbEntity
  8
0
100
AcDbLine
 62
7
  6
CONTINUOUS
 10
-45.7535835646
 20
30.5455915901
 11
-45.6625848959
 21
30.5391758536
  0
LINE
  5
4AA
100
AcDbEntity
  8
0
100
AcDbLine
 62
7
  6
CONTINUOUS
 10
-46.3534606608
 20
32.1233272304
 11
-46.4444593295
 21
32.1297429669
  0
LINE
  5
4AB
100
AcDbEntity
  8
0
100
AcDbLine
 62
7
  6
CONTINUOUS
 10
-46.7940758095
 20
32.392256254
 11
-46.7585655382
 21
32.3897413562
  0
LINE
  5
4AC
100
AcDbEntity
  8
0
100
AcDbLine
 62
7
  6
CONTINUOUS
 10
-45.8442916989
 20
30.5524503328
 11
-45.7535835646
 21
30.5455915901
  0
LINE
  5
4AD
100
AcDbEntity
  8
0
100
AcDbLine
 62
7
  6
CONTINUOUS
 10
-46.2627525265
 20
32.1164684877
 11
-46.3534606608
 21
32.1233272304
  0
LWPOLYLINE
  5
4AE
100
AcDbEntity
  8
0
100
AcDbPolyline
 62
7
  6
CONTINUOUS
 90
3
 70
0
 10
-46.3759010326
 20
30.6037576486
 10
-46.467843742
 20
30.610959551
 10
-46.4866358942
 20
30.6125359921
  0
LWPOLYLINE
  5
4AF
100
AcDbEntity
  8
0
100
AcDbPolyline
 62
7
  6
CONTINUOUS
 90
3
 70
0
 10
-45.9350045092
 20
30.5598836107
 10
-45.9123144966
 20
30.5579676288
 10
-45.8442916989
 20
30.5524503328
  0
LWPOLYLINE
  5
4B0
100
AcDbEntity
  8
0
100
AcDbPolyline
 62
7
  6
CONTINUOUS
 90
3
 70
0
 10
-46.1720397162
 20
32.1090352098
 10
-46.1947297288
 20
32.1109511917
 10
-46.2627525265
 20
32.1164684877
  0
LINE
  5
4B1
100
AcDbEntity
  8
0
100
AcDbLine
 62
7
  6
CONTINUOUS
 10
-45.1584383703
 20
30.5037775935
 11
-45.3659989489
 21
30.5232765587
  0
LWPOLYLINE
  5
4B2
100
AcDbEntity
  8
0
100
AcDbPolyline
 62
7
  6
CONTINUOUS
 90
18
 70
0
 10
-45.9210245074
 20
33.9894972044
 10
-45.9771156366
 20
33.9952725997
 10
-46.102556647
 20
34.0024107436
 10
-46.2288115477
 20
34.001661485
 10
-46.3554670454
 20
33.9930062858
 10
-46.4821758234
 20
33.9764467005
 10
-46.6085917392
 20
33.9519978707
 10
-46.7342745223
 20
33.919715334
 10
-46.8587439618
 20
33.8797062255
 10
-46.9815638174
 20
33.8321086608
 10
-47.102414517
 20
33.7770439652
 10
-47.2210013914
 20
33.7146296486
 10
-47.3370351832
 20
33.6449831083
 10
-47.4500746525
 20
33.5683321551
 10
-47.5596187513
 20
33.4850046154
 10
-47.66529205
 20
33.3952974274
 10
-47.7668291109
 20
33.2994453661
 10
-47.8604532608
 20
33.2015587086
  0
LINE
  5
4B3
100
AcDbEntity
  8
0
100
AcDbLine
 62
7
  6
CONTINUOUS
 10
-46.3759010326
 20
30.6037576486
 11
-46.1166368513
 21
30.577209356
  0
LINE
  5
4B4
100
AcDbEntity
  8
0
100
AcDbLine
 62
7
  6
CONTINUOUS
 10
-45.9210016321
 20
33.9894945194
 11
-45.1113933469
 21
33.8944587283
  0
LINE
  5
4B5
100
AcDbEntity
  8
TRASH
100
AcDbLine
 62
7
  6
CONTINUOUS
 10
-45.8408533611
 20
31.9383685891
 11
-45.8065635866
 21
31.9340739005
  0
LINE
  5
4B6
100
AcDbEntity
  8
TRASH
100
AcDbLine
 62
7
  6
CONTINUOUS
 10
-46.0287345423
 20
31.9633243551
 11
-45.8408533611
 21
31.9383685891
  0
LINE
  5
4B7
100
AcDbEntity
  8
TRASH
100
AcDbLine
 62
7
  6
CONTINUOUS
 10
-46.2576305157
 20
31.9952416109
 11
-46.0287345423
 21
31.9633243551
  0
LINE
  5
4B8
100
AcDbEntity
  8
TRASH
100
AcDbLine
 62
7
  6
CONTINUOUS
 10
-46.4825582439
 20
32.0276033542
 11
-46.2576305157
 21
31.9952416109
  0
LINE
  5
4B9
100
AcDbEntity
  8
0
100
AcDbLine
 62
7
  6
CONTINUOUS
 10
-46.924227184
 20
31.6723532428
 11
-46.752555823
 21
31.6464153536
  0
LINE
  5
4BA
100
AcDbEntity
  8
0
100
AcDbLine
 62
7
  6
CONTINUOUS
 10
-47.0101959305
 20
31.6856484242
 11
-46.924227184
 21
31.6723532428
  0
LINE
  5
4BB
100
AcDbEntity
  8
0
100
AcDbLine
 62
7
  6
CONTINUOUS
 10
-47.0028880794
 20
31.6643210767
 11
-46.7213825153
 21
31.619906135
  0
LINE
  5
4BC
100
AcDbEntity
  8
TRASH
100
AcDbLine
 62
7
  6
CONTINUOUS
 10
-46.5244075957
 20
32.0358887291
 11
-46.4825601336
 21
32.027601432
  0
LINE
  5
4BD
100
AcDbEntity
  8
0
100
AcDbLine
 62
7
  6
CONTINUOUS
 10
-46.3262870709
 20
31.0468504168
 11
-46.7442932309
 21
31.1321371743
  0
LINE
  5
4BE
100
AcDbEntity
  8
0
100
AcDbLine
 62
7
  6
CONTINUOUS
 10
-46.9651652404
 20
31.1772093901
 11
-47.4150614482
 21
31.2690321992
  0
LWPOLYLINE
  5
4BF
100
AcDbEntity
  8
ASSI
100
AcDbPolyline
 62
7
  6
CONTINUOUS
 90
9
 70
0
 10
-43.2528671501
 20
33.4823520248
 10
-43.3159409956
 20
33.498893726
 10
-43.4296830357
 20
33.5220140138
 10
-43.5444634215
 20
33.5387902056
 10
-43.6602891989
 20
33.5491792522
 10
-43.7771533219
 20
33.5532242029
 10
-43.8942645748
 20
33.5508976716
 10
-44.0116246345
 20
33.5421564235
 10
-44.0902094108
 20
33.532058142
  0
LINE
  5
4C0
100
AcDbEntity
  8
ASSI
100
AcDbLine
 62
250
  6
CONTINUOUS
 10
3.8481372902
 20
21.9452611665
 11
3.7981372902
 21
21.9599058274
  0
LINE
  5
4C1
100
AcDbEntity
  8
ASSI
100
AcDbLine
 62
250
  6
CONTINUOUS
 10
7.6491910989
 20
22.8319582816
 11
5.3481372902
 21
23.5059213383
  0
LINE
  5
4C2
100
AcDbEntity
  8
ASSI
100
AcDbLine
 62
250
  6
CONTINUOUS
 10
-14.5366390207
 20
34.9452611665
 11
-14.5866390207
 21
34.9599058274
  0
LWPOLYLINE
  5
4C3
100
AcDbEntity
  8
ASSI
100
AcDbPolyline
 62
7
  6
CONTINUOUS
 90
8
 70
0
 10
5.3306548785
 20
21.2169664535
 10
5.0843930326
 20
21.2959199742
 10
4.8590773133
 20
21.3805413232
 10
4.6373484135
 20
21.4759192856
 10
4.4202823588
 20
21.5815910032
 10
4.2082378242
 20
21.6974021896
 10
4.0008561347
 20
21.823507131
 10
3.7981372902
 20
21.9599058274
  0
LWPOLYLINE
  5
4C4
100
AcDbEntity
  8
ASSI
100
AcDbPolyline
 62
7
  6
CONTINUOUS
 90
8
 70
0
 10
6.4427141016
 20
22.9752733799
 10
6.2668639665
 20
23.0316552947
 10
6.1058324136
 20
23.0921163051
 10
5.9476277064
 20
23.1601703436
 10
5.7925070299
 20
23.2357065791
 10
5.6407220925
 20
23.3186021647
 10
5.4925187595
 20
23.4087225408
 10
5.3481372902
 20
23.5059213383
  0
LINE
  5
4C5
100
AcDbEntity
  8
ASSI
100
AcDbLine
 62
7
  6
CONTINUOUS
 10
4.3481372902
 20
22.7988145571
 11
-14.0366390207
 21
35.7988145571
  0
LINE
  5
4C6
100
AcDbEntity
  8
ASSI
100
AcDbLine
 62
7
  6
CONTINUOUS
 10
5.3481372902
 20
23.5059213383
 11
-13.0366390207
 21
36.5059213383
  0
LINE
  5
4C7
100
AcDbEntity
  8
ASSI
100
AcDbLine
 62
7
  6
CONTINUOUS
 10
-8.5366390207
 20
35.1879018536
 11
8.675124504
 21
23.0173471491
  0
LWPOLYLINE
  5
4C8
100
AcDbEntity
  8
ASSI
100
AcDbPolyline
 62
7
  6
CONTINUOUS
 90
40
 70
0
 10
-13.0366390207
 20
36.5059213383
 10
-13.176966022
 20
36.6100418395
 10
-13.3130121102
 20
36.7209161793
 10
-13.4445565117
 20
36.8383647234
 10
-13.5713859142
 20
36.9621973403
 10
-13.6932942886
 20
37.0922132035
 10
-13.8100832918
 20
37.2282010336
 10
-13.9215633604
 20
37.3699402884
 10
-14.027553642
 20
37.5172012191
 10
-14.1278818629
 20
37.6697446292
 10
-14.2223852026
 20
37.8273230597
 10
-14.3109103728
 20
37.9896810183
 10
-14.3933136229
 20
38.1565549527
 10
-14.4694612325
 20
38.3276741168
 10
-14.5392297058
 20
38.5027610435
 10
-14.6025058554
 20
38.6815317594
 10
-14.6591870304
 20
38.863696343
 10
-14.7091812503
 20
39.0489592859
 10
-14.7524073717
 20
39.2370199787
 10
-14.7887952734
 20
39.42757343
 10
-14.8182859055
 20
39.6203105052
 10
-14.8408313914
 20
39.8149183066
 10
-14.8563951719
 20
40.0110811099
 10
-14.864952023
 20
40.2084807762
 10
-14.8664880804
 20
40.4067969966
 10
-14.8610008807
 20
40.6057080472
 10
-14.8484993517
 20
40.8048913223
 10
-14.8290037968
 20
41.0040237454
 10
-14.8025458484
 20
41.2027824163
 10
-14.7691684556
 20
41.4008448404
 10
-14.7289258474
 20
41.5978894653
 10
-14.6818833309
 20
41.7935967742
 10
-14.628117281
 20
41.9876492497
 10
-14.5677151395
 20
42.1797316138
 10
-14.5007749564
 20
42.3695324263
 10
-14.427405439
 20
42.55674379
 10
-14.3477260353
 20
42.7410613482
 10
-14.2618662816
 20
42.922185992
 10
-14.1699655045
 20
43.0998243067
 10
-14.0721729266
 20
43.2736882912
  0
LWPOLYLINE
  5
4C9
100
AcDbEntity
  8
TRASH
100
AcDbPolyline
 62
7
  6
CONTINUOUS
 90
8
 70
0
 10
-16.8262858612
 20
81.4065071227
 10
-16.8452404088
 20
81.4369996542
 10
-16.8649876798
 20
81.4680473641
 10
-16.8855520121
 20
81.4997735486
 10
-16.9068478042
 20
81.5322827942
 10
-16.9289792906
 20
81.5656922389
 10
-16.9522361585
 20
81.6001701775
 10
-17.0019798611
 20
81.6728746378
  0
LINE
  5
4CA
100
AcDbEntity
  8
ASSI
100
AcDbLine
 62
250
  6
CONTINUOUS
 10
11.5907779773
 20
24.9201349006
 11
11.3836711961
 21
25.2736882912
  0
LWPOLYLINE
  5
4CB
100
AcDbEntity
  8
0
100
AcDbPolyline
 62
7
  6
CONTINUOUS
 90
32
 70
0
 10
-13.6732526978
 20
81.6965477661
 10
-13.6411012657
 20
81.6366344897
 10
-13.6052513329
 20
81.5592417723
 10
-13.5739366799
 20
81.4798573851
 10
-13.5472387886
 20
81.3988251057
 10
-13.5252181055
 20
81.31649622
 10
-13.5079137662
 20
81.2332279216
 10
-13.4953434169
 20
81.1493816845
 10
-13.4875031345
 20
81.0653216157
 10
-13.4843674437
 20
80.9814127967
 10
-13.4858894339
 20
80.8980196197
 10
-13.4920009721
 20
80.8155041275
 10
-13.5026130143
 20
80.7342243638
 10
-13.5176160104
 20
80.6545327419
 10
-13.5368804036
 20
80.5767744389
 10
-13.5602572211
 20
80.5012858231
 10
-13.5875787521
 20
80.4283929215
 10
-13.6186593128
 20
80.3584099337
 10
-13.6532960917
 20
80.2916378012
 10
-13.6912700742
 20
80.2283628355
 10
-13.7323470401
 20
80.1688554138
 10
-13.7762786313
 20
80.1133687472
 10
-13.8228034828
 20
80.062137727
 10
-13.871648414
 20
80.0153778541
 10
-13.9225296732
 20
79.9732842574
 10
-13.9751542306
 20
79.9360308049
 10
-14.0292211133
 20
79.903769311
 10
-14.0844227768
 20
79.8766288452
 10
-14.1404465061
 20
79.854715144
 10
-14.1969758406
 20
79.8381101288
 10
-14.2536920161
 20
79.8268715329
 10
-14.3014063221
 20
79.8219478489
  0
LINE
  5
4CC
100
AcDbEntity
  8
0
100
AcDbLine
 62
7
  6
CONTINUOUS
 10
-16.3301400334
 20
82.0928952085
 11
-16.2758996201
 21
81.9876708061
  0
LINE
  5
4CD
100
AcDbEntity
  8
0
100
AcDbLine
 62
7
  6
CONTINUOUS
 10
-17.266121059
 20
81.535370874
 11
-17.2442932309
 21
81.4917872193
  0
LINE
  5
4CE
100
AcDbEntity
  8
0
100
AcDbLine
 62
7
  6
CONTINUOUS
 10
-15.6688592421
 20
81.4999111851
 11
-15.7286101326
 21
81.6240226329
  0
LINE
  5
4CF
100
AcDbEntity
  8
0
100
AcDbLine
 62
7
  6
CONTINUOUS
 10
-15.6472698955
 20
81.4547700201
 11
-15.6688592421
 21
81.4999111851
  0
LWPOLYLINE
  5
4D0
100
AcDbEntity
  8
0
100
AcDbPolyline
 62
7
  6
CONTINUOUS
 90
29
 70
0
 10
-13.6763585239
 20
81.6194525679
 10
-13.6552513329
 20
81.5738864332
 10
-13.6239366799
 20
81.494502046
 10
-13.5972387886
 20
81.4134697666
 10
-13.5752181055
 20
81.3311408809
 10
-13.5579137662
 20
81.2478725825
 10
-13.5453434169
 20
81.1640263454
 10
-13.5375031345
 20
81.0799662766
 10
-13.5343674437
 20
80.9960574576
 10
-13.5358894339
 20
80.9126642807
 10
-13.5420009721
 20
80.8301487885
 10
-13.5526130143
 20
80.7488690247
 10
-13.5676160104
 20
80.6691774028
 10
-13.5868804036
 20
80.5914190998
 10
-13.6102572211
 20
80.5159304841
 10
-13.6375787521
 20
80.4430375824
 10
-13.6686593128
 20
80.3730545946
 10
-13.7032960917
 20
80.3062824621
 10
-13.7412700742
 20
80.2430074964
 10
-13.7823470401
 20
80.1835000747
 10
-13.8262786313
 20
80.1280134082
 10
-13.8728034828
 20
80.076782388
 10
-13.921648414
 20
80.030022515
 10
-13.9725296732
 20
79.9879289184
 10
-14.0251542306
 20
79.9506754658
 10
-14.0792211133
 20
79.9184139719
 10
-14.1344227768
 20
79.8912735062
 10
-14.1904465061
 20
79.8693598049
 10
-14.2277373669
 20
79.8584059291
  0
LINE
  5
4D1
100
AcDbEntity
  8
0
100
AcDbLine
 62
7
  6
CONTINUOUS
 10
38.6088797177
 20
41.0081500472
 11
38.607869815
 21
41.0295615454
  0
LINE
  5
4D2
100
AcDbEntity
  8
ASSI
100
AcDbLine
 62
250
  6
CONTINUOUS
 10
36.8693966798
 20
-54.7163757743
 11
36.8693966798
 21
-56.7160235258
  0
LWPOLYLINE
  5
4D3
100
AcDbEntity
  8
ASSI
100
AcDbPolyline
 62
7
  6
CONTINUOUS
 90
20
 70
0
 10
37.455183116
 20
-55.7163238646
 10
37.4534822085
 20
-55.7746884764
 10
37.4475817439
 20
-55.8394497947
 10
37.4374733875
 20
-55.9040883217
 10
37.4232208618
 20
-55.9681965805
 10
37.4047979871
 20
-56.0317712211
 10
37.3822309431
 20
-56.0948155933
 10
37.355661991
 20
-56.1569322696
 10
37.3250658498
 20
-56.2181153895
 10
37.2904678005
 20
-56.2783708134
 10
37.2520859469
 20
-56.3373186949
 10
37.209896386
 20
-56.3949507742
 10
37.1639230208
 20
-56.4512753111
 10
37.1144556645
 20
-56.5059372395
 10
37.0614722448
 20
-56.5589260562
 10
37.004994834
 20
-56.6102522644
 10
36.945379462
 20
-56.6595923069
 10
36.8827448055
 20
-56.7068383313
 10
36.8169721879
 20
-56.7520981901
 10
36.7480616091
 20
-56.7953718832
  0
LINE
  5
4D4
100
AcDbEntity
  8
0
100
AcDbLine
 62
7
  6
CONTINUOUS
 10
38.607869815
 20
41.0295615454
 11
38.6091678228
 21
41.0590781285
  0
LINE
  5
4D5
100
AcDbEntity
  8
0
100
AcDbLine
 62
7
  6
CONTINUOUS
 10
38.6091678228
 20
41.0590781285
 11
38.6120385119
 21
41.1154657628
  0
LINE
  5
4D6
100
AcDbEntity
  8
0
100
AcDbLine
 62
7
  6
CONTINUOUS
 10
38.6120385119
 20
41.1154657628
 11
38.6149687614
 21
41.1684752706
  0
LINE
  5
4D7
100
AcDbEntity
  8
0
100
AcDbLine
 62
7
  6
CONTINUOUS
 10
38.6149687614
 20
41.1684752706
 11
38.6195162125
 21
41.2417555061
  0
LINE
  5
4D8
100
AcDbEntity
  8
0
100
AcDbLine
 62
7
  6
CONTINUOUS
 10
40.3342517369
 20
42.677301525
 11
40.3356323741
 21
42.6980128529
  0
LINE
  5
4D9
100
AcDbEntity
  8
0
100
AcDbLine
 62
7
  6
CONTINUOUS
 10
38.6195162125
 20
41.2417555061
 11
38.6241480011
 21
41.3084174421
  0
LINE
  5
4DA
100
AcDbEntity
  8
0
100
AcDbLine
 62
7
  6
CONTINUOUS
 10
38.6241480011
 20
41.3084174421
 11
38.6288839553
 21
41.3703471148
  0
LINE
  5
4DB
100
AcDbEntity
  8
0
100
AcDbLine
 62
7
  6
CONTINUOUS
 10
38.6288839553
 20
41.3703471148
 11
38.6321582012
 21
41.4101957932
  0
LINE
  5
4DC
100
AcDbEntity
  8
0
100
AcDbLine
 62
7
  6
CONTINUOUS
 10
38.6321582012
 20
41.4101957932
 11
38.6355628342
 21
41.4495392511
  0
LINE
  5
4DD
100
AcDbEntity
  8
0
100
AcDbLine
 62
7
  6
CONTINUOUS
 10
38.6355628342
 20
41.4495392511
 11
38.6391843238
 21
41.4891585312
  0
LINE
  5
4DE
100
AcDbEntity
  8
0
100
AcDbLine
 62
7
  6
CONTINUOUS
 10
38.6391843238
 20
41.4891585312
 11
38.6430043573
 21
41.5289301593
  0
LINE
  5
4DF
100
AcDbEntity
  8
0
100
AcDbLine
 62
7
  6
CONTINUOUS
 10
38.6430043573
 20
41.5289301593
 11
38.6470441778
 21
41.5688329774
  0
LWPOLYLINE
  5
4E0
100
AcDbEntity
  8
0
100
AcDbPolyline
 62
7
  6
CONTINUOUS
 90
3
 70
0
 10
38.6470441778
 20
41.5688329774
 10
38.6512746875
 20
41.6087147734
 10
38.6534810467
 20
41.6286822442
  0
LINE
  5
4E1
100
AcDbEntity
  8
0
100
AcDbLine
 62
7
  6
CONTINUOUS
 10
39.3242492641
 20
41.4917872193
 11
39.3200203262
 21
41.4612846391
  0
LINE
  5
4E2
100
AcDbEntity
  8
0
100
AcDbLine
 62
7
  6
CONTINUOUS
 10
40.2538225551
 20
42.191199404
 11
40.2384024615
 21
42.0928952085
  0
LINE
  5
4E3
100
AcDbEntity
  8
0
100
AcDbLine
 62
7
  6
CONTINUOUS
 10
40.3198380529
 20
42.5943979949
 11
40.2538225551
 21
42.191199404
  0
LINE
  5
4E4
100
AcDbEntity
  8
0
100
AcDbLine
 62
7
  6
CONTINUOUS
 10
40.3342517369
 20
42.677301525
 11
40.3198380529
 21
42.5943979949
  0
LWPOLYLINE
  5
4E5
100
AcDbEntity
  8
ASSI
100
AcDbPolyline
 62
7
  6
CONTINUOUS
 90
42
 70
0
 10
-10.6451888857
 20
-88.762645993
 10
-10.779186796
 20
-88.9959919446
 10
-10.9082686498
 20
-89.2302649473
 10
-11.0324344471
 20
-89.4654650012
 10
-11.1518963518
 20
-89.7020074087
 10
-11.2664422
 20
-89.9394768674
 10
-11.3754354995
 20
-90.1766274701
 10
-11.4788151746
 20
-90.413447504
 10
-11.5766423011
 20
-90.6499486818
 10
-11.6684636141
 20
-90.8849202351
 10
-11.7541433736
 20
-91.1180289568
 10
-11.8338173197
 20
-91.349608054
 10
-11.907439407
 20
-91.5794463793
 10
-11.9750728864
 20
-91.8076989516
 10
-12.0366545071
 20
-92.0342107521
 10
-12.0919484705
 20
-92.2583055771
 10
-12.1409595968
 20
-92.4801468888
 10
-12.1836830658
 20
-92.6995712249
 10
-12.2198686196
 20
-92.9154119957
 10
-12.2494479456
 20
-93.1276050275
 10
-12.2724893563
 20
-93.336214494
 10
-12.2889475304
 20
-93.5402663254
 10
-12.2988024409
 20
-93.7394571171
 10
-12.3020741149
 20
-93.9340902737
 10
-12.2987773123
 20
-94.1241019394
 10
-12.288919296
 20
-94.309713831
 10
-12.2724928031
 20
-94.4907042316
 10
-12.2494908059
 20
-94.666344134
 10
-12.2198502496
 20
-94.8366826984
 10
-12.183634189
 20
-95.0016707646
 10
-12.1410247603
 20
-95.1604318456
 10
-12.0919791163
 20
-95.312864786
 10
-12.0365401042
 20
-95.4590707411
 10
-11.9750184024
 20
-95.5984766899
 10
-11.9075127061
 20
-95.730899929
 10
-11.8339243201
 20
-95.8565231618
 10
-11.7542678372
 20
-95.9753214768
 10
-11.6684345071
 20
-96.0874663021
 10
-11.5765330801
 20
-96.1927862096
 10
-11.4789043997
 20
-96.290742003
 10
-11.3754680644
 20
-96.3812966361
 10
-11.2640358432
 20
-96.4661598336
  0
LINE
  5
4E6
100
AcDbEntity
  8
ASSI
100
AcDbLine
 62
7
  6
CONTINUOUS
 10
3.3329552149
 20
-64.9004614105
 11
-10.6451888857
 21
-88.762645993
  0
LINE
  5
4E7
100
AcDbEntity
  8
ASSI
100
AcDbLine
 62
7
  6
CONTINUOUS
 10
10.5236304969
 20
-61.5749861574
 11
67.6425643349
 21
35.9331331317
  0
LINE
  5
4E8
100
AcDbEntity
  8
ASSI
100
AcDbLine
 62
7
  6
CONTINUOUS
 10
10.5736304969
 20
-61.5896308183
 11
67.6925643349
 21
35.9184884708
  0
LWPOLYLINE
  5
4E9
100
AcDbEntity
  8
ASSI
100
AcDbPolyline
 62
7
  6
CONTINUOUS
 90
33
 70
0
 10
-1.6670447851
 20
-63.4359953165
 10
-1.5943557532
 20
-63.3168183563
 10
-1.5180278177
 20
-63.2010396056
 10
-1.4380609786
 20
-63.0886590644
 10
-1.3543138778
 20
-62.9795056599
 10
-1.2669278733
 20
-62.873750465
 10
-1.1763270398
 20
-62.7719066976
 10
-1.0824957505
 20
-62.6739933703
 10
-0.9854496322
 20
-62.5799914705
 10
-0.8856596386
 20
-62.490357179
 10
-0.7831124325
 20
-62.4051117255
 10
-0.6778213512
 20
-62.3242338803
 10
-0.5702973605
 20
-62.2481161344
 10
-0.4605296067
 20
-62.1767816255
 10
-0.3485289435
 20
-62.110207216
 10
-0.2348388975
 20
-62.0487159839
 10
-0.119451257
 20
-61.9923326373
 10
-0.0023742338
 20
-61.9410324682
 10
0.1158240106
 20
-61.8950644305
 10
0.2351489261
 20
-61.8544544425
 10
0.3555950628
 20
-61.8191765858
 10
0.476577909
 20
-61.7894020601
 10
0.5981000736
 20
-61.7651576155
 10
0.7201589477
 20
-61.7464165019
 10
0.8421621934
 20
-61.7332696677
 10
0.9641095403
 20
-61.7257443053
 10
1.0860012587
 20
-61.7238132224
 10
1.2072458218
 20
-61.7274857902
 10
1.327840084
 20
-61.7367892467
 10
1.447787191
 20
-61.7516963539
 10
1.5665050528
 20
-61.7721347694
 10
1.6839876945
 20
-61.7981313795
 10
1.7915701549
 20
-61.8270887624
  0
LWPOLYLINE
  5
4EA
100
AcDbEntity
  8
0
100
AcDbPolyline
 62
7
  6
CONTINUOUS
 90
7
 70
0
 10
-43.2093087977
 20
29.5363223165
 10
-43.2401055518
 20
29.5277580139
 10
-43.2863236542
 20
29.5196431161
 10
-43.3323121165
 20
29.5162795568
 10
-43.3777513504
 20
29.5176686599
 10
-43.4223414429
 20
29.5237786316
 10
-43.4611319871
 20
29.5331551554
  0
LWPOLYLINE
  5
4EB
100
AcDbEntity
  8
0
100
AcDbPolyline
 62
7
  6
CONTINUOUS
 90
34
 70
0
 10
-43.8652959486
 20
29.4410908123
 10
-43.8400078194
 20
29.4480959679
 10
-43.8140695269
 20
29.4570773372
 10
-43.7875982747
 20
29.4679902374
 10
-43.7606567827
 20
29.480755059
 10
-43.7334244388
 20
29.4953333172
 10
-43.7061971837
 20
29.5117190961
 10
-43.6791045504
 20
29.5298211424
 10
-43.6522649943
 20
29.5495391684
 10
-43.6259562875
 20
29.5708280008
 10
-43.6003167572
 20
29.5935675053
 10
-43.5754415454
 20
29.6176326071
 10
-43.5515375318
 20
29.6429563278
 10
-43.5287340553
 20
29.6694049694
 10
-43.5071095328
 20
29.6968389565
 10
-43.486789607
 20
29.7251790525
 10
-43.4678865337
 20
29.7542907816
 10
-43.4504695508
 20
29.7840234322
 10
-43.4345990775
 20
29.8142738601
 10
-43.4203702813
 20
29.8449121119
 10
-43.4078448422
 20
29.8757757364
 10
-43.3970329025
 20
29.906712178
 10
-43.3880123084
 20
29.9375942632
 10
-43.3808315865
 20
29.9682520538
 10
-43.3754500269
 20
29.998468855
 10
-43.3719207433
 20
30.0281166517
 10
-43.3702707439
 20
30.0570333351
 10
-43.3704014419
 20
30.084958191
 10
-43.3723281439
 20
30.1117631616
 10
-43.376051731
 20
30.1373168698
 10
-43.3814251741
 20
30.1613710234
 10
-43.3883788845
 20
30.1837766689
 10
-43.3969293502
 20
30.2044781993
 10
-43.4070383791
 20
30.2233854167
  0
LWPOLYLINE
  5
4EC
100
AcDbEntity
  8
ASSI
100
AcDbPolyline
 62
7
  6
CONTINUOUS
 90
9
 70
0
 10
41.9495894354
 20
43.9090708913
 10
41.995538053
 20
43.9152633222
 10
42.1187897763
 20
43.9249003332
 10
42.2414794194
 20
43.9275399389
 10
42.3636027972
 20
43.9231300358
 10
42.4851640949
 20
43.9117227275
 10
42.6052603941
 20
43.8934027438
 10
42.7238807862
 20
43.868118612
 10
42.8160516855
 20
43.8434370645
  0
LWPOLYLINE
  5
4ED
100
AcDbEntity
  8
ASSI
100
AcDbPolyline
 62
7
  6
CONTINUOUS
 90
9
 70
0
 10
-44.1189530596
 20
33.5494208463
 10
-44.0730044419
 20
33.5556132772
 10
-43.9497527187
 20
33.5652502882
 10
-43.8270630755
 20
33.5678898939
 10
-43.7049396977
 20
33.5634799908
 10
-43.5833784
 20
33.5520726825
 10
-43.4632821009
 20
33.5337526988
 10
-43.3446617087
 20
33.508468567
 10
-43.2524908094
 20
33.4837870195
  0
LINE
  5
4EE
100
AcDbEntity
  8
0
100
AcDbLine
 62
7
  6
CONTINUOUS
 10
-45.3870155912
 20
30.5217266248
 11
-45.3659989489
 21
30.5232765587
  0
LINE
  5
4EF
100
AcDbEntity
  8
0
100
AcDbLine
 62
7
  6
CONTINUOUS
 10
-46.7200286342
 20
32.1471921956
 11
-46.7410452661
 21
32.1456422625
  0
LINE
  5
4F0
100
AcDbEntity
  8
0
100
AcDbLine
 62
7
  6
CONTINUOUS
 10
40.6815269037
 20
40.8813766698
 11
40.702543546
 21
40.8829266037
  0
LINE
  5
4F1
100
AcDbEntity
  8
0
100
AcDbLine
 62
7
  6
CONTINUOUS
 10
39.3485138607
 20
42.5068422406
 11
39.3274972288
 21
42.5052923075
  0
LINE
  5
4F2
100
AcDbEntity
  8
ASSI
100
AcDbLine
 62
250
  6
CONTINUOUS
 10
-8.5366390207
 20
35.1879018536
 11
-13.0366390207
 21
36.5059213383
  0
LINE
  5
4F3
100
AcDbEntity
  8
ASSI
100
AcDbLine
 62
250
  6
CONTINUOUS
 10
-9.5721729266
 20
41.9556688066
 11
-14.0721729266
 21
43.2736882912
  0
LINE
  5
4F4
100
AcDbEntity
  8
ASSI
100
AcDbLine
 62
250
  6
CONTINUOUS
 10
-15.986386489
 20
44.4201349006
 11
-16.036386489
 21
44.4347795616
  0
LINE
  5
4F5
100
AcDbEntity
  8
ASSI
100
AcDbLine
 62
250
  6
CONTINUOUS
 10
-15.2792797078
 20
43.9201349006
 11
-14.0721729266
 21
43.2736882912
  0
LWPOLYLINE
  5
4F6
100
AcDbEntity
  8
TRASH
100
AcDbPolyline
 62
7
  6
CONTINUOUS
 90
3
 70
0
 10
-17.0867516807
 20
81.793437749
 10
-17.117998329
 20
81.8371063224
 10
-17.2213799803
 20
81.9795507828
  0
LWPOLYLINE
  5
4F7
100
AcDbEntity
  8
TRASH
100
AcDbPolyline
 62
7
  6
CONTINUOUS
 90
3
 70
0
 10
-17.0019798611
 20
81.6728746378
 10
-17.0288330237
 20
81.7113676919
 10
-17.0867516807
 20
81.793437749
  0
LWPOLYLINE
  5
4F8
100
AcDbEntity
  8
0
100
AcDbPolyline
 62
7
  6
CONTINUOUS
 90
11
 70
0
 10
42.8059372882
 20
41.0318611529
 10
42.8062565164
 20
41.0269918409
 10
42.8069345485
 20
40.9553629569
 10
42.8036257936
 20
40.8845246953
 10
42.7964109462
 20
40.8147941444
 10
42.7853894204
 20
40.7464848349
 10
42.7706790932
 20
40.6799041333
 10
42.7524153213
 20
40.6153498044
 10
42.7307502875
 20
40.5531096617
 10
42.7058527703
 20
40.4934615156
 10
42.6959376471
 20
40.4733121309
  0
LWPOLYLINE
  5
4F9
100
AcDbEntity
  8
ASSI
100
AcDbPolyline
 62
7
  6
CONTINUOUS
 90
6
 70
0
 10
73.4969504681
 20
34.1266568435
 10
73.481144142
 20
34.0976684999
 10
73.4651750562
 20
34.0687665293
 10
73.4490432107
 20
34.0399509317
 10
73.4327486055
 20
34.0112217071
 10
73.4162912407
 20
33.9825788554
  0
LWPOLYLINE
  5
4FA
100
AcDbEntity
  8
ASSI
100
AcDbPolyline
 62
7
  6
CONTINUOUS
 90
37
 70
0
 10
67.6425643349
 20
35.9331331317
 10
67.7315824271
 20
36.0920285845
 10
67.8144816065
 20
36.253992685
 10
67.8912618731
 20
36.4190254334
 10
67.9620459314
 20
36.587452248
 10
68.0267110769
 20
36.7589477105
 10
68.0848891966
 20
36.9325355652
 10
68.1365432923
 20
37.1082277458
 10
68.1817103622
 20
37.2860123186
 10
68.2201332881
 20
37.4648772266
 10
68.2517736054
 20
37.6448286312
 10
68.2766697786
 20
37.825860371
 10
68.2946800839
 20
38.006941904
 10
68.305765248
 20
38.1880735143
 10
68.3099645442
 20
38.3692549178
 10
68.3072540674
 20
38.5494547206
 10
68.2975944083
 20
38.7286673244
 10
68.2810249762
 20
38.9068983276
 10
68.2576400944
 20
39.0831331317
 10
68.2274008915
 20
39.2573603517
 10
68.1903462388
 20
39.4295913726
 10
68.1466870738
 20
39.5988457517
 10
68.0963857281
 20
39.7651065118
 10
68.0394798702
 20
39.92839063
 10
67.9762934424
 20
40.0877685946
 10
67.906790624
 20
40.2432181272
 10
67.8310072358
 20
40.3947615061
 10
67.7493746825
 20
40.5415360552
 10
67.6618596039
 20
40.6835145756
 10
67.5684953602
 20
40.820724266
 10
67.4698134371
 20
40.9523840462
 10
67.3657835055
 20
41.0784622626
 10
67.2564358944
 20
41.1989905687
 10
67.1423930765
 20
41.3132828447
 10
67.0238625425
 20
41.421110384
 10
66.9006368017
 20
41.5227018932
 10
66.7727158539
 20
41.6180573722
  0
LWPOLYLINE
  5
4FB
100
AcDbEntity
  8
ASSI
100
AcDbPolyline
 62
7
  6
CONTINUOUS
 90
40
 70
0
 10
67.6925643349
 20
35.9184884708
 10
67.7749091073
 20
36.0649529649
 10
67.852066937
 20
36.214095042
 10
67.9240378243
 20
36.3659147021
 10
67.9909215715
 20
36.5206666077
 10
68.0526183761
 20
36.6780960963
 10
68.1088288305
 20
36.8374391802
 10
68.1595262669
 20
36.998705161
 10
68.2047373531
 20
37.1618847372
 10
68.2442426848
 20
37.3261860165
 10
68.2780145276
 20
37.4916144513
 10
68.3060806158
 20
37.6581645894
 10
68.328304748
 20
37.8250281815
 10
68.3446585277
 20
37.9922067513
 10
68.3551703513
 20
38.1596987752
 10
68.3597892061
 20
38.3266914331
 10
68.3584864478
 20
38.4931822979
 10
68.3512907206
 20
38.6591737967
 10
68.3382369447
 20
38.8238603916
 10
68.3192966455
 20
38.9872357396
 10
68.2944982975
 20
39.1493061836
 10
68.2639622444
 20
39.3092852139
 10
68.2276605965
 20
39.4671626647
 10
68.1856212435
 20
39.6229487018
 10
68.1380481975
 20
39.775887313
 10
68.0849145607
 20
39.9259646578
 10
68.026247231
 20
40.0731945768
 10
67.9623309144
 20
40.2168625797
 10
67.8931400968
 20
40.356951353
 10
67.8187002922
 20
40.4934782101
 10
67.7393727487
 20
40.6257806017
 10
67.6551337082
 20
40.7538379935
 10
67.5660069287
 20
40.8776709198
 10
67.4724249326
 20
40.9966784332
 10
67.3743660641
 20
41.1108370786
 10
67.2718519788
 20
41.220170311
 10
67.1653801663
 20
41.3241475488
 10
67.0551164562
 20
41.422591931
 10
66.9408950187
 20
41.5156803186
 10
66.8227158539
 20
41.6034127113
  0
LWPOLYLINE
  5
4FC
100
AcDbEntity
  8
ASSI
100
AcDbPolyline
 62
7
  6
CONTINUOUS
 90
43
 70
0
 10
68.3996711161
 20
35.4184884708
 10
68.4945125707
 20
35.5866727784
 10
68.583841809
 20
35.757772804
 10
68.667658831
 20
35.9317885477
 10
68.7460653488
 20
36.1089713075
 10
68.8189596503
 20
36.2890697853
 10
68.8860365992
 20
36.4713300869
 10
68.9472718098
 20
36.6557612744
 10
69.0026896677
 20
36.8423542858
 10
69.0520581933
 20
37.0303280405
 10
69.0953520284
 20
37.2196883265
 10
69.1325965311
 20
37.410429356
 10
69.1636357955
 20
37.6017526848
 10
69.1884438101
 20
37.7936607539
 10
69.2070465863
 20
37.9861511224
 10
69.2193662528
 20
38.1784180234
 10
69.2253764717
 20
38.3704605203
 10
69.2251035807
 20
38.5622795497
 10
69.2185487224
 20
38.7530721551
 10
69.2056855634
 20
38.9428340339
 10
69.1865404371
 20
39.1315694887
 10
69.161193485
 20
39.3184884708
 10
69.12961871
 20
39.5035833658
 10
69.0918421093
 20
39.6868617881
 10
69.0480218162
 20
39.8675565322
 10
68.9981324963
 20
40.0456567677
 10
68.9421994839
 20
40.221173325
 10
68.8804569153
 20
40.3933714898
 10
68.8128804376
 20
40.562237352
 10
68.7394944037
 20
40.7277848218
 10
68.6606060082
 20
40.8893209156
 10
68.5761921861
 20
41.0468288183
 10
68.4862760025
 20
41.200325345
 10
68.3912338476
 20
41.3491679576
 10
68.2910442339
 20
41.4933371476
 10
68.1857286489
 20
41.6328524234
 10
68.0757279447
 20
41.7671297726
 10
67.9610224819
 20
41.8961472386
 10
67.8416319
 20
42.019926778
 10
67.7180559692
 20
42.1379502483
 10
67.5904612797
 20
42.2500449352
 10
67.4586812412
 20
42.3563835531
 10
67.3227158539
 20
42.4569661019
  0
LINE
  5
4FD
100
AcDbEntity
  8
ASSI
100
AcDbLine
 62
7
  6
CONTINUOUS
 10
68.3996711161
 20
35.4184884708
 11
11.280737278
 21
-62.0896308183
  0
LINE
  5
4FE
100
AcDbEntity
  8
ASSI
100
AcDbLine
 62
7
  6
CONTINUOUS
 10
73.4162912407
 20
33.9825788554
 11
16.280737278
 21
-63.5540969124
  0
LWPOLYLINE
  5
4FF
100
AcDbEntity
  8
ASSI
100
AcDbPolyline
 62
7
  6
CONTINUOUS
 90
36
 70
0
 10
16.280737278
 20
-63.5540969124
 10
16.1806934524
 20
-63.7186025882
 10
16.0759509322
 20
-63.8788037777
 10
15.9665097173
 20
-64.0347004808
 10
15.8522037561
 20
-64.1864985007
 10
15.7331991002
 20
-64.3339920342
 10
15.6099939045
 20
-64.4765636719
 10
15.4825705609
 20
-64.6141927817
 10
15.3509466774
 20
-64.7468999956
 10
15.215673233
 20
-64.8741297997
 10
15.0767349294
 20
-64.9958592335
 10
14.934147065
 20
-65.1121112575
 10
14.7885065141
 20
-65.2223992395
 10
14.6398004802
 20
-65.326698179
 10
14.48804176
 20
-65.4250330765
 10
14.3338656169
 20
-65.516992301
 10
14.1772619175
 20
-65.6025491266
 10
14.0182407954
 20
-65.6817302791
 10
13.8574679146
 20
-65.7542043055
 10
13.6949359321
 20
-65.8199430904
 10
13.530652191
 20
-65.8789747492
 10
13.3653043848
 20
-65.9310521745
 10
13.1988880531
 20
-65.9761462154
 10
13.0314076564
 20
-66.0142860229
 10
12.8635642693
 20
-66.0453119434
 10
12.6953563704
 20
-66.0691941565
 10
12.5267854812
 20
-66.0859624826
 10
12.3585572413
 20
-66.0955467293
 10
12.190673087
 20
-66.0979167819
 10
12.0231315821
 20
-66.0931027552
 10
11.856634057
 20
-66.0811248006
 10
11.6911848881
 20
-66.061952888
 10
11.5267796991
 20
-66.0356170475
 10
11.3641066919
 20
-66.0022275214
 10
11.2031731276
 20
-65.9617547415
 10
11.1421222466
 20
-65.9444426638
  0
LINE
  5
500
100
AcDbEntity
  8
0
100
AcDbLine
 62
7
  6
CONTINUOUS
 10
40.5202172378
 20
40.8912904477
 11
40.6815269037
 21
40.8813766698
  0
LINE
  5
501
100
AcDbEntity
  8
0
100
AcDbLine
 62
7
  6
CONTINUOUS
 10
39.5098235266
 20
42.4969284627
 11
39.3485138607
 21
42.5068422406
  0
LINE
  5
502
100
AcDbEntity
  8
0
100
AcDbLine
 62
7
  6
CONTINUOUS
 10
39.2056448903
 20
42.7562944095
 11
39.2744666855
 21
42.751906299
  0
LINE
  5
503
100
AcDbEntity
  8
0
100
AcDbLine
 62
7
  6
CONTINUOUS
 10
40.405957599
 20
40.8988258986
 11
40.5202172378
 21
40.8912904477
  0
LINE
  5
504
100
AcDbEntity
  8
0
100
AcDbLine
 62
7
  6
CONTINUOUS
 10
39.6240831654
 20
42.4893930119
 11
39.5098235266
 21
42.4969284627
  0
LINE
  5
505
100
AcDbEntity
  8
0
100
AcDbLine
 62
7
  6
CONTINUOUS
 10
40.3149589303
 20
40.9052416351
 11
40.405957599
 21
40.8988258986
  0
LINE
  5
506
100
AcDbEntity
  8
0
100
AcDbLine
 62
7
  6
CONTINUOUS
 10
39.7150818341
 20
42.4829772754
 11
39.6240831654
 21
42.4893930119
  0
LINE
  5
507
100
AcDbEntity
  8
0
100
AcDbLine
 62
7
  6
CONTINUOUS
 10
39.2744666855
 20
42.751906299
 11
39.3099769567
 21
42.7493914012
  0
LINE
  5
508
100
AcDbEntity
  8
0
100
AcDbLine
 62
7
  6
CONTINUOUS
 10
40.224250796
 20
40.9121003778
 11
40.3149589303
 21
40.9052416351
  0
LINE
  5
509
100
AcDbEntity
  8
0
100
AcDbLine
 62
7
  6
CONTINUOUS
 10
39.8057899684
 20
42.4761185327
 11
39.7150818341
 21
42.4829772754
  0
LWPOLYLINE
  5
50A
100
AcDbEntity
  8
0
100
AcDbPolyline
 62
7
  6
CONTINUOUS
 90
3
 70
0
 10
39.6926414623
 20
40.9634076936
 10
39.6006987529
 20
40.970609596
 10
39.5819066007
 20
40.9721860371
  0
LWPOLYLINE
  5
50B
100
AcDbEntity
  8
0
100
AcDbPolyline
 62
7
  6
CONTINUOUS
 90
3
 70
0
 10
40.1335379857
 20
40.9195336557
 10
40.1562279983
 20
40.9176176738
 10
40.224250796
 20
40.9121003778
  0
LWPOLYLINE
  5
50C
100
AcDbEntity
  8
0
100
AcDbPolyline
 62
7
  6
CONTINUOUS
 90
3
 70
0
 10
39.8965027787
 20
42.4686852548
 10
39.8738127661
 20
42.4706012367
 10
39.8057899684
 20
42.4761185327
  0
LINE
  5
50D
100
AcDbEntity
  8
0
100
AcDbLine
 62
7
  6
CONTINUOUS
 10
40.9101041246
 20
40.8634276385
 11
40.702543546
 21
40.8829266037
  0
LWPOLYLINE
  5
50E
100
AcDbEntity
  8
0
100
AcDbPolyline
 62
7
  6
CONTINUOUS
 90
18
 70
0
 10
40.1475179875
 20
44.3491472495
 10
40.0914268583
 20
44.3549226447
 10
39.9659858479
 20
44.3620607886
 10
39.8397309473
 20
44.36131153
 10
39.7130754495
 20
44.3526563308
 10
39.5863666715
 20
44.3360967455
 10
39.4599507558
 20
44.3116479157
 10
39.3342679726
 20
44.279365379
 10
39.2097985331
 20
44.2393562705
 10
39.0869786775
 20
44.1917587058
 10
38.9661279779
 20
44.1366940102
 10
38.8475411035
 20
44.0742796936
 10
38.7315073117
 20
44.0046331533
 10
38.6184678424
 20
43.9279822001
 10
38.5089237437
 20
43.8446546604
 10
38.4032504449
 20
43.7549474724
 10
38.301713384
 20
43.6590954111
 10
38.2080892341
 20
43.5612087536
  0
LINE
  5
50F
100
AcDbEntity
  8
0
100
AcDbLine
 62
7
  6
CONTINUOUS
 10
39.6926414623
 20
40.9634076936
 11
39.9519056436
 21
40.936859401
  0
LINE
  5
510
100
AcDbEntity
  8
0
100
AcDbLine
 62
7
  6
CONTINUOUS
 10
40.1475408628
 20
44.3491445644
 11
40.957149148
 21
44.2541087733
  0
LINE
  5
511
100
AcDbEntity
  8
TRASH
100
AcDbLine
 62
7
  6
CONTINUOUS
 10
40.2276891338
 20
42.2980186341
 11
40.2619789083
 21
42.2937239455
  0
LINE
  5
512
100
AcDbEntity
  8
TRASH
100
AcDbLine
 62
7
  6
CONTINUOUS
 10
40.0398079526
 20
42.3229744001
 11
40.2276891338
 21
42.2980186341
  0
LINE
  5
513
100
AcDbEntity
  8
TRASH
100
AcDbLine
 62
7
  6
CONTINUOUS
 10
39.8109119792
 20
42.3548916559
 11
40.0398079526
 21
42.3229744001
  0
LINE
  5
514
100
AcDbEntity
  8
TRASH
100
AcDbLine
 62
7
  6
CONTINUOUS
 10
39.5859842511
 20
42.3872533992
 11
39.8109119792
 21
42.3548916559
  0
LINE
  5
515
100
AcDbEntity
  8
0
100
AcDbLine
 62
7
  6
CONTINUOUS
 10
39.1443153109
 20
42.0320032878
 11
39.315986672
 21
42.0060653986
  0
LINE
  5
516
100
AcDbEntity
  8
0
100
AcDbLine
 62
7
  6
CONTINUOUS
 10
39.0583465644
 20
42.0452984693
 11
39.1443153109
 21
42.0320032878
  0
LINE
  5
517
100
AcDbEntity
  8
0
100
AcDbLine
 62
7
  6
CONTINUOUS
 10
39.0656544155
 20
42.0239711217
 11
39.3471599797
 21
41.97955618
  0
LINE
  5
518
100
AcDbEntity
  8
TRASH
100
AcDbLine
 62
7
  6
CONTINUOUS
 10
39.5441348993
 20
42.3955387741
 11
39.5859823613
 21
42.387251477
  0
LINE
  5
519
100
AcDbEntity
  8
0
100
AcDbLine
 62
7
  6
CONTINUOUS
 10
39.742255424
 20
41.4065004618
 11
39.3242492641
 21
41.4917872193
  0
LINE
  5
51A
100
AcDbEntity
  8
0
100
AcDbLine
 62
7
  6
CONTINUOUS
 10
39.1033772545
 20
41.5368594351
 11
38.6534810467
 21
41.6286822442
  0
LINE
  5
51B
100
AcDbEntity
  8
0
100
AcDbLine
 62
7
  6
CONTINUOUS
 10
39.9519056436
 20
40.936859401
 11
40.1100206998
 21
40.9026700177
  0
LINE
  5
51C
100
AcDbEntity
  8
0
100
AcDbLine
 62
7
  6
CONTINUOUS
 10
37.6298359142
 20
42.5373574399
 11
37.8807675893
 21
42.4789900092
  0
LINE
  5
51D
100
AcDbEntity
  8
0
100
AcDbLine
 62
7
  6
CONTINUOUS
 10
39.3806489989
 20
40.823779686
 11
38.607869815
 21
41.0295615454
  0
LINE
  5
51E
100
AcDbEntity
  8
0
100
AcDbLine
 62
7
  6
CONTINUOUS
 10
39.3561476565
 20
40.8056711963
 11
38.6088797177
 21
41.0081500472
  0
LINE
  5
51F
100
AcDbEntity
  8
0
100
AcDbLine
 62
7
  6
CONTINUOUS
 10
42.5494145036
 20
39.9097918367
 11
42.6074105079
 21
39.8928052004
  0
LWPOLYLINE
  5
520
100
AcDbEntity
  8
ASSI
100
AcDbPolyline
 62
7
  6
CONTINUOUS
 90
10
 70
0
 10
41.2139890789
 20
38.3732089707
 10
41.1890045846
 20
38.3807242304
 10
41.0741843822
 20
38.4195945654
 10
40.9617167593
 20
38.4651881201
 10
40.8515843276
 20
38.5174552027
 10
40.7446051156
 20
38.57600759
 10
40.6408026027
 20
38.640892083
 10
40.5401533095
 20
38.7120618808
 10
40.4434048268
 20
38.7889883567
 10
40.398008188
 20
38.8294488047
  0
LWPOLYLINE
  5
521
100
AcDbEntity
  8
0
100
AcDbPolyline
 62
7
  6
CONTINUOUS
 90
14
 70
0
 10
-18.9301574086
 20
82.4961965691
 10
-18.9353325477
 20
82.500697666
 10
-18.9400560325
 20
82.5049811767
 10
-18.944327863
 20
82.5090471011
 10
-18.9481577024
 20
82.5129057938
 10
-18.9515358876
 20
82.5165469003
 10
-18.9544334284
 20
82.5199393571
 10
-18.9568461351
 20
82.5230809246
 10
-18.9587781974
 20
82.5259738423
 10
-18.9602131952
 20
82.5285937659
 10
-18.9611471469
 20
82.5309384326
 10
-18.9615840339
 20
82.533010105
 10
-18.9615193804
 20
82.5347912272
 10
-18.9613523109
 20
82.5354199271
  0
LWPOLYLINE
  5
522
100
AcDbEntity
  8
0
100
AcDbPolyline
 62
7
  6
CONTINUOUS
 90
10
 70
0
 10
-18.1134322493
 20
80.3679921553
 10
-18.0804844501
 20
80.3380166308
 10
-18.0467536159
 20
80.3091516943
 10
-18.0122647933
 20
80.2814188256
 10
-17.9770433866
 20
80.2548385129
 10
-17.9411157505
 20
80.2294307046
 10
-17.9045092111
 20
80.2052147252
 10
-17.8672512089
 20
80.1822086701
 10
-17.8293692382
 20
80.1604294598
 10
-17.7908914663
 20
80.1398932471
  0
LWPOLYLINE
  5
523
100
AcDbEntity
  8
ASSI
100
AcDbPolyline
 62
7
  6
CONTINUOUS
 90
10
 70
0
 10
-16.1385472404
 20
78.8307127516
 10
-16.113686693
 20
78.8075981619
 10
-16.0227160079
 20
78.7315734958
 10
-15.9285221127
 20
78.6610511935
 10
-15.8310831357
 20
78.5960685924
 10
-15.7304209486
 20
78.536588355
 10
-15.6272170739
 20
78.4830131859
 10
-15.5214542643
 20
78.4353831551
 10
-15.4131497671
 20
78.3936581926
 10
-15.354110917
 20
78.3745781857
  0
LWPOLYLINE
  5
524
100
AcDbEntity
  8
0
100
AcDbPolyline
 62
7
  6
CONTINUOUS
 90
40
 70
0
 10
-14.3737103915
 20
83.6329862218
 10
-14.3209726937
 20
83.5764782227
 10
-14.2700751658
 20
83.5180541151
 10
-14.2210178078
 20
83.457713899
 10
-14.1737553482
 20
83.3953934127
 10
-14.1283330586
 20
83.331156818
 10
-14.0848867527
 20
83.2651965996
 10
-14.0434220929
 20
83.1975072194
 10
-14.0039334169
 20
83.1280942156
 10
-13.9665395516
 20
83.0571666873
 10
-13.9312468713
 20
82.9847201784
 10
-13.8980490016
 20
82.9107591452
 10
-13.8670456473
 20
82.8355060557
 10
-13.8382434095
 20
82.7589570312
 10
-13.811635687
 20
82.6811159506
 10
-13.7873023805
 20
82.6022169179
 10
-13.7652503303
 20
82.5222567576
 10
-13.7454726961
 20
82.4412386454
 10
-13.7280288573
 20
82.3594062118
 10
-13.7129258319
 20
82.2767570132
 10
-13.700156602
 20
82.1932934932
 10
-13.6897594927
 20
82.1092666146
 10
-13.6817416367
 20
82.0246746868
 10
-13.6760959013
 20
81.9395194002
 10
-13.6728392142
 20
81.8540567888
 10
-13.6719787582
 20
81.7682859306
 10
-13.6735073505
 20
81.6822077475
 10
-13.677420369
 20
81.5960810388
 10
-13.683724983
 20
81.5099056594
 10
-13.6924140234
 20
81.4236817544
 10
-13.7034613612
 20
81.3376685579
 10
-13.7168740872
 20
81.2518667029
 10
-13.7326451106
 20
81.1662755565
 10
-13.7507270311
 20
81.081152453
 10
-13.771126797
 20
80.9964987982
 10
-13.7938374598
 20
80.9123131863
 10
-13.818790774
 20
80.828848735
 10
-13.845963991
 20
80.7461898167
 10
-13.8753798594
 20
80.664252059
 10
-13.9070383791
 20
80.5830354617
  0
LINE
  5
525
100
AcDbEntity
  8
0
100
AcDbLine
 62
7
  6
CONTINUOUS
 10
-17.6382179736
 20
82.1858209442
 11
-17.5101959305
 21
82.0452984693
  0
LINE
  5
526
100
AcDbEntity
  8
0
100
AcDbLine
 62
7
  6
CONTINUOUS
 10
-15.4688262518
 20
81.2023979663
 11
-15.5968482949
 21
81.3429204412
  0
LINE
  5
527
100
AcDbEntity
  8
ASSI
100
AcDbLine
 62
250
  6
CONTINUOUS
 10
23.1282779773
 20
44.6158793886
 11
22.9211711961
 21
44.9694327792
  0
LWPOLYLINE
  5
528
100
AcDbEntity
  8
ASSI
100
AcDbPolyline
 62
7
  6
CONTINUOUS
 90
15
 70
0
 10
4.5713233364
 20
-63.6223139846
 10
4.5394703933
 20
-63.6412477196
 10
4.4297026395
 20
-63.7125822285
 10
4.3221786488
 20
-63.7886999744
 10
4.2168875675
 20
-63.8695778196
 10
4.1143403614
 20
-63.954823273
 10
4.0145503678
 20
-64.0444575646
 10
3.9175042495
 20
-64.1384594643
 10
3.8236729602
 20
-64.2363727917
 10
3.7330721267
 20
-64.3382165591
 10
3.6456861222
 20
-64.443971754
 10
3.5619390214
 20
-64.5531251584
 10
3.4819721823
 20
-64.6655056996
 10
3.4056442468
 20
-64.7812844503
 10
3.3329552149
 20
-64.9004614105
  0
LWPOLYLINE
  5
529
100
AcDbEntity
  8
ASSI
100
AcDbPolyline
 62
7
  6
CONTINUOUS
 90
9
 70
0
 10
42.8156753448
 20
43.8420020698
 10
42.7526014993
 20
43.858543771
 10
42.6388594592
 20
43.8816640588
 10
42.5240790734
 20
43.8984402506
 10
42.408253296
 20
43.9088292972
 10
42.291389173
 20
43.9128742479
 10
42.1742779201
 20
43.9105477166
 10
42.0569178605
 20
43.9018064685
 10
41.9783330841
 20
43.891708187
  0
LINE
  5
52A
100
AcDbEntity
  8
ASSI
100
AcDbLine
 62
250
  6
CONTINUOUS
 10
68.3996711161
 20
35.4184884708
 11
73.3996711161
 21
33.9540223767
  0
LINE
  5
52B
100
AcDbEntity
  8
ASSI
100
AcDbLine
 62
250
  6
CONTINUOUS
 10
67.6925643349
 20
35.9184884708
 11
67.6425643349
 21
35.9331331317
  0
LINE
  5
52C
100
AcDbEntity
  8
ASSI
100
AcDbLine
 62
250
  6
CONTINUOUS
 10
66.8227158539
 20
41.6034127113
 11
66.7727158539
 21
41.6180573722
  0
LINE
  5
52D
100
AcDbEntity
  8
ASSI
100
AcDbLine
 62
250
  6
CONTINUOUS
 10
67.3227158539
 20
42.4569661019
 11
69.8227158539
 21
41.7247330548
  0
LINE
  5
52E
100
AcDbEntity
  8
ASSI
100
AcDbLine
 62
250
  6
CONTINUOUS
 10
1.9653270734
 20
61.6514132945
 11
-2.5346729266
 21
62.9694327792
  0
LWPOLYLINE
  5
52F
100
AcDbEntity
  8
ASSI
100
AcDbPolyline
 62
7
  6
CONTINUOUS
 90
39
 70
0
 10
42.8160516855
 20
43.8434370645
 10
42.8410361799
 20
43.8359218049
 10
42.9558563822
 20
43.7970514698
 10
43.0683240052
 20
43.7514579151
 10
43.1784564369
 20
43.6991908325
 10
43.2854356488
 20
43.6406384452
 10
43.3892381617
 20
43.5757539522
 10
43.4898874549
 20
43.5045841544
 10
43.5866359376
 20
43.4276576785
 10
43.6794545639
 20
43.3449316595
 10
43.7683723797
 20
43.2564489623
 10
43.8527289319
 20
43.1628668081
 10
43.9324902569
 20
43.0641472256
 10
44.0076903182
 20
42.9603281862
 10
44.077770554
 20
42.8521808243
 10
44.1426928414
 20
42.7396729109
 10
44.2024953031
 20
42.622836675
 10
44.2567337458
 20
42.5025399389
 10
44.305366739
 20
42.3787569352
 10
44.348435713
 20
42.2515134313
 10
44.3856207654
 20
42.1217545513
 10
44.4168780837
 20
41.9894615652
 10
44.4422514803
 20
41.8546532029
 10
44.4615524897
 20
41.7183307778
 10
44.4747358963
 20
41.580483016
 10
44.4818469157
 20
41.4411211914
 10
44.4828327295
 20
41.301280439
 10
44.4776477288
 20
41.1609571927
 10
44.4663375226
 20
41.0201550186
 10
44.4489861194
 20
40.8799197503
 10
44.4255485358
 20
40.7402556089
 10
44.3960697553
 20
40.6011583733
 10
44.3607687368
 20
40.4636612131
 10
44.3196021272
 20
40.3277760428
 10
44.2726132796
 20
40.193490948
 10
44.2201512121
 20
40.0618033554
 10
44.1623322642
 20
39.9330457406
 10
44.0990400963
 20
39.806885628
 10
44.0302747086
 20
39.6833230176
  0
LINE
  5
530
100
AcDbEntity
  8
0
100
AcDbLine
 62
7
  6
CONTINUOUS
 10
41.5492731752
 20
39.8849648326
 11
41.2252934077
 21
39.9949850648
  0
LINE
  5
531
100
AcDbEntity
  8
0
100
AcDbLine
 62
7
  6
CONTINUOUS
 10
41.8252934077
 20
41.0192491335
 11
42.1492731752
 21
40.9092289013
  0
LINE
  5
532
100
AcDbEntity
  8
0
100
AcDbLine
 62
7
  6
CONTINUOUS
 10
39.3200203262
 20
41.4612846391
 11
39.1033772545
 21
41.5368594351
  0
LINE
  5
533
100
AcDbEntity
  8
0
100
AcDbLine
 62
7
  6
CONTINUOUS
 10
39.7033774972
 20
42.5611234761
 11
39.9200200646
 21
42.4855488927
  0
LWPOLYLINE
  5
534
100
AcDbEntity
  8
0
100
AcDbPolyline
 62
7
  6
CONTINUOUS
 90
22
 70
0
 10
41.2252934077
 20
39.9949850648
 10
41.2190179636
 20
39.9971961048
 10
41.2124092212
 20
39.9996730626
 10
41.2054671805
 20
40.002415938
 10
41.1981670156
 20
40.0054356892
 10
41.1905335524
 20
40.0087213581
 10
41.1826412683
 20
40.01224007
 10
41.1744892352
 20
40.0159935129
 10
41.1660783812
 20
40.0199799989
 10
41.1574859675
 20
40.0241615899
 10
41.1487125358
 20
40.0285389347
 10
41.1397575444
 20
40.0331113845
 10
41.1306966296
 20
40.0378390551
 10
41.1215310209
 20
40.042721954
 10
41.1122594888
 20
40.0477600738
 10
41.1029539815
 20
40.0529135072
 10
41.0936148032
 20
40.0581826134
 10
41.0842416497
 20
40.0635670333
 10
41.074905556
 20
40.0690257828
 10
41.0656302007
 20
40.0745452006
 10
41.0563919052
 20
40.0801389482
 10
41.0471906696
 20
40.0858070253
  0
LWPOLYLINE
  5
535
100
AcDbEntity
  8
0
100
AcDbPolyline
 62
7
  6
CONTINUOUS
 90
33
 70
0
 10
41.5467580336
 20
44.0912437913
 10
41.5748651291
 20
44.0810653082
 10
41.6038091378
 20
44.0702777402
 10
41.6335745816
 20
44.0588453854
 10
41.6643180359
 20
44.0466577311
 10
41.6958444336
 20
44.0337400379
 10
41.7276114928
 20
44.0202638426
 10
41.7595988023
 20
44.0061839839
 10
41.7917843607
 20
43.9914618131
 10
41.823631072
 20
43.9762980264
 10
41.8550995945
 20
43.9606654258
 10
41.8861900876
 20
43.9445251293
 10
41.9164366813
 20
43.9280874499
 10
41.9458005699
 20
43.9113424512
 10
41.9742909541
 20
43.8942614502
 10
42.0015286631
 20
43.8770564022
 10
42.0274897919
 20
43.8597290169
 10
42.0521823907
 20
43.8422686747
 10
42.0752914272
 20
43.8248981296
 10
42.0968090598
 20
43.8076278443
 10
42.1167439404
 20
43.7904668958
 10
42.1348233343
 20
43.773664304
 10
42.1510457681
 20
43.7572432969
 10
42.1654324488
 20
43.7412262527
 10
42.1777632356
 20
43.7258879386
 10
42.1880329991
 20
43.7112707174
 10
42.1962853809
 20
43.6973987789
 10
42.2023909272
 20
43.6845428523
 10
42.2063388777
 20
43.6727648303
 10
42.2081918654
 20
43.6620799614
 10
42.2079434529
 20
43.6527046078
 10
42.2056120062
 20
43.6447384123
 10
42.2044105501
 20
43.6424425108
  0
LWPOLYLINE
  5
536
100
AcDbEntity
  8
ASSI
100
AcDbPolyline
 62
7
  6
CONTINUOUS
 90
39
 70
0
 10
42.7045380411
 20
42.8274233368
 10
42.7257782539
 20
42.8192405284
 10
42.794432613
 20
42.7883224992
 10
42.8614258558
 20
42.7535452046
 10
42.9267691845
 20
42.7149346561
 10
42.9900201832
 20
42.67275227
 10
43.0511646551
 20
42.626973806
 10
43.110216797
 20
42.5776235045
 10
43.1667767833
 20
42.525035503
 10
43.2208277027
 20
42.4691878271
 10
43.2723864666
 20
42.4101024513
 10
43.3211039837
 20
42.3481794359
 10
43.366960976
 20
42.2833995096
 10
43.4099767214
 20
42.2157819438
 10
43.4498599629
 20
42.1457846134
 10
43.4865894345
 20
42.0733913598
 10
43.5201864021
 20
41.9986183417
 10
43.5504234068
 20
41.921971909
 10
43.5772776314
 20
41.8434393827
 10
43.600771893
 20
41.763033442
 10
43.6207471843
 20
41.681298474
 10
43.6371796319
 20
41.5982255132
 10
43.6500931092
 20
41.5138235252
 10
43.6594002296
 20
41.4286637945
 10
43.6650765421
 20
41.3427411429
 10
43.6671464976
 20
41.2560607487
 10
43.6655960621
 20
41.1692094316
 10
43.6604006437
 20
41.0821859211
 10
43.6515848343
 20
40.9949914877
 10
43.6392083746
 20
40.9082167626
 10
43.6232470399
 20
40.8218645664
 10
43.6037250549
 20
40.7359320784
 10
43.5807748343
 20
40.6510014676
 10
43.5543730151
 20
40.5670795016
 10
43.5245429604
 20
40.4841594127
 10
43.4914871738
 20
40.4028030672
 10
43.4552731568
 20
40.3231977537
 10
43.415833408
 20
40.2451561835
 10
43.3731679274
 20
40.1686783567
  0
LINE
  5
537
100
AcDbEntity
  8
0
100
AcDbLine
 62
7
  6
CONTINUOUS
 10
38.6599166408
 20
41.7107789784
 11
38.6056436832
 21
41.7320312369
  0
LINE
  5
538
100
AcDbEntity
  8
0
100
AcDbLine
 62
7
  6
CONTINUOUS
 10
39.2056448903
 20
42.7562944095
 11
39.2598470922
 21
42.7350700075
  0
LINE
  5
539
100
AcDbEntity
  8
0
100
AcDbLine
 62
7
  6
CONTINUOUS
 10
38.8242773246
 20
41.6463754806
 11
38.6599166408
 21
41.7107789784
  0
LINE
  5
53A
100
AcDbEntity
  8
0
100
AcDbLine
 62
7
  6
CONTINUOUS
 10
39.2598470922
 20
42.7350700075
 11
39.4241009329
 21
42.6707087591
  0
LINE
  5
53B
100
AcDbEntity
  8
0
100
AcDbLine
 62
7
  6
CONTINUOUS
 10
38.9909582348
 20
41.580995813
 11
38.8242773246
 21
41.6463754806
  0
LINE
  5
53C
100
AcDbEntity
  8
0
100
AcDbLine
 62
7
  6
CONTINUOUS
 10
39.4241009329
 20
42.6707087591
 11
39.5908340839
 21
42.6053088083
  0
LINE
  5
53D
100
AcDbEntity
  8
0
100
AcDbLine
 62
7
  6
CONTINUOUS
 10
39.1033772545
 20
41.5368594351
 11
38.9909582348
 21
41.580995813
  0
LINE
  5
53E
100
AcDbEntity
  8
0
100
AcDbLine
 62
7
  6
CONTINUOUS
 10
39.5908340839
 20
42.6053088083
 11
39.7033774972
 21
42.5611234761
  0
LINE
  5
53F
100
AcDbEntity
  8
0
100
AcDbLine
 62
7
  6
CONTINUOUS
 10
39.8143805531
 20
43.0663397944
 11
40.3951618803
 21
42.8254880755
  0
LINE
  5
540
100
AcDbEntity
  8
0
100
AcDbLine
 62
7
  6
CONTINUOUS
 10
39.7960317072
 20
43.0578806716
 11
40.3879269678
 21
42.8101485991
  0
LINE
  5
541
100
AcDbEntity
  8
0
100
AcDbLine
 62
7
  6
CONTINUOUS
 10
39.5519401597
 20
38.9747505822
 11
39.4832827308
 21
39.0040819004
  0
LWPOLYLINE
  5
542
100
AcDbEntity
  8
0
100
AcDbPolyline
 62
7
  6
CONTINUOUS
 90
10
 70
0
 10
41.5467580336
 20
44.0912437913
 10
41.4781006047
 20
44.1205751095
 10
41.4086180429
 20
44.1472725796
 10
41.3383103481
 20
44.1713362018
 10
41.2671056151
 20
44.1927846707
 10
41.1950757492
 20
44.2115992916
 10
41.122436466
 20
44.2277239805
 10
41.049185523
 20
44.2411507809
 10
40.9753251626
 20
44.2518876494
 10
40.9571805209
 20
44.2541050904
  0
LWPOLYLINE
  5
543
100
AcDbEntity
  8
0
100
AcDbPolyline
 62
250
  6
CONTINUOUS
 90
25
 70
0
 10
38.7090768782
 20
39.3799562196
 10
38.8102143798
 20
39.3353237047
 10
38.9135954328
 20
39.2966693047
 10
39.0190973524
 20
39.2640512129
 10
39.1265545126
 20
39.2375530907
 10
39.2356245671
 20
39.2172913335
 10
39.3459135724
 20
39.2033514014
 10
39.4571063028
 20
39.1957701824
 10
39.5689708694
 20
39.1945605574
 10
39.6812300038
 20
39.1997261923
 10
39.7936049253
 20
39.2112546591
 10
39.9058201389
 20
39.2291180946
 10
40.0176027582
 20
39.2532739586
 10
40.1287136797
 20
39.2836750281
 10
40.2388409219
 20
39.3202404176
 10
40.3476079924
 20
39.3628370152
 10
40.4546912926
 20
39.4113149536
 10
40.5598928576
 20
39.4655611715
 10
40.6630316202
 20
39.5254712263
 10
40.7638669148
 20
39.5909024303
 10
40.8621412226
 20
39.6616847238
 10
40.9576500568
 20
39.7376705944
 10
41.0501688806
 20
39.8186866618
 10
41.1394569889
 20
39.9045275797
 10
41.2252934077
 20
39.9949850648
  0
LINE
  5
544
100
AcDbEntity
  8
0
100
AcDbLine
 62
7
  6
CONTINUOUS
 10
39.1584120325
 20
42.5751748239
 11
39.5441518746
 21
42.3955814508
  0
LINE
  5
545
100
AcDbEntity
  8
0
100
AcDbLine
 62
7
  6
CONTINUOUS
 10
39.0610449515
 20
42.1248634786
 11
38.9303245213
 21
42.1858209442
  0
LINE
  5
546
100
AcDbEntity
  8
0
100
AcDbLine
 62
7
  6
CONTINUOUS
 10
39.3158644345
 20
42.0059085493
 11
39.0610449515
 21
42.1248634786
  0
LINE
  5
547
100
AcDbEntity
  8
0
100
AcDbLine
 62
7
  6
CONTINUOUS
 10
39.4832827308
 20
39.0040819004
 11
39.4271460419
 21
39.0303514182
  0
LWPOLYLINE
  5
548
100
AcDbEntity
  8
0
100
AcDbPolyline
 62
7
  6
CONTINUOUS
 90
7
 70
0
 10
41.5467580336
 20
44.0912437913
 10
41.6060547004
 20
44.0634327368
 10
41.6645814522
 20
44.0336362406
 10
41.722289572
 20
44.0018699898
 10
41.7791306866
 20
43.9681513439
 10
41.835056809
 20
43.9324993358
 10
41.8900203822
 20
43.89493467
  0
LINE
  5
549
100
AcDbEntity
  8
0
100
AcDbLine
 62
7
  6
CONTINUOUS
 10
39.7033774972
 20
42.5611234761
 11
39.3099769567
 21
42.7493914012
  0
LINE
  5
54A
100
AcDbEntity
  8
0
100
AcDbLine
 62
7
  6
CONTINUOUS
 10
40.2619789082
 20
42.293723946
 11
39.8965027787
 21
42.4686852548
  0
LINE
  5
54B
100
AcDbEntity
  8
0
100
AcDbLine
 62
7
  6
CONTINUOUS
 10
38.6941975316
 20
39.3871200522
 11
39.4271460419
 21
39.0303514182
  0
LWPOLYLINE
  5
54C
100
AcDbEntity
  8
ASSI
100
AcDbPolyline
 62
7
  6
CONTINUOUS
 90
34
 70
0
 10
42.8596354048
 20
42.2504893102
 10
42.8865351638
 20
42.2369992669
 10
42.9391332409
 20
42.2065012559
 10
42.9900204997
 20
42.1727520462
 10
43.0390574473
 20
42.1358441507
 10
43.086109663
 20
42.0958787409
 10
43.1310477876
 20
42.0529657531
 10
43.1737486953
 20
42.0072228918
 10
43.2140953962
 20
41.9587756157
 10
43.2519770405
 20
41.9077572446
 10
43.287289807
 20
41.8543079397
 10
43.3199371813
 20
41.7985741456
 10
43.3498298764
 20
41.7407086241
 10
43.3768858154
 20
41.6808707267
 10
43.4010313266
 20
41.6192239066
 10
43.4222010585
 20
41.5559349645
 10
43.4403370288
 20
41.4911764413
 10
43.4553890731
 20
41.4251265229
 10
43.4673157292
 20
41.3579663601
 10
43.4760841646
 20
41.28987987
 10
43.4816701667
 20
41.2210537486
 10
43.4840582608
 20
41.1516771642
 10
43.483241816
 20
41.0819402153
 10
43.4792229838
 20
41.0120341198
 10
43.4720127899
 20
40.9421512329
 10
43.4616310071
 20
40.8724830673
 10
43.4481061156
 20
40.8032206518
 10
43.4314754377
 20
40.7345547153
 10
43.4117846625
 20
40.66667335
 10
43.3890879186
 20
40.59976269
 10
43.3634480132
 20
40.5340072123
 10
43.3349356691
 20
40.4695873887
 10
43.3036291584
 20
40.4066792537
 10
43.2696145368
 20
40.345455052
  0
LINE
  5
54D
100
AcDbEntity
  8
0
100
AcDbLine
 62
7
  6
CONTINUOUS
 10
39.5859823613
 20
42.387251477
 11
39.3485138607
 21
42.5068422406
  0
LINE
  5
54E
100
AcDbEntity
  8
0
100
AcDbLine
 62
7
  6
CONTINUOUS
 10
39.5441348993
 20
42.3955387741
 11
39.3274972288
 21
42.5052923075
  0
LINE
  5
54F
100
AcDbEntity
  8
ASSI
100
AcDbLine
 62
250
  6
CONTINUOUS
 10
-3.7417797078
 20
63.6158793886
 11
-2.5346729266
 21
62.9694327792
  0
LWPOLYLINE
  5
550
100
AcDbEntity
  8
0
100
AcDbPolyline
 62
7
  6
CONTINUOUS
 90
22
 70
0
 10
41.6471906696
 20
41.110071094
 10
41.656429997
 20
41.1043796239
 10
41.6657091152
 20
41.0987617991
 10
41.6750280241
 20
41.0932176196
 10
41.6844133903
 20
41.0877317508
 10
41.6938385473
 20
41.0823195273
 10
41.7032234953
 20
41.0770269529
 10
41.7125675357
 20
41.0718552448
 10
41.7218713671
 20
41.0668031859
 10
41.7310570862
 20
41.0619131285
 10
41.7401233793
 20
41.0571865543
 10
41.7490715601
 20
41.0526219816
 10
41.7578276663
 20
41.0482573187
 10
41.7663901825
 20
41.0440940911
 10
41.774760624
 20
41.0401307732
 10
41.7828695749
 20
41.0364006967
 10
41.7907161088
 20
41.0329051881
 10
41.7983011521
 20
41.0296429208
 10
41.8055580674
 20
41.0266432465
 10
41.8124646422
 20
41.0239159491
 10
41.819043089
 20
41.0214512448
 10
41.8252934077
 20
41.0192491335
  0
LINE
  5
551
100
AcDbEntity
  8
0
100
AcDbLine
 62
7
  6
CONTINUOUS
 10
41.0471906696
 20
40.0858070253
 11
40.8781113701
 21
40.191410333
  0
LINE
  5
552
100
AcDbEntity
  8
0
100
AcDbLine
 62
7
  6
CONTINUOUS
 10
41.4781134453
 20
41.2156730988
 11
41.6471906696
 21
41.110071094
  0
LINE
  5
553
100
AcDbEntity
  8
0
100
AcDbLine
 62
7
  6
CONTINUOUS
 10
-15.5213518253
 20
80.0858070253
 11
-15.6904311249
 21
80.191410333
  0
LINE
  5
554
100
AcDbEntity
  8
0
100
AcDbLine
 62
7
  6
CONTINUOUS
 10
40.8781113701
 20
40.191410333
 11
40.7110793331
 21
40.2967683211
  0
LINE
  5
555
100
AcDbEntity
  8
0
100
AcDbLine
 62
7
  6
CONTINUOUS
 10
41.3110841384
 20
41.3210293434
 11
41.4781134453
 21
41.2156730988
  0
LINE
  5
556
100
AcDbEntity
  8
0
100
AcDbLine
 62
7
  6
CONTINUOUS
 10
-15.6904311249
 20
80.191410333
 11
-15.8574631619
 21
80.2967683211
  0
LINE
  5
557
100
AcDbEntity
  8
0
100
AcDbLine
 62
7
  6
CONTINUOUS
 10
40.7110793331
 20
40.2967683211
 11
40.5449023768
 21
40.402634727
  0
LINE
  5
558
100
AcDbEntity
  8
0
100
AcDbLine
 62
7
  6
CONTINUOUS
 10
41.1449090122
 20
41.4268945473
 11
41.3110841384
 21
41.3210293434
  0
LINE
  5
559
100
AcDbEntity
  8
0
100
AcDbLine
 62
7
  6
CONTINUOUS
 10
-15.8574631619
 20
80.2967683211
 11
-16.0236401181
 21
80.402634727
  0
LINE
  5
55A
100
AcDbEntity
  8
0
100
AcDbLine
 62
7
  6
CONTINUOUS
 10
40.5449023768
 20
40.402634727
 11
40.3794063574
 21
40.509137613
  0
LINE
  5
55B
100
AcDbEntity
  8
0
100
AcDbLine
 62
7
  6
CONTINUOUS
 10
40.9794134854
 20
41.5333970711
 11
41.1449090122
 21
41.4268945473
  0
LINE
  5
55C
100
AcDbEntity
  8
0
100
AcDbLine
 62
7
  6
CONTINUOUS
 10
-16.0236401181
 20
80.402634727
 11
-16.1891361375
 21
80.509137613
  0
LINE
  5
55D
100
AcDbEntity
  8
0
100
AcDbLine
 62
7
  6
CONTINUOUS
 10
-15.5891290096
 20
81.5333970711
 11
-15.4236334827
 21
81.4268945473
  0
LINE
  5
55E
100
AcDbEntity
  8
0
100
AcDbLine
 62
7
  6
CONTINUOUS
 10
40.3794063574
 20
40.509137613
 11
40.2160821551
 21
40.6153254032
  0
LINE
  5
55F
100
AcDbEntity
  8
0
100
AcDbLine
 62
7
  6
CONTINUOUS
 10
40.8160900255
 20
41.6395843277
 11
40.9794134854
 21
41.5333970711
  0
LINE
  5
560
100
AcDbEntity
  8
0
100
AcDbLine
 62
7
  6
CONTINUOUS
 10
-16.1891361375
 20
80.509137613
 11
-16.3524603399
 21
80.6153254032
  0
LINE
  5
561
100
AcDbEntity
  8
0
100
AcDbLine
 62
7
  6
CONTINUOUS
 10
-15.7524524695
 20
81.6395843277
 11
-15.5891290096
 21
81.5333970711
  0
LINE
  5
562
100
AcDbEntity
  8
0
100
AcDbLine
 62
7
  6
CONTINUOUS
 10
40.2160821551
 20
40.6153254032
 11
40.0538483543
 21
40.7219101567
  0
LINE
  5
563
100
AcDbEntity
  8
0
100
AcDbLine
 62
7
  6
CONTINUOUS
 10
40.6538559063
 20
41.7461692376
 11
40.8160900255
 21
41.6395843277
  0
LINE
  5
564
100
AcDbEntity
  8
0
100
AcDbLine
 62
7
  6
CONTINUOUS
 10
-16.3524603399
 20
80.6153254032
 11
-16.5146941406
 21
80.7219101567
  0
LINE
  5
565
100
AcDbEntity
  8
0
100
AcDbLine
 62
7
  6
CONTINUOUS
 10
-15.9146865886
 20
81.7461692376
 11
-15.7524524695
 21
81.6395843277
  0
LWPOLYLINE
  5
566
100
AcDbEntity
  8
0
100
AcDbPolyline
 62
250
  6
CONTINUOUS
 90
10
 70
0
 10
41.0336712123
 20
44.0079666375
 10
40.9406899076
 20
44.0698531352
 10
40.8447386258
 20
44.1261269184
 10
40.7460524437
 20
44.1766503539
 10
40.6449149421
 20
44.2212828688
 10
40.5415338891
 20
44.2599372688
 10
40.4360319695
 20
44.2925553605
 10
40.3285748093
 20
44.3190534827
 10
40.2195047548
 20
44.3393152399
 10
40.1475408628
 20
44.3491445644
  0
LINE
  5
567
100
AcDbEntity
  8
0
100
AcDbLine
 62
7
  6
CONTINUOUS
 10
40.0538483543
 20
40.7219101567
 11
39.8918486822
 21
40.8294845787
  0
LINE
  5
568
100
AcDbEntity
  8
0
100
AcDbLine
 62
7
  6
CONTINUOUS
 10
40.4918535698
 20
41.8537453846
 11
40.6538559063
 21
41.7461692376
  0
LINE
  5
569
100
AcDbEntity
  8
0
100
AcDbLine
 62
7
  6
CONTINUOUS
 10
-16.5146941406
 20
80.7219101567
 11
-16.6766938128
 21
80.8294845787
  0
LINE
  5
56A
100
AcDbEntity
  8
0
100
AcDbLine
 62
7
  6
CONTINUOUS
 10
-16.0766889251
 20
81.8537453846
 11
-15.9146865886
 21
81.7461692376
  0
LWPOLYLINE
  5
56B
100
AcDbEntity
  8
0
100
AcDbPolyline
 62
7
  6
CONTINUOUS
 90
3
 70
0
 10
39.8918486822
 20
40.8294845787
 10
39.7320415262
 20
40.9367709762
 10
39.6926414623
 20
40.9634076936
  0
LWPOLYLINE
  5
56C
100
AcDbEntity
  8
0
100
AcDbPolyline
 62
7
  6
CONTINUOUS
 90
3
 70
0
 10
-16.6766938128
 20
80.8294845787
 10
-16.8365009687
 20
80.9367709762
 10
-16.8759010326
 20
80.9634076936
  0
LWPOLYLINE
  5
56D
100
AcDbEntity
  8
0
100
AcDbPolyline
 62
7
  6
CONTINUOUS
 90
3
 70
0
 10
40.2926428748
 20
41.9876708061
 10
40.3320434796
 20
41.9610337256
 10
40.4918535698
 20
41.8537453846
  0
LWPOLYLINE
  5
56E
100
AcDbEntity
  8
0
100
AcDbPolyline
 62
7
  6
CONTINUOUS
 90
3
 70
0
 10
-16.2758996201
 20
81.9876708061
 10
-16.2364990153
 20
81.9610337256
 10
-16.0766889251
 20
81.8537453846
  0
LINE
  5
56F
100
AcDbEntity
  8
ASSI
100
AcDbLine
 62
7
  6
CONTINUOUS
 10
3.5008609793
 20
64.7371997321
 11
21.8856372902
 21
51.7371997321
  0
LINE
  5
570
100
AcDbEntity
  8
ASSI
100
AcDbLine
 62
7
  6
CONTINUOUS
 10
3.5008609793
 20
65.7371997321
 11
21.8856372902
 21
52.7371997321
  0
LINE
  5
571
100
AcDbEntity
  8
0
100
AcDbLine
 62
7
  6
CONTINUOUS
 10
-18.6877749057
 20
82.4789900092
 11
-17.2485221688
 21
81.4612846391
  0
LINE
  5
572
100
AcDbEntity
  8
0
100
AcDbLine
 62
7
  6
CONTINUOUS
 10
-16.4585217951
 20
80.9026700177
 11
-15.0192693198
 21
79.8849648326
  0
LINE
  5
573
100
AcDbEntity
  8
0
100
AcDbLine
 62
7
  6
CONTINUOUS
 10
37.8807675893
 20
42.4789900092
 11
39.3200203262
 21
41.4612846391
  0
LINE
  5
574
100
AcDbEntity
  8
0
100
AcDbLine
 62
7
  6
CONTINUOUS
 10
40.1100206998
 20
40.9026700177
 11
41.5492731752
 21
39.8849648326
  0
LINE
  5
575
100
AcDbEntity
  8
ASSI
100
AcDbLine
 62
7
  6
CONTINUOUS
 10
3.9508609793
 20
66.6053977837
 11
22.3356372902
 21
53.6053977837
  0
LWPOLYLINE
  5
576
100
AcDbEntity
  8
0
100
AcDbPolyline
 62
7
  6
CONTINUOUS
 90
7
 70
0
 10
-14.6785221127
 20
83.89493467
 10
-14.6246358672
 20
83.8555308908
 10
-14.5719354181
 20
83.8143723137
 10
-14.5204576168
 20
83.7714979196
 10
-14.4702381071
 20
83.7269478116
 10
-14.421311307
 20
83.6807631727
 10
-14.3737103915
 20
83.6329862218
  0
LWPOLYLINE
  5
577
100
AcDbEntity
  8
0
100
AcDbPolyline
 62
7
  6
CONTINUOUS
 90
7
 70
0
 10
41.8900203822
 20
43.89493467
 10
41.9439066278
 20
43.8555308908
 10
41.9966070768
 20
43.8143723137
 10
42.0480848781
 20
43.7714979196
 10
42.0983043879
 20
43.7269478116
 10
42.1472311879
 20
43.6807631727
 10
42.1948321034
 20
43.6329862218
  0
LWPOLYLINE
  5
578
100
AcDbEntity
  8
ASSI
100
AcDbPolyline
 62
7
  6
CONTINUOUS
 90
43
 70
0
 10
21.8856372902
 20
52.7371997321
 10
22.042517232
 20
52.6211456911
 10
22.1945687743
 20
52.4984494371
 10
22.341791917
 20
52.36911097
 10
22.4843790758
 20
52.2329309318
 10
22.6221378351
 20
52.0901086806
 10
22.754490948
 20
51.9412422908
 10
22.8814156667
 20
51.7863064004
 10
23.0029347392
 20
51.6253263713
 10
23.1185391623
 20
51.4589763648
 10
23.2282040767
 20
51.2872338625
 10
23.3319543417
 20
51.1101213827
 10
23.4293555331
 20
50.928380641
 10
23.5203809417
 20
50.7419924096
 10
23.6050572765
 20
50.5509759164
 10
23.6830302405
 20
50.356130561
 10
23.7542717684
 20
50.157440303
 10
23.8188099254
 20
49.9549211827
 10
23.8763746095
 20
49.7494207208
 10
23.9269366276
 20
49.5409262878
 10
23.9705251729
 20
49.3294505132
 10
24.0069577229
 20
49.1158788056
 10
24.0362042574
 20
48.9002023788
 10
24.0582947965
 20
48.6824300191
 10
24.073136879
 20
48.4634734932
 10
24.0807001195
 20
48.2433279809
 10
24.0810149034
 20
48.0219983025
 10
24.0740799245
 20
47.8004106859
 10
24.0598648259
 20
47.5785640428
 10
24.0383999647
 20
47.3564594615
 10
24.0097751058
 20
47.1350264351
 10
23.9739601963
 20
46.914267569
 10
23.9309852891
 20
46.6941802579
 10
23.8810303083
 20
46.4756861781
 10
23.8240659308
 20
46.2587919851
 10
23.7601214797
 20
46.0434910235
 10
23.6894648481
 20
45.8306850034
 10
23.6120678184
 20
45.6203843721
 10
23.5279586082
 20
45.4125786823
 10
23.4374897644
 20
45.2081383022
 10
23.3407788024
 20
45.0073533546
 10
23.2377082067
 20
44.8099337167
 10
23.1282779773
 20
44.6158793886
  0
LWPOLYLINE
  5
579
100
AcDbEntity
  8
ASSI
100
AcDbPolyline
 62
7
  6
CONTINUOUS
 90
40
 70
0
 10
21.8856372902
 20
51.7371997321
 10
22.0259642915
 20
51.6330792309
 10
22.1620103797
 20
51.5222048911
 10
22.2935547812
 20
51.404756347
 10
22.4203841837
 20
51.2809237301
 10
22.5422925581
 20
51.1509078669
 10
22.6590815613
 20
51.0149200368
 10
22.7705616299
 20
50.873180782
 10
22.8765519115
 20
50.7259198513
 10
22.9768801324
 20
50.5733764412
 10
23.0713834721
 20
50.4157980107
 10
23.1599086423
 20
50.253440052
 10
23.2423118924
 20
50.0865661177
 10
23.318459502
 20
49.9154469536
 10
23.3882279753
 20
49.7403600269
 10
23.4515041249
 20
49.561589311
 10
23.5081852999
 20
49.3794247274
 10
23.5581795198
 20
49.1941617845
 10
23.6014056412
 20
49.0061010917
 10
23.6377935429
 20
48.8155476404
 10
23.667284175
 20
48.6228105652
 10
23.6898296609
 20
48.4282027638
 10
23.7053934414
 20
48.2320399604
 10
23.7139502925
 20
48.0346402942
 10
23.7154863499
 20
47.8363240738
 10
23.7099991502
 20
47.6374130232
 10
23.6974976212
 20
47.4382297481
 10
23.6780020663
 20
47.239097325
 10
23.6515441179
 20
47.040338654
 10
23.6181667251
 20
46.84227623
 10
23.5779241169
 20
46.6452316051
 10
23.5308816004
 20
46.4495242962
 10
23.4771155505
 20
46.2554718207
 10
23.416713409
 20
46.0633894566
 10
23.3497732259
 20
45.8735886441
 10
23.2764037085
 20
45.6863772804
 10
23.1967243048
 20
45.5020597222
 10
23.1108645511
 20
45.3209350784
 10
23.018963774
 20
45.1432967637
 10
22.9211711961
 20
44.9694327792
  0
LWPOLYLINE
  5
57A
100
AcDbEntity
  8
ASSI
100
AcDbPolyline
 62
7
  6
CONTINUOUS
 90
40
 70
0
 10
22.3356372902
 20
53.6053977837
 10
22.5326025648
 20
53.4591771291
 10
22.7229716273
 20
53.3040298166
 10
22.9067444774
 20
53.1399558461
 10
23.0841974984
 20
52.9666604499
 10
23.2550543071
 20
52.7844383958
 10
23.4184857546
 20
52.5941739868
 10
23.5744557482
 20
52.3958281312
 10
23.7230003806
 20
52.1894399207
 10
23.8633987815
 20
51.9760109343
 10
23.995611354
 20
51.7555069484
 10
24.1196776949
 20
51.5279621865
 10
24.2349957242
 20
51.2944808978
 10
24.3415229187
 20
51.0550342263
 10
24.4393018015
 20
50.809651028
 10
24.5278578628
 20
50.5595221199
 10
24.6071462727
 20
50.3046244345
 10
24.6772118611
 20
50.0449810393
 10
24.7377146076
 20
49.7818519547
 10
24.7886080295
 20
49.5152202375
 10
24.8299386094
 20
49.2451028308
 10
24.8615057748
 20
48.9728105842
 10
24.883262068
 20
48.6983329261
 10
24.8952549465
 20
48.421680428
 10
24.8974262104
 20
48.1441956534
 10
24.8897281191
 20
47.8658745568
 10
24.8722084131
 20
47.5867211837
 10
24.8449521136
 20
47.308090234
 10
24.8079118934
 20
47.0299842472
 10
24.7611350796
 20
46.7524006838
 10
24.7048486749
 20
46.4766866257
 10
24.6390064555
 20
46.2028511601
 10
24.5636546452
 20
45.9308851999
 10
24.4791589179
 20
45.6621085652
 10
24.3854748272
 20
45.3965367587
 10
24.2826468194
 20
45.1341542777
 10
24.1711739074
 20
44.876234435
 10
24.0512224287
 20
44.6232016682
 10
23.9226260457
 20
44.3746315397
 10
23.7853847585
 20
44.1305240495
  0
LINE
  5
57B
100
AcDbEntity
  8
0
100
AcDbLine
 62
7
  6
CONTINUOUS
 10
-17.9628988117
 20
81.7320312369
 11
-18.0628338331
 21
81.806611443
  0
LINE
  5
57C
100
AcDbEntity
  8
0
100
AcDbLine
 62
7
  6
CONTINUOUS
 10
-17.4628311522
 20
82.8308735003
 11
-17.3628976047
 21
82.7562944095
  0
LINE
  5
57D
100
AcDbEntity
  8
0
100
AcDbLine
 62
7
  6
CONTINUOUS
 10
38.6056436832
 20
41.7320312369
 11
38.5057086618
 21
41.806611443
  0
LINE
  5
57E
100
AcDbEntity
  8
0
100
AcDbLine
 62
7
  6
CONTINUOUS
 10
39.1057113427
 20
42.8308735003
 11
39.2056448903
 21
42.7562944095
  0
LINE
  5
57F
100
AcDbEntity
  8
0
100
AcDbLine
 62
7
  6
CONTINUOUS
 10
-18.0628338331
 20
81.806611443
 11
-18.1611303737
 21
81.8807693033
  0
LINE
  5
580
100
AcDbEntity
  8
0
100
AcDbLine
 62
7
  6
CONTINUOUS
 10
-17.5611258239
 20
82.9050299203
 11
-17.4628311522
 21
82.8308735003
  0
LINE
  5
581
100
AcDbEntity
  8
0
100
AcDbLine
 62
7
  6
CONTINUOUS
 10
38.5057086618
 20
41.806611443
 11
38.4074121212
 21
41.8807693033
  0
LINE
  5
582
100
AcDbEntity
  8
0
100
AcDbLine
 62
7
  6
CONTINUOUS
 10
39.0074166711
 20
42.9050299203
 11
39.1057113427
 21
42.8308735003
  0
LWPOLYLINE
  5
583
100
AcDbEntity
  8
0
100
AcDbPolyline
 62
7
  6
CONTINUOUS
 90
21
 70
0
 10
-13.6725071194
 20
81.8209533466
 10
-13.626844699
 20
81.7863087714
 10
-13.5698944474
 20
81.7370281563
 10
-13.5157180239
 20
81.6837146394
 10
-13.4646986342
 20
81.6266663784
 10
-13.4173782642
 20
81.5665083622
 10
-13.3739269652
 20
81.50356591
 10
-13.3344550152
 20
81.4381231729
 10
-13.2992507585
 20
81.3708662293
 10
-13.2684542609
 20
81.3024349853
 10
-13.2419138743
 20
81.2329114096
 10
-13.2194659625
 20
81.1621491305
 10
-13.2011424962
 20
81.0904303363
 10
-13.1869773206
 20
81.0181177383
 10
-13.1769294711
 20
80.9451563496
 10
-13.171031115
 20
80.8716019281
 10
-13.1693536756
 20
80.7980787732
 10
-13.1718719648
 20
80.7253822978
 10
-13.178485761
 20
80.6538955272
 10
-13.1890808186
 20
80.5839038974
 10
-13.193170548
 20
80.5645870426
  0
LWPOLYLINE
  5
584
100
AcDbEntity
  8
0
100
AcDbPolyline
 62
7
  6
CONTINUOUS
 90
21
 70
0
 10
42.8960353755
 20
41.8209533466
 10
42.941697796
 20
41.7863087714
 10
42.9986480475
 20
41.7370281563
 10
43.052824471
 20
41.6837146394
 10
43.1038438608
 20
41.6266663784
 10
43.1511642307
 20
41.5665083622
 10
43.1946155297
 20
41.50356591
 10
43.2340874798
 20
41.4381231729
 10
43.2692917364
 20
41.3708662293
 10
43.300088234
 20
41.3024349853
 10
43.3266286206
 20
41.2329114096
 10
43.3490765325
 20
41.1621491305
 10
43.3673999987
 20
41.0904303363
 10
43.3815651743
 20
41.0181177383
 10
43.3916130238
 20
40.9451563496
 10
43.39751138
 20
40.8716019281
 10
43.3991888193
 20
40.7980787732
 10
43.3966705302
 20
40.7253822978
 10
43.3900567339
 20
40.6538955272
 10
43.3794616763
 20
40.5839038974
 10
43.3753719469
 20
40.5645870426
  0
LINE
  5
585
100
AcDbEntity
  8
0
100
AcDbLine
 62
7
  6
CONTINUOUS
 10
-18.1611303737
 20
81.8807693033
 11
-18.256926136
 21
81.9538545673
  0
LINE
  5
586
100
AcDbEntity
  8
0
100
AcDbLine
 62
7
  6
CONTINUOUS
 10
-17.6569202849
 20
82.9781141464
 11
-17.5611258239
 21
82.9050299203
  0
LINE
  5
587
100
AcDbEntity
  8
0
100
AcDbLine
 62
7
  6
CONTINUOUS
 10
38.4074121212
 20
41.8807693033
 11
38.3116163589
 21
41.9538545673
  0
LINE
  5
588
100
AcDbEntity
  8
0
100
AcDbLine
 62
7
  6
CONTINUOUS
 10
38.9116222101
 20
42.9781141464
 11
39.0074166711
 21
42.9050299203
  0
LINE
  5
589
100
AcDbEntity
  8
0
100
AcDbLine
 62
7
  6
CONTINUOUS
 10
-18.256926136
 20
81.9538545673
 11
-18.3496470842
 21
82.0254118614
  0
LINE
  5
58A
100
AcDbEntity
  8
0
100
AcDbLine
 62
7
  6
CONTINUOUS
 10
-17.7496410885
 20
83.0496712758
 11
-17.6569202849
 21
82.9781141464
  0
LINE
  5
58B
100
AcDbEntity
  8
0
100
AcDbLine
 62
7
  6
CONTINUOUS
 10
38.3116163589
 20
41.9538545673
 11
38.2188954108
 21
42.0254118614
  0
LINE
  5
58C
100
AcDbEntity
  8
0
100
AcDbLine
 62
7
  6
CONTINUOUS
 10
38.8189014064
 20
43.0496712758
 11
38.9116222101
 21
42.9781141464
  0
LINE
  5
58D
100
AcDbEntity
  8
0
100
AcDbLine
 62
7
  6
CONTINUOUS
 10
-18.3496470842
 20
82.0254118614
 11
-18.4395335487
 21
82.0956045299
  0
LINE
  5
58E
100
AcDbEntity
  8
0
100
AcDbLine
 62
7
  6
CONTINUOUS
 10
-17.8395281796
 20
83.1198643806
 11
-17.7496410885
 21
83.0496712758
  0
LINE
  5
58F
100
AcDbEntity
  8
0
100
AcDbLine
 62
7
  6
CONTINUOUS
 10
38.2188954108
 20
42.0254118614
 11
38.1290089463
 21
42.0956045299
  0
LINE
  5
590
100
AcDbEntity
  8
0
100
AcDbLine
 62
7
  6
CONTINUOUS
 10
38.7290143153
 20
43.1198643806
 11
38.8189014064
 21
43.0496712758
  0
LINE
  5
591
100
AcDbEntity
  8
0
100
AcDbLine
 62
7
  6
CONTINUOUS
 10
-18.4395335487
 20
82.0956045299
 11
-18.5273519663
 21
82.165022782
  0
LINE
  5
592
100
AcDbEntity
  8
0
100
AcDbLine
 62
7
  6
CONTINUOUS
 10
-17.9273470565
 20
83.1892829453
 11
-17.8395281796
 21
83.1198643806
  0
LINE
  5
593
100
AcDbEntity
  8
0
100
AcDbLine
 62
7
  6
CONTINUOUS
 10
38.1290089463
 20
42.0956045299
 11
38.0411905287
 21
42.165022782
  0
LINE
  5
594
100
AcDbEntity
  8
0
100
AcDbLine
 62
7
  6
CONTINUOUS
 10
38.6411954384
 20
43.1892829453
 11
38.7290143153
 21
43.1198643806
  0
LINE
  5
595
100
AcDbEntity
  8
0
100
AcDbLine
 62
7
  6
CONTINUOUS
 10
-18.5273519663
 20
82.165022782
 11
-18.6130136428
 21
82.2335987489
  0
LINE
  5
596
100
AcDbEntity
  8
0
100
AcDbLine
 62
7
  6
CONTINUOUS
 10
-18.0130091486
 20
83.2578591962
 11
-17.9273470565
 21
83.1892829453
  0
LINE
  5
597
100
AcDbEntity
  8
0
100
AcDbLine
 62
7
  6
CONTINUOUS
 10
38.0411905287
 20
42.165022782
 11
37.9555288521
 21
42.2335987489
  0
LINE
  5
598
100
AcDbEntity
  8
0
100
AcDbLine
 62
7
  6
CONTINUOUS
 10
38.5555333463
 20
43.2578591962
 11
38.6411954384
 21
43.1892829453
  0
LINE
  5
599
100
AcDbEntity
  8
0
100
AcDbLine
 62
7
  6
CONTINUOUS
 10
-18.6130136428
 20
82.2335987489
 11
-18.6959495914
 21
82.3008701901
  0
LINE
  5
59A
100
AcDbEntity
  8
0
100
AcDbLine
 62
7
  6
CONTINUOUS
 10
-18.09594606
 20
83.3251313751
 11
-18.0130091486
 21
83.2578591962
  0
LINE
  5
59B
100
AcDbEntity
  8
0
100
AcDbLine
 62
7
  6
CONTINUOUS
 10
37.9555288521
 20
42.2335987489
 11
37.8725929035
 21
42.3008701901
  0
LINE
  5
59C
100
AcDbEntity
  8
0
100
AcDbLine
 62
7
  6
CONTINUOUS
 10
38.4725964349
 20
43.3251313751
 11
38.5555333463
 21
43.2578591962
  0
LINE
  5
59D
100
AcDbEntity
  8
0
100
AcDbLine
 62
7
  6
CONTINUOUS
 10
-18.6959495914
 20
82.3008701901
 11
-18.7497437162
 21
82.3449998646
  0
LINE
  5
59E
100
AcDbEntity
  8
0
100
AcDbLine
 62
7
  6
CONTINUOUS
 10
-18.1497410744
 20
83.3692617563
 11
-18.09594606
 21
83.3251313751
  0
LINE
  5
59F
100
AcDbEntity
  8
0
100
AcDbLine
 62
7
  6
CONTINUOUS
 10
37.8725929035
 20
42.3008701901
 11
37.8187987787
 21
42.3449998646
  0
LINE
  5
5A0
100
AcDbEntity
  8
0
100
AcDbLine
 62
7
  6
CONTINUOUS
 10
38.4188014206
 20
43.3692617563
 11
38.4725964349
 21
43.3251313751
  0
LINE
  5
5A1
100
AcDbEntity
  8
0
100
AcDbLine
 62
7
  6
CONTINUOUS
 10
-18.7497437162
 20
82.3449998646
 11
-18.8024739817
 21
82.3886614484
  0
LINE
  5
5A2
100
AcDbEntity
  8
0
100
AcDbLine
 62
7
  6
CONTINUOUS
 10
-18.2024722536
 20
83.4129240797
 11
-18.1497410744
 21
83.3692617563
  0
LINE
  5
5A3
100
AcDbEntity
  8
0
100
AcDbLine
 62
7
  6
CONTINUOUS
 10
37.8187987787
 20
42.3449998646
 11
37.7660685132
 21
42.3886614484
  0
LINE
  5
5A4
100
AcDbEntity
  8
0
100
AcDbLine
 62
7
  6
CONTINUOUS
 10
38.3660702413
 20
43.4129240797
 11
38.4188014206
 21
43.3692617563
  0
LINE
  5
5A5
100
AcDbEntity
  8
0
100
AcDbLine
 62
7
  6
CONTINUOUS
 10
-18.8024739817
 20
82.3886614484
 11
-18.8542096763
 21
82.4319120613
  0
LINE
  5
5A6
100
AcDbEntity
  8
0
100
AcDbLine
 62
7
  6
CONTINUOUS
 10
-18.2542087965
 20
83.4561753909
 11
-18.2024722536
 21
83.4129240797
  0
LINE
  5
5A7
100
AcDbEntity
  8
0
100
AcDbLine
 62
7
  6
CONTINUOUS
 10
37.7660685132
 20
42.3886614484
 11
37.7143328186
 21
42.4319120613
  0
LINE
  5
5A8
100
AcDbEntity
  8
0
100
AcDbLine
 62
7
  6
CONTINUOUS
 10
38.3143336985
 20
43.4561753909
 11
38.3660702413
 21
43.4129240797
  0
LWPOLYLINE
  5
5A9
100
AcDbEntity
  8
0
100
AcDbPolyline
 62
7
  6
CONTINUOUS
 90
3
 70
0
 10
-18.8542096763
 20
82.4319120613
 10
-18.9050665445
 20
82.4748508925
 10
-18.9301574086
 20
82.4961965691
  0
LWPOLYLINE
  5
5AA
100
AcDbEntity
  8
0
100
AcDbPolyline
 62
7
  6
CONTINUOUS
 90
3
 70
0
 10
37.7143328186
 20
42.4319120613
 10
37.6634759504
 20
42.4748508925
 10
37.6383850863
 20
42.4961965691
  0
LINE
  5
5AB
100
AcDbEntity
  8
TRASH
100
AcDbLine
 62
7
  6
CONTINUOUS
 10
-17.2213825153
 20
81.97955618
 11
-17.252555823
 21
82.0060653986
  0
LINE
  5
5AC
100
AcDbEntity
  8
TRASH
100
AcDbLine
 62
7
  6
CONTINUOUS
 10
39.3471599797
 20
41.97955618
 11
39.315986672
 21
42.0060653986
  0
LWPOLYLINE
  5
5AD
100
AcDbEntity
  8
0
100
AcDbPolyline
 62
7
  6
CONTINUOUS
 90
3
 70
0
 10
-18.3301574086
 20
83.5204606378
 10
-18.305066298
 20
83.4991147513
 10
-18.2542087965
 20
83.4561753909
  0
LWPOLYLINE
  5
5AE
100
AcDbEntity
  8
0
100
AcDbPolyline
 62
7
  6
CONTINUOUS
 90
3
 70
0
 10
38.2383850863
 20
43.5204606378
 10
38.2634761969
 20
43.4991147513
 10
38.3143336985
 20
43.4561753909
  0
LWPOLYLINE
  5
5AF
100
AcDbEntity
  8
0
100
AcDbPolyline
 62
7
  6
CONTINUOUS
 90
14
 70
0
 10
37.6383850863
 20
42.4961965691
 10
37.6332099472
 20
42.500697666
 10
37.6284864624
 20
42.5049811767
 10
37.6242146319
 20
42.5090471011
 10
37.6203847925
 20
42.5129057938
 10
37.6170066074
 20
42.5165469003
 10
37.6141090665
 20
42.5199393571
 10
37.6116963599
 20
42.5230809246
 10
37.6097642975
 20
42.5259738423
 10
37.6083292997
 20
42.5285937659
 10
37.6073953481
 20
42.5309384326
 10
37.606958461
 20
42.533010105
 10
37.6070231145
 20
42.5347912272
 10
37.607190184
 20
42.5354199271
  0
LWPOLYLINE
  5
5B0
100
AcDbEntity
  8
0
100
AcDbPolyline
 62
7
  6
CONTINUOUS
 90
10
 70
0
 10
-15.9409112702
 20
83.2976842949
 10
-15.9738590694
 20
83.3276598194
 10
-16.0075899035
 20
83.3565247558
 10
-16.042078726
 20
83.3842576245
 10
-16.0773001327
 20
83.4108379371
 10
-16.1132277688
 20
83.4362457454
 10
-16.1498343081
 20
83.4604617246
 10
-16.1870923102
 20
83.4834677798
 10
-16.2249742808
 20
83.5052469899
 10
-16.2634520526
 20
83.5257832027
  0
LWPOLYLINE
  5
5B1
100
AcDbEntity
  8
0
100
AcDbPolyline
 62
7
  6
CONTINUOUS
 90
10
 70
0
 10
38.4551102456
 20
40.3679921553
 10
38.4880580448
 20
40.3380166308
 10
38.521788879
 20
40.3091516943
 10
38.5562777016
 20
40.2814188256
 10
38.5914991084
 20
40.2548385129
 10
38.6274267445
 20
40.2294307046
 10
38.6640332838
 20
40.2052147252
 10
38.701291286
 20
40.1822086701
 10
38.7391732567
 20
40.1604294598
 10
38.7776510286
 20
40.1398932471
  0
LWPOLYLINE
  5
5B2
100
AcDbEntity
  8
0
100
AcDbPolyline
 62
7
  6
CONTINUOUS
 90
10
 70
0
 10
40.6276312247
 20
43.2976842949
 10
40.5946834255
 20
43.3276598194
 10
40.5609525914
 20
43.3565247558
 10
40.5264637689
 20
43.3842576245
 10
40.4912423622
 20
43.4108379371
 10
40.4553147262
 20
43.4362457454
 10
40.4187081869
 20
43.4604617246
 10
40.3814501847
 20
43.4834677798
 10
40.3435682141
 20
43.5052469899
 10
40.3050904423
 20
43.5257832027
  0
LWPOLYLINE
  5
5B3
100
AcDbEntity
  8
ASSI
100
AcDbPolyline
 62
7
  6
CONTINUOUS
 90
10
 70
0
 10
40.4299952545
 20
38.8307127516
 10
40.4548558019
 20
38.8075981619
 10
40.545826487
 20
38.7315734958
 10
40.6400203822
 20
38.6610511935
 10
40.7374593592
 20
38.5960685924
 10
40.8381215463
 20
38.536588355
 10
40.9413254211
 20
38.4830131859
 10
41.0470882306
 20
38.4353831551
 10
41.1553927278
 20
38.3936581926
 10
41.2144315779
 20
38.3745781857
  0
LINE
  5
5B4
100
AcDbEntity
  8
0
100
AcDbLine
 62
7
  6
CONTINUOUS
 10
38.9303245213
 20
42.1858209442
 11
39.0583465644
 21
42.0452984693
  0
LINE
  5
5B5
100
AcDbEntity
  8
0
100
AcDbLine
 62
7
  6
CONTINUOUS
 10
41.0997162431
 20
41.2023979663
 11
40.9716942
 21
41.3429204412
  0
LWPOLYLINE
  5
5B6
100
AcDbEntity
  8
TRASH
100
AcDbPolyline
 62
7
  6
CONTINUOUS
 90
3
 70
0
 10
39.4817908143
 20
41.793437749
 10
39.450544166
 20
41.8371063224
 10
39.3471625147
 20
41.9795507828
  0
LWPOLYLINE
  5
5B7
100
AcDbEntity
  8
TRASH
100
AcDbPolyline
 62
7
  6
CONTINUOUS
 90
3
 70
0
 10
39.5665626338
 20
41.6728746378
 10
39.5397094712
 20
41.7113676919
 10
39.4817908143
 20
41.793437749
  0
LWPOLYLINE
  5
5B8
100
AcDbEntity
  8
TRASH
100
AcDbPolyline
 62
7
  6
CONTINUOUS
 90
8
 70
0
 10
39.7422566337
 20
41.4065071227
 10
39.7233020861
 20
41.4369996542
 10
39.7035548152
 20
41.4680473641
 10
39.6829904828
 20
41.4997735486
 10
39.6616946908
 20
41.5322827942
 10
39.6395632043
 20
41.5656922389
 10
39.6163063364
 20
41.6001701775
 10
39.5665626338
 20
41.6728746378
  0
LWPOLYLINE
  5
5B9
100
AcDbEntity
  8
0
100
AcDbPolyline
 62
7
  6
CONTINUOUS
 90
32
 70
0
 10
42.8952897972
 20
41.6965477661
 10
42.9274412292
 20
41.6366344897
 10
42.963291162
 20
41.5592417723
 10
42.994605815
 20
41.4798573851
 10
43.0213037064
 20
41.3988251057
 10
43.0433243895
 20
41.31649622
 10
43.0606287288
 20
41.2332279216
 10
43.073199078
 20
41.1493816845
 10
43.0810393604
 20
41.0653216157
 10
43.0841750512
 20
40.9814127967
 10
43.0826530611
 20
40.8980196197
 10
43.0765415228
 20
40.8155041275
 10
43.0659294806
 20
40.7342243638
 10
43.0509264846
 20
40.6545327419
 10
43.0316620913
 20
40.5767744389
 10
43.0082852738
 20
40.5012858231
 10
42.9809637428
 20
40.4283929215
 10
42.9498831821
 20
40.3584099337
 10
42.9152464032
 20
40.2916378012
 10
42.8772724207
 20
40.2283628355
 10
42.8361954548
 20
40.1688554138
 10
42.7922638636
 20
40.1133687472
 10
42.7457390121
 20
40.062137727
 10
42.696894081
 20
40.0153778541
 10
42.6460128218
 20
39.9732842574
 10
42.5933882644
 20
39.9360308049
 10
42.5393213816
 20
39.903769311
 10
42.4841197182
 20
39.8766288452
 10
42.4280959889
 20
39.854715144
 10
42.3715666543
 20
39.8381101288
 10
42.3148504788
 20
39.8268715329
 10
42.2671361728
 20
39.8219478489
  0
LINE
  5
5BA
100
AcDbEntity
  8
0
100
AcDbLine
 62
7
  6
CONTINUOUS
 10
40.2384024615
 20
42.0928952085
 11
40.2926428748
 21
41.9876708061
  0
LINE
  5
5BB
100
AcDbEntity
  8
0
100
AcDbLine
 62
7
  6
CONTINUOUS
 10
39.2807686361
 20
41.5789127098
 11
39.3242492641
 21
41.4917872193
  0
LINE
  5
5BC
100
AcDbEntity
  8
0
100
AcDbLine
 62
7
  6
CONTINUOUS
 10
39.2378379078
 20
41.6661113755
 11
39.2807686361
 21
41.5789127098
  0
LINE
  5
5BD
100
AcDbEntity
  8
0
100
AcDbLine
 62
7
  6
CONTINUOUS
 10
39.1842323063
 20
41.7763357331
 11
39.2378379078
 21
41.6661113755
  0
LINE
  5
5BE
100
AcDbEntity
  8
0
100
AcDbLine
 62
7
  6
CONTINUOUS
 10
40.8996832529
 20
41.4999111851
 11
40.8399323624
 21
41.6240226329
  0
LINE
  5
5BF
100
AcDbEntity
  8
0
100
AcDbLine
 62
7
  6
CONTINUOUS
 10
39.108768165
 20
41.9334488904
 11
39.1842323063
 21
41.7763357331
  0
LINE
  5
5C0
100
AcDbEntity
  8
0
100
AcDbLine
 62
7
  6
CONTINUOUS
 10
39.0656544155
 20
42.0239711217
 11
39.108768165
 21
41.9334488904
  0
LINE
  5
5C1
100
AcDbEntity
  8
0
100
AcDbLine
 62
7
  6
CONTINUOUS
 10
40.9643863489
 20
41.3642477887
 11
40.8996832529
 21
41.4999111851
  0
LINE
  5
5C2
100
AcDbEntity
  8
0
100
AcDbLine
 62
7
  6
CONTINUOUS
 10
38.6534810467
 20
41.6286822442
 11
38.6373003175
 21
41.6631497477
  0
LWPOLYLINE
  5
5C3
100
AcDbEntity
  8
0
100
AcDbPolyline
 62
7
  6
CONTINUOUS
 90
29
 70
0
 10
42.892183971
 20
41.6194525679
 10
42.913291162
 20
41.5738864332
 10
42.944605815
 20
41.494502046
 10
42.9713037064
 20
41.4134697666
 10
42.9933243895
 20
41.3311408809
 10
43.0106287288
 20
41.2478725825
 10
43.023199078
 20
41.1640263454
 10
43.0310393604
 20
41.0799662766
 10
43.0341750512
 20
40.9960574576
 10
43.0326530611
 20
40.9126642807
 10
43.0265415228
 20
40.8301487885
 10
43.0159294806
 20
40.7488690247
 10
43.0009264846
 20
40.6691774028
 10
42.9816620913
 20
40.5914190998
 10
42.9582852738
 20
40.5159304841
 10
42.9309637428
 20
40.4430375824
 10
42.8998831821
 20
40.3730545946
 10
42.8652464032
 20
40.3062824621
 10
42.8272724207
 20
40.2430074964
 10
42.7861954548
 20
40.1835000747
 10
42.7422638636
 20
40.1280134082
 10
42.6957390121
 20
40.076782388
 10
42.646894081
 20
40.030022515
 10
42.5960128218
 20
39.9879289184
 10
42.5433882644
 20
39.9506754658
 10
42.4893213816
 20
39.9184139719
 10
42.4341197182
 20
39.8912735062
 10
42.3780959889
 20
39.8693598049
 10
42.340805128
 20
39.8584059291
  0
LINE
  5
5C4
100
AcDbEntity
  8
0
100
AcDbLine
 62
7
  6
CONTINUOUS
 10
38.6373003175
 20
41.6631497477
 11
38.621376493
 21
41.6975878185
  0
LINE
  5
5C5
100
AcDbEntity
  8
0
100
AcDbLine
 62
7
  6
CONTINUOUS
 10
38.621376493
 20
41.6975878185
 11
38.6056436832
 21
41.7320312369
  0
LINE
  5
5C6
100
AcDbEntity
  8
0
100
AcDbLine
 62
7
  6
CONTINUOUS
 10
40.5069059873
 20
43.0573607983
 11
40.3050904423
 21
43.5257832027
  0
LINE
  5
5C7
100
AcDbEntity
  8
0
100
AcDbLine
 62
7
  6
CONTINUOUS
 10
39.0583465644
 20
42.0452984693
 11
39.0656544155
 21
42.0239711217
  0
LINE
  5
5C8
100
AcDbEntity
  8
0
100
AcDbLine
 62
7
  6
CONTINUOUS
 10
40.9716942
 20
41.3429204412
 11
40.9643863489
 21
41.3642477887
  0
LINE
  5
5C9
100
AcDbEntity
  8
ASSI
100
AcDbLine
 62
7
  6
CONTINUOUS
 10
36.7480616091
 20
-56.7953718832
 11
20.6711192629
 21
-66.4272569294
  0
LWPOLYLINE
  5
5CA
100
AcDbEntity
  8
ASSI
100
AcDbPolyline
 62
7
  6
CONTINUOUS
 90
34
 70
0
 10
20.6711192629
 20
-66.4272569294
 10
20.6007543721
 20
-66.4674967212
 10
20.5282057632
 20
-66.5053147346
 10
20.453473436
 20
-66.5407109698
 10
20.3763967448
 20
-66.5737474769
 10
20.2971363354
 20
-66.6043622057
 10
20.2161741451
 20
-66.6323690055
 10
20.1334998054
 20
-66.6577519867
 10
20.0491236848
 20
-66.680527039
 10
19.9635588264
 20
-66.7005556801
 10
19.8767979874
 20
-66.7178211769
 10
19.7888484107
 20
-66.7323402626
 10
19.7002448675
 20
-66.7440246548
 10
19.6109833731
 20
-66.7528570826
 10
19.5210679123
 20
-66.7588548169
 10
19.4310452095
 20
-66.761981389
 10
19.3409146113
 20
-66.7622193056
 10
19.2506767713
 20
-66.75958606
 10
19.1608803742
 20
-66.7540976635
 10
19.0715281096
 20
-66.7457367203
 10
18.982617288
 20
-66.7345206261
 10
18.8946885253
 20
-66.7205175796
 10
18.807747805
 20
-66.7037106007
 10
18.7217891437
 20
-66.6841166694
 10
18.6373352069
 20
-66.6618549255
 10
18.5543951626
 20
-66.6369091144
 10
18.4729598429
 20
-66.6092954906
 10
18.3935244094
 20
-66.5791819568
 10
18.3161010472
 20
-66.5465532815
 10
18.2406775712
 20
-66.5114246962
 10
18.1677125886
 20
-66.4740097978
 10
18.0973589686
 20
-66.4343797852
 10
18.029463842
 20
-66.3924634595
 10
17.9640272088
 20
-66.3482608206
  0
LWPOLYLINE
  5
5CB
100
AcDbEntity
  8
ASSI
100
AcDbPolyline
 62
7
  6
CONTINUOUS
 90
35
 70
0
 10
2.3862960212
 20
67.3569572354
 10
2.1696546847
 20
67.4114398238
 10
1.9506717904
 20
67.4563872628
 10
1.7293571128
 20
67.4918393557
 10
1.5066370777
 20
67.5176476996
 10
1.282505794
 20
67.5337718692
 10
1.0569691528
 20
67.5402522899
 10
0.8309712528
 20
67.5370618344
 10
0.6045101607
 20
67.5241599639
 10
0.3775878098
 20
67.5015872172
 10
0.1511540997
 20
67.4694380842
 10
-0.0747889213
 20
67.427672422
 10
-0.3002433016
 20
67.3763303734
 10
-0.5242652865
 20
67.3156268569
 10
-0.7468488718
 20
67.2455226304
 10
-0.9680000618
 20
67.166056936
 10
-1.1867931152
 20
67.0775624179
 10
-1.403218147
 20
66.9800012285
 10
-1.6172850421
 20
66.8734112154
 10
-1.8280977144
 20
66.7582385656
 10
-2.0356425223
 20
66.6344473018
 10
-2.2399331073
 20
66.5020734014
 10
-2.4401143067
 20
66.3616709828
 10
-2.6361688945
 20
66.2132063916
 10
-2.8281140966
 20
66.0567132824
 10
-3.0151464284
 20
65.8928467369
 10
-3.1972452958
 20
65.7215758467
 10
-3.3744312928
 20
65.5429315203
 10
-3.5459627169
 20
65.3576615648
 10
-3.711815865
 20
65.1657382065
 10
-3.8720144402
 20
64.967189219
 10
-4.0258878495
 20
64.7628457306
 10
-4.1732125619
 20
64.5529847842
 10
-4.3142121084
 20
64.3373293368
 10
-4.448886489
 20
64.1158793886
  0
LINE
  5
5CC
100
AcDbEntity
  8
ASSI
100
AcDbLine
 62
250
  6
CONTINUOUS
 10
-4.448886489
 20
64.1158793886
 11
-4.498886489
 21
64.1305240495
  0
LWPOLYLINE
  5
5CD
100
AcDbEntity
  8
ASSI
100
AcDbPolyline
 62
7
  6
CONTINUOUS
 90
8
 70
0
 10
2.4062841679
 20
65.2678476905
 10
2.582134303
 20
65.2114657757
 10
2.7431658559
 20
65.1510047653
 10
2.9013705631
 20
65.0829507268
 10
3.0564912396
 20
65.0074144913
 10
3.208276177
 20
64.9245189057
 10
3.35647951
 20
64.8343985296
 10
3.5008609793
 20
64.7371997321
  0
LWPOLYLINE
  5
5CE
100
AcDbEntity
  8
ASSI
100
AcDbPolyline
 62
7
  6
CONTINUOUS
 90
8
 70
0
 10
2.418343391
 20
67.3483371576
 10
2.6646052369
 20
67.2693836369
 10
2.8899209562
 20
67.1847622879
 10
3.111649856
 20
67.0893843254
 10
3.3287159107
 20
66.9837126079
 10
3.5407604453
 20
66.8679014215
 10
3.7481421348
 20
66.7417964801
 10
3.9508609793
 20
66.6053977837
  0
LINE
  5
5CF
100
AcDbEntity
  8
0
100
AcDbLine
 62
7
  6
CONTINUOUS
 10
-17.4651652404
 20
81.5368594351
 11
-17.9628988117
 21
81.7320312369
  0
LINE
  5
5D0
100
AcDbEntity
  8
0
100
AcDbLine
 62
7
  6
CONTINUOUS
 10
-17.0166023352
 20
78.9747505822
 11
-17.0852597641
 21
79.0040819004
  0
LWPOLYLINE
  5
5D1
100
AcDbEntity
  8
0
100
AcDbPolyline
 62
250
  6
CONTINUOUS
 90
25
 70
0
 10
-17.8594656167
 20
79.3799562196
 10
-17.7583281151
 20
79.3353237047
 10
-17.6549470621
 20
79.2966693047
 10
-17.5494451425
 20
79.2640512129
 10
-17.4419879823
 20
79.2375530907
 10
-17.3329179279
 20
79.2172913335
 10
-17.2226289225
 20
79.2033514014
 10
-17.1114361922
 20
79.1957701824
 10
-16.9995716256
 20
79.1945605574
 10
-16.8873124912
 20
79.1997261923
 10
-16.7749375696
 20
79.2112546591
 10
-16.662722356
 20
79.2291180946
 10
-16.5509397368
 20
79.2532739586
 10
-16.4398288152
 20
79.2836750281
 10
-16.329701573
 20
79.3202404176
 10
-16.2209345025
 20
79.3628370152
 10
-16.1138512023
 20
79.4113149536
 10
-16.0086496373
 20
79.4655611715
 10
-15.9055108747
 20
79.5254712263
 10
-15.8046755801
 20
79.5909024303
 10
-15.7064012723
 20
79.6616847238
 10
-15.6108924381
 20
79.7376705944
 10
-15.5183736144
 20
79.8186866618
 10
-15.4290855061
 20
79.9045275797
 10
-15.3432490872
 20
79.9949850648
  0
LINE
  5
5D2
100
AcDbEntity
  8
0
100
AcDbLine
 62
7
  6
CONTINUOUS
 10
-17.4101304624
 20
82.5751748239
 11
-17.0243906203
 21
82.3955814508
  0
LINE
  5
5D3
100
AcDbEntity
  8
0
100
AcDbLine
 62
7
  6
CONTINUOUS
 10
-17.2526780605
 20
82.0059085493
 11
-17.6382179736
 21
82.1858209442
  0
LINE
  5
5D4
100
AcDbEntity
  8
0
100
AcDbLine
 62
7
  6
CONTINUOUS
 10
-17.0852597641
 20
79.0040819004
 11
-17.141396453
 21
79.0303514182
  0
LWPOLYLINE
  5
5D5
100
AcDbEntity
  8
0
100
AcDbPolyline
 62
7
  6
CONTINUOUS
 90
7
 70
0
 10
-15.0217844613
 20
84.0912437913
 10
-14.9624877945
 20
84.0634327368
 10
-14.9039610427
 20
84.0336362406
 10
-14.8462529229
 20
84.0018699898
 10
-14.7894118084
 20
83.9681513439
 10
-14.7334856859
 20
83.9324993358
 10
-14.6785221127
 20
83.89493467
  0
LINE
  5
5D6
100
AcDbEntity
  8
0
100
AcDbLine
 62
7
  6
CONTINUOUS
 10
-16.3065635868
 20
82.293723946
 11
-16.6720397162
 21
82.4686852548
  0
LINE
  5
5D7
100
AcDbEntity
  8
0
100
AcDbLine
 62
7
  6
CONTINUOUS
 10
-16.8651649977
 20
82.5611234761
 11
-17.2585655382
 21
82.7493914012
  0
LINE
  5
5D8
100
AcDbEntity
  8
0
100
AcDbLine
 62
7
  6
CONTINUOUS
 10
-17.8743449633
 20
79.3871200522
 11
-17.141396453
 21
79.0303514182
  0
LWPOLYLINE
  5
5D9
100
AcDbEntity
  8
ASSI
100
AcDbPolyline
 62
7
  6
CONTINUOUS
 90
34
 70
0
 10
-13.7089070901
 20
82.2504893102
 10
-13.6820073312
 20
82.2369992669
 10
-13.629409254
 20
82.2065012559
 10
-13.5785219952
 20
82.1727520462
 10
-13.5294850476
 20
82.1358441507
 10
-13.4824328319
 20
82.0958787409
 10
-13.4374947074
 20
82.0529657531
 10
-13.3947937997
 20
82.0072228918
 10
-13.3544470987
 20
81.9587756157
 10
-13.3165654544
 20
81.9077572446
 10
-13.2812526879
 20
81.8543079397
 10
-13.2486053136
 20
81.7985741456
 10
-13.2187126185
 20
81.7407086241
 10
-13.1916566795
 20
81.6808707267
 10
-13.1675111683
 20
81.6192239066
 10
-13.1463414364
 20
81.5559349645
 10
-13.1282054661
 20
81.4911764413
 10
-13.1131534218
 20
81.4251265229
 10
-13.1012267657
 20
81.3579663601
 10
-13.0924583303
 20
81.28987987
 10
-13.0868723282
 20
81.2210537486
 10
-13.0844842341
 20
81.1516771642
 10
-13.085300679
 20
81.0819402153
 10
-13.0893195111
 20
81.0120341198
 10
-13.0965297051
 20
80.9421512329
 10
-13.1069114878
 20
80.8724830673
 10
-13.1204363793
 20
80.8032206518
 10
-13.1370670572
 20
80.7345547153
 10
-13.1567578324
 20
80.66667335
 10
-13.1794545763
 20
80.59976269
 10
-13.2050944817
 20
80.5340072123
 10
-13.2336068259
 20
80.4695873887
 10
-13.2649133365
 20
80.4066792537
 10
-13.2989279581
 20
80.345455052
  0
LINE
  5
5DA
100
AcDbEntity
  8
0
100
AcDbLine
 62
7
  6
CONTINUOUS
 10
-16.9825601336
 20
82.387251477
 11
-17.2200286342
 21
82.5068422406
  0
LINE
  5
5DB
100
AcDbEntity
  8
0
100
AcDbLine
 62
7
  6
CONTINUOUS
 10
-17.0244075957
 20
82.3955387741
 11
-17.2410452661
 21
82.5052923075
  0
LWPOLYLINE
  5
5DC
100
AcDbEntity
  8
0
100
AcDbPolyline
 62
7
  6
CONTINUOUS
 90
22
 70
0
 10
-14.9213518253
 20
81.110071094
 10
-14.9121124979
 20
81.1043796239
 10
-14.9028333798
 20
81.0987617991
 10
-14.8935144708
 20
81.0932176196
 10
-14.8841291046
 20
81.0877317508
 10
-14.8747039476
 20
81.0823195273
 10
-14.8653189996
 20
81.0770269529
 10
-14.8559749592
 20
81.0718552448
 10
-14.8466711278
 20
81.0668031859
 10
-14.8374854087
 20
81.0619131285
 10
-14.8284191156
 20
81.0571865543
 10
-14.8194709348
 20
81.0526219816
 10
-14.8107148286
 20
81.0482573187
 10
-14.8021523125
 20
81.0440940911
 10
-14.7937818709
 20
81.0401307732
 10
-14.78567292
 20
81.0364006967
 10
-14.7778263861
 20
81.0329051881
 10
-14.7702413428
 20
81.0296429208
 10
-14.7629844276
 20
81.0266432465
 10
-14.7560778528
 20
81.0239159491
 10
-14.749499406
 20
81.0214512448
 10
-14.7432490872
 20
81.0192491335
  0
LINE
  5
5DD
100
AcDbEntity
  8
0
100
AcDbLine
 62
7
  6
CONTINUOUS
 10
-15.0904290496
 20
81.2156730988
 11
-14.9213518253
 21
81.110071094
  0
LINE
  5
5DE
100
AcDbEntity
  8
0
100
AcDbLine
 62
7
  6
CONTINUOUS
 10
-15.2574583565
 20
81.3210293434
 11
-15.0904290496
 21
81.2156730988
  0
LINE
  5
5DF
100
AcDbEntity
  8
0
100
AcDbLine
 62
7
  6
CONTINUOUS
 10
-15.4236334827
 20
81.4268945473
 11
-15.2574583565
 21
81.3210293434
  0
LWPOLYLINE
  5
5E0
100
AcDbEntity
  8
0
100
AcDbPolyline
 62
250
  6
CONTINUOUS
 90
10
 70
0
 10
-15.5348712826
 20
84.0079666375
 10
-15.6278525873
 20
84.0698531352
 10
-15.7238038692
 20
84.1261269184
 10
-15.8224900512
 20
84.1766503539
 10
-15.9236275529
 20
84.2212828688
 10
-16.0270086058
 20
84.2599372688
 10
-16.1325105254
 20
84.2925553605
 10
-16.2399676856
 20
84.3190534827
 10
-16.3490377401
 20
84.3393152399
 10
-16.4210016321
 20
84.3491445644
  0
LWPOLYLINE
  5
5E1
100
AcDbEntity
  8
0
100
AcDbPolyline
 62
7
  6
CONTINUOUS
 90
40
 70
0
 10
42.1948321034
 20
43.6329862218
 10
42.2475698012
 20
43.5764782227
 10
42.2984673291
 20
43.5180541151
 10
42.3475246872
 20
43.457713899
 10
42.3947871467
 20
43.3953934127
 10
42.4402094363
 20
43.331156818
 10
42.4836557422
 20
43.2651965996
 10
42.525120402
 20
43.1975072194
 10
42.564609078
 20
43.1280942156
 10
42.6020029433
 20
43.0571666873
 10
42.6372956237
 20
42.9847201784
 10
42.6704934933
 20
42.9107591452
 10
42.7014968477
 20
42.8355060557
 10
42.7302990854
 20
42.7589570312
 10
42.7569068079
 20
42.6811159506
 10
42.7812401144
 20
42.6022169179
 10
42.8032921646
 20
42.5222567576
 10
42.8230697988
 20
42.4412386454
 10
42.8405136376
 20
42.3594062118
 10
42.855616663
 20
42.2767570132
 10
42.868385893
 20
42.1932934932
 10
42.8787830023
 20
42.1092666146
 10
42.8868008583
 20
42.0246746868
 10
42.8924465936
 20
41.9395194002
 10
42.8957032807
 20
41.8540567888
 10
42.8965637367
 20
41.7682859306
 10
42.8950351445
 20
41.6822077475
 10
42.8911221259
 20
41.5960810388
 10
42.8848175119
 20
41.5099056594
 10
42.8761284716
 20
41.4236817544
 10
42.8650811337
 20
41.3376685579
 10
42.8516684077
 20
41.2518667029
 10
42.8358973843
 20
41.1662755565
 10
42.8178154638
 20
41.081152453
 10
42.797415698
 20
40.9964987982
 10
42.7747050351
 20
40.9123131863
 10
42.7497517209
 20
40.828848735
 10
42.7225785039
 20
40.7461898167
 10
42.6931626355
 20
40.664252059
 10
42.6615041158
 20
40.5830354617
  0
LINE
  5
5E2
100
AcDbEntity
  8
ASSI
100
AcDbLine
 62
7
  6
CONTINUOUS
 10
-6.6451888857
 20
-95.5910731178
 11
-5.4477534073
 21
-94.744358371
  0
LWPOLYLINE
  5
5E3
100
AcDbEntity
  8
ASSI
100
AcDbPolyline
 62
7
  6
CONTINUOUS
 90
31
 70
0
 10
-5.4477534073
 20
-94.744358371
 10
-5.3446364761
 20
-94.6743856218
 10
-5.237950286
 20
-94.6076432496
 10
-5.1276948368
 20
-94.5441312547
 10
-5.013675676
 20
-94.4837551366
 10
-4.8960872562
 20
-94.4266093957
 10
-4.7755129353
 20
-94.3729775327
 10
-4.6519378757
 20
-94.3228770091
 10
-4.525376915
 20
-94.2762903635
 10
-4.3964579239
 20
-94.2334487129
 10
-4.265169185
 20
-94.1943706672
 10
-4.1315224157
 20
-94.1590376165
 10
-3.9961806397
 20
-94.1276248486
 10
-3.8591354341
 20
-94.1001518444
 10
-3.7203952218
 20
-94.076599123
 10
-3.580648295
 20
-94.0570835299
 10
-3.4398896511
 20
-94.0416251264
 10
-3.2981242928
 20
-94.0302038512
 10
-3.15605552
 20
-94.0228763653
 10
-3.0136818251
 20
-94.0196630118
 10
-2.8710047157
 20
-94.0205434476
 10
-2.7287320151
 20
-94.0255133049
 10
-2.5868657329
 20
-94.034592905
 10
-2.4454038595
 20
-94.0477619266
 10
-2.3050481893
 20
-94.064955038
 10
-2.1658042194
 20
-94.0861922358
 10
-2.0276664528
 20
-94.1114535234
 10
-1.8913201928
 20
-94.1406135791
 10
-1.7569938742
 20
-94.1736306292
 10
-1.6244590623
 20
-94.2105464474
 10
-1.4937157571
 20
-94.2513610338
  0
LINE
  5
5E4
100
AcDbEntity
  8
0
100
AcDbLine
 62
7
  6
CONTINUOUS
 10
-16.0483252571
 20
80.8912904477
 11
-15.8870155912
 21
80.8813766698
  0
LINE
  5
5E5
100
AcDbEntity
  8
0
100
AcDbLine
 62
7
  6
CONTINUOUS
 10
-16.1625848959
 20
80.8988258986
 11
-16.0483252571
 21
80.8912904477
  0
LINE
  5
5E6
100
AcDbEntity
  8
0
100
AcDbLine
 62
7
  6
CONTINUOUS
 10
-16.2535835646
 20
80.9052416351
 11
-16.1625848959
 21
80.8988258986
  0
LINE
  5
5E7
100
AcDbEntity
  8
0
100
AcDbLine
 62
7
  6
CONTINUOUS
 10
-16.3442916989
 20
80.9121003778
 11
-16.2535835646
 21
80.9052416351
  0
LWPOLYLINE
  5
5E8
100
AcDbEntity
  8
0
100
AcDbPolyline
 62
7
  6
CONTINUOUS
 90
3
 70
0
 10
-16.8759010326
 20
80.9634076936
 10
-16.967843742
 20
80.970609596
 10
-16.9866358942
 20
80.9721860371
  0
LWPOLYLINE
  5
5E9
100
AcDbEntity
  8
0
100
AcDbPolyline
 62
7
  6
CONTINUOUS
 90
3
 70
0
 10
-16.4350045092
 20
80.9195336557
 10
-16.4123144966
 20
80.9176176738
 10
-16.3442916989
 20
80.9121003778
  0
LINE
  5
5EA
100
AcDbEntity
  8
0
100
AcDbLine
 62
7
  6
CONTINUOUS
 10
-15.6584383703
 20
80.8634276385
 11
-15.8659989489
 21
80.8829266037
  0
LINE
  5
5EB
100
AcDbEntity
  8
0
100
AcDbLine
 62
7
  6
CONTINUOUS
 10
-16.8759010326
 20
80.9634076936
 11
-16.6166368513
 21
80.936859401
  0
LINE
  5
5EC
100
AcDbEntity
  8
TRASH
100
AcDbLine
 62
7
  6
CONTINUOUS
 10
-16.3408533611
 20
82.2980186341
 11
-16.3065635866
 21
82.2937239455
  0
LINE
  5
5ED
100
AcDbEntity
  8
TRASH
100
AcDbLine
 62
7
  6
CONTINUOUS
 10
-16.5287345423
 20
82.3229744001
 11
-16.3408533611
 21
82.2980186341
  0
LINE
  5
5EE
100
AcDbEntity
  8
TRASH
100
AcDbLine
 62
7
  6
CONTINUOUS
 10
-16.7576305157
 20
82.3548916559
 11
-16.5287345423
 21
82.3229744001
  0
LINE
  5
5EF
100
AcDbEntity
  8
TRASH
100
AcDbLine
 62
7
  6
CONTINUOUS
 10
-16.9825582439
 20
82.3872533992
 11
-16.7576305157
 21
82.3548916559
  0
LINE
  5
5F0
100
AcDbEntity
  8
0
100
AcDbLine
 62
7
  6
CONTINUOUS
 10
-17.424227184
 20
82.0320032878
 11
-17.252555823
 21
82.0060653986
  0
LINE
  5
5F1
100
AcDbEntity
  8
0
100
AcDbLine
 62
7
  6
CONTINUOUS
 10
-17.5101959305
 20
82.0452984693
 11
-17.424227184
 21
82.0320032878
  0
LINE
  5
5F2
100
AcDbEntity
  8
0
100
AcDbLine
 62
7
  6
CONTINUOUS
 10
-17.5028880794
 20
82.0239711217
 11
-17.2213825153
 21
81.97955618
  0
LINE
  5
5F3
100
AcDbEntity
  8
TRASH
100
AcDbLine
 62
7
  6
CONTINUOUS
 10
-17.0244075957
 20
82.3955387741
 11
-16.9825601336
 21
82.387251477
  0
LINE
  5
5F4
100
AcDbEntity
  8
0
100
AcDbLine
 62
7
  6
CONTINUOUS
 10
-16.8262870709
 20
81.4065004618
 11
-17.2442932309
 21
81.4917872193
  0
LINE
  5
5F5
100
AcDbEntity
  8
0
100
AcDbLine
 62
7
  6
CONTINUOUS
 10
-17.4651652404
 20
81.5368594351
 11
-17.9150614482
 21
81.6286822442
  0
LINE
  5
5F6
100
AcDbEntity
  8
0
100
AcDbLine
 62
7
  6
CONTINUOUS
 10
-16.6166368513
 20
80.936859401
 11
-16.4585217951
 21
80.9026700177
  0
LINE
  5
5F7
100
AcDbEntity
  8
0
100
AcDbLine
 62
7
  6
CONTINUOUS
 10
-18.9387065808
 20
82.5373574399
 11
-18.6877749057
 21
82.4789900092
  0
LWPOLYLINE
  5
5F8
100
AcDbEntity
  8
ASSI
100
AcDbPolyline
 62
7
  6
CONTINUOUS
 90
9
 70
0
 10
-13.7528671501
 20
83.8420020698
 10
-13.8159409956
 20
83.858543771
 10
-13.9296830357
 20
83.8816640588
 10
-14.0444634215
 20
83.8984402506
 10
-14.1602891989
 20
83.9088292972
 10
-14.2771533219
 20
83.9128742479
 10
-14.3942645748
 20
83.9105477166
 10
-14.5116246345
 20
83.9018064685
 10
-14.5902094108
 20
83.891708187
  0
LINE
  5
5F9
100
AcDbEntity
  8
0
100
AcDbLine
 62
7
  6
CONTINUOUS
 10
-17.187893496
 20
80.823779686
 11
-17.96067268
 21
81.0295615454
  0
LINE
  5
5FA
100
AcDbEntity
  8
0
100
AcDbLine
 62
7
  6
CONTINUOUS
 10
-17.2123948384
 20
80.8056711963
 11
-17.9596627772
 21
81.0081500472
  0
LINE
  5
5FB
100
AcDbEntity
  8
0
100
AcDbLine
 62
7
  6
CONTINUOUS
 10
-14.0191279913
 20
79.9097918367
 11
-13.9611319871
 21
79.8928052004
  0
LWPOLYLINE
  5
5FC
100
AcDbEntity
  8
ASSI
100
AcDbPolyline
 62
7
  6
CONTINUOUS
 90
10
 70
0
 10
-15.354553416
 20
78.3732089707
 10
-15.3795379104
 20
78.3807242304
 10
-15.4943581127
 20
78.4195945654
 10
-15.6068257357
 20
78.4651881201
 10
-15.7169581674
 20
78.5174552027
 10
-15.8239373793
 20
78.57600759
 10
-15.9277398922
 20
78.640892083
 10
-16.0283891854
 20
78.7120618808
 10
-16.1251376681
 20
78.7889883567
 10
-16.1705343069
 20
78.8294488047
  0
LWPOLYLINE
  5
5FD
100
AcDbEntity
  8
ASSI
100
AcDbPolyline
 62
7
  6
CONTINUOUS
 90
39
 70
0
 10
-13.7524908094
 20
83.8434370645
 10
-13.7275063151
 20
83.8359218049
 10
-13.6126861127
 20
83.7970514698
 10
-13.5002184898
 20
83.7514579151
 10
-13.3900860581
 20
83.6991908325
 10
-13.2831068461
 20
83.6406384452
 10
-13.1793043332
 20
83.5757539522
 10
-13.07865504
 20
83.5045841544
 10
-12.9819065573
 20
83.4276576785
 10
-12.889087931
 20
83.3449316595
 10
-12.8001701152
 20
83.2564489623
 10
-12.715813563
 20
83.1628668081
 10
-12.6360522381
 20
83.0641472256
 10
-12.5608521767
 20
82.9603281862
 10
-12.4907719409
 20
82.8521808243
 10
-12.4258496536
 20
82.7396729109
 10
-12.3660471918
 20
82.622836675
 10
-12.3118087491
 20
82.5025399389
 10
-12.2631757559
 20
82.3787569352
 10
-12.2201067819
 20
82.2515134313
 10
-12.1829217295
 20
82.1217545513
 10
-12.1516644113
 20
81.9894615652
 10
-12.1262910147
 20
81.8546532029
 10
-12.1069900052
 20
81.7183307778
 10
-12.0938065987
 20
81.580483016
 10
-12.0866955793
 20
81.4411211914
 10
-12.0857097654
 20
81.301280439
 10
-12.0908947661
 20
81.1609571927
 10
-12.1022049723
 20
81.0201550186
 10
-12.1195563755
 20
80.8799197503
 10
-12.1429939591
 20
80.7402556089
 10
-12.1724727396
 20
80.6011583733
 10
-12.2077737581
 20
80.4636612131
 10
-12.2489403677
 20
80.3277760428
 10
-12.2959292153
 20
80.193490948
 10
-12.3483912828
 20
80.0618033554
 10
-12.4062102308
 20
79.9330457406
 10
-12.4695023986
 20
79.806885628
 10
-12.5382677863
 20
79.6833230176
  0
LINE
  5
5FE
100
AcDbEntity
  8
0
100
AcDbLine
 62
7
  6
CONTINUOUS
 10
-15.0192693198
 20
79.8849648326
 11
-15.3432490872
 21
79.9949850648
  0
LINE
  5
5FF
100
AcDbEntity
  8
0
100
AcDbLine
 62
7
  6
CONTINUOUS
 10
-14.7432490872
 20
81.0192491335
 11
-14.4192693198
 21
80.9092289013
  0
LINE
  5
600
100
AcDbEntity
  8
0
100
AcDbLine
 62
7
  6
CONTINUOUS
 10
-17.2485221688
 20
81.4612846391
 11
-17.4651652404
 21
81.5368594351
  0
LINE
  5
601
100
AcDbEntity
  8
0
100
AcDbLine
 62
7
  6
CONTINUOUS
 10
-16.8651649977
 20
82.5611234761
 11
-16.6485224303
 21
82.4855488927
  0
LWPOLYLINE
  5
602
100
AcDbEntity
  8
0
100
AcDbPolyline
 62
7
  6
CONTINUOUS
 90
22
 70
0
 10
-15.3432490872
 20
79.9949850648
 10
-15.3495245313
 20
79.9971961048
 10
-15.3561332737
 20
79.9996730626
 10
-15.3630753145
 20
80.002415938
 10
-15.3703754793
 20
80.0054356892
 10
-15.3780089425
 20
80.0087213581
 10
-15.3859012267
 20
80.01224007
 10
-15.3940532597
 20
80.0159935129
 10
-15.4024641137
 20
80.0199799989
 10
-15.4110565274
 20
80.0241615899
 10
-15.4198299592
 20
80.0285389347
 10
-15.4287849506
 20
80.0331113845
 10
-15.4378458653
 20
80.0378390551
 10
-15.447011474
 20
80.042721954
 10
-15.4562830061
 20
80.0477600738
 10
-15.4655885134
 20
80.0529135072
 10
-15.4749276917
 20
80.0581826134
 10
-15.4843008452
 20
80.0635670333
 10
-15.4936369389
 20
80.0690257828
 10
-15.5029122942
 20
80.0745452006
 10
-15.5121505897
 20
80.0801389482
 10
-15.5213518253
 20
80.0858070253
  0
LWPOLYLINE
  5
603
100
AcDbEntity
  8
0
100
AcDbPolyline
 62
7
  6
CONTINUOUS
 90
33
 70
0
 10
-15.0217844613
 20
84.0912437913
 10
-14.9936773658
 20
84.0810653082
 10
-14.9647333571
 20
84.0702777402
 10
-14.9349679133
 20
84.0588453854
 10
-14.9042244591
 20
84.0466577311
 10
-14.8726980614
 20
84.0337400379
 10
-14.8409310021
 20
84.0202638426
 10
-14.8089436926
 20
84.0061839839
 10
-14.7767581342
 20
83.9914618131
 10
-14.7449114229
 20
83.9762980264
 10
-14.7134429005
 20
83.9606654258
 10
-14.6823524073
 20
83.9445251293
 10
-14.6521058137
 20
83.9280874499
 10
-14.622741925
 20
83.9113424512
 10
-14.5942515408
 20
83.8942614502
 10
-14.5670138318
 20
83.8770564022
 10
-14.541052703
 20
83.8597290169
 10
-14.5163601042
 20
83.8422686747
 10
-14.4932510677
 20
83.8248981296
 10
-14.4717334351
 20
83.8076278443
 10
-14.4517985545
 20
83.7904668958
 10
-14.4337191606
 20
83.773664304
 10
-14.4174967268
 20
83.7572432969
 10
-14.4031100461
 20
83.7412262527
 10
-14.3907792593
 20
83.7258879386
 10
-14.3805094959
 20
83.7112707174
 10
-14.372257114
 20
83.6973987789
 10
-14.3661515677
 20
83.6845428523
 10
-14.3622036173
 20
83.6727648303
 10
-14.3603506295
 20
83.6620799614
 10
-14.360599042
 20
83.6527046078
 10
-14.3629304887
 20
83.6447384123
 10
-14.3641319448
 20
83.6424425108
  0
LWPOLYLINE
  5
604
100
AcDbEntity
  8
ASSI
100
AcDbPolyline
 62
7
  6
CONTINUOUS
 90
39
 70
0
 10
-13.8640044538
 20
82.8274233368
 10
-13.842764241
 20
82.8192405284
 10
-13.7741098819
 20
82.7883224992
 10
-13.7071166391
 20
82.7535452046
 10
-13.6417733104
 20
82.7149346561
 10
-13.5785223117
 20
82.67275227
 10
-13.5173778398
 20
82.626973806
 10
-13.458325698
 20
82.5776235045
 10
-13.4017657116
 20
82.525035503
 10
-13.3477147922
 20
82.4691878271
 10
-13.2961560283
 20
82.4101024513
 10
-13.2474385112
 20
82.3481794359
 10
-13.2015815189
 20
82.2833995096
 10
-13.1585657735
 20
82.2157819438
 10
-13.118682532
 20
82.1457846134
 10
-13.0819530604
 20
82.0733913598
 10
-13.0483560928
 20
81.9986183417
 10
-13.0181190881
 20
81.921971909
 10
-12.9912648636
 20
81.8434393827
 10
-12.967770602
 20
81.763033442
 10
-12.9477953106
 20
81.681298474
 10
-12.931362863
 20
81.5982255132
 10
-12.9184493857
 20
81.5138235252
 10
-12.9091422653
 20
81.4286637945
 10
-12.9034659528
 20
81.3427411429
 10
-12.9013959973
 20
81.2560607487
 10
-12.9029464329
 20
81.1692094316
 10
-12.9081418512
 20
81.0821859211
 10
-12.9169576606
 20
80.9949914877
 10
-12.9293341203
 20
80.9082167626
 10
-12.945295455
 20
80.8218645664
 10
-12.96481744
 20
80.7359320784
 10
-12.9877676606
 20
80.6510014676
 10
-13.0141694798
 20
80.5670795016
 10
-13.0439995346
 20
80.4841594127
 10
-13.0770553211
 20
80.4028030672
 10
-13.1132693381
 20
80.3231977537
 10
-13.1527090869
 20
80.2451561835
 10
-13.1953745675
 20
80.1686783567
  0
LINE
  5
605
100
AcDbEntity
  8
0
100
AcDbLine
 62
7
  6
CONTINUOUS
 10
-17.3628976047
 20
82.7562944095
 11
-16.8651649977
 21
82.5611234761
  0
LINE
  5
606
100
AcDbEntity
  8
0
100
AcDbLine
 62
7
  6
CONTINUOUS
 10
-16.7541619419
 20
83.0663397944
 11
-16.1733806146
 21
82.8254880755
  0
LINE
  5
607
100
AcDbEntity
  8
0
100
AcDbLine
 62
7
  6
CONTINUOUS
 10
-16.7725107877
 20
83.0578806716
 11
-16.1806155271
 21
82.8101485991
  0
LWPOLYLINE
  5
608
100
AcDbEntity
  8
0
100
AcDbPolyline
 62
7
  6
CONTINUOUS
 90
10
 70
0
 10
-15.0217844613
 20
84.0912437913
 10
-15.0904418902
 20
84.1205751095
 10
-15.1599244521
 20
84.1472725796
 10
-15.2302321469
 20
84.1713362018
 10
-15.3014368798
 20
84.1927846707
 10
-15.3734667457
 20
84.2115992916
 10
-15.4461060289
 20
84.2277239805
 10
-15.519356972
 20
84.2411507809
 10
-15.5932173323
 20
84.2518876494
 10
-15.611361974
 20
84.2541050904
  0
LWPOLYLINE
  5
609
100
AcDbEntity
  8
ASSI
100
AcDbPolyline
 62
7
  6
CONTINUOUS
 90
8
 70
0
 10
-24.3862175844
 20
106.0771573722
 10
-24.5181992412
 20
106.1655807873
 10
-24.6534021762
 20
106.2467259472
 10
-24.7918263892
 20
106.320592852
 10
-24.9337472927
 20
106.3872942592
 10
-25.0788894743
 20
106.4467174112
 10
-25.2264266972
 20
106.4985240356
 10
-25.3057831973
 20
106.5229371213
  0
LWPOLYLINE
  5
60A
100
AcDbEntity
  8
ASSI
100
AcDbPolyline
 62
7
  6
CONTINUOUS
 90
8
 70
0
 10
-24.3362175844
 20
106.0625127113
 10
-24.4578488911
 20
106.1443519292
 10
-24.5822779049
 20
106.220014894
 10
-24.7095046256
 20
106.2895016058
 10
-24.8397442584
 20
106.3529046363
 10
-24.9727815983
 20
106.4101314138
 10
-25.1079710299
 20
106.4609042232
 10
-25.2557281374
 20
106.5082763356
  0
LWPOLYLINE
  5
60B
100
AcDbEntity
  8
ASSI
100
AcDbPolyline
 62
7
  6
CONTINUOUS
 90
9
 70
0
 10
-23.8362175844
 20
106.9160661019
 10
-23.9758616035
 20
107.0103688334
 10
-24.1185404782
 20
107.0981019741
 10
-24.2642542083
 20
107.179265524
 10
-24.4132148789
 20
107.2539545327
 10
-24.5652104051
 20
107.3220739507
 10
-24.7196045318
 20
107.3833386292
 10
-24.8764073137
 20
107.4377198342
 10
-24.9745578151
 20
107.4679342222
  0
LINE
  5
60C
100
AcDbEntity
  8
ASSI
100
AcDbLine
 62
7
  6
CONTINUOUS
 10
66.7727158539
 20
41.6180573722
 11
-24.3862175844
 21
106.0771573722
  0
LINE
  5
60D
100
AcDbEntity
  8
ASSI
100
AcDbLine
 62
7
  6
CONTINUOUS
 10
66.8227158539
 20
41.6034127113
 11
-24.3362175844
 21
106.0625127113
  0
LINE
  5
60E
100
AcDbEntity
  8
ASSI
100
AcDbLine
 62
7
  6
CONTINUOUS
 10
-23.8362175844
 20
106.9160661019
 11
67.3227158539
 21
42.4569661019
  0
LINE
  5
60F
100
AcDbEntity
  8
ASSI
100
AcDbLine
 62
7
  6
CONTINUOUS
 10
69.8227158539
 20
41.7247330548
 11
-21.3362175844
 21
106.1838330548
  0
LINE
  5
610
100
AcDbEntity
  8
ASSI
100
AcDbLine
 62
7
  6
CONTINUOUS
 10
-6.6451888857
 20
-102.6621409297
 11
-5.4477534073
 21
-101.8154261829
  0
LWPOLYLINE
  5
611
100
AcDbEntity
  8
0
100
AcDbPolyline
 62
7
  6
CONTINUOUS
 90
7
 70
0
 10
-13.7093087977
 20
79.8959723615
 10
-13.7401055518
 20
79.8874080589
 10
-13.7863236542
 20
79.8792931611
 10
-13.8323121165
 20
79.8759296018
 10
-13.8777513504
 20
79.8773187049
 10
-13.9223414429
 20
79.8834286766
 10
-13.9611319871
 20
79.8928052004
  0
LWPOLYLINE
  5
612
100
AcDbEntity
  8
0
100
AcDbPolyline
 62
7
  6
CONTINUOUS
 90
34
 70
0
 10
-14.3652959486
 20
79.8007408573
 10
-14.3400078194
 20
79.8077460129
 10
-14.3140695269
 20
79.8167273822
 10
-14.2875982747
 20
79.8276402824
 10
-14.2606567827
 20
79.840405104
 10
-14.2334244388
 20
79.8549833622
 10
-14.2061971837
 20
79.8713691411
 10
-14.1791045504
 20
79.8894711874
 10
-14.1522649943
 20
79.9091892134
 10
-14.1259562875
 20
79.9304780458
 10
-14.1003167572
 20
79.9532175503
 10
-14.0754415454
 20
79.9772826521
 10
-14.0515375318
 20
80.0026063728
 10
-14.0287340553
 20
80.0290550144
 10
-14.0071095328
 20
80.0564890015
 10
-13.986789607
 20
80.0848290975
 10
-13.9678865337
 20
80.1139408266
 10
-13.9504695508
 20
80.1436734772
 10
-13.9345990775
 20
80.1739239051
 10
-13.9203702813
 20
80.2045621569
 10
-13.9078448422
 20
80.2354257814
 10
-13.8970329025
 20
80.266362223
 10
-13.8880123084
 20
80.2972443082
 10
-13.8808315865
 20
80.3279020988
 10
-13.8754500269
 20
80.3581189
 10
-13.8719207433
 20
80.3877666967
 10
-13.8702707439
 20
80.4166833801
 10
-13.8704014419
 20
80.4446082361
 10
-13.8723281439
 20
80.4714132066
 10
-13.876051731
 20
80.4969669148
 10
-13.8814251741
 20
80.5210210684
 10
-13.8883788845
 20
80.5434267139
 10
-13.8969293502
 20
80.5641282443
 10
-13.9070383791
 20
80.5830354617
  0
LWPOLYLINE
  5
613
100
AcDbEntity
  8
ASSI
100
AcDbPolyline
 62
7
  6
CONTINUOUS
 90
9
 70
0
 10
-14.6189530596
 20
83.9090708913
 10
-14.5730044419
 20
83.9152633222
 10
-14.4497527187
 20
83.9249003332
 10
-14.3270630755
 20
83.9275399389
 10
-14.2049396977
 20
83.9231300358
 10
-14.0833784
 20
83.9117227275
 10
-13.9632821009
 20
83.8934027438
 10
-13.8446617087
 20
83.868118612
 10
-13.7524908094
 20
83.8434370645
  0
LINE
  5
614
100
AcDbEntity
  8
0
100
AcDbLine
 62
7
  6
CONTINUOUS
 10
-15.8870155912
 20
80.8813766698
 11
-15.8659989489
 21
80.8829266037
  0
LINE
  5
615
100
AcDbEntity
  8
0
100
AcDbLine
 62
7
  6
CONTINUOUS
 10
-17.2200286342
 20
82.5068422406
 11
-17.2410452661
 21
82.5052923075
  0
LINE
  5
616
100
AcDbEntity
  8
0
100
AcDbLine
 62
7
  6
CONTINUOUS
 10
-17.0587189683
 20
82.4969284627
 11
-17.2200286342
 21
82.5068422406
  0
LINE
  5
617
100
AcDbEntity
  8
0
100
AcDbLine
 62
7
  6
CONTINUOUS
 10
-17.3628976047
 20
82.7562944095
 11
-17.2940758095
 21
82.751906299
  0
LINE
  5
618
100
AcDbEntity
  8
0
100
AcDbLine
 62
7
  6
CONTINUOUS
 10
-16.9444593295
 20
82.4893930119
 11
-17.0587189683
 21
82.4969284627
  0
LINE
  5
619
100
AcDbEntity
  8
0
100
AcDbLine
 62
7
  6
CONTINUOUS
 10
-16.8534606608
 20
82.4829772754
 11
-16.9444593295
 21
82.4893930119
  0
LINE
  5
61A
100
AcDbEntity
  8
0
100
AcDbLine
 62
7
  6
CONTINUOUS
 10
-17.2940758095
 20
82.751906299
 11
-17.2585655382
 21
82.7493914012
  0
LINE
  5
61B
100
AcDbEntity
  8
0
100
AcDbLine
 62
7
  6
CONTINUOUS
 10
-16.7627525265
 20
82.4761185327
 11
-16.8534606608
 21
82.4829772754
  0
LWPOLYLINE
  5
61C
100
AcDbEntity
  8
0
100
AcDbPolyline
 62
7
  6
CONTINUOUS
 90
3
 70
0
 10
-16.6720397162
 20
82.4686852548
 10
-16.6947297288
 20
82.4706012367
 10
-16.7627525265
 20
82.4761185327
  0
LWPOLYLINE
  5
61D
100
AcDbEntity
  8
0
100
AcDbPolyline
 62
7
  6
CONTINUOUS
 90
18
 70
0
 10
-16.4210245074
 20
84.3491472495
 10
-16.4771156366
 20
84.3549226447
 10
-16.602556647
 20
84.3620607886
 10
-16.7288115477
 20
84.36131153
 10
-16.8554670454
 20
84.3526563308
 10
-16.9821758234
 20
84.3360967455
 10
-17.1085917392
 20
84.3116479157
 10
-17.2342745223
 20
84.279365379
 10
-17.3587439618
 20
84.2393562705
 10
-17.4815638174
 20
84.1917587058
 10
-17.602414517
 20
84.1366940102
 10
-17.7210013914
 20
84.0742796936
 10
-17.8370351832
 20
84.0046331533
 10
-17.9500746525
 20
83.9279822001
 10
-18.0596187513
 20
83.8446546604
 10
-18.16529205
 20
83.7549474724
 10
-18.2668291109
 20
83.6590954111
 10
-18.3604532608
 20
83.5612087536
  0
LINE
  5
61E
100
AcDbEntity
  8
0
100
AcDbLine
 62
7
  6
CONTINUOUS
 10
-16.4210016321
 20
84.3491445644
 11
-15.6113933469
 21
84.2541087733
  0
LWPOLYLINE
  5
61F
100
AcDbEntity
  8
ASSI
100
AcDbPolyline
 62
7
  6
CONTINUOUS
 90
21
 70
0
 10
100.6883806868
 20
-50.8682918396
 10
100.6859070282
 20
-50.7755446183
 10
100.6780512469
 20
-50.6783392083
 10
100.6647693498
 20
-50.5814292296
 10
100.6460864148
 20
-50.4848133167
 10
100.6220890557
 20
-50.38893938
 10
100.5927525968
 20
-50.2938108645
 10
100.5581017139
 20
-50.1994243251
 10
100.5182970481
 20
-50.1062173369
 10
100.4733146694
 20
-50.0141953766
 10
100.4231785079
 20
-49.9233529674
 10
100.3681209941
 20
-49.8341112537
 10
100.3081192775
 20
-49.7464776679
 10
100.2431962086
 20
-49.6604447776
 10
100.1736527701
 20
-49.5764114303
 10
100.0994675089
 20
-49.4943869103
 10
100.0206618781
 20
-49.4143619334
 10
99.9376012198
 20
-49.3367074944
 10
99.8504073146
 20
-49.2615472585
 10
99.7589583818
 20
-49.1887575604
 10
99.6632544215
 20
-49.1183384004
  0
LINE
  5
620
100
AcDbEntity
  8
ASSI
100
AcDbLine
 62
250
  6
CONTINUOUS
 10
99.4509180478
 20
-59.8276494028
 11
99.4509180478
 21
-52.7565815909
  0
LWPOLYLINE
  5
621
100
AcDbEntity
  8
RACCORDO
100
AcDbPolyline
 62
7
  6
CONTINUOUS
 90
3
 70
0
 10
23.6920261142
 20
-105.215691645
 10
23.454996911
 20
-105.4161265116
 10
23.2003707221
 20
-105.6071988293
  0
LINE
  5
622
100
AcDbEntity
  8
RACCORDO
100
AcDbLine
 62
250
  6
CONTINUOUS
 10
23.5008570125
 20
-105.3302232998
 11
23.2384904515
 21
-105.5301675833
  0
LWPOLYLINE
  5
623
100
AcDbEntity
  8
ASSI
100
AcDbPolyline
 62
7
  6
CONTINUOUS
 90
23
 70
0
 10
99.4509180478
 20
-52.7565815909
 10
99.5545022576
 20
-52.6919778925
 10
99.6541221384
 20
-52.6247638057
 10
99.7497776901
 20
-52.5549393305
 10
99.8416046896
 20
-52.4823883177
 10
99.92946736
 20
-52.4072269165
 10
100.012958371
 20
-52.3298035744
 10
100.0920574242
 20
-52.2501077887
 10
100.166784818
 20
-52.168150062
 10
100.2367941171
 20
-52.0843103495
 10
100.3020634144
 20
-51.9985799127
 10
100.3626146169
 20
-51.9109674902
 10
100.4181670099
 20
-51.821879252
 10
100.4686973831
 20
-51.7313083457
 10
100.5142289467
 20
-51.6392616238
 10
100.554550617
 20
-51.5461658139
 10
100.5896382036
 20
-51.4520160449
 10
100.6195158968
 20
-51.3568171879
 10
100.644045184
 20
-51.2610105837
 10
100.6632012316
 20
-51.1645934105
 10
100.6770088733
 20
-51.0675684901
 10
100.6854040968
 20
-50.9703856291
 10
100.6883806868
 20
-50.8682918396
  0
LINE
  5
624
100
AcDbEntity
  8
ASSI
100
AcDbLine
 62
7
  6
CONTINUOUS
 10
20.6530651592
 20
-99.9653010457
 11
99.4509180478
 21
-52.7565815909
  0
LWPOLYLINE
  5
625
100
AcDbEntity
  8
ASSI
100
AcDbPolyline
 62
7
  6
CONTINUOUS
 90
31
 70
0
 10
-25.3057831973
 20
106.5229371213
 10
-25.3763726212
 20
106.5426706922
 10
-25.5287135866
 20
106.5792008212
 10
-25.6825823765
 20
106.6079064711
 10
-25.8379877048
 20
106.6287430155
 10
-25.9949208577
 20
106.6417550809
 10
-26.152488477
 20
106.6468685946
 10
-26.3106941813
 20
106.6440385079
 10
-26.469534352
 20
106.6333098696
 10
-26.628104775
 20
106.6147437535
 10
-26.7864039119
 20
106.5882954592
 10
-26.9444333011
 20
106.5540096872
 10
-27.1012933439
 20
106.5120816127
 10
-27.2569773712
 20
106.4624676485
 10
-27.4114920522
 20
106.4052113818
 10
-27.5639577961
 20
106.3406387499
 10
-27.7143629169
 20
106.2687080244
 10
-27.8627191006
 20
106.1894609336
 10
-28.0081818144
 20
106.1033485999
 10
-28.1507345554
 20
106.0103318678
 10
-28.2903938265
 20
105.9104498927
 10
-28.4263646027
 20
105.8042712631
 10
-28.5586258471
 20
105.6917600665
 10
-28.6871985966
 20
105.5729522153
 10
-28.8113509377
 20
105.4485240356
 10
-28.9310576588
 20
105.3184434722
 10
-29.0463439714
 20
105.1827425803
 10
-29.1565535963
 20
105.0421938511
 10
-29.2614677737
 20
104.8970547819
 10
-29.3613052634
 20
104.7470678754
 10
-29.4560660654
 20
104.5922331317
  0
LWPOLYLINE
  5
626
100
AcDbEntity
  8
ASSI
100
AcDbPolyline
 62
7
  6
CONTINUOUS
 90
36
 70
0
 10
-24.9745578151
 20
107.4679342222
 10
-25.0356086962
 20
107.4852462999
 10
-25.1965422605
 20
107.5257190798
 10
-25.3592152677
 20
107.5591086059
 10
-25.5236204567
 20
107.5854444464
 10
-25.6890696256
 20
107.604616359
 10
-25.8555671506
 20
107.6165943136
 10
-26.0231086556
 20
107.6214083403
 10
-26.1909928098
 20
107.6190382877
 10
-26.3592210497
 20
107.609454041
 10
-26.5277919389
 20
107.5926857149
 10
-26.6959998379
 20
107.5688035018
 10
-26.8638432249
 20
107.5377775813
 10
-27.0313236217
 20
107.4996377738
 10
-27.1977399533
 20
107.454543733
 10
-27.3630877595
 20
107.4024663076
 10
-27.5273715007
 20
107.3434346489
 10
-27.6899034832
 20
107.277695864
 10
-27.850676364
 20
107.2052218376
 10
-28.0096974861
 20
107.126040685
 10
-28.1663011855
 20
107.0404838594
 10
-28.3204773285
 20
106.9485246349
 10
-28.4722360488
 20
106.8501897374
 10
-28.6209420826
 20
106.7458907979
 10
-28.7665826335
 20
106.6356028159
 10
-28.909170498
 20
106.5193507919
 10
-29.0481088016
 20
106.3976213581
 10
-29.1833822459
 20
106.270391554
 10
-29.3150061294
 20
106.1376843401
 10
-29.4424294731
 20
106.0000552303
 10
-29.5656346688
 20
105.8574835926
 10
-29.6846393246
 20
105.7099900591
 10
-29.7989452858
 20
105.5581920392
 10
-29.9083865007
 20
105.4022953361
 10
-30.013129021
 20
105.2420941466
 10
-30.1131728466
 20
105.0775884708
  0
LINE
  5
627
100
AcDbEntity
  8
ASSI
100
AcDbLine
 62
250
  6
CONTINUOUS
 10
-24.3362175844
 20
106.0625127113
 11
-24.3862175844
 21
106.0771573722
  0
LINE
  5
628
100
AcDbEntity
  8
ASSI
100
AcDbLine
 62
250
  6
CONTINUOUS
 10
-23.8362175844
 20
106.9160661019
 11
-21.3362175844
 21
106.1838330548
  0
LINE
  5
629
100
AcDbEntity
  8
ASSI
100
AcDbLine
 62
7
  6
CONTINUOUS
 10
-24.9745774683
 20
107.4679399785
 11
-22.3697532222
 21
106.7050046207
  0
LINE
  5
62A
100
AcDbEntity
  8
ASSI
100
AcDbLine
 62
7
  6
CONTINUOUS
 10
100.6883806874
 20
-57.9394062123
 11
100.6883806874
 21
-50.8683384004
  0
LWPOLYLINE
  5
62B
100
AcDbEntity
  8
ASSI
100
AcDbPolyline
 62
7
  6
CONTINUOUS
 90
23
 70
0
 10
100.6883806868
 20
-57.9393596514
 10
100.6854040968
 20
-58.041453441
 10
100.6770088733
 20
-58.138636302
 10
100.6632012316
 20
-58.2356612224
 10
100.644045184
 20
-58.3320783956
 10
100.6195158968
 20
-58.4278849997
 10
100.5896382036
 20
-58.5230838568
 10
100.554550617
 20
-58.6172336258
 10
100.5142289467
 20
-58.7103294357
 10
100.4686973831
 20
-58.8023761576
 10
100.4181670099
 20
-58.8929470638
 10
100.3626146169
 20
-58.982035302
 10
100.3020634144
 20
-59.0696477246
 10
100.2367941171
 20
-59.1553781614
 10
100.166784818
 20
-59.2392178739
 10
100.0920574242
 20
-59.3211756005
 10
100.012958371
 20
-59.4008713862
 10
99.92946736
 20
-59.4782947284
 10
99.8416046896
 20
-59.5534561296
 10
99.7497776901
 20
-59.6260071423
 10
99.6541221384
 20
-59.6958316176
 10
99.5545022576
 20
-59.7630457044
 10
99.4509180478
 20
-59.8276494028
  0
LWPOLYLINE
  5
62C
100
AcDbEntity
  8
RACCORDO
100
AcDbPolyline
 62
250
  6
CONTINUOUS
 90
5
 70
0
 10
23.2384904515
 20
-105.5301675833
 10
22.8976370096
 20
-105.75380124
 10
22.534101978
 20
-105.9587981691
 10
22.1499183813
 20
-106.1440119271
 10
22.1267321042
 20
-106.1534776768
  0
LWPOLYLINE
  5
62D
100
AcDbEntity
  8
RACCORDO
100
AcDbPolyline
 62
7
  6
CONTINUOUS
 90
5
 70
0
 10
23.2003707221
 20
-105.6071988294
 10
22.8529771408
 20
-105.8348598203
 10
22.4829271664
 20
-106.0427476045
 10
22.0922898948
 20
-106.2297877304
 10
21.8070990698
 20
-106.3449735831
  0
LINE
  5
62E
100
AcDbEntity
  8
ASSI
100
AcDbLine
 62
7
  6
CONTINUOUS
 10
20.6530651592
 20
-107.0363688576
 11
99.4509180478
 21
-59.8276494028
  0
LWPOLYLINE
  5
62F
100
AcDbEntity
  8
ASSI
100
AcDbPolyline
 62
7
  6
CONTINUOUS
 90
28
 70
0
 10
20.6530651592
 20
-107.0363688576
 10
20.5380486636
 20
-107.1023468053
 10
20.4196410288
 20
-107.1646352817
 10
20.2978422548
 20
-107.2232342866
 10
20.172423729
 20
-107.2782348877
 10
20.043614064
 20
-107.3295460174
 10
19.9120990978
 20
-107.3768944732
 10
19.7778644007
 20
-107.4202591186
 10
19.6409244024
 20
-107.4596610901
 10
19.5020082303
 20
-107.4948905947
 10
19.3611053437
 20
-107.5259253768
 10
19.2182262833
 20
-107.552787692
 10
19.0741317986
 20
-107.5753345138
 10
18.9288154067
 20
-107.5935428238
 10
18.7822835906
 20
-107.6074356404
 10
18.6353165485
 20
-107.6169389922
 10
18.487911959
 20
-107.6220294662
 10
18.3400721435
 20
-107.6227304756
 10
18.1925842649
 20
-107.6190382877
 10
18.0454502002
 20
-107.6109294697
 10
17.8986680722
 20
-107.5984274545
 10
17.7530194121
 20
-107.5815988082
 10
17.6085102657
 20
-107.5604204529
 10
17.4651345872
 20
-107.5349154665
 10
17.3236557703
 20
-107.5052196485
 10
17.1843282795
 20
-107.4713782654
 10
17.0468976503
 20
-107.4333460507
 10
16.9113638827
 20
-107.3911230043
  0
ELLIPSE
  5
630
100
AcDbEntity
  8
0
100
AcDbEllipse
 62
7
  6
CONTINUOUS
 10
-237.3679870082
 20
-467.0837295675
 30
0.0
 11
154.4980278821
 21
512.115755252
 31
0.0
 40
0.8500299099
 41
-0.0843571866
 42
-0.0839553552
  0
ELLIPSE
  5
631
100
AcDbEntity
  8
0
100
AcDbEllipse
 62
7
  6
CONTINUOUS
 10
145.2609429721
 20
529.7526486428
 30
0.0
 11
154.4980273611
 21
512.1157557477
 31
0.0
 40
0.8500299093
 41
-3.2259498418
 42
-3.2255480105
  0
ELLIPSE
  5
632
100
AcDbEntity
  8
0
100
AcDbEllipse
 62
7
  6
CONTINUOUS
 10
-207.8679870082
 20
-416.7240795225
 30
0.0
 11
154.4980278821
 21
512.115755252
 31
0.0
 40
0.8500299099
 41
-0.0843571866
 42
-0.0839553552
  0
ELLIPSE
  5
633
100
AcDbEntity
  8
0
100
AcDbEllipse
 62
7
  6
CONTINUOUS
 10
174.7609429721
 20
580.1122986878
 30
0.0
 11
154.4980273611
 21
512.1157557477
 31
0.0
 40
0.8500299093
 41
-3.2259498418
 42
-3.2255480105
  0
ELLIPSE
  5
634
100
AcDbEntity
  8
0
100
AcDbEllipse
 62
7
  6
CONTINUOUS
 10
-180.7994445133
 20
-507.0837295675
 30
0.0
 11
154.4980278821
 21
512.115755252
 31
0.0
 40
0.8500299099
 41
-0.0843571866
 42
-0.0839553552
  0
ELLIPSE
  5
635
100
AcDbEntity
  8
0
100
AcDbEllipse
 62
7
  6
CONTINUOUS
 10
201.829485467
 20
489.7526486428
 30
0.0
 11
154.4980273611
 21
512.1157557477
 31
0.0
 40
0.8500299093
 41
-3.2259498418
 42
-3.2255480105
  0
ELLIPSE
  5
636
100
AcDbEntity
  8
0
100
AcDbEllipse
 62
7
  6
CONTINUOUS
 10
-151.2994445133
 20
-456.7240795225
 30
0.0
 11
154.4980278821
 21
512.115755252
 31
0.0
 40
0.8500299099
 41
-0.0843571866
 42
-0.0839553552
  0
ELLIPSE
  5
637
100
AcDbEntity
  8
0
100
AcDbEllipse
 62
7
  6
CONTINUOUS
 10
231.329485467
 20
540.1122986878
 30
0.0
 11
154.4980273611
 21
512.1157557477
 31
0.0
 40
0.8500299093
 41
-3.2259498418
 42
-3.2255480105
  0
ELLIPSE
  5
638
100
AcDbEntity
  8
ASSI
100
AcDbEllipse
 62
7
  6
CONTINUOUS
 10
-21.3362175844
 20
100.9838330548
 30
0.0
 11
-2.2628431618
 21
5.6987400221
 31
0.0
 40
0.5085678802
 41
-0.6629088318
 42
-0.3779847049
  0
ELLIPSE
  5
639
100
AcDbEntity
  8
ASSI
100
AcDbEllipse
 62
7
  6
CONTINUOUS
 10
69.8227158539
 20
36.5247330548
 30
0.0
 11
-2.2628431618
 21
5.6987400221
 31
0.0
 40
0.5085678802
 41
-2.1952341312
 42
-0.6629088318
  0
ENDSEC
  0
SECTION
  2
OBJECTS
  0
DICTIONARY
  5
C
100
AcDbDictionary
280
0
281
1
  3
ACAD_GROUP
350
D
  3
ACAD_MLINESTYLE
350
17
  3
ACAD_LAYOUT
350
1A
  3
ACAD_PLOTSETTINGS
350
19
  3
ACAD_PLOTSTYLENAME
350
E
  0
DICTIONARY
  5
D
102
{ACAD_REACTORS
330
C
102
}
100
AcDbDictionary
280
0
281
1
  0
ACDBDICTIONARYWDFLT
  5
E
102
{ACAD_REACTORS
330
C
102
}
100
AcDbDictionary
281
1
  3
Normal
350
F
100
AcDbDictionaryWithDefault
340
F
  0
DICTIONARY
  5
17
102
{ACAD_REACTORS
330
C
102
}
100
AcDbDictionary
280
0
281
1
  3
Standard
350
18
  0
DICTIONARY
  5
19
102
{ACAD_REACTORS
330
C
102
}
100
AcDbDictionary
281
1
  0
DICTIONARY
  5
1A
102
{ACAD_REACTORS
330
C
102
}
100
AcDbDictionary
281
1
  3
Model
350
63A
  3
Layout1
350
63B
  0
ACDBPLACEHOLDER
  5
F
102
{ACAD_REACTORS
330
E
102
}
  0
MLINESTYLE
  5
18
102
{ACAD_REACTORS
330
17
102
}
100
AcDbMlineStyle
  2
STANDARD
 70
0
  3

 62
256
 51
90.0
 52
90.0
 71
2
 49
0.5
 62
256
  6
BYLAYER
 49
-0.5
 62
256
  6
BYLAYER
  0
LAYOUT
  5
63A
102
{ACAD_REACTORS
330
1A
102
}
100
AcDbPlotSettings
  1

  2
none_device
  4
ISO_A3_(420.00_x_297.00_MM)
  6

 40
0.0
 41
0.0
 42
0.0
 43
0.0
 44
420.0
 45
297.0
 46
0.0
 47
0.0
 48
0.0
 49
0.0
140
0.0
141
0.0
142
1.0
143
1.0
 70
1024
 72
1
 73
0
 74
0
  7

 75
0
147
1.0
148
0.0
149
0.0
100
AcDbLayout
  1
Model
 70
0
 71
0
 10
0.0
 20
0.0
 11
420.0
 21
297.0
 12
0.0
 22
0.0
 32
0.0
 14
0.0
 24
0.0
 34
0.0
 15
0.0
 25
0.0
 35
0.0
146
0.0
 13
0.0
 23
0.0
 33
0.0
 16
1.0
 26
0.0
 36
0.0
 17
0.0
 27
1.0
 37
0.0
 76
0
330
211
345
0
346
0
  0
LAYOUT
  5
63B
102
{ACAD_REACTORS
330
1A
102
}
100
AcDbPlotSettings
  1

  2
none_device
  4
ISO_A3_(420.00_x_297.00_MM)
  6

 40
0.0
 41
0.0
 42
0.0
 43
0.0
 44
420.0
 45
297.0
 46
0.0
 47
0.0
 48
0.0
 49
0.0
140
0.0
141
0.0
142
1.0
143
1.0
 70
0
 72
1
 73
0
 74
0
  7

 75
0
147
1.0
148
0.0
149
0.0
100
AcDbLayout
  1
Layout1
 70
0
 71
1
 10
0.0
 20
0.0
 11
420.0
 21
297.0
 12
0.0
 22
0.0
 32
0.0
 14
0.0
 24
0.0
 34
0.0
 15
0.0
 25
0.0
 35
0.0
146
0.0
 13
0.0
 23
0.0
 33
0.0
 16
1.0
 26
0.0
 36
0.0
 17
0.0
 27
1.0
 37
0.0
 76
0
330
212
345
0
346
0
  0
ENDSEC
  0
EOF
