  0
SECTION
  2
HEADER
  9
$ACADVER
  1
AC1024
  9
$DWGCODEPAGE
  3
ANSI_1252
  9
$EXTMAX
 10
420.0
 20
297.0
 30
0.0
  9
$EXTMIN
 10
0.0
 20
0.0
 30
0.0
  9
$LIMMIN
 10
0.0
 20
0.0
  9
$LIMMAX
 10
420.0
 20
297.0
  9
$VIEWCTR
 10
210.0
 20
148.5
  9
$VIEWSIZE
 40
297.0
  9
$CLAYER
  8
0
  9
$LTSCALE
 40
23.1
  9
$CELTYPE
  6
BYLAYER
  9
$DIMSCALE
 40
1.0
  9
$DIMASZ
 40
3.0
  9
$DIMEXO
 40
0.5
  9
$DIMDLI
 40
15.96
  9
$DIMEXE
 40
1.5
  9
$DIMCEN
 40
3.78
  9
$DIMLFAC
 40
1.0
  9
$DIMBLK
  1
_FILLED
  9
$DIMALT
 70
0
  9
$DIMALTF
 40
0.0393700787
  9
$DIMTXT
 40
3.0
  9
$DIMTOL
 70
1
  9
$DIMLIM
 70
0
  9
$DIMTFAC
 40
1.0
  9
$DIMTP
 40
0.01
  9
$DIMTM
 40
0.01
  9
$DIMGAP
 40
0.625
  9
$DIMDSEP
 70
44
  9
$AUNITS
 70
0
  9
$PDMODE
 70
3
  9
$PDSIZE
 40
3.0
  9
$HANDSEED
  5
350
  9
$TILEMODE
 70
1
  9
$MEASUREMENT
 70
1
  9
$INSUNITS
 70
4
  0
ENDSEC
  0
SECTION
  2
CLASSES
  0
CLASS
  1
ACDBDICTIONARYWDFLT
  2
AcDbDictionaryWithDefault
  3
AutoCAD 2000
 90
0
 91
1
280
0
281
0
  0
CLASS
  1
ACDBPLACEHOLDER
  2
AcDbPlaceHolder
  3
AutoCAD 2000
 90
0
 91
1
280
0
281
0
  0
CLASS
  1
LAYOUT
  2
AcDbLayout
  3
AutoCAD 2000
 90
0
 91
0
280
0
281
0
  0
ENDSEC
  0
SECTION
  2
TABLES
  0
TABLE
  2
VPORT
  5
8
100
AcDbSymbolTable
 70
2
  0
VPORT
  5
1F4
100
AcDbSymbolTableRecord
100
AcDbViewportTableRecord
  2
*ACTIVE
 70
0
 10
0.0
 20
0.0
 11
1.0
 21
1.0
 12
210.0
 22
148.5
 13
0.0
 23
0.0
 14
1.0
 24
1.0
 15
0.0
 25
0.0
 16
0.0
 26
0.0
 36
1.0
 17
0.0
 27
0.0
 37
0.0
 40
297.0
 41
1.4141414141
 42
50.0
 43
0.0
 44
0.0
 50
0.0
 51
0.0
 71
0
 72
100
 73
1
 74
1
 75
0
 76
0
 77
0
 78
0
  0
ENDTAB
  0
TABLE
  2
LTYPE
  5
5
100
AcDbSymbolTable
 70
6
  0
LTYPE
  5
14
100
AcDbSymbolTableRecord
100
AcDbLinetypeTableRecord
  2
BYBLOCK
 70
0
  3

 72
65
 73
0
 40
0.0
  0
LTYPE
  5
15
100
AcDbSymbolTableRecord
100
AcDbLinetypeTableRecord
  2
BYLAYER
 70
0
  3

 72
65
 73
0
 40
0.0
  0
LTYPE
  5
16
100
AcDbSymbolTableRecord
100
AcDbLinetypeTableRecord
  2
CONTINUOUS
 70
64
  3
Solid line
 72
65
 73
0
 40
0.0
  0
LTYPE
  5
1F5
100
AcDbSymbolTableRecord
100
AcDbLinetypeTableRecord
  2
CENTER
 70
64
  3
____ _ ____ _ ____ _ ____ _ ____ _ ____ _ ____
 72
65
 73
4
 40
0.6
 49
0.375
 74
0
 49
-0.075
 74
0
 49
0.075
 74
0
 49
-0.075
 74
0
  0
LTYPE
  5
1F6
100
AcDbSymbolTableRecord
100
AcDbLinetypeTableRecord
  2
HIDDEN
 70
64
  3
- - - - - - - - - - - - - - - - - - - -
 72
65
 73
2
 40
0.2
 49
0.1
 74
0
 49
-0.1
 74
0
  0
LTYPE
  5
1F7
100
AcDbSymbolTableRecord
100
AcDbLinetypeTableRecord
  2
PHANTOM
 70
64
  3
_____ _ _ _____ _ _ _____ _ _ _____
 72
65
 73
6
 40
0.8
 49
0.45
 74
0
 49
-0.05
 74
0
 49
0.1
 74
0
 49
-0.05
 74
0
 49
0.1
 74
0
 49
-0.05
 74
0
  0
LTYPE
  5
1F8
100
AcDbSymbolTableRecord
100
AcDbLinetypeTableRecord
  2
DOT
 70
64
  3
. . . . . . . . . . . . . . . . . . . .
 72
65
 73
2
 40
0.2
 49
0.1
 74
0
 49
-0.1
 74
0
  0
LTYPE
  5
1F9
100
AcDbSymbolTableRecord
100
AcDbLinetypeTableRecord
  2
DASHED
 70
64
  3
- - - - - - - - - - - - - - - - - - - -
 72
65
 73
2
 40
0.2
 49
0.1
 74
0
 49
-0.1
 74
0
  0
ENDTAB
  0
TABLE
  2
LAYER
  5
2
100
AcDbSymbolTable
 70
36
  0
LAYER
  5
10
100
AcDbSymbolTableRecord
100
AcDbLayerTableRecord
  2
0
 70
0
 62
7
  6
CONTINUOUS
370
-3
390
F
  0
LAYER
  5
1FA
100
AcDbSymbolTableRecord
100
AcDbLayerTableRecord
  2
DEFAULT_1
 70
0
 62
7
  6
CENTER
370
-3
390
F
  0
LAYER
  5
1FB
100
AcDbSymbolTableRecord
100
AcDbLayerTableRecord
  2
DEFAULT_2
 70
0
 62
7
  6
HIDDEN
370
-3
390
F
  0
LAYER
  5
1FC
100
AcDbSymbolTableRecord
100
AcDbLayerTableRecord
  2
DEFAULT_3
 70
0
 62
7
  6
PHANTOM
370
-3
390
F
  0
LAYER
  5
1FD
100
AcDbSymbolTableRecord
100
AcDbLayerTableRecord
  2
386000090_1_9_1_3_1
 70
0
 62
7
  6
CONTINUOUS
370
-3
390
F
  0
LAYER
  5
1FE
100
AcDbSymbolTableRecord
100
AcDbLayerTableRecord
  2
9415_MIC_TAO_1_1
 70
0
 62
7
  6
CONTINUOUS
370
-3
390
F
  0
LAYER
  5
1FF
100
AcDbSymbolTableRecord
100
AcDbLayerTableRecord
  2
9457W_LCD_2_1
 70
0
 62
7
  6
CONTINUOUS
370
-3
390
F
  0
LAYER
  5
200
100
AcDbSymbolTableRecord
100
AcDbLayerTableRecord
  2
94B2_300LSE_2_1_1
 70
0
 62
7
  6
CONTINUOUS
370
-3
390
F
  0
LAYER
  5
201
100
AcDbSymbolTableRecord
100
AcDbLayerTableRecord
  2
94B2_300LSE_2_2_1
 70
0
 62
7
  6
CONTINUOUS
370
-3
390
F
  0
LAYER
  5
202
100
AcDbSymbolTableRecord
100
AcDbLayerTableRecord
  2
94B2_300LSE_2_3_1
 70
0
 62
7
  6
CONTINUOUS
370
-3
390
F
  0
LAYER
  5
203
100
AcDbSymbolTableRecord
100
AcDbLayerTableRecord
  2
94B2_300LSE_2_4_1
 70
0
 62
7
  6
CONTINUOUS
370
-3
390
F
  0
LAYER
  5
204
100
AcDbSymbolTableRecord
100
AcDbLayerTableRecord
  2
94B2_300LSE_2_ASM_1
 70
0
 62
7
  6
CONTINUOUS
370
-3
390
F
  0
LAYER
  5
205
100
AcDbSymbolTableRecord
100
AcDbLayerTableRecord
  2
94B2_BOTTOM_02_7_1
 70
0
 62
7
  6
CONTINUOUS
370
-3
390
F
  0
LAYER
  5
206
100
AcDbSymbolTableRecord
100
AcDbLayerTableRecord
  2
94B2_JGM_2_1
 70
0
 62
7
  6
CONTINUOUS
370
-3
390
F
  0
LAYER
  5
207
100
AcDbSymbolTableRecord
100
AcDbLayerTableRecord
  2
94B2_LB_EVA_3_1
 70
0
 62
7
  6
CONTINUOUS
370
-3
390
F
  0
LAYER
  5
208
100
AcDbSymbolTableRecord
100
AcDbLayerTableRecord
  2
94B2_TOP_5_1
 70
0
 62
7
  6
CONTINUOUS
370
-3
390
F
  0
LAYER
  5
209
100
AcDbSymbolTableRecord
100
AcDbLayerTableRecord
  2
94B2_TP_9498_2_1
 70
0
 62
7
  6
CONTINUOUS
370
-3
390
F
  0
LAYER
  5
20A
100
AcDbSymbolTableRecord
100
AcDbLayerTableRecord
  2
ASSI
 70
0
 62
7
  6
CONTINUOUS
370
-3
390
F
  0
LAYER
  5
20B
100
AcDbSymbolTableRecord
100
AcDbLayerTableRecord
  2
COLOR22
 70
0
 62
7
  6
CONTINUOUS
370
-3
390
F
  0
LAYER
  5
20C
100
AcDbSymbolTableRecord
100
AcDbLayerTableRecord
  2
COLOR23
 70
0
 62
7
  6
CONTINUOUS
370
-3
390
F
  0
LAYER
  5
20D
100
AcDbSymbolTableRecord
100
AcDbLayerTableRecord
  2
COLOR24
 70
0
 62
7
  6
CONTINUOUS
370
-3
390
F
  0
LAYER
  5
20E
100
AcDbSymbolTableRecord
100
AcDbLayerTableRecord
  2
COLOR25
 70
0
 62
7
  6
CONTINUOUS
370
-3
390
F
  0
LAYER
  5
20F
100
AcDbSymbolTableRecord
100
AcDbLayerTableRecord
  2
COORDINATE
 70
0
 62
7
  6
CONTINUOUS
370
-3
390
F
  0
LAYER
  5
210
100
AcDbSymbolTableRecord
100
AcDbLayerTableRecord
  2
COPY_PUBLISH
 70
0
 62
7
  6
CONTINUOUS
370
-3
390
F
  0
LAYER
  5
211
100
AcDbSymbolTableRecord
100
AcDbLayerTableRecord
  2
COSMETICI
 70
0
 62
7
  6
CONTINUOUS
370
-3
390
F
  0
LAYER
  5
212
100
AcDbSymbolTableRecord
100
AcDbLayerTableRecord
  2
CURVE
 70
0
 62
7
  6
CONTINUOUS
370
-3
390
F
  0
LAYER
  5
213
100
AcDbSymbolTableRecord
100
AcDbLayerTableRecord
  2
DRAFT
 70
0
 62
7
  6
CONTINUOUS
370
-3
390
F
  0
LAYER
  5
214
100
AcDbSymbolTableRecord
100
AcDbLayerTableRecord
  2
IMPORT_IGES
 70
0
 62
7
  6
CONTINUOUS
370
-3
390
F
  0
LAYER
  5
215
100
AcDbSymbolTableRecord
100
AcDbLayerTableRecord
  2
INTF_21
 70
0
 62
7
  6
CONTINUOUS
370
-3
390
F
  0
LAYER
  5
216
100
AcDbSymbolTableRecord
100
AcDbLayerTableRecord
  2
INTF_22
 70
0
 62
7
  6
CONTINUOUS
370
-3
390
F
  0
LAYER
  5
217
100
AcDbSymbolTableRecord
100
AcDbLayerTableRecord
  2
INTF_23
 70
0
 62
7
  6
CONTINUOUS
370
-3
390
F
  0
LAYER
  5
218
100
AcDbSymbolTableRecord
100
AcDbLayerTableRecord
  2
INTF_24
 70
0
 62
7
  6
CONTINUOUS
370
-3
390
F
  0
LAYER
  5
219
100
AcDbSymbolTableRecord
100
AcDbLayerTableRecord
  2
INTF_25
 70
0
 62
7
  6
CONTINUOUS
370
-3
390
F
  0
LAYER
  5
21A
100
AcDbSymbolTableRecord
100
AcDbLayerTableRecord
  2
INTF_26
 70
0
 62
7
  6
CONTINUOUS
370
-3
390
F
  0
LAYER
  5
21B
100
AcDbSymbolTableRecord
100
AcDbLayerTableRecord
  2
INTF_28
 70
0
 62
7
  6
CONTINUOUS
370
-3
390
F
  0
LAYER
  5
21C
100
AcDbSymbolTableRecord
100
AcDbLayerTableRecord
  2
INTF_29
 70
0
 62
7
  6
CONTINUOUS
370
-3
390
F
  0
LAYER
  5
21D
100
AcDbSymbolTableRecord
100
AcDbLayerTableRecord
  2
INTF_30
 70
0
 62
7
  6
CONTINUOUS
370
-3
390
F
  0
LAYER
  5
21E
100
AcDbSymbolTableRecord
100
AcDbLayerTableRecord
  2
INTF_32
 70
0
 62
7
  6
CONTINUOUS
370
-3
390
F
  0
LAYER
  5
21F
100
AcDbSymbolTableRecord
100
AcDbLayerTableRecord
  2
INTF_33
 70
0
 62
7
  6
CONTINUOUS
370
-3
390
F
  0
LAYER
  5
220
100
AcDbSymbolTableRecord
100
AcDbLayerTableRecord
  2
INTF_34
 70
0
 62
7
  6
CONTINUOUS
370
-3
390
F
  0
LAYER
  5
221
100
AcDbSymbolTableRecord
100
AcDbLayerTableRecord
  2
INTF_35
 70
0
 62
7
  6
CONTINUOUS
370
-3
390
F
  0
LAYER
  5
222
100
AcDbSymbolTableRecord
100
AcDbLayerTableRecord
  2
INTF_36
 70
0
 62
7
  6
CONTINUOUS
370
-3
390
F
  0
LAYER
  5
223
100
AcDbSymbolTableRecord
100
AcDbLayerTableRecord
  2
INTF_37
 70
0
 62
7
  6
CONTINUOUS
370
-3
390
F
  0
LAYER
  5
224
100
AcDbSymbolTableRecord
100
AcDbLayerTableRecord
  2
INTF_39
 70
0
 62
7
  6
CONTINUOUS
370
-3
390
F
  0
LAYER
  5
225
100
AcDbSymbolTableRecord
100
AcDbLayerTableRecord
  2
ME_ASM_2_ASM_1
 70
0
 62
7
  6
CONTINUOUS
370
-3
390
F
  0
LAYER
  5
226
100
AcDbSymbolTableRecord
100
AcDbLayerTableRecord
  2
MIC_2_1
 70
0
 62
7
  6
CONTINUOUS
370
-3
390
F
  0
LAYER
  5
227
100
AcDbSymbolTableRecord
100
AcDbLayerTableRecord
  2
NOTE
 70
0
 62
7
  6
CONTINUOUS
370
-3
390
F
  0
LAYER
  5
228
100
AcDbSymbolTableRecord
100
AcDbLayerTableRecord
  2
PET_2_1
 70
0
 62
7
  6
CONTINUOUS
370
-3
390
F
  0
LAYER
  5
229
100
AcDbSymbolTableRecord
100
AcDbLayerTableRecord
  2
PIANI
 70
0
 62
7
  6
CONTINUOUS
370
-3
390
F
  0
LAYER
  5
22A
100
AcDbSymbolTableRecord
100
AcDbLayerTableRecord
  2
PING_300LSE_2_1_1
 70
0
 62
7
  6
CONTINUOUS
370
-3
390
F
  0
LAYER
  5
22B
100
AcDbSymbolTableRecord
100
AcDbLayerTableRecord
  2
PING_300LSE_2_2_1
 70
0
 62
7
  6
CONTINUOUS
370
-3
390
F
  0
LAYER
  5
22C
100
AcDbSymbolTableRecord
100
AcDbLayerTableRecord
  2
PING_300LSE_2_3_1
 70
0
 62
7
  6
CONTINUOUS
370
-3
390
F
  0
LAYER
  5
22D
100
AcDbSymbolTableRecord
100
AcDbLayerTableRecord
  2
PING_300LSE_2_4_1
 70
0
 62
7
  6
CONTINUOUS
370
-3
390
F
  0
LAYER
  5
22E
100
AcDbSymbolTableRecord
100
AcDbLayerTableRecord
  2
PING_300LSE_2_ASM_1
 70
0
 62
7
  6
CONTINUOUS
370
-3
390
F
  0
LAYER
  5
22F
100
AcDbSymbolTableRecord
100
AcDbLayerTableRecord
  2
PUNTI
 70
0
 62
7
  6
CONTINUOUS
370
-3
390
F
  0
LAYER
  5
230
100
AcDbSymbolTableRecord
100
AcDbLayerTableRecord
  2
RACCORDO
 70
0
 62
7
  6
CONTINUOUS
370
-3
390
F
  0
LAYER
  5
231
100
AcDbSymbolTableRecord
100
AcDbLayerTableRecord
  2
SIMBOLI
 70
0
 62
7
  6
CONTINUOUS
370
-3
390
F
  0
LAYER
  5
232
100
AcDbSymbolTableRecord
100
AcDbLayerTableRecord
  2
SMUSSO
 70
0
 62
7
  6
CONTINUOUS
370
-3
390
F
  0
LAYER
  5
233
100
AcDbSymbolTableRecord
100
AcDbLayerTableRecord
  2
SNAPLINE
 70
0
 62
7
  6
CONTINUOUS
370
-3
390
F
  0
LAYER
  5
234
100
AcDbSymbolTableRecord
100
AcDbLayerTableRecord
  2
SPK_40X20_1_1
 70
0
 62
7
  6
CONTINUOUS
370
-3
390
F
  0
LAYER
  5
235
100
AcDbSymbolTableRecord
100
AcDbLayerTableRecord
  2
SUPERFICI
 70
0
 62
7
  6
CONTINUOUS
370
-3
390
F
  0
LAYER
  5
236
100
AcDbSymbolTableRecord
100
AcDbLayerTableRecord
  2
TRASH
 70
0
 62
7
  6
CONTINUOUS
370
-3
390
F
  0
LAYER
  5
237
100
AcDbSymbolTableRecord
100
AcDbLayerTableRecord
  2
___SHELL
 70
0
 62
7
  6
CONTINUOUS
370
-3
390
F
  0
ENDTAB
  0
TABLE
  2
STYLE
  5
3
100
AcDbSymbolTable
 70
1
  0
STYLE
  5
11
100
AcDbSymbolTableRecord
100
AcDbTextStyleTableRecord
  2
STANDARD
 70
0
 40
0.0
 41
0.8
 50
0.0
 71
0
 42
0.2
  3
txt
  4

  0
STYLE
  5
238
100
AcDbSymbolTableRecord
100
AcDbTextStyleTableRecord
  2
TEXTSTYLE_1
 70
0
 40
0.0
 41
0.8
 50
0.0
 71
0
 42
0.2
  3
gdt
  4

  0
ENDTAB
  0
TABLE
  2
VIEW
  5
6
100
AcDbSymbolTable
 70
0
  0
ENDTAB
  0
TABLE
  2
UCS
  5
7
100
AcDbSymbolTable
 70
0
  0
ENDTAB
  0
TABLE
  2
APPID
  5
9
100
AcDbSymbolTable
 70
1
  0
APPID
  5
239
100
AcDbSymbolTableRecord
100
AcDbRegAppTableRecord
  2
ACAD
 70
0
  0
ENDTAB
  0
TABLE
  2
BLOCK_RECORD
  5
1
100
AcDbSymbolTable
 70
0
  0
BLOCK_RECORD
  5
23A
100
AcDbSymbolTableRecord
100
AcDbBlockTableRecord
  2
*Model_Space
  0
BLOCK_RECORD
  5
23B
100
AcDbSymbolTableRecord
100
AcDbBlockTableRecord
  2
*Paper_Space
  0
BLOCK_RECORD
  5
23C
100
AcDbSymbolTableRecord
100
AcDbBlockTableRecord
  2
_FILLED
  0
ENDTAB
  0
TABLE
  2
DIMSTYLE
  5
A
100
AcDbSymbolTable
 70
1
100
AcDbDimStyleTable
 71
0
  0
DIMSTYLE
105
23D
100
AcDbSymbolTableRecord
100
AcDbDimStyleTableRecord
  2
STANDARD
 70
0
  3

  4

 40
1.0
 41
3.0
 42
0.5
 43
0.38
 44
1.5
 45
0.0
 46
0.0
 47
0.01
 48
0.01
140
3.0
141
0.09
142
0.0
143
25.4
144
1.0
145
0.0
146
1.0
147
0.625
 71
1
 72
0
 73
0
 74
0
 75
0
 76
0
 77
1
 78
8
 79
2
170
0
171
1
172
0
173
0
174
0
175
0
176
0
177
0
178
0
270
2
179
2
271
2
272
2
273
2
274
2
275
0
280
0
281
0
282
0
283
1
284
8
285
0
286
0
287
3
288
0
340
11
278
44
341
23C
342
23C
343
23C
344
23C
  0
ENDTAB
  0
ENDSEC
  0
SECTION
  2
BLOCKS
  0
BLOCK
  5
20
100
AcDbEntity
  8
0
100
AcDbBlockBegin
  2
*Model_Space
 70
0
 10
0.0
 20
0.0
 30
0.0
  3
*Model_Space
  1

  0
ENDBLK
  5
21
100
AcDbEntity
  8
0
100
AcDbBlockEnd
  0
BLOCK
  5
1C
100
AcDbEntity
  8
0
100
AcDbBlockBegin
  2
*Paper_Space
 70
0
 10
0.0
 20
0.0
 30
0.0
  3
*Paper_Space
  1

  0
ENDBLK
  5
1D
100
AcDbEntity
  8
0
100
AcDbBlockEnd
  0
BLOCK
  5
23E
100
AcDbEntity
  8
0
100
AcDbBlockBegin
  2
_FILLED
 70
64
 10
0.0
 20
0.0
  3
_FILLED
  1

  0
SOLID
  5
23F
100
AcDbEntity
  8
0
  6
BYBLOCK
 62
0
100
AcDbTrace
 10
0.0
 20
0.0
 11
-1.0
 21
0.3166666667
 12
-1.0
 22
-0.3166666667
 13
-1.0
 23
-0.3166666667
  0
ENDBLK
  5
240
100
AcDbEntity
  8
0
  6
BYBLOCK
 62
0
100
AcDbBlockEnd
  0
ENDSEC
  0
SECTION
  2
ENTITIES
  0
LINE
  5
241
100
AcDbEntity
  8
0
100
AcDbLine
 62
7
  6
CONTINUOUS
 10
-69.2679010261
 20
93.784408842
 11
-63.0150233485
 21
97.1579798007
  0
LINE
  5
242
100
AcDbEntity
  8
0
100
AcDbLine
 62
250
  6
CONTINUOUS
 10
-69.0391408796
 20
93.7728912042
 11
-62.7862632019
 21
97.1464621629
  0
LINE
  5
243
100
AcDbEntity
  8
IMPORT_IGES
100
AcDbLine
 62
7
  6
CONTINUOUS
 10
-70.1465773059
 20
93.3451234356
 11
-69.3687598466
 21
93.7340321652
  0
LINE
  5
244
100
AcDbEntity
  8
IMPORT_IGES
100
AcDbLine
 62
250
  6
CONTINUOUS
 10
-69.9229705082
 20
93.330922542
 11
-69.1451530489
 21
93.7198312716
  0
LINE
  5
245
100
AcDbEntity
  8
IMPORT_IGES
100
AcDbLine
 62
7
  6
CONTINUOUS
 10
-69.3657115346
 20
93.735520497
 11
-69.3687816047
 21
93.7340212844
  0
LWPOLYLINE
  5
246
100
AcDbEntity
  8
IMPORT_IGES
100
AcDbPolyline
 62
7
  6
CONTINUOUS
 90
11
 70
0
 10
-70.146599064
 20
93.3451125548
 10
-70.1435289939
 20
93.3466117674
 10
-70.1223707096
 20
93.3551608094
 10
-70.0999853685
 20
93.3612302074
 10
-70.0767230035
 20
93.3647085422
 10
-70.0525692132
 20
93.3655594461
 10
-70.0275383991
 20
93.3638192868
 10
-70.0020237978
 20
93.3594857484
 10
-69.9761564884
 20
93.3525580587
 10
-69.9498053918
 20
93.3430369899
 10
-69.9229705082
 20
93.330922542
  0
LINE
  5
247
100
AcDbEntity
  8
0
100
AcDbLine
 62
7
  6
CONTINUOUS
 10
-45.7242620083
 20
88.662421583
 11
-45.6570046166
 21
88.6934832754
  0
LINE
  5
248
100
AcDbEntity
  8
0
100
AcDbLine
 62
250
  6
CONTINUOUS
 10
-45.5286938993
 20
88.5646375285
 11
-45.308666363
 21
88.6662535362
  0
LWPOLYLINE
  5
249
100
AcDbEntity
  8
0
100
AcDbPolyline
 62
7
  6
CONTINUOUS
 90
10
 70
0
 10
-45.6571199957
 20
88.6934291902
 10
-45.6186365671
 20
88.7089875602
 10
-45.5743855394
 20
88.7218123979
 10
-45.5279820915
 20
88.7300403629
 10
-45.4797723723
 20
88.7334049713
 10
-45.4300851429
 20
88.731696523
 10
-45.3791585686
 20
88.7247323384
 10
-45.3272363029
 20
88.712336653
 10
-45.2746450276
 20
88.6943717734
 10
-45.2216880027
 20
88.6707237346
  0
LWPOLYLINE
  5
24A
100
AcDbEntity
  8
0
100
AcDbPolyline
 62
250
  6
CONTINUOUS
 90
6
 70
0
 10
-45.6570014062
 20
88.693484758
 10
-45.5905550247
 20
88.715287921
 10
-45.524357305
 20
88.7221126474
 10
-45.4545161469
 20
88.7161062364
 10
-45.3822113352
 20
88.6973778602
 10
-45.308666363
 20
88.6662535362
  0
LWPOLYLINE
  5
24B
100
AcDbEntity
  8
IMPORT_IGES
100
AcDbPolyline
 62
7
  6
CONTINUOUS
 90
13
 70
0
 10
-70.2765238988
 20
93.0746865354
 10
-70.2754600087
 20
93.1070204765
 10
-70.2724761387
 20
93.1378019119
 10
-70.2675722887
 20
93.1670308415
 10
-70.2606943157
 20
93.194840732
 10
-70.2518963628
 20
93.2210981168
 10
-70.2413408591
 20
93.2454025956
 10
-70.2290039898
 20
93.2677246233
 10
-70.2149095699
 20
93.288093745
 10
-70.1992914729
 20
93.3061981967
 10
-70.1821287835
 20
93.3220057149
 10
-70.1634424171
 20
93.3355485632
 10
-70.146599064
 20
93.3451125548
  0
LINE
  5
24C
100
AcDbEntity
  8
IMPORT_IGES
100
AcDbLine
 62
7
  6
CONTINUOUS
 10
-70.2765238988
 20
-32.3257919326
 11
-70.2765238988
 21
93.0746865354
  0
LINE
  5
24D
100
AcDbEntity
  8
IMPORT_IGES
100
AcDbLine
 62
7
420
11158274
  6
CONTINUOUS
 10
-60.0941862497
 20
75.893803074
 11
-60.0941862497
 21
0.6188749771
  0
LINE
  5
24E
100
AcDbEntity
  8
IMPORT_IGES
100
AcDbLine
 62
7
  6
CONTINUOUS
 10
59.477570449
 20
-97.6358518084
 11
-69.9229705082
 21
-32.9355813298
  0
LWPOLYLINE
  5
24F
100
AcDbEntity
  8
IMPORT_IGES
100
AcDbPolyline
 62
7
  6
CONTINUOUS
 90
22
 70
0
 10
-69.9229705082
 20
-32.9355813298
 10
-69.9498053918
 20
-32.9208608941
 10
-69.9761564884
 20
-32.9040308663
 10
-70.0020237979
 20
-32.8850912465
 10
-70.0275383991
 20
-32.8639101837
 10
-70.0525692132
 20
-32.8406195289
 10
-70.0767230035
 20
-32.8156148347
 10
-70.0999853685
 20
-32.7888741349
 10
-70.1223707096
 20
-32.7604193958
 10
-70.1435289939
 20
-32.7307120695
 10
-70.1634424171
 20
-32.699735442
 10
-70.1821287835
 20
-32.6675062274
 10
-70.1992914729
 20
-32.6345360198
 10
-70.2149095699
 20
-32.6008134711
 10
-70.2290039898
 20
-32.5663499294
 10
-70.2413408591
 20
-32.5316910325
 10
-70.2518963628
 20
-32.49683105
 10
-70.2606943157
 20
-32.4617757123
 10
-70.2675722887
 20
-32.4270878487
 10
-70.2724761387
 20
-32.3929550692
 10
-70.2754600087
 20
-32.3591897638
 10
-70.2765238988
 20
-32.3257919326
  0
LINE
  5
250
100
AcDbEntity
  8
IMPORT_IGES
100
AcDbLine
 62
7
420
11158274
  6
CONTINUOUS
 10
-50.5982981308
 20
-30.6512849058
 11
-50.8993585698
 21
-30.4020100714
  0
LINE
  5
251
100
AcDbEntity
  8
IMPORT_IGES
100
AcDbLine
 62
7
420
11158274
  6
CONTINUOUS
 10
-51.3633363858
 20
-30.8108396643
 11
-50.991968789
 21
-31.1184219873
  0
LWPOLYLINE
  5
252
100
AcDbEntity
  8
IMPORT_IGES
100
AcDbPolyline
 62
7
420
11158274
  6
CONTINUOUS
 90
76
 70
0
 10
-45.0182698536
 20
-33.3425544295
 10
-45.0279415777
 20
-33.3263896051
 10
-45.0379781124
 20
-33.3106145836
 10
-45.0483580989
 20
-33.2952454195
 10
-45.0590601781
 20
-33.2802981677
 10
-45.0700629911
 20
-33.2657888828
 10
-45.081345179
 20
-33.2517336195
 10
-45.0928853828
 20
-33.2381484325
 10
-45.1046622435
 20
-33.2250493764
 10
-45.1166544024
 20
-33.212452506
 10
-45.1288405003
 20
-33.2003738759
 10
-45.1411991783
 20
-33.1888295409
 10
-45.1537090775
 20
-33.1778355557
 10
-45.166348839
 20
-33.1674079748
 10
-45.1790971038
 20
-33.157562853
 10
-45.1919325129
 20
-33.148316245
 10
-45.2048337074
 20
-33.1396842056
 10
-45.2177793284
 20
-33.1316827892
 10
-45.2307480169
 20
-33.1243280508
 10
-45.243718414
 20
-33.1176360449
 10
-45.2566691607
 20
-33.1116228262
 10
-45.2695788981
 20
-33.1063044495
 10
-45.2824262672
 20
-33.1016969693
 10
-45.295189909
 20
-33.0978164405
 10
-45.3078484647
 20
-33.0946789177
 10
-45.3203805753
 20
-33.0923004555
 10
-45.3327673759
 20
-33.0906922009
 10
-45.3449893535
 20
-33.0898469384
 10
-45.3570295317
 20
-33.0897523226
 10
-45.3688709339
 20
-33.0903960083
 10
-45.3804965838
 20
-33.0917656501
 10
-45.3918895047
 20
-33.0938489027
 10
-45.4030327202
 20
-33.0966334208
 10
-45.4139092537
 20
-33.100106859
 10
-45.4245021288
 20
-33.1042568721
 10
-45.4347943689
 20
-33.1090711147
 10
-45.4447689975
 20
-33.1145372415
 10
-45.4544090382
 20
-33.1206429072
 10
-45.4636975144
 20
-33.1273757665
 10
-45.4726174495
 20
-33.1347234739
 10
-45.4811518672
 20
-33.1426736844
 10
-45.4892837909
 20
-33.1512140524
 10
-45.4969962441
 20
-33.1603322326
 10
-45.5042722502
 20
-33.1700158799
 10
-45.5110948328
 20
-33.1802526488
 10
-45.5174470154
 20
-33.191030194
 10
-45.5233118214
 20
-33.2023361701
 10
-45.5286722744
 20
-33.214158232
 10
-45.5335113978
 20
-33.2264840342
 10
-45.5378122152
 20
-33.2393012315
 10
-45.5415577499
 20
-33.2525974785
 10
-45.5447349973
 20
-33.2663597721
 10
-45.5473441917
 20
-33.2805605833
 10
-45.5493897032
 20
-33.2951715914
 10
-45.550875902
 20
-33.310164476
 10
-45.5518071579
 20
-33.3255109164
 10
-45.5521878412
 20
-33.3411825922
 10
-45.5520223219
 20
-33.3571511828
 10
-45.5513149701
 20
-33.3733883675
 10
-45.5500701558
 20
-33.3898658259
 10
-45.548292249
 20
-33.4065552375
 10
-45.5459856199
 20
-33.4234282816
 10
-45.5431546385
 20
-33.4404566377
 10
-45.5398036749
 20
-33.4576119853
 10
-45.5359370992
 20
-33.4748660038
 10
-45.5315592814
 20
-33.4921903726
 10
-45.5266745915
 20
-33.5095567713
 10
-45.5212873997
 20
-33.5269368791
 10
-45.515402076
 20
-33.5443023757
 10
-45.5090229905
 20
-33.5616249405
 10
-45.5021545132
 20
-33.5788762528
 10
-45.4948010143
 20
-33.5960279922
 10
-45.4869668637
 20
-33.613051838
 10
-45.4786564315
 20
-33.6299194698
 10
-45.4698740879
 20
-33.646602567
 10
-45.4432017123
 20
-33.6938391085
  0
LWPOLYLINE
  5
253
100
AcDbEntity
  8
IMPORT_IGES
100
AcDbPolyline
 62
7
420
11158274
  6
CONTINUOUS
 90
49
 70
0
 10
-45.4432017123
 20
-33.6938391085
 10
-45.4265051589
 20
-33.7247722192
 10
-45.4105345427
 20
-33.7558495971
 10
-45.3952898635
 20
-33.7870486987
 10
-45.3807711214
 20
-33.8183469799
 10
-45.3669783164
 20
-33.8497218971
 10
-45.3539114486
 20
-33.8811509063
 10
-45.3415705178
 20
-33.9126114638
 10
-45.3299555242
 20
-33.9440810257
 10
-45.3190664676
 20
-33.9755370483
 10
-45.3089033481
 20
-34.0069569877
 10
-45.2994661658
 20
-34.0383183
 10
-45.2907549206
 20
-34.0695984416
 10
-45.2827696124
 20
-34.1007748685
 10
-45.2755102414
 20
-34.1318250369
 10
-45.2689768074
 20
-34.1627264031
 10
-45.2631693106
 20
-34.1934564232
 10
-45.2580877509
 20
-34.2239925533
 10
-45.2537321283
 20
-34.2543122497
 10
-45.2501024427
 20
-34.2843929686
 10
-45.2471986943
 20
-34.3142121661
 10
-45.245020883
 20
-34.3437472984
 10
-45.2435690088
 20
-34.3729758217
 10
-45.2428430717
 20
-34.4018751921
 10
-45.2428430717
 20
-34.430422866
 10
-45.2435690088
 20
-34.4585962993
 10
-45.245020883
 20
-34.4863729484
 10
-45.2471986943
 20
-34.5137302694
 10
-45.2501024427
 20
-34.5406457185
 10
-45.2537321283
 20
-34.5670967518
 10
-45.2580877509
 20
-34.5930608256
 10
-45.2631693106
 20
-34.6185153961
 10
-45.2689768074
 20
-34.6434379193
 10
-45.2755102414
 20
-34.6678058515
 10
-45.2827696124
 20
-34.6915966489
 10
-45.2907549206
 20
-34.7147877677
 10
-45.2994661658
 20
-34.737356664
 10
-45.3089033481
 20
-34.759280794
 10
-45.3190664676
 20
-34.7805376139
 10
-45.3299555242
 20
-34.80110458
 10
-45.3415705178
 20
-34.8209591482
 10
-45.3539114486
 20
-34.840078775
 10
-45.3669783164
 20
-34.8584409163
 10
-45.3807711214
 20
-34.8760230285
 10
-45.3952898635
 20
-34.8928025677
 10
-45.4105345427
 20
-34.90875699
 10
-45.4265051589
 20
-34.9238637517
 10
-45.4432017123
 20
-34.938100309
 10
-45.4606242028
 20
-34.9514441179
  0
LWPOLYLINE
  5
254
100
AcDbEntity
  8
IMPORT_IGES
100
AcDbPolyline
 62
7
420
11158274
  6
CONTINUOUS
 90
82
 70
0
 10
-49.8847855081
 20
-34.2540528916
 10
-49.8845295028
 20
-34.2683966762
 10
-49.88376786
 20
-34.2830384316
 10
-49.8825101387
 20
-34.2979501203
 10
-49.8807658981
 20
-34.3131037051
 10
-49.8785446975
 20
-34.3284711489
 10
-49.8758560959
 20
-34.3440244142
 10
-49.8727096527
 20
-34.3597354638
 10
-49.8691149269
 20
-34.3755762605
 10
-49.8650814778
 20
-34.391518767
 10
-49.8606188645
 20
-34.407534946
 10
-49.8557366462
 20
-34.4235967602
 10
-49.8504443821
 20
-34.4396761724
 10
-49.8447516315
 20
-34.4557451453
 10
-49.8386679534
 20
-34.4717756416
 10
-49.832202907
 20
-34.4877396241
 10
-49.8253660516
 20
-34.5036090554
 10
-49.8181669464
 20
-34.5193558984
 10
-49.8106151504
 20
-34.5349521157
 10
-49.8027202229
 20
-34.55036967
 10
-49.7944917231
 20
-34.5655805242
 10
-49.7859392102
 20
-34.5805566409
 10
-49.7770722434
 20
-34.5952699828
 10
-49.7679003817
 20
-34.6096925127
 10
-49.7584331845
 20
-34.6237961933
 10
-49.7486802109
 20
-34.6375529874
 10
-49.73865102
 20
-34.6509348576
 10
-49.7283551712
 20
-34.6639137667
 10
-49.7178033612
 20
-34.6764652746
 10
-49.7070134819
 20
-34.6885762155
 10
-49.6960045843
 20
-34.7002370568
 10
-49.6847957194
 20
-34.7114382658
 10
-49.6734059381
 20
-34.7221703097
 10
-49.6618542914
 20
-34.7324236558
 10
-49.6501598303
 20
-34.7421887715
 10
-49.6383416056
 20
-34.7514561241
 10
-49.6264186685
 20
-34.7602161807
 10
-49.6144100698
 20
-34.7684594088
 10
-49.6023348606
 20
-34.7761762756
 10
-49.5902120917
 20
-34.7833572485
 10
-49.5780608142
 20
-34.7899927946
 10
-49.5659000789
 20
-34.7960733813
 10
-49.553748937
 20
-34.801589476
 10
-49.5416264393
 20
-34.8065315458
 10
-49.5295516368
 20
-34.8108900581
 10
-49.5175435804
 20
-34.8146554801
 10
-49.5056213212
 20
-34.8178182793
 10
-49.4938039101
 20
-34.8203689228
 10
-49.482110398
 20
-34.8222978779
 10
-49.470559836
 20
-34.8235956121
 10
-49.459171275
 20
-34.8242525924
 10
-49.4479637659
 20
-34.8242592863
 10
-49.4369563597
 20
-34.8236061611
 10
-49.4261681075
 20
-34.8222836839
 10
-49.41561806
 20
-34.8202823222
 10
-49.4053251115
 20
-34.8175976403
 10
-49.3952988916
 20
-34.81424323
 10
-49.3855489454
 20
-34.810237587
 10
-49.3760848179
 20
-34.8055992067
 10
-49.3669160543
 20
-34.8003465848
 10
-49.3580521996
 20
-34.794498217
 10
-49.3495027988
 20
-34.7880725988
 10
-49.3412773971
 20
-34.7810882259
 10
-49.3333855394
 20
-34.7735635938
 10
-49.3258367708
 20
-34.7655171981
 10
-49.3186406364
 20
-34.7569675346
 10
-49.3118066813
 20
-34.7479330987
 10
-49.3053444504
 20
-34.738432386
 10
-49.299263489
 20
-34.7284838923
 10
-49.2935733419
 20
-34.718106113
 10
-49.2882835544
 20
-34.7073175439
 10
-49.2834036714
 20
-34.6961366804
 10
-49.278943238
 20
-34.6845820183
 10
-49.2749117992
 20
-34.6726720531
 10
-49.2713189002
 20
-34.6604252804
 10
-49.268174086
 20
-34.6478601959
 10
-49.2654869016
 20
-34.6349952951
 10
-49.2632668921
 20
-34.6218490736
 10
-49.2615236026
 20
-34.6084400271
 10
-49.2602665781
 20
-34.5947866512
 10
-49.2595053637
 20
-34.5809074414
 10
-49.2592495045
 20
-34.5668208934
  0
LWPOLYLINE
  5
255
100
AcDbEntity
  8
IMPORT_IGES
100
AcDbPolyline
 62
7
420
11158274
  6
CONTINUOUS
 90
48
 70
0
 10
-50.3664945668
 20
-31.1371952449
 10
-50.3666419571
 20
-31.1271746053
 10
-50.3670804363
 20
-31.1169661652
 10
-50.3678044669
 20
-31.1065815231
 10
-50.3688085114
 20
-31.0960322778
 10
-50.3700870323
 20
-31.0853300278
 10
-50.371634492
 20
-31.0744863718
 10
-50.373445353
 20
-31.0635129085
 10
-50.3755140778
 20
-31.0524212366
 10
-50.3778351288
 20
-31.0412229546
 10
-50.3804029686
 20
-31.0299296613
 10
-50.3832120597
 20
-31.0185529552
 10
-50.3862568644
 20
-31.0071044351
 10
-50.3895318454
 20
-30.9955956995
 10
-50.393031465
 20
-30.9840383473
 10
-50.3967501857
 20
-30.9724439769
 10
-50.4006824701
 20
-30.960824187
 10
-50.4048227806
 20
-30.9491905764
 10
-50.4091655797
 20
-30.9375547436
 10
-50.4137053298
 20
-30.9259282874
 10
-50.4184364935
 20
-30.9143228063
 10
-50.4233535332
 20
-30.902749899
 10
-50.4284509114
 20
-30.8912211641
 10
-50.4337230906
 20
-30.8797482004
 10
-50.4391645333
 20
-30.8683426065
 10
-50.4447697018
 20
-30.857015981
 10
-50.4505330588
 20
-30.8457799226
 10
-50.4564490667
 20
-30.8346460299
 10
-50.462512188
 20
-30.8236259016
 10
-50.4687168851
 20
-30.8127311364
 10
-50.4750576206
 20
-30.8019733328
 10
-50.4815288569
 20
-30.7913640896
 10
-50.4881250564
 20
-30.7809150054
 10
-50.4948406818
 20
-30.7706376788
 10
-50.5016701954
 20
-30.7605437085
 10
-50.5086080597
 20
-30.7506446932
 10
-50.5156487372
 20
-30.7409522315
 10
-50.5227866904
 20
-30.7314779221
 10
-50.5300163818
 20
-30.7222333636
 10
-50.5373322738
 20
-30.7132301546
 10
-50.544728829
 20
-30.7044798939
 10
-50.5522005097
 20
-30.69599418
 10
-50.5597417786
 20
-30.6877846117
 10
-50.567347098
 20
-30.6798627876
 10
-50.5750109304
 20
-30.6722403063
 10
-50.5827277384
 20
-30.6649287664
 10
-50.5904919844
 20
-30.6579397667
 10
-50.5982981308
 20
-30.6512849058
  0
LWPOLYLINE
  5
256
100
AcDbEntity
  8
IMPORT_IGES
100
AcDbPolyline
 62
7
420
11158274
  6
CONTINUOUS
 90
51
 70
0
 10
-50.991968789
 20
-32.2624975256
 10
-50.9918092988
 20
-32.2743190062
 10
-50.9913329937
 20
-32.2863248061
 10
-50.9905431224
 20
-32.2985000371
 10
-50.9894429334
 20
-32.310829811
 10
-50.9880356755
 20
-32.3232992396
 10
-50.986324597
 20
-32.3358934346
 10
-50.9843129468
 20
-32.3485975079
 10
-50.9820039732
 20
-32.3613965713
 10
-50.9794009251
 20
-32.3742757364
 10
-50.9765070508
 20
-32.3872201151
 10
-50.9733255991
 20
-32.4002148192
 10
-50.9698598185
 20
-32.4132449605
 10
-50.9661129576
 20
-32.4262956506
 10
-50.962088265
 20
-32.4393520015
 10
-50.9577889893
 20
-32.4523991249
 10
-50.9532183791
 20
-32.4654221326
 10
-50.948379683
 20
-32.4784061363
 10
-50.9432761496
 20
-32.4913362478
 10
-50.9379110274
 20
-32.504197579
 10
-50.9322875652
 20
-32.5169752416
 10
-50.9264090113
 20
-32.5296543473
 10
-50.9202786146
 20
-32.542220008
 10
-50.9138996234
 20
-32.5546573355
 10
-50.9072752866
 20
-32.5669514415
 10
-50.9004088525
 20
-32.5790874378
 10
-50.8933023984
 20
-32.591055356
 10
-50.8859677757
 20
-32.6028407513
 10
-50.8784158256
 20
-32.6144342152
 10
-50.8706573895
 20
-32.6258263394
 10
-50.8627033083
 20
-32.6370077155
 10
-50.8545644234
 20
-32.6479689351
 10
-50.8462515759
 20
-32.6587005899
 10
-50.8377756071
 20
-32.6691932715
 10
-50.829147358
 20
-32.6794375716
 10
-50.82037767
 20
-32.6894240817
 10
-50.8114773841
 20
-32.6991433935
 10
-50.8024573416
 20
-32.7085860987
 10
-50.7933283836
 20
-32.7177427889
 10
-50.7841013515
 20
-32.7266040557
 10
-50.7747870862
 20
-32.7351604907
 10
-50.7653964291
 20
-32.7434026856
 10
-50.7559402214
 20
-32.751321232
 10
-50.7464293041
 20
-32.7589067216
 10
-50.7368745186
 20
-32.7661497459
 10
-50.727286706
 20
-32.7730408967
 10
-50.7176767074
 20
-32.7795707656
 10
-50.7080553641
 20
-32.7857299441
 10
-50.6984335173
 20
-32.7915090239
 10
-50.6888220082
 20
-32.7968985967
 10
-50.6792316779
 20
-32.8018892541
  0
LWPOLYLINE
  5
257
100
AcDbEntity
  8
IMPORT_IGES
100
AcDbPolyline
 62
7
420
11158274
  6
CONTINUOUS
 90
51
 70
0
 10
-49.2592495045
 20
-33.1288571679
 10
-49.2594091476
 20
-33.1170316939
 10
-49.2598859024
 20
-33.1050218271
 10
-49.2606765066
 20
-33.0928424623
 10
-49.2617776983
 20
-33.0805084945
 10
-49.2631862152
 20
-33.0680348184
 10
-49.2648987952
 20
-33.0554363291
 10
-49.2669121764
 20
-33.0427279213
 10
-49.2692230965
 20
-33.02992449
 10
-49.2718282935
 20
-33.01704093
 10
-49.2747245052
 20
-33.0040921363
 10
-49.2779084696
 20
-32.9910930037
 10
-49.2813769245
 20
-32.978058427
 10
-49.2851266079
 20
-32.9650033013
 10
-49.2891542577
 20
-32.9519425213
 10
-49.2934566117
 20
-32.9388909819
 10
-49.2980304078
 20
-32.9258635781
 10
-49.302872384
 20
-32.9128752047
 10
-49.3079792781
 20
-32.8999407567
 10
-49.313347828
 20
-32.8870751288
 10
-49.3189747717
 20
-32.8742932159
 10
-49.324856847
 20
-32.861609913
 10
-49.3309907918
 20
-32.849040115
 10
-49.337373344
 20
-32.8365987167
 10
-49.3440012416
 20
-32.8243006129
 10
-49.3508712223
 20
-32.8121606987
 10
-49.3579787629
 20
-32.8001929547
 10
-49.3653142947
 20
-32.7884077053
 10
-49.3728669879
 20
-32.7768143606
 10
-49.3806260125
 20
-32.7654223308
 10
-49.3885805388
 20
-32.7542410262
 10
-49.3967197368
 20
-32.7432798568
 10
-49.4050327766
 20
-32.7325482328
 10
-49.4135088285
 20
-32.7220555645
 10
-49.4221370624
 20
-32.7118112621
 10
-49.4309066487
 20
-32.7018247356
 10
-49.4398067572
 20
-32.6921053953
 10
-49.4488265583
 20
-32.6826626514
 10
-49.457955222
 20
-32.673505914
 10
-49.4671819185
 20
-32.6646445934
 10
-49.4764958178
 20
-32.6560880997
 10
-49.4858860901
 20
-32.647845843
 10
-49.4953419056
 20
-32.6399272337
 10
-49.5048524343
 20
-32.6323416818
 10
-49.5144068464
 20
-32.6250985975
 10
-49.523994312
 20
-32.618207391
 10
-49.5336040012
 20
-32.6116774726
 10
-49.5432250842
 20
-32.6055182523
 10
-49.552846731
 20
-32.5997391404
 10
-49.5624581119
 20
-32.594349547
 10
-49.5720483969
 20
-32.5893588824
  0
LINE
  5
258
100
AcDbEntity
  8
IMPORT_IGES
100
AcDbLine
 62
7
420
11158274
  6
CONTINUOUS
 10
-50.991968789
 20
-31.1184219873
 11
-50.991968789
 21
-32.2624975256
  0
LINE
  5
259
100
AcDbEntity
  8
IMPORT_IGES
100
AcDbLine
 62
7
420
11158274
  6
CONTINUOUS
 10
-50.3664945668
 20
-32.1921357974
 11
-50.3664945668
 21
-31.1371952449
  0
LINE
  5
25A
100
AcDbEntity
  8
IMPORT_IGES
100
AcDbLine
 62
7
420
11158274
  6
CONTINUOUS
 10
-49.8847855081
 20
-33.199112339
 11
-49.8847855081
 21
-34.2540528916
  0
LINE
  5
25B
100
AcDbEntity
  8
IMPORT_IGES
100
AcDbLine
 62
7
420
11158274
  6
CONTINUOUS
 10
-49.2592495045
 20
-34.5668208934
 11
-49.2592495045
 21
-33.1288571679
  0
LWPOLYLINE
  5
25C
100
AcDbEntity
  8
IMPORT_IGES
100
AcDbPolyline
 62
7
420
11158274
  6
CONTINUOUS
 90
44
 70
0
 10
36.4752759764
 20
-73.6424353818
 10
36.4831896192
 20
-73.6462318211
 10
36.4911362588
 20
-73.6497276393
 10
36.4991090056
 20
-73.6529248583
 10
36.5071009701
 20
-73.6558255005
 10
36.5151052628
 20
-73.6584315878
 10
36.5231149942
 20
-73.6607451425
 10
36.5311232747
 20
-73.6627681866
 10
36.5391232148
 20
-73.6645027424
 10
36.547107925
 20
-73.6659508318
 10
36.5550705157
 20
-73.6671144772
 10
36.5630040974
 20
-73.6679957005
 10
36.5709017807
 20
-73.6685965239
 10
36.5787566759
 20
-73.6689189696
 10
36.5865618936
 20
-73.6689650597
 10
36.5943105441
 20
-73.6687368163
 10
36.6019957381
 20
-73.6682362616
 10
36.609610586
 20
-73.6674654177
 10
36.6171481981
 20
-73.6664263066
 10
36.6246016851
 20
-73.6651209507
 10
36.6319641574
 20
-73.6635513719
 10
36.6392287255
 20
-73.6617195924
 10
36.6463884998
 20
-73.6596276343
 10
36.6534365908
 20
-73.6572775199
 10
36.660366109
 20
-73.6546712712
 10
36.6671701648
 20
-73.6518109103
 10
36.6738418688
 20
-73.6486984593
 10
36.6803743314
 20
-73.6453359405
 10
36.6867606631
 20
-73.6417253759
 10
36.6929939743
 20
-73.6378687877
 10
36.6990673755
 20
-73.633768198
 10
36.7049739773
 20
-73.629425629
 10
36.71070689
 20
-73.6248431027
 10
36.7162592242
 20
-73.6200226413
 10
36.7216240903
 20
-73.6149662669
 10
36.7267945988
 20
-73.6096760017
 10
36.7317638602
 20
-73.6041538678
 10
36.7365249849
 20
-73.5984018873
 10
36.7410710834
 20
-73.5924220824
 10
36.7453952663
 20
-73.5862164752
 10
36.7494906439
 20
-73.5797870878
 10
36.7533503267
 20
-73.5731359423
 10
36.7569674253
 20
-73.566265061
 10
36.76033505
 20
-73.5591764658
  0
LWPOLYLINE
  5
25D
100
AcDbEntity
  8
IMPORT_IGES
100
AcDbPolyline
 62
7
420
11158274
  6
CONTINUOUS
 90
39
 70
0
 10
33.6503862749
 20
-74.375056499
 10
33.6580033303
 20
-74.3787271473
 10
33.6656491761
 20
-74.382139113
 10
33.6733174729
 20
-74.3852932479
 10
33.681001881
 20
-74.3881904036
 10
33.6886960609
 20
-74.3908314317
 10
33.696393673
 20
-74.393217184
 10
33.7040883777
 20
-74.3953485122
 10
33.7117738354
 20
-74.3972262679
 10
33.7194437067
 20
-74.3988513027
 10
33.7270916518
 20
-74.4002244685
 10
33.7347113313
 20
-74.4013466168
 10
33.7422964056
 20
-74.4022185993
 10
33.749840535
 20
-74.4028412678
 10
33.7573373801
 20
-74.4032154739
 10
33.7647806013
 20
-74.4033420692
 10
33.7721638589
 20
-74.4032219055
 10
33.7794808134
 20
-74.4028558344
 10
33.7867251253
 20
-74.4022447077
 10
33.793890455
 20
-74.4013893769
 10
33.8009704629
 20
-74.4002906938
 10
33.8079588094
 20
-74.3989495101
 10
33.8148491549
 20
-74.3973666773
 10
33.82163516
 20
-74.3955430473
 10
33.8283104849
 20
-74.3934794717
 10
33.8348687902
 20
-74.3911768022
 10
33.8413037363
 20
-74.3886358904
 10
33.8476089836
 20
-74.385857588
 10
33.8537781925
 20
-74.3828427468
 10
33.8598050235
 20
-74.3795922183
 10
33.8656831369
 20
-74.3761068543
 10
33.8714061933
 20
-74.3723875064
 10
33.876967853
 20
-74.3684350264
 10
33.8823617765
 20
-74.3642502659
 10
33.8875816243
 20
-74.3598340765
 10
33.8926210566
 20
-74.35518731
 10
33.897473734
 20
-74.3503108181
 10
33.9021333169
 20
-74.3452054523
 10
33.9065934657
 20
-74.3398720645
  0
LWPOLYLINE
  5
25E
100
AcDbEntity
  8
IMPORT_IGES
100
AcDbPolyline
 62
7
420
11158274
  6
CONTINUOUS
 90
39
 70
0
 10
33.087187637
 20
-71.1822691999
 10
33.0795720539
 20
-71.1785993248
 10
33.0719277375
 20
-71.175188231
 10
33.0642610235
 20
-71.1720350589
 10
33.0565782472
 20
-71.1691389486
 10
33.0488857442
 20
-71.1664990405
 10
33.04118985
 20
-71.1641144748
 10
33.0334969
 20
-71.1619843918
 10
33.0258132297
 20
-71.1601079317
 10
33.0181451747
 20
-71.1584842349
 10
33.0104990704
 20
-71.1571124415
 10
33.0028812524
 20
-71.1559916919
 10
32.995298056
 20
-71.1551211263
 10
32.9877558168
 20
-71.154499885
 10
32.9802608703
 20
-71.1541271083
 10
32.9728195519
 20
-71.1540019363
 10
32.9654381972
 20
-71.1541235095
 10
32.9581231416
 20
-71.154490968
 10
32.9508807207
 20
-71.1551034521
 10
32.9437172699
 20
-71.1559601021
 10
32.9366391247
 20
-71.1570600582
 10
32.9296526206
 20
-71.1584024608
 10
32.9227640931
 20
-71.1599864501
 10
32.9159798776
 20
-71.1618111663
 10
32.9093063097
 20
-71.1638757497
 10
32.9027497249
 20
-71.1661793406
 10
32.8963164586
 20
-71.1687210793
 10
32.8900128464
 20
-71.171500106
 10
32.8838452237
 20
-71.1745155609
 10
32.8778199259
 20
-71.1777665845
 10
32.8719432887
 20
-71.1812523168
 10
32.8662216475
 20
-71.1849718982
 10
32.8606613377
 20
-71.188924469
 10
32.8552686949
 20
-71.1931091694
 10
32.8500500546
 20
-71.1975251397
 10
32.8450117522
 20
-71.2021715201
 10
32.8401601233
 20
-71.207047451
 10
32.8355015032
 20
-71.2121520725
 10
32.8310422276
 20
-71.217484525
  0
LINE
  5
25F
100
AcDbEntity
  8
IMPORT_IGES
100
AcDbLine
 62
7
420
11158274
  6
CONTINUOUS
 10
-50.6792316779
 20
-32.8018892541
 11
-49.8847855081
 21
-33.199112339
  0
LINE
  5
260
100
AcDbEntity
  8
IMPORT_IGES
100
AcDbLine
 62
7
420
11158274
  6
CONTINUOUS
 10
33.087187637
 20
-74.0934571801
 11
33.6503862749
 21
-74.375056499
  0
LINE
  5
261
100
AcDbEntity
  8
IMPORT_IGES
100
AcDbLine
 62
7
420
11158274
  6
CONTINUOUS
 10
-49.5720483969
 20
-32.5893588824
 11
-50.3664945668
 21
-32.1921357974
  0
LINE
  5
262
100
AcDbEntity
  8
IMPORT_IGES
100
AcDbLine
 62
7
420
11158274
  6
CONTINUOUS
 10
33.487654242
 20
-73.5275684703
 11
33.250105014
 21
-73.4087938563
  0
LINE
  5
263
100
AcDbEntity
  8
IMPORT_IGES
100
AcDbLine
 62
7
420
11158274
  6
CONTINUOUS
 10
33.250105014
 20
-72.0298499006
 11
36.4752759764
 21
-73.6424353818
  0
LINE
  5
264
100
AcDbEntity
  8
IMPORT_IGES
100
AcDbLine
 62
7
420
11158274
  6
CONTINUOUS
 10
36.2826417779
 20
-72.7799962704
 11
33.087187637
 21
-71.1822691999
  0
LWPOLYLINE
  5
265
100
AcDbEntity
  8
IMPORT_IGES
100
AcDbPolyline
 62
7
420
11158274
  6
CONTINUOUS
 90
76
 70
0
 10
-44.2089961637
 20
-32.7560374732
 10
-44.2186679255
 20
-32.7398641669
 10
-44.2287045672
 20
-32.7240818205
 10
-44.2390847204
 20
-32.7087064299
 10
-44.2497870168
 20
-32.6937539912
 10
-44.2607900878
 20
-32.6792405002
 10
-44.2720725652
 20
-32.6651819529
 10
-44.2836130806
 20
-32.6515943454
 10
-44.2953902655
 20
-32.6384936735
 10
-44.3073827516
 20
-32.6258959332
 10
-44.3195691704
 20
-32.6138171206
 10
-44.3319281537
 20
-32.6022732315
 10
-44.344438333
 20
-32.5912802619
 10
-44.35707834
 20
-32.5808542079
 10
-44.3698268061
 20
-32.5710110652
 10
-44.3826623632
 20
-32.5617668301
 10
-44.3955636427
 20
-32.5531374983
 10
-44.4085092762
 20
-32.5451390658
 10
-44.4214778955
 20
-32.5377875287
 10
-44.4344481321
 20
-32.5310988829
 10
-44.4473986176
 20
-32.5250891244
 10
-44.4603079836
 20
-32.519774249
 10
-44.4731548618
 20
-32.5151702529
 10
-44.4859178838
 20
-32.5112931319
 10
-44.4985756811
 20
-32.508158882
 10
-44.5111068854
 20
-32.5057834992
 10
-44.5234908631
 20
-32.5041782573
 10
-44.5357099195
 20
-32.5033355417
 10
-44.5477470948
 20
-32.5032430156
 10
-44.5595854291
 20
-32.5038883422
 10
-44.5712079626
 20
-32.5052591847
 10
-44.5825977354
 20
-32.5073432065
 10
-44.5937377876
 20
-32.5101280706
 10
-44.6046111595
 20
-32.5136014403
 10
-44.6152008911
 20
-32.5177509788
 10
-44.6254900226
 20
-32.5225643494
 10
-44.6354615941
 20
-32.5280292153
 10
-44.6450986458
 20
-32.5341332397
 10
-44.6543842178
 20
-32.5408640858
 10
-44.6633013503
 20
-32.5482094168
 10
-44.6718330834
 20
-32.556156896
 10
-44.6799624572
 20
-32.5646941866
 10
-44.6876725119
 20
-32.5738089518
 10
-44.6949462876
 20
-32.5834888549
 10
-44.7017668245
 20
-32.593721559
 10
-44.7081171628
 20
-32.6044947274
 10
-44.7139803425
 20
-32.6157960233
 10
-44.7193394037
 20
-32.6276131099
 10
-44.7241773868
 20
-32.6399336505
 10
-44.7284773317
 20
-32.6527453083
 10
-44.7322222787
 20
-32.6660357464
 10
-44.7354003684
 20
-32.6797974449
 10
-44.7380102677
 20
-32.6939977879
 10
-44.7400563554
 20
-32.7086084777
 10
-44.7415430104
 20
-32.7236012164
 10
-44.7424746115
 20
-32.7389477064
 10
-44.7428555376
 20
-32.75461965
 10
-44.7426901674
 20
-32.7705887493
 10
-44.7419828799
 20
-32.7868267066
 10
-44.7407380539
 20
-32.8033052242
 10
-44.7389600682
 20
-32.8199960044
 10
-44.7366533016
 20
-32.8368707493
 10
-44.733822133
 20
-32.8539011613
 10
-44.7304709413
 20
-32.8710589426
 10
-44.7266041052
 20
-32.8883157954
 10
-44.7222260037
 20
-32.905643422
 10
-44.7173410155
 20
-32.9230135247
 10
-44.7119535195
 20
-32.9403978057
 10
-44.7060678946
 20
-32.9577679673
 10
-44.6996885195
 20
-32.9750957117
 10
-44.6928197731
 20
-32.9923527411
 10
-44.6854660343
 20
-33.0095107579
 10
-44.6776316819
 20
-33.0265414643
 10
-44.6693210948
 20
-33.0434165625
 10
-44.6605386517
 20
-33.0601077548
 10
-44.6070582098
 20
-33.1546932708
  0
LWPOLYLINE
  5
266
100
AcDbEntity
  8
IMPORT_IGES
100
AcDbPolyline
 62
7
420
11158274
  6
CONTINUOUS
 90
76
 70
0
 10
-43.3997224737
 20
-32.1693691841
 10
-43.4093798931
 20
-32.1532118912
 10
-43.4194031477
 20
-32.1374446043
 10
-43.4297708465
 20
-32.1220833294
 10
-43.4404615988
 20
-32.1071440727
 10
-43.4514540139
 20
-32.0926428402
 10
-43.4627267008
 20
-32.078595638
 10
-43.4742582688
 20
-32.0650184722
 10
-43.486027327
 20
-32.0519273489
 10
-43.4980124847
 20
-32.0393382742
 10
-43.5101923511
 20
-32.0272672542
 10
-43.5225455352
 20
-32.015730295
 10
-43.5350506464
 20
-32.0047434026
 10
-43.5476862938
 20
-31.9943225832
 10
-43.5604310867
 20
-31.9844838428
 10
-43.5732636341
 20
-31.9752431876
 10
-43.5861625453
 20
-31.9666166236
 10
-43.5991064295
 20
-31.9586201569
 10
-43.6120738958
 20
-31.9512697936
 10
-43.6250435535
 20
-31.9445815399
 10
-43.6379940117
 20
-31.9385714017
 10
-43.6509038797
 20
-31.9332553852
 10
-43.6637517666
 20
-31.9286494964
 10
-43.6765162816
 20
-31.9247697416
 10
-43.689176034
 20
-31.9216321267
 10
-43.7017096328
 20
-31.9192526578
 10
-43.714098183
 20
-31.9176424558
 10
-43.7263221471
 20
-31.9167943713
 10
-43.7383645255
 20
-31.9166961479
 10
-43.7502083187
 20
-31.9173355291
 10
-43.7618365271
 20
-31.9187002586
 10
-43.7732321512
 20
-31.92077808
 10
-43.7843781915
 20
-31.9235567369
 10
-43.7952576483
 20
-31.9270239728
 10
-43.8058535221
 20
-31.9311675314
 10
-43.8161488135
 20
-31.9359751562
 10
-43.8261265227
 20
-31.9414345909
 10
-43.8357696504
 20
-31.947533579
 10
-43.8450611969
 20
-31.9542598642
 10
-43.8539841627
 20
-31.96160119
 10
-43.8625215482
 20
-31.9695453
 10
-43.870656354
 20
-31.9780799379
 10
-43.8783715803
 20
-31.9871928471
 10
-43.8856502278
 20
-31.9968717714
 10
-43.8924752968
 20
-32.0071044543
 10
-43.8988297878
 20
-32.0178786394
 10
-43.9046967013
 20
-32.0291820703
 10
-43.9100590377
 20
-32.0410024905
 10
-43.9148997974
 20
-32.0533276438
 10
-43.9192019809
 20
-32.0661452737
 10
-43.9229485887
 20
-32.0794431237
 10
-43.9261257688
 20
-32.093204238
 10
-43.9287349069
 20
-32.1074047584
 10
-43.9307803724
 20
-32.1220162613
 10
-43.9322665346
 20
-32.137010323
 10
-43.933197763
 20
-32.15235852
 10
-43.9335784269
 20
-32.1680324285
 10
-43.9334128957
 20
-32.184003625
 10
-43.9327055387
 20
-32.2002436858
 10
-43.9314607253
 20
-32.2167241873
 10
-43.9296828249
 20
-32.2334167058
 10
-43.9273762068
 20
-32.2502928177
 10
-43.9245452404
 20
-32.2673240993
 10
-43.921194295
 20
-32.2844821271
 10
-43.91732774
 20
-32.3017384774
 10
-43.9129499449
 20
-32.3190647265
 10
-43.9080652789
 20
-32.3364324508
 10
-43.9026781114
 20
-32.3538132267
 10
-43.8967928117
 20
-32.3711786305
 10
-43.8904137493
 20
-32.3885002387
 10
-43.8835452936
 20
-32.4057496275
 10
-43.8761918138
 20
-32.4228983734
 10
-43.8683576793
 20
-32.4399180526
 10
-43.8600472595
 20
-32.4567802416
 10
-43.8512649238
 20
-32.4734565167
 10
-43.7709763373
 20
-32.6153699173
  0
LWPOLYLINE
  5
267
100
AcDbEntity
  8
IMPORT_IGES
100
AcDbPolyline
 62
7
420
11158274
  6
CONTINUOUS
 90
49
 70
0
 10
-44.6070582098
 20
-33.1546932708
 10
-44.5646707745
 20
-33.2332231084
 10
-44.5241264162
 20
-33.312119033
 10
-44.4854251256
 20
-33.3913238215
 10
-44.4485668931
 20
-33.4707802509
 10
-44.4135517092
 20
-33.5504310982
 10
-44.3803795646
 20
-33.6302191401
 10
-44.3490504498
 20
-33.7100871537
 10
-44.3195643553
 20
-33.7899779159
 10
-44.2919212717
 20
-33.8698342036
 10
-44.2661211895
 20
-33.9495987938
 10
-44.2421640993
 20
-34.0292144632
 10
-44.2200499916
 20
-34.108623989
 10
-44.199778857
 20
-34.1877701479
 10
-44.181350686
 20
-34.266595717
 10
-44.1647654691
 20
-34.3450434731
 10
-44.150023197
 20
-34.4230561932
 10
-44.1371238601
 20
-34.5005766541
 10
-44.126067449
 20
-34.5775476329
 10
-44.1168539543
 20
-34.6539119064
 10
-44.1094833664
 20
-34.7296122516
 10
-44.103955676
 20
-34.8045914454
 10
-44.1002708737
 20
-34.8787922647
 10
-44.0984289498
 20
-34.9521574864
 10
-44.098429895
 20
-35.0246298874
 10
-44.1002736999
 20
-35.0961522448
 10
-44.103960355
 20
-35.1666673353
 10
-44.1094898508
 20
-35.236117936
 10
-44.1168621778
 20
-35.3044468237
 10
-44.1260773267
 20
-35.3715967754
 10
-44.137135288
 20
-35.437510568
 10
-44.1500360522
 20
-35.5021309784
 10
-44.1647796099
 20
-35.5654007836
 10
-44.1813659516
 20
-35.6272627604
 10
-44.1997950678
 20
-35.6876596858
 10
-44.2200669492
 20
-35.7465343368
 10
-44.2421815862
 20
-35.8038294902
 10
-44.2661389695
 20
-35.8594879229
 10
-44.2919390895
 20
-35.9134524119
 10
-44.3195819368
 20
-35.9656657342
 10
-44.3490675019
 20
-36.0160706666
 10
-44.3803957755
 20
-36.064609986
 10
-44.413566748
 20
-36.1112264694
 10
-44.44858041
 20
-36.1558628938
 10
-44.485436752
 20
-36.1984620359
 10
-44.5241357646
 20
-36.2389666728
 10
-44.5646774384
 20
-36.2773195814
 10
-44.6070617638
 20
-36.3134635386
 10
-44.6512887315
 20
-36.3473413213
  0
LWPOLYLINE
  5
268
100
AcDbEntity
  8
IMPORT_IGES
100
AcDbPolyline
 62
7
420
11158274
  6
CONTINUOUS
 90
49
 70
0
 10
-43.7709763373
 20
-32.6153699173
 10
-43.702897579
 20
-32.7415013305
 10
-43.6377787667
 20
-32.8682207781
 10
-43.5756199004
 20
-32.9954363446
 10
-43.5164209802
 20
-33.1230561142
 10
-43.4601820059
 20
-33.2509881715
 10
-43.4069029777
 20
-33.3791406006
 10
-43.3565838955
 20
-33.5074214859
 10
-43.3092247593
 20
-33.6357389119
 10
-43.2648255691
 20
-33.7640009628
 10
-43.2233863249
 20
-33.8921157231
 10
-43.1849070268
 20
-34.019991277
 10
-43.1493876746
 20
-34.1475357089
 10
-43.1168282685
 20
-34.2746571033
 10
-43.0872288083
 20
-34.4012635443
 10
-43.0605892942
 20
-34.5272631165
 10
-43.0369097261
 20
-34.652563904
 10
-43.016190104
 20
-34.7770739914
 10
-42.998430428
 20
-34.9007014629
 10
-42.9836306979
 20
-35.023354403
 10
-42.9717909138
 20
-35.1449408958
 10
-42.9629110758
 20
-35.2653690259
 10
-42.9569911838
 20
-35.3845468776
 10
-42.9540312378
 20
-35.5023825352
 10
-42.9540312378
 20
-35.618784083
 10
-42.9569911838
 20
-35.7336596055
 10
-42.9629110758
 20
-35.846917187
 10
-42.9717909138
 20
-35.9584649118
 10
-42.9836306979
 20
-36.0682108642
 10
-42.998430428
 20
-36.1760631288
 10
-43.016190104
 20
-36.2819297897
 10
-43.0369097261
 20
-36.3857189314
 10
-43.0605892942
 20
-36.4873386382
 10
-43.0872288083
 20
-36.5866969944
 10
-43.1168282685
 20
-36.6837020845
 10
-43.1493876746
 20
-36.7782619927
 10
-43.1849070268
 20
-36.8702848034
 10
-43.2233863249
 20
-36.959678601
 10
-43.2648255691
 20
-37.0463514699
 10
-43.3092247593
 20
-37.1302114943
 10
-43.3565838955
 20
-37.2111667587
 10
-43.4069029777
 20
-37.2891253474
 10
-43.4601820059
 20
-37.3639953447
 10
-43.5164209802
 20
-37.435684835
 10
-43.5756199004
 20
-37.5041019027
 10
-43.6377787667
 20
-37.569154632
 10
-43.702897579
 20
-37.6307511075
 10
-43.7709763373
 20
-37.6887994133
 10
-43.8420150416
 20
-37.7432076339
  0
LWPOLYLINE
  5
269
100
AcDbEntity
  8
IMPORT_IGES
100
AcDbPolyline
 62
7
420
11158274
  6
CONTINUOUS
 90
54
 70
0
 10
-51.5845135604
 20
-30.2311195732
 10
-51.5865068406
 20
-30.2400732163
 10
-51.5881742503
 20
-30.2493358356
 10
-51.5895210072
 20
-30.258893746
 10
-51.5905523289
 20
-30.2687332619
 10
-51.5912734331
 20
-30.2788406983
 10
-51.5916895373
 20
-30.2892023696
 10
-51.5918058593
 20
-30.2998045906
 10
-51.5916276166
 20
-30.310633676
 10
-51.591160027
 20
-30.3216759404
 10
-51.590408308
 20
-30.3329176986
 10
-51.5893776774
 20
-30.3443452651
 10
-51.5880733527
 20
-30.3559449548
 10
-51.5865005515
 20
-30.3677030822
 10
-51.5846644916
 20
-30.3796059621
 10
-51.5825703906
 20
-30.391639909
 10
-51.5802234661
 20
-30.4037912378
 10
-51.5776289358
 20
-30.4160462631
 10
-51.5747920173
 20
-30.4283912995
 10
-51.5717179282
 20
-30.4408126618
 10
-51.5684118862
 20
-30.4532966646
 10
-51.5648791089
 20
-30.4658296226
 10
-51.561124814
 20
-30.4783978505
 10
-51.5571542191
 20
-30.4909876629
 10
-51.5529725419
 20
-30.5035853746
 10
-51.5485849999
 20
-30.5161773002
 10
-51.543996811
 20
-30.5287497544
 10
-51.5392131926
 20
-30.5412890518
 10
-51.5342393624
 20
-30.5537815072
 10
-51.5290805381
 20
-30.5662134353
 10
-51.5237419373
 20
-30.5785711506
 10
-51.5182287776
 20
-30.590840968
 10
-51.5125462768
 20
-30.603009202
 10
-51.5066996524
 20
-30.6150621674
 10
-51.5006941221
 20
-30.6269861788
 10
-51.4945349035
 20
-30.6387675509
 10
-51.4882272142
 20
-30.6503925984
 10
-51.481776272
 20
-30.661847636
 10
-51.4751872944
 20
-30.6731189783
 10
-51.4684654992
 20
-30.68419294
 10
-51.4616161038
 20
-30.6950558358
 10
-51.454644326
 20
-30.7056939805
 10
-51.4475553835
 20
-30.7160936886
 10
-51.4403544938
 20
-30.7262412748
 10
-51.4330468746
 20
-30.7361230538
 10
-51.4256377436
 20
-30.7457253404
 10
-51.4181323184
 20
-30.7550344491
 10
-51.4105358166
 20
-30.7640366947
 10
-51.4028534558
 20
-30.7727183918
 10
-51.3950904538
 20
-30.7810658552
 10
-51.3872520282
 20
-30.7890653994
 10
-51.3793433965
 20
-30.7967033392
 10
-51.3713697765
 20
-30.8039659893
 10
-51.3633363858
 20
-30.8108396643
  0
LINE
  5
26A
100
AcDbEntity
  8
IMPORT_IGES
100
AcDbLine
 62
7
420
11158274
  6
CONTINUOUS
 10
-50.9813423996
 20
-27.7758009051
 11
-51.5845135604
 21
-30.2311195732
  0
LINE
  5
26B
100
AcDbEntity
  8
IMPORT_IGES
100
AcDbLine
 62
7
420
11158274
  6
CONTINUOUS
 10
-50.8993585698
 20
-30.4020100714
 11
-50.3957171376
 21
-28.351832765
  0
LWPOLYLINE
  5
26C
100
AcDbEntity
  8
IMPORT_IGES
100
AcDbPolyline
 62
7
420
11158274
  6
CONTINUOUS
 90
43
 70
0
 10
-9.7673558857
 20
-38.030594771
 10
-9.7484712166
 20
-38.0355858984
 10
-9.7293866839
 20
-38.0413808527
 10
-9.7101202151
 20
-38.0479628862
 10
-9.6906897379
 20
-38.0553152509
 10
-9.6711131798
 20
-38.063421199
 10
-9.6514084684
 20
-38.0722639826
 10
-9.6315935313
 20
-38.0818268538
 10
-9.6116862962
 20
-38.0920930646
 10
-9.5917046905
 20
-38.1030458673
 10
-9.5716666419
 20
-38.114668514
 10
-9.551590078
 20
-38.1269442566
 10
-9.5314929263
 20
-38.1398563475
 10
-9.5113931145
 20
-38.1533880386
 10
-9.4913085701
 20
-38.167522582
 10
-9.4712572207
 20
-38.18224323
 10
-9.451256994
 20
-38.1975332346
 10
-9.4313258174
 20
-38.2133758479
 10
-9.4114816187
 20
-38.2297543221
 10
-9.3917423253
 20
-38.2466519092
 10
-9.3721258649
 20
-38.2640518613
 10
-9.352650165
 20
-38.2819374306
 10
-9.3333331533
 20
-38.3002918692
 10
-9.3141927573
 20
-38.3190984293
 10
-9.2952469046
 20
-38.3383403628
 10
-9.2765135229
 20
-38.3580009219
 10
-9.2580105396
 20
-38.3780633588
 10
-9.2397558824
 20
-38.3985109255
 10
-9.2217674789
 20
-38.4193268742
 10
-9.2040632567
 20
-38.440494457
 10
-9.1866611433
 20
-38.4619969259
 10
-9.1695790664
 20
-38.4838175332
 10
-9.1528349535
 20
-38.5059395309
 10
-9.1364467322
 20
-38.5283461711
 10
-9.1204323301
 20
-38.5510207059
 10
-9.1048096748
 20
-38.5739463875
 10
-9.0895966939
 20
-38.5971064679
 10
-9.074811315
 20
-38.6204841994
 10
-9.0604714657
 20
-38.6440628339
 10
-9.0465950735
 20
-38.6678256236
 10
-9.033200066
 20
-38.6917558207
 10
-9.0203043709
 20
-38.7158366771
 10
-9.0079259157
 20
-38.7400514451
  0
LWPOLYLINE
  5
26D
100
AcDbEntity
  8
IMPORT_IGES
100
AcDbPolyline
 62
7
420
11158274
  6
CONTINUOUS
 90
78
 70
0
 10
7.9801860535
 20
-48.02332969
 10
7.9938010823
 20
-48.0286132653
 10
8.0073939652
 20
-48.0336086547
 10
8.0209587542
 20
-48.0383031384
 10
8.0344895015
 20
-48.042683997
 10
8.0479802592
 20
-48.0467385107
 10
8.058727889
 20
-48.0497335615
 10
8.0694419024
 20
-48.0524946679
 10
8.0801180179
 20
-48.0550044031
 10
8.0907519537
 20
-48.0572453405
 10
8.1014285962
 20
-48.0592160762
 10
8.112048024
 20
-48.060881594
 10
8.1226002799
 20
-48.0622278042
 10
8.1330754066
 20
-48.0632406172
 10
8.143463447
 20
-48.0639059431
 10
8.1537544437
 20
-48.0642096925
 10
8.1639384396
 20
-48.0641377756
 10
8.1735477762
 20
-48.0637082202
 10
8.1830450187
 20
-48.0629251363
 10
8.1924245667
 20
-48.0617898796
 10
8.2016808199
 20
-48.0603038055
 10
8.210808178
 20
-48.0584682697
 10
8.2193453383
 20
-48.0564037406
 10
8.2277541679
 20
-48.0540229238
 10
8.2360274626
 20
-48.0513230359
 10
8.2441580183
 20
-48.0483012934
 10
8.2521386309
 20
-48.044954913
 10
8.2602796737
 20
-48.0411228658
 10
8.2682407804
 20
-48.036930819
 10
8.2760123343
 20
-48.0323736392
 10
8.2835847187
 20
-48.0274461931
 10
8.2904319989
 20
-48.0225303348
 10
8.297081125
 20
-48.0172792328
 10
8.3035141928
 20
-48.0116817346
 10
8.3097132981
 20
-48.0057266881
 10
8.3143785488
 20
-48.0008386555
 10
8.3189243792
 20
-47.9957744987
 10
8.3233843955
 20
-47.9905821045
 10
8.3255049952
 20
-47.9880341132
 10
8.3275596326
 20
-47.9853997092
 10
8.3294944881
 20
-47.9826111679
 10
8.33154272
 20
-47.9790956847
 10
8.3333553072
 20
-47.9753057871
 10
8.334932835
 20
-47.9712689614
 10
8.3362758885
 20
-47.9670126937
 10
8.337396562
 20
-47.962497478
 10
8.3382644898
 20
-47.957787182
 10
8.3387232411
 20
-47.9542895979
 10
8.3390335766
 20
-47.9506933773
 10
8.3391834758
 20
-47.9469991158
 10
8.339136837
 20
-47.9425767507
 10
8.3388192239
 20
-47.9380375512
 10
8.3381935263
 20
-47.9333968259
 10
8.33740832
 20
-47.9294476011
 10
8.3363759422
 20
-47.9254705101
 10
8.3350912913
 20
-47.9214981473
 10
8.3335320117
 20
-47.9175076639
 10
8.331738482
 20
-47.9135814002
 10
8.3297410066
 20
-47.9097452124
 10
8.3275698895
 20
-47.9060249565
 10
8.3255676442
 20
-47.9029071601
 10
8.3234710466
 20
-47.8998917326
 10
8.3212936742
 20
-47.8969742793
 10
8.3180839028
 20
-47.8929875591
 10
8.3147627476
 20
-47.8891787564
 10
8.3113545943
 20
-47.8855367145
 10
8.3073000244
 20
-47.8814877238
 10
8.3031739335
 20
-47.8776389269
 10
8.2989898893
 20
-47.8739790558
 10
8.2936259027
 20
-47.8695929145
 10
8.288209431
 20
-47.8654490489
 10
8.2835968806
 20
-47.8621063286
 10
8.2789617282
 20
-47.8589200843
 10
8.2738781021
 20
-47.8556332741
 10
8.2687767848
 20
-47.8525497086
 10
8.2645853021
 20
-47.8501665791
 10
8.2603899347
 20
-47.8478818492
 10
8.255320611
 20
-47.8451949965
  0
LWPOLYLINE
  5
26E
100
AcDbEntity
  8
IMPORT_IGES
100
AcDbPolyline
 62
7
420
11158274
  6
CONTINUOUS
 90
74
 70
0
 10
7.5298290535
 20
-47.4824492177
 10
7.5254055545
 20
-47.4806880843
 10
7.5209959087
 20
-47.4790281618
 10
7.5166139694
 20
-47.4775706612
 10
7.5122735897
 20
-47.4764167936
 10
7.507611441
 20
-47.4755998957
 10
7.5030385887
 20
-47.4752482753
 10
7.498578616
 20
-47.4753471134
 10
7.4942551063
 20
-47.4758815908
 10
7.4900916428
 20
-47.4768368884
 10
7.4863470454
 20
-47.478116969
 10
7.4828036219
 20
-47.479810814
 10
7.4795001894
 20
-47.4819732205
 10
7.4770501733
 20
-47.4840791603
 10
7.474809551
 20
-47.4865162844
 10
7.4728080967
 20
-47.4892786084
 10
7.4710755846
 20
-47.4923601477
 10
7.4696417887
 20
-47.4957549178
 10
7.4685246486
 20
-47.499462481
 10
7.4677153815
 20
-47.5034312275
 10
7.4671912267
 20
-47.5076130897
 10
7.466929424
 20
-47.5119600003
 10
7.4669374432
 20
-47.517465605
 10
7.4672891594
 20
-47.5231204053
 10
7.4679666738
 20
-47.5288970468
 10
7.4688019182
 20
-47.5339596397
 10
7.4698673917
 20
-47.5390666483
 10
7.4711638484
 20
-47.5441920679
 10
7.4726920421
 20
-47.5493098936
 10
7.4749325061
 20
-47.5557066847
 10
7.4774689055
 20
-47.5620561195
 10
7.4802292597
 20
-47.5683640114
 10
7.4831415876
 20
-47.5746361738
 10
7.4861339085
 20
-47.58087842
 10
7.4918112395
 20
-47.5925375762
 10
7.4975842693
 20
-47.6041020531
 10
7.5035204156
 20
-47.6155622488
 10
7.5109813713
 20
-47.6292585031
 10
7.518744218
 20
-47.6427807936
 10
7.5267742597
 20
-47.6561214286
 10
7.5350368006
 20
-47.6692727166
 10
7.5439624067
 20
-47.6829184667
 10
7.553099287
 20
-47.6963400839
 10
7.5624390667
 20
-47.7095322351
 10
7.5719733705
 20
-47.7224895875
 10
7.5805530467
 20
-47.7337372266
 10
7.5892748454
 20
-47.7447862454
 10
7.5981355686
 20
-47.7556254869
 10
7.6095718552
 20
-47.7690629362
 10
7.6212084065
 20
-47.7821405927
 10
7.6330269573
 20
-47.7948543853
 10
7.6434011778
 20
-47.8055728874
 10
7.6538904158
 20
-47.8160105309
 10
7.6644867602
 20
-47.8261626959
 10
7.6763942108
 20
-47.8371227122
 10
7.6884092315
 20
-47.8477389696
 10
7.7005165503
 20
-47.8580269628
 10
7.7129753865
 20
-47.8682210236
 10
7.7255054044
 20
-47.8780996168
 10
7.7380972747
 20
-47.8876741936
 10
7.7507416682
 20
-47.8969562056
 10
7.7661358635
 20
-47.9078378815
 10
7.7815840864
 20
-47.9183265031
 10
7.7970768244
 20
-47.9284425453
 10
7.8126045652
 20
-47.938206483
 10
7.8292491184
 20
-47.9482853696
 10
7.8459168368
 20
-47.9579954801
 10
7.8626016982
 20
-47.9673477648
 10
7.8792976805
 20
-47.9763531736
 10
7.9003639597
 20
-47.9872285824
 10
7.9214308162
 20
-47.9975579738
 10
7.941034066
 20
-48.0066690172
 10
7.9606221807
 20
-48.0152689224
 10
7.9801860535
 20
-48.02332969
  0
LWPOLYLINE
  5
26F
100
AcDbEntity
  8
IMPORT_IGES
100
AcDbPolyline
 62
7
420
11158274
  6
CONTINUOUS
 90
49
 70
0
 10
8.9203548441
 20
-47.7793280409
 10
8.9375838279
 20
-47.7865929672
 10
8.9547661145
 20
-47.7932968412
 10
8.9709017836
 20
-47.798686649
 10
8.9869308538
 20
-47.8030968306
 10
9.0028299308
 20
-47.8065474392
 10
9.0160619396
 20
-47.8087097457
 10
9.0291473003
 20
-47.8101665566
 10
9.0420475699
 20
-47.810875146
 10
9.0547243052
 20
-47.810792788
 10
9.067139063
 20
-47.8098767569
 10
9.0792534002
 20
-47.8080843266
 10
9.0914131964
 20
-47.8052755542
 10
9.1031763754
 20
-47.801490509
 10
9.1145079609
 20
-47.7967338239
 10
9.1253729771
 20
-47.7910101318
 10
9.1357364476
 20
-47.7843240659
 10
9.1467770986
 20
-47.7756466488
 10
9.1571035133
 20
-47.7658066495
 10
9.1666832779
 20
-47.7548586018
 10
9.1754839783
 20
-47.7428570393
 10
9.1834732003
 20
-47.7298564955
 10
9.1906185301
 20
-47.7159115042
 10
9.1967751104
 20
-47.7013854118
 10
9.2020936847
 20
-47.6860558394
 10
9.2065774197
 20
-47.6699735418
 10
9.2100803087
 20
-47.6539878893
 10
9.2128441887
 20
-47.6374239542
 10
9.214886114
 20
-47.6203416067
 10
9.2162231387
 20
-47.6028007166
 10
9.216872317
 20
-47.584861154
 10
9.2168426549
 20
-47.5660692477
 10
9.2161346052
 20
-47.5469621104
 10
9.2147781926
 20
-47.5275823146
 10
9.2128034423
 20
-47.5079724331
 10
9.2102403791
 20
-47.4881750387
 10
9.2071190282
 20
-47.468232704
 10
9.2022489791
 20
-47.442024717
 10
9.1965367173
 20
-47.4156855074
 10
9.1900415428
 20
-47.3892585488
 10
9.1828227557
 20
-47.3627873153
 10
9.1749396561
 20
-47.3363152804
 10
9.1659414264
 20
-47.3083635024
 10
9.15630777
 20
-47.2804824768
 10
9.1460798593
 20
-47.2526952341
 10
9.1352988665
 20
-47.225024805
 10
9.1240059641
 20
-47.1974942202
 10
9.1088592817
 20
-47.1623967307
 10
9.0931687308
 20
-47.1274860518
  0
LWPOLYLINE
  5
270
100
AcDbEntity
  8
IMPORT_IGES
100
AcDbPolyline
 62
7
420
11158274
  6
CONTINUOUS
 90
27
 70
0
 10
-9.9714266618
 20
-37.6700714071
 10
-9.9900635333
 20
-37.6695549883
 10
-10.0085907991
 20
-37.6695743937
 10
-10.0269992059
 20
-37.6701263105
 10
-10.0452795002
 20
-37.6712074262
 10
-10.0634224286
 20
-37.6728144282
 10
-10.0814187377
 20
-37.6749440037
 10
-10.0992591742
 20
-37.6775928401
 10
-10.1169344845
 20
-37.6807576247
 10
-10.1344354153
 20
-37.684435045
 10
-10.1517527132
 20
-37.6886217883
 10
-10.1688771249
 20
-37.6933145418
 10
-10.1857993967
 20
-37.6985099931
 10
-10.2025102755
 20
-37.7042048293
 10
-10.2190005077
 20
-37.710395738
 10
-10.23526084
 20
-37.7170794063
 10
-10.251282019
 20
-37.7242525218
 10
-10.2670547912
 20
-37.7319117716
 10
-10.2825699033
 20
-37.7400538433
 10
-10.2978181018
 20
-37.748675424
 10
-10.3127901333
 20
-37.7577732013
 10
-10.3274767445
 20
-37.7673438623
 10
-10.3418686818
 20
-37.7773840946
 10
-10.3559566921
 20
-37.7878905854
 10
-10.3697315217
 20
-37.798860022
 10
-10.3831839173
 20
-37.810289092
 10
-10.3963046255
 20
-37.8221744825
  0
LWPOLYLINE
  5
271
100
AcDbEntity
  8
IMPORT_IGES
100
AcDbPolyline
 62
7
420
11158274
  6
CONTINUOUS
 90
80
 70
0
 10
-1.216374723
 20
-39.5435323796
 10
-1.2207937563
 20
-39.5417500215
 10
-1.2252076706
 20
-39.5399988928
 10
-1.2296113468
 20
-39.5383102227
 10
-1.2339996659
 20
-39.5367152405
 10
-1.2383675088
 20
-39.5352451756
 10
-1.2427097564
 20
-39.5339312573
 10
-1.2470212897
 20
-39.5328047149
 10
-1.2512969897
 20
-39.5318967777
 10
-1.2550966184
 20
-39.5312894249
 10
-1.2588599199
 20
-39.530877206
 10
-1.2625834999
 20
-39.5306543453
 10
-1.266263964
 20
-39.530615067
 10
-1.2698979176
 20
-39.5307535956
 10
-1.2734819665
 20
-39.5310641553
 10
-1.2770127162
 20
-39.5315409704
 10
-1.2804867723
 20
-39.5321782652
 10
-1.2839007403
 20
-39.5329702641
 10
-1.2878396557
 20
-39.53409497
 10
-1.2916859968
 20
-39.5354257793
 10
-1.2954352281
 20
-39.536962258
 10
-1.2990828142
 20
-39.5387039727
 10
-1.3026242196
 20
-39.5406504894
 10
-1.3060549087
 20
-39.5428013746
 10
-1.3093703462
 20
-39.5451561945
 10
-1.3125659966
 20
-39.5477145153
 10
-1.3156186034
 20
-39.5504572765
 10
-1.3185447965
 20
-39.553396023
 10
-1.3213409309
 20
-39.5565262106
 10
-1.3240033618
 20
-39.5598432951
 10
-1.3265284444
 20
-39.5633427323
 10
-1.3289125337
 20
-39.5670199781
 10
-1.3311519851
 20
-39.5708704883
 10
-1.3333005373
 20
-39.5750054997
 10
-1.335290847
 20
-39.5793119935
 10
-1.3371214627
 20
-39.5837830509
 10
-1.338790933
 20
-39.5884117533
 10
-1.3402978066
 20
-39.5931911817
 10
-1.3416406321
 20
-39.5981144175
 10
-1.3425953407
 20
-39.602153939
 10
-1.3434384793
 20
-39.6062805386
 10
-1.3441644783
 20
-39.6104936193
 10
-1.3447677677
 20
-39.614792584
 10
-1.3453266124
 20
-39.6200404222
 10
-1.3457311907
 20
-39.6253880947
 10
-1.3460105793
 20
-39.6308135396
 10
-1.346193855
 20
-39.6362946949
 10
-1.3462721661
 20
-39.6399676946
 10
-1.3463007558
 20
-39.643664754
 10
-1.3462596357
 20
-39.6473950082
 10
-1.3461288173
 20
-39.6511675928
 10
-1.3458512948
 20
-39.6555011627
 10
-1.3454297678
 20
-39.6598928134
 10
-1.3448610421
 20
-39.6643345569
 10
-1.3441419234
 20
-39.6688184051
 10
-1.3432692175
 20
-39.6733363698
 10
-1.34223973
 20
-39.677880463
 10
-1.3412245122
 20
-39.6818088524
 10
-1.340087199
 20
-39.6857398996
 10
-1.3388244121
 20
-39.6896628005
 10
-1.3374327728
 20
-39.6935667512
 10
-1.3359089028
 20
-39.6974409475
 10
-1.3342494234
 20
-39.7012745854
 10
-1.3326568847
 20
-39.7046448945
 10
-1.3309619241
 20
-39.7079682379
 10
-1.3291722783
 20
-39.711238359
 10
-1.327295684
 20
-39.7144490007
 10
-1.325339878
 20
-39.7175939062
 10
-1.3229318544
 20
-39.7212268949
 10
-1.320434691
 20
-39.7247643012
 10
-1.3178594663
 20
-39.7282114877
 10
-1.3152172591
 20
-39.7315738171
 10
-1.3125191481
 20
-39.7348566519
 10
-1.3101462607
 20
-39.7376327867
 10
-1.3077355087
 20
-39.7403319397
 10
-1.3052825823
 20
-39.742932622
 10
-1.3027831716
 20
-39.7454133445
 10
-1.3004715581
 20
-39.7475540553
 10
-1.298131999
 20
-39.7496169445
 10
-1.295778467
 20
-39.7516409229
  0
LWPOLYLINE
  5
272
100
AcDbEntity
  8
IMPORT_IGES
100
AcDbPolyline
 62
7
420
11158274
  6
CONTINUOUS
 90
35
 70
0
 10
-9.6645295992
 20
-36.7300375281
 10
-9.7074587681
 20
-36.7108431565
 10
-9.7504904861
 20
-36.6929865788
 10
-9.7935925189
 20
-36.6764657149
 10
-9.8367326321
 20
-36.661278485
 10
-9.8798785913
 20
-36.647422809
 10
-9.9229981622
 20
-36.634896607
 10
-9.9660591103
 20
-36.6236977991
 10
-10.0090292015
 20
-36.6138243053
 10
-10.0518762012
 20
-36.6052740457
 10
-10.0945678751
 20
-36.5980449402
 10
-10.1370719889
 20
-36.5921349091
 10
-10.1793563082
 20
-36.5875418722
 10
-10.2213885985
 20
-36.5842637497
 10
-10.2631366257
 20
-36.5822984616
 10
-10.3045681552
 20
-36.5816439279
 10
-10.3456509527
 20
-36.5822980687
 10
-10.3863527839
 20
-36.584258804
 10
-10.4266414144
 20
-36.587524054
 10
-10.4664846099
 20
-36.5920917385
 10
-10.5058501359
 20
-36.5979597778
 10
-10.544705758
 20
-36.6051260918
 10
-10.5830192421
 20
-36.6135886005
 10
-10.6207583536
 20
-36.6233452241
 10
-10.6578908582
 20
-36.6343938826
 10
-10.6943845215
 20
-36.6467324959
 10
-10.7302071092
 20
-36.6603589843
 10
-10.7653263869
 20
-36.6752712676
 10
-10.7997101203
 20
-36.691467266
 10
-10.8333260749
 20
-36.7089448996
 10
-10.8661420165
 20
-36.7277020882
 10
-10.8981257106
 20
-36.7477367521
 10
-10.9292449229
 20
-36.7690468113
 10
-10.959467419
 20
-36.7916301857
 10
-10.9887609645
 20
-36.8154847955
  0
LWPOLYLINE
  5
273
100
AcDbEntity
  8
IMPORT_IGES
100
AcDbPolyline
 62
7
420
11158274
  6
CONTINUOUS
 90
36
 70
0
 10
8.0124294317
 20
-46.9591355778
 10
8.0103926848
 20
-46.9581880876
 10
8.0083501591
 20
-46.9573037127
 10
8.0063033781
 20
-46.9564823637
 10
8.004253865
 20
-46.9557239509
 10
8.0022031431
 20
-46.9550283848
 10
8.0001527357
 20
-46.954395576
 10
7.9981041661
 20
-46.9538254349
 10
7.9960589577
 20
-46.9533178719
 10
7.9940186337
 20
-46.9528727976
 10
7.9919847174
 20
-46.9524901225
 10
7.9899587322
 20
-46.952169757
 10
7.9879422014
 20
-46.9519116116
 10
7.9859366482
 20
-46.9517155967
 10
7.9839435959
 20
-46.9515816229
 10
7.981964568
 20
-46.9515096006
 10
7.9800010876
 20
-46.9514994403
 10
7.9780546781
 20
-46.9515510525
 10
7.9761268628
 20
-46.9516643477
 10
7.9742191651
 20
-46.9518392363
 10
7.9723331081
 20
-46.9520756288
 10
7.9704702152
 20
-46.9523734357
 10
7.9686320098
 20
-46.9527325674
 10
7.9668200151
 20
-46.9531529345
 10
7.9650357544
 20
-46.9536344475
 10
7.963280751
 20
-46.9541770167
 10
7.9615565283
 20
-46.9547805527
 10
7.9598646096
 20
-46.9554449659
 10
7.9582065181
 20
-46.9561701669
 10
7.9565837772
 20
-46.9569560661
 10
7.9549979102
 20
-46.9578025739
 10
7.9534504403
 20
-46.958709601
 10
7.951942891
 20
-46.9596770576
 10
7.9504767854
 20
-46.9607048544
 10
7.9490536469
 20
-46.9617929018
 10
7.9476749988
 20
-46.9629411102
  0
LWPOLYLINE
  5
274
100
AcDbEntity
  8
IMPORT_IGES
100
AcDbPolyline
 62
7
420
11158274
  6
CONTINUOUS
 90
55
 70
0
 10
0.1716758885
 20
-43.5662995298
 10
0.1751111611
 20
-43.5679293576
 10
0.1785587597
 20
-43.569392123
 10
0.1820157313
 20
-43.570690022
 10
0.1854791228
 20
-43.5718252504
 10
0.1889459811
 20
-43.572800004
 10
0.1924133532
 20
-43.5736164788
 10
0.1958782861
 20
-43.5742768706
 10
0.1993378266
 20
-43.5747833753
 10
0.2027890217
 20
-43.5751381888
 10
0.2062289183
 20
-43.5753435069
 10
0.2096545634
 20
-43.5754015255
 10
0.2130630039
 20
-43.5753144405
 10
0.2164512868
 20
-43.5750844477
 10
0.2198164589
 20
-43.574713743
 10
0.2231555673
 20
-43.5742045223
 10
0.2264656588
 20
-43.5735589815
 10
0.2297437805
 20
-43.5727793163
 10
0.2329869791
 20
-43.5718677228
 10
0.2361923018
 20
-43.5708263967
 10
0.2393567953
 20
-43.569657534
 10
0.2424775067
 20
-43.5683633305
 10
0.2455514829
 20
-43.566945982
 10
0.2485757708
 20
-43.5654076845
 10
0.2515474174
 20
-43.5637506338
 10
0.2544634696
 20
-43.5619770258
 10
0.2573209743
 20
-43.5600890564
 10
0.2601169785
 20
-43.5580889214
 10
0.2628485291
 20
-43.5559788167
 10
0.2655126731
 20
-43.5537609381
 10
0.2681064573
 20
-43.5514374816
 10
0.2706269288
 20
-43.549010643
 10
0.2730711344
 20
-43.5464826181
 10
0.2754361212
 20
-43.543855603
 10
0.277718936
 20
-43.5411317933
 10
0.2799166257
 20
-43.538313385
 10
0.2820262374
 20
-43.535402574
 10
0.2840448179
 20
-43.5324015561
 10
0.2859694142
 20
-43.5293125273
 10
0.2877970733
 20
-43.5261376832
 10
0.289524842
 20
-43.52287922
 10
0.2911497673
 20
-43.5195393333
 10
0.2926688962
 20
-43.5161202191
 10
0.2940792755
 20
-43.5126240733
 10
0.2953779523
 20
-43.5090530917
 10
0.2965619734
 20
-43.5054094702
 10
0.2976283858
 20
-43.5016954047
 10
0.2985742365
 20
-43.497913091
 10
0.2993965723
 20
-43.494064725
 10
0.3000924402
 20
-43.4901525025
 10
0.3006588871
 20
-43.4861786196
 10
0.3010929601
 20
-43.4821452719
 10
0.301391706
 20
-43.4780546554
 10
0.3015521717
 20
-43.473908966
 10
0.3015714042
 20
-43.4697103995
  0
LWPOLYLINE
  5
275
100
AcDbEntity
  8
IMPORT_IGES
100
AcDbPolyline
 62
7
420
11158274
  6
CONTINUOUS
 90
55
 70
0
 10
-17.0917704888
 20
-35.3743154078
 10
-17.0886231379
 20
-35.3758097541
 10
-17.0854643515
 20
-35.3771533456
 10
-17.0822968063
 20
-35.3783481223
 10
-17.0791231791
 20
-35.3793960243
 10
-17.0759461468
 20
-35.3802989915
 10
-17.0727683862
 20
-35.381058964
 10
-17.0695925741
 20
-35.3816778818
 10
-17.0664213874
 20
-35.3821576849
 10
-17.0632575028
 20
-35.3825003133
 10
-17.0601035973
 20
-35.3827077071
 10
-17.0569623475
 20
-35.3827818062
 10
-17.0538364304
 20
-35.3827245506
 10
-17.0507285228
 20
-35.3825378805
 10
-17.0476413015
 20
-35.3822237357
 10
-17.0445774433
 20
-35.3817840564
 10
-17.0415396251
 20
-35.3812207825
 10
-17.0385305236
 20
-35.380535854
 10
-17.0355528158
 20
-35.379731211
 10
-17.0326091784
 20
-35.3788087935
 10
-17.0297022882
 20
-35.3777705414
 10
-17.0268348221
 20
-35.3766183949
 10
-17.024009457
 20
-35.3753542939
 10
-17.0212288695
 20
-35.3739801784
 10
-17.0184957367
 20
-35.3724979885
 10
-17.0158127352
 20
-35.3709096642
 10
-17.0131825419
 20
-35.3692171455
 10
-17.0106078337
 20
-35.3674223723
 10
-17.0080912874
 20
-35.3655272848
 10
-17.0056355797
 20
-35.3635338229
 10
-17.0032433875
 20
-35.3614439267
 10
-17.0009173877
 20
-35.3592595362
 10
-16.9986602571
 20
-35.3569825913
 10
-16.9964746725
 20
-35.3546150321
 10
-16.9943633106
 20
-35.3521587987
 10
-16.9923288485
 20
-35.3496158309
 10
-16.9903739628
 20
-35.346988069
 10
-16.9885013304
 20
-35.3442774528
 10
-16.9867136281
 20
-35.3414859223
 10
-16.9850135328
 20
-35.3386154177
 10
-16.9834037212
 20
-35.3356678789
 10
-16.9818868703
 20
-35.3326452459
 10
-16.9804656568
 20
-35.3295494587
 10
-16.9791427575
 20
-35.3263824574
 10
-16.9779208493
 20
-35.323146182
 10
-16.9768026091
 20
-35.3198425724
 10
-16.9757907135
 20
-35.3164735688
 10
-16.9748878395
 20
-35.3130411111
 10
-16.9740966639
 20
-35.3095471394
 10
-16.9734198635
 20
-35.3059935935
 10
-16.9728601152
 20
-35.3023824137
 10
-16.9724200957
 20
-35.2987155398
 10
-16.9721024819
 20
-35.294994912
 10
-16.9719099506
 20
-35.2912224701
 10
-16.9718451787
 20
-35.2874001543
  0
LWPOLYLINE
  5
276
100
AcDbEntity
  8
IMPORT_IGES
100
AcDbPolyline
 62
7
420
11158274
  6
CONTINUOUS
 90
54
 70
0
 10
-0.1384611457
 20
-43.0866446914
 10
-0.1401478504
 20
-43.0858425973
 10
-0.1418408862
 20
-43.0851216179
 10
-0.1435387779
 20
-43.0844807119
 10
-0.1452400503
 20
-43.0839188379
 10
-0.1469432282
 20
-43.0834349545
 10
-0.1486468364
 20
-43.0830280204
 10
-0.1503493997
 20
-43.082696994
 10
-0.1520494429
 20
-43.0824408341
 10
-0.1537454907
 20
-43.0822584993
 10
-0.1554360681
 20
-43.0821489481
 10
-0.1571196997
 20
-43.0821111392
 10
-0.1587949103
 20
-43.0821440312
 10
-0.1604602248
 20
-43.0822465828
 10
-0.162114168
 20
-43.0824177525
 10
-0.1637552646
 20
-43.0826564989
 10
-0.1653820395
 20
-43.0829617807
 10
-0.1669930173
 20
-43.0833325564
 10
-0.168586723
 20
-43.0837677848
 10
-0.1701616814
 20
-43.0842664243
 10
-0.1717164171
 20
-43.0848274337
 10
-0.1732494551
 20
-43.0854497716
 10
-0.17475932
 20
-43.0861323964
 10
-0.1762445368
 20
-43.086874267
 10
-0.1777036301
 20
-43.0876743418
 10
-0.1791351249
 20
-43.0885315795
 10
-0.1805375458
 20
-43.0894449387
 10
-0.1819094177
 20
-43.0904133781
 10
-0.1832492654
 20
-43.0914358562
 10
-0.1845556136
 20
-43.0925113316
 10
-0.1858269872
 20
-43.093638763
 10
-0.187061911
 20
-43.094817109
 10
-0.1882589096
 20
-43.0960453282
 10
-0.1894165081
 20
-43.0973223792
 10
-0.1905332311
 20
-43.0986472207
 10
-0.1916076034
 20
-43.1000188111
 10
-0.1926381498
 20
-43.1014361093
 10
-0.1936233951
 20
-43.1028980737
 10
-0.1945618642
 20
-43.104403663
 10
-0.1954520818
 20
-43.1059518358
 10
-0.1962925726
 20
-43.1075415507
 10
-0.1970818616
 20
-43.1091717663
 10
-0.1978184735
 20
-43.1108414413
 10
-0.198500933
 20
-43.1125495342
 10
-0.1991277651
 20
-43.1142950037
 10
-0.1996974944
 20
-43.1160768084
 10
-0.2002086457
 20
-43.117893907
 10
-0.200659744
 20
-43.1197452579
 10
-0.2010493138
 20
-43.1216298199
 10
-0.2013758802
 20
-43.1235465515
 10
-0.2016379678
 20
-43.1254944113
 10
-0.2018341014
 20
-43.1274723581
 10
-0.2019628059
 20
-43.1294793503
 10
-0.2020226059
 20
-43.1315143467
  0
LWPOLYLINE
  5
277
100
AcDbEntity
  8
IMPORT_IGES
100
AcDbPolyline
 62
7
420
11158274
  6
CONTINUOUS
 90
30
 70
0
 10
7.8639579172
 20
-44.2142419232
 10
7.8432580938
 20
-44.2041854088
 10
7.8225712609
 20
-44.1945965827
 10
7.7980736118
 20
-44.1840392383
 10
7.7736130067
 20
-44.1743434913
 10
7.7492035054
 20
-44.1654393839
 10
7.724859168
 20
-44.1572569578
 10
7.701496761
 20
-44.1500132051
 10
7.6782223929
 20
-44.1434147441
 10
7.6550506714
 20
-44.1375027963
 10
7.6319962043
 20
-44.132318583
 10
7.6100019742
 20
-44.1280625048
 10
7.5881441991
 20
-44.1245230137
 10
7.5664379632
 20
-44.1217089196
 10
7.5448983504
 20
-44.1196290324
 10
7.5203680631
 20
-44.118165843
 10
7.4961210761
 20
-44.1177525364
 10
7.4722006048
 20
-44.1184572663
 10
7.454324342
 20
-44.1197742826
 10
7.4366756366
 20
-44.1217852525
 10
7.4192698984
 20
-44.1245035073
 10
7.4021225373
 20
-44.1279423778
 10
7.3838192644
 20
-44.1325115275
 10
7.3658850171
 20
-44.1379857392
 10
7.3483660506
 20
-44.1444048155
 10
7.3313086197
 20
-44.1518085595
 10
7.3147589794
 20
-44.160236774
 10
7.2998613553
 20
-44.1690123285
 10
7.2854353149
 20
-44.178655683
 10
7.2714735548
 20
-44.1891147374
  0
LWPOLYLINE
  5
278
100
AcDbEntity
  8
IMPORT_IGES
100
AcDbPolyline
 62
7
420
11158274
  6
CONTINUOUS
 90
55
 70
0
 10
-0.0288988904
 20
-40.4619432198
 10
-0.0272178005
 20
-40.4627714372
 10
-0.0255288164
 20
-40.4636878478
 10
-0.0238334178
 20
-40.4646899734
 10
-0.0221330846
 20
-40.4657753361
 10
-0.0204292966
 20
-40.4669414579
 10
-0.0187235337
 20
-40.4681858607
 10
-0.0170172755
 20
-40.4695060666
 10
-0.0153120021
 20
-40.4708995976
 10
-0.0136091932
 20
-40.4723639756
 10
-0.0119103286
 20
-40.4738967227
 10
-0.0102168881
 20
-40.4754953608
 10
-0.0085303516
 20
-40.477157412
 10
-0.0068521989
 20
-40.4788803982
 10
-0.0051839099
 20
-40.4806618414
 10
-0.0035269643
 20
-40.4824992637
 10
-0.0018828419
 20
-40.4843901871
 10
-0.0002530227
 20
-40.4863321334
 10
0.0013610136
 20
-40.4883226248
 10
0.0029577872
 20
-40.4903591833
 10
0.0045358182
 20
-40.4924393307
 10
0.0060936268
 20
-40.4945605892
 10
0.0076297332
 20
-40.4967204807
 10
0.0091426575
 20
-40.4989165272
 10
0.01063092
 20
-40.5011462508
 10
0.0120930407
 20
-40.5034071733
 10
0.01352754
 20
-40.5056968169
 10
0.0149329379
 20
-40.5080127034
 10
0.0163077546
 20
-40.510352355
 10
0.0176505104
 20
-40.5127132936
 10
0.0189597253
 20
-40.5150930411
 10
0.0202339196
 20
-40.5174891197
 10
0.0214716134
 20
-40.5198990512
 10
0.0226713269
 20
-40.5223203578
 10
0.0238315803
 20
-40.5247505613
 10
0.0249508938
 20
-40.5271871838
 10
0.0260277875
 20
-40.5296277473
 10
0.0270607816
 20
-40.5320697738
 10
0.0280483963
 20
-40.5345107852
 10
0.0289891517
 20
-40.5369483036
 10
0.0298815681
 20
-40.539379851
 10
0.0307241656
 20
-40.5418029494
 10
0.0315154644
 20
-40.5442151207
 10
0.0322539847
 20
-40.5466138869
 10
0.0329382466
 20
-40.5489967702
 10
0.0335667703
 20
-40.5513612924
 10
0.034138076
 20
-40.5537049755
 10
0.0346506838
 20
-40.5560253416
 10
0.035103114
 20
-40.5583199126
 10
0.0354938867
 20
-40.5605862106
 10
0.0358215221
 20
-40.5628217575
 10
0.0360845404
 20
-40.5650240754
 10
0.0362814617
 20
-40.5671906862
 10
0.0364108062
 20
-40.5693191119
 10
0.0364710941
 20
-40.5714068746
  0
LINE
  5
279
100
AcDbEntity
  8
IMPORT_IGES
100
AcDbLine
 62
7
420
11158274
  6
CONTINUOUS
 10
7.8831167187
 20
-47.2610677747
 11
8.9203548441
 21
-47.7793280409
  0
LINE
  5
27A
100
AcDbEntity
  8
IMPORT_IGES
100
AcDbLine
 62
7
420
11158274
  6
CONTINUOUS
 10
-0.0254651772
 20
-43.1431147201
 11
-0.1384611457
 21
-43.0866446914
  0
LINE
  5
27B
100
AcDbEntity
  8
IMPORT_IGES
100
AcDbLine
 62
7
420
11158274
  6
CONTINUOUS
 10
-19.6544668851
 20
-34.0929672096
 11
-17.0917704888
 21
-35.3743154078
  0
LINE
  5
27C
100
AcDbEntity
  8
IMPORT_IGES
100
AcDbLine
 62
7
420
11158274
  6
CONTINUOUS
 10
8.255320611
 20
-47.8451949965
 11
7.5298290535
 21
-47.4824492177
  0
LINE
  5
27D
100
AcDbEntity
  8
IMPORT_IGES
100
AcDbLine
 62
7
420
11158274
  6
CONTINUOUS
 10
-17.3953314299
 20
-34.9076481004
 11
-19.3557849808
 21
-33.927421325
  0
LINE
  5
27E
100
AcDbEntity
  8
IMPORT_IGES
100
AcDbLine
 62
7
420
11158274
  6
CONTINUOUS
 10
-0.1384001874
 20
-43.4112614919
 11
0.1716758885
 21
-43.5662995298
  0
LINE
  5
27F
100
AcDbEntity
  8
IMPORT_IGES
100
AcDbLine
 62
7
420
11158274
  6
CONTINUOUS
 10
8.9159704767
 20
-47.4109061003
 11
8.0124294317
 21
-46.9591355778
  0
LINE
  5
280
100
AcDbEntity
  8
IMPORT_IGES
100
AcDbLine
 62
7
420
11158274
  6
CONTINUOUS
 10
-1.0982171799
 20
-39.927284075
 11
-0.0288988904
 21
-40.4619432198
  0
LINE
  5
281
100
AcDbEntity
  8
IMPORT_IGES
100
AcDbLine
 62
7
420
11158274
  6
CONTINUOUS
 10
0.1719842912
 20
-40.2377123263
 11
-1.216374723
 21
-39.5435323796
  0
LWPOLYLINE
  5
282
100
AcDbEntity
  8
IMPORT_IGES
100
AcDbPolyline
 62
7
420
11158274
  6
CONTINUOUS
 90
16
 70
0
 10
7.8966538027
 20
-44.5966359108
 10
7.9412578172
 20
-44.6195057452
 10
7.963540415
 20
-44.6315062809
 10
7.9809965178
 20
-44.6414962316
 10
7.9984287174
 20
-44.6519717482
 10
8.022409151
 20
-44.6671004086
 10
8.0463058843
 20
-44.6830300108
 10
8.0700943533
 20
-44.6997947992
 10
8.0968365548
 20
-44.7198285746
 10
8.123310806
 20
-44.7411218165
 10
8.1431250815
 20
-44.7581314391
 10
8.1627623285
 20
-44.7757976242
 10
8.1742363299
 20
-44.7864694749
 10
8.1855913697
 20
-44.7974597
 10
8.1967585005
 20
-44.8089109192
 10
8.2128914784
 20
-44.8262833809
  0
LWPOLYLINE
  5
283
100
AcDbEntity
  8
IMPORT_IGES
100
AcDbPolyline
 62
7
420
11158274
  6
CONTINUOUS
 90
37
 70
0
 10
-9.383395242
 20
-35.868915502
 10
-9.4488387878
 20
-35.8304863529
 10
-9.5147585592
 20
-35.7938378292
 10
-9.5810873949
 20
-35.7590086832
 10
-9.6477581341
 20
-35.7260376675
 10
-9.7147036155
 20
-35.6949635344
 10
-9.7818566781
 20
-35.6658250364
 10
-9.8491501609
 20
-35.638660926
 10
-9.9165169026
 20
-35.6135099555
 10
-9.9838897424
 20
-35.5904108776
 10
-10.051201519
 20
-35.5694024445
 10
-10.1183850713
 20
-35.5505234089
 10
-10.1853732384
 20
-35.533812523
 10
-10.2520988592
 20
-35.5193085393
 10
-10.3184947724
 20
-35.5070502104
 10
-10.3844938171
 20
-35.4970762886
 10
-10.4500288322
 20
-35.4894255264
 10
-10.5150326567
 20
-35.4841366763
 10
-10.5794381293
 20
-35.4812484906
 10
-10.6431814777
 20
-35.480787301
 10
-10.7062124839
 20
-35.4827297552
 10
-10.7684843187
 20
-35.48704008
 10
-10.8299501528
 20
-35.4936825025
 10
-10.8905631568
 20
-35.5026212493
 10
-10.9502765016
 20
-35.5138205475
 10
-11.0090433578
 20
-35.5272446238
 10
-11.0668168962
 20
-35.5428577052
 10
-11.1235502874
 20
-35.5606240186
 10
-11.1791967021
 20
-35.5805077907
 10
-11.2337093112
 20
-35.6024732485
 10
-11.2870412852
 20
-35.6264846188
 10
-11.339145795
 20
-35.6525061286
 10
-11.3899760111
 20
-35.6805020047
 10
-11.4394851045
 20
-35.7104364739
 10
-11.4876262456
 20
-35.7422737631
 10
-11.5343526054
 20
-35.7759780993
 10
-11.5796173544
 20
-35.8115137092
  0
LWPOLYLINE
  5
284
100
AcDbEntity
  8
IMPORT_IGES
100
AcDbPolyline
 62
7
420
11158274
  6
CONTINUOUS
 90
34
 70
0
 10
-9.478911604
 20
-37.1469513278
 10
-9.4430145711
 20
-37.169040025
 10
-9.4070849612
 20
-37.1922695637
 10
-9.3711480482
 20
-37.216611947
 10
-9.3352291057
 20
-37.2420391781
 10
-9.2993534075
 20
-37.2685232599
 10
-9.2635462275
 20
-37.2960361957
 10
-9.2278328393
 20
-37.3245499884
 10
-9.1922385168
 20
-37.3540366413
 10
-9.1567885337
 20
-37.3844681575
 10
-9.1215081638
 20
-37.4158165399
 10
-9.0864226808
 20
-37.4480537918
 10
-9.0515573586
 20
-37.4811519162
 10
-9.0169374709
 20
-37.5150829162
 10
-8.9825882914
 20
-37.5498187949
 10
-8.948535094
 20
-37.5853315555
 10
-8.9148031524
 20
-37.621593201
 10
-8.8814177404
 20
-37.6585757345
 10
-8.8484041317
 20
-37.6962511591
 10
-8.8157876001
 20
-37.734591478
 10
-8.7835934194
 20
-37.7735686942
 10
-8.7518468633
 20
-37.8131548108
 10
-8.7205732057
 20
-37.8533218309
 10
-8.6897977202
 20
-37.8940417577
 10
-8.6595456807
 20
-37.9352865942
 10
-8.629842361
 20
-37.9770283436
 10
-8.6007130347
 20
-38.0192390089
 10
-8.5721829757
 20
-38.0618905932
 10
-8.5442774577
 20
-38.1049550996
 10
-8.5170217546
 20
-38.1484045313
 10
-8.49044114
 20
-38.1922108913
 10
-8.4645608878
 20
-38.2363461828
 10
-8.4394062716
 20
-38.2807824088
 10
-8.4150025654
 20
-38.3254915724
  0
LWPOLYLINE
  5
285
100
AcDbEntity
  8
IMPORT_IGES
100
AcDbPolyline
 62
7
420
11158274
  6
CONTINUOUS
 90
32
 70
0
 10
-9.2036742436
 20
-36.3037670308
 10
-9.1537217077
 20
-36.3398014171
 10
-9.1038394834
 20
-36.3772248257
 10
-9.0540573955
 20
-36.4160025692
 10
-9.004405269
 20
-36.4560999604
 10
-8.9549129288
 20
-36.4974823119
 10
-8.9056101999
 20
-36.5401149365
 10
-8.8565269072
 20
-36.5839631467
 10
-8.8076928755
 20
-36.6289922553
 10
-8.75913793
 20
-36.675167575
 10
-8.7108918954
 20
-36.7224544185
 10
-8.6629845967
 20
-36.7708180984
 10
-8.6154458588
 20
-36.8202239274
 10
-8.5683055067
 20
-36.8706372182
 10
-8.5215933654
 20
-36.9220232836
 10
-8.4753392596
 20
-36.9743474361
 10
-8.4295730145
 20
-37.0275749885
 10
-8.3843244548
 20
-37.0816712534
 10
-8.3396234056
 20
-37.1366015436
 10
-8.2954996917
 20
-37.1923311717
 10
-8.2519831382
 20
-37.2488254505
 10
-8.2091035699
 20
-37.3060496925
 10
-8.1668908117
 20
-37.3639692105
 10
-8.1253746886
 20
-37.4225493172
 10
-8.0845850256
 20
-37.4817553252
 10
-8.0445516475
 20
-37.5415525473
 10
-8.0053043794
 20
-37.6019062961
 10
-7.966873046
 20
-37.6627818843
 10
-7.9292874724
 20
-37.7241446246
 10
-7.8925774835
 20
-37.7859598296
 10
-7.8567729042
 20
-37.8481928122
 10
-7.8219035595
 20
-37.9108088849
  0
LWPOLYLINE
  5
286
100
AcDbEntity
  8
IMPORT_IGES
100
AcDbPolyline
 62
7
420
11158274
  6
CONTINUOUS
 90
93
 70
0
 10
-1.7837863917
 20
-39.5751788103
 10
-1.7874058763
 20
-39.5721775278
 10
-1.7911723775
 20
-39.5691652204
 10
-1.7950802429
 20
-39.5661649904
 10
-1.79912382
 20
-39.5631999405
 10
-1.8032974564
 20
-39.5602931734
 10
-1.8075954994
 20
-39.5574677915
 10
-1.8113742692
 20
-39.5551283238
 10
-1.8152367275
 20
-39.5528801713
 10
-1.8191793145
 20
-39.5507378826
 10
-1.8231984709
 20
-39.5487160061
 10
-1.8272906369
 20
-39.5468290906
 10
-1.8314522531
 20
-39.5450916845
 10
-1.8356797597
 20
-39.5435183364
 10
-1.8394300806
 20
-39.5422876727
 10
-1.8432257389
 20
-39.5412035012
 10
-1.84706435
 20
-39.5402755681
 10
-1.8509435293
 20
-39.53951362
 10
-1.8548608922
 20
-39.5389274031
 10
-1.858814054
 20
-39.5385266639
 10
-1.8628006301
 20
-39.5383211488
 10
-1.8668182358
 20
-39.5383206042
 10
-1.8707008236
 20
-39.5385205001
 10
-1.8745999442
 20
-39.5389181137
 10
-1.8785057311
 20
-39.5395132799
 10
-1.882408318
 20
-39.5403058332
 10
-1.8862978384
 20
-39.5412956083
 10
-1.890164426
 20
-39.54248244
 10
-1.8939982141
 20
-39.5438661629
 10
-1.8977893366
 20
-39.5454466117
 10
-1.9015279268
 20
-39.5472236211
 10
-1.9052041185
 20
-39.5491970258
 10
-1.9088080451
 20
-39.5513666604
 10
-1.9123298403
 20
-39.5537323597
 10
-1.9157596376
 20
-39.5562939583
 10
-1.9190875706
 20
-39.5590512909
 10
-1.9223037729
 20
-39.5620041922
 10
-1.9253983781
 20
-39.5651524969
 10
-1.9283615197
 20
-39.5684960397
 10
-1.9311833313
 20
-39.5720346552
 10
-1.9338539464
 20
-39.5757681782
 10
-1.9363634988
 20
-39.5796964433
 10
-1.9387021218
 20
-39.5838192852
 10
-1.9408599492
 20
-39.5881365386
 10
-1.9428271145
 20
-39.5926480382
 10
-1.9445937512
 20
-39.5973536187
 10
-1.946149993
 20
-39.6022531147
 10
-1.9474885815
 20
-39.6073440668
 10
-1.9486126906
 20
-39.6126148388
 10
-1.9495281026
 20
-39.6180515004
 10
-1.9502405993
 20
-39.6236401213
 10
-1.950755963
 20
-39.6293667711
 10
-1.9510799757
 20
-39.6352175196
 10
-1.9512184194
 20
-39.6411784363
 10
-1.9511770763
 20
-39.647235591
 10
-1.9509617283
 20
-39.6533750533
 10
-1.9505781577
 20
-39.6595828929
 10
-1.9500321464
 20
-39.6658451796
 10
-1.9493294766
 20
-39.6721479829
 10
-1.9484759302
 20
-39.6784773725
 10
-1.9474772895
 20
-39.6848194182
 10
-1.9463393363
 20
-39.6911601895
 10
-1.945067853
 20
-39.6974857562
 10
-1.9436686214
 20
-39.7037821879
 10
-1.9421474237
 20
-39.7100355544
 10
-1.940510042
 20
-39.7162319252
 10
-1.9387622582
 20
-39.7223573701
 10
-1.9369098546
 20
-39.7283979588
 10
-1.9349586132
 20
-39.7343397608
 10
-1.932914316
 20
-39.740168846
 10
-1.9307827451
 20
-39.7458712839
 10
-1.9285696827
 20
-39.7514331442
 10
-1.9261838845
 20
-39.7570652758
 10
-1.9237218532
 20
-39.7625321996
 10
-1.9211895056
 20
-39.7678363597
 10
-1.9185927588
 20
-39.7729802
 10
-1.9159375296
 20
-39.7779661646
 10
-1.913229735
 20
-39.7827966976
 10
-1.9104752919
 20
-39.7874742428
 10
-1.9076801174
 20
-39.7920012445
 10
-1.904443347
 20
-39.7969937567
 10
-1.9011699368
 20
-39.8017964808
 10
-1.8978687191
 20
-39.8064130652
 10
-1.8945485261
 20
-39.810847158
 10
-1.89121819
 20
-39.8151024074
 10
-1.8878865433
 20
-39.8191824617
 10
-1.8845624181
 20
-39.823090969
 10
-1.8807055616
 20
-39.8274389451
 10
-1.8768849899
 20
-39.8315641856
 10
-1.8731147282
 20
-39.8354724838
 10
-1.869408802
 20
-39.8391696329
 10
-1.8657812364
 20
-39.8426614261
 10
-1.8622460569
 20
-39.8459536567
  0
LWPOLYLINE
  5
287
100
AcDbEntity
  8
IMPORT_IGES
100
AcDbPolyline
 62
7
420
11158274
  6
CONTINUOUS
 90
50
 70
0
 10
-0.6907389373
 20
-40.9118409965
 10
-0.6890919195
 20
-40.9132118943
 10
-0.6874537173
 20
-40.9146572785
 10
-0.6858255027
 20
-40.9161745709
 10
-0.6842084473
 20
-40.9177611927
 10
-0.682603723
 20
-40.9194145656
 10
-0.6810125017
 20
-40.9211321111
 10
-0.6794359552
 20
-40.9229112507
 10
-0.6778752552
 20
-40.9247494058
 10
-0.6763315736
 20
-40.926643998
 10
-0.6748060823
 20
-40.9285924488
 10
-0.673299953
 20
-40.9305921796
 10
-0.6718143575
 20
-40.9326406121
 10
-0.6703504677
 20
-40.9347351677
 10
-0.6689094555
 20
-40.9368732678
 10
-0.6674924925
 20
-40.9390523341
 10
-0.6661007507
 20
-40.941269788
 10
-0.6647354018
 20
-40.943523051
 10
-0.6633976177
 20
-40.9458095446
 10
-0.6620885702
 20
-40.9481266904
 10
-0.6608094311
 20
-40.9504719098
 10
-0.6595613722
 20
-40.9528426244
 10
-0.6583455654
 20
-40.9552362556
 10
-0.6571631824
 20
-40.9576502249
 10
-0.6560153952
 20
-40.960081954
 10
-0.6549033754
 20
-40.9625288641
 10
-0.653828295
 20
-40.964988377
 10
-0.6527913258
 20
-40.967457914
 10
-0.6517936395
 20
-40.9699348968
 10
-0.6508364079
 20
-40.9724167467
 10
-0.649920803
 20
-40.9749008853
 10
-0.6490479966
 20
-40.9773847341
 10
-0.6482191603
 20
-40.9798657146
 10
-0.6474354661
 20
-40.9823412483
 10
-0.6466980858
 20
-40.9848087567
 10
-0.6460081913
 20
-40.9872656614
 10
-0.6453669542
 20
-40.9897093837
 10
-0.6447755465
 20
-40.9921373454
 10
-0.6442351399
 20
-40.9945469677
 10
-0.6437469063
 20
-40.9969356723
 10
-0.6433120175
 20
-40.9993008807
 10
-0.6429316454
 20
-41.0016400143
 10
-0.6426069616
 20
-41.0039504946
 10
-0.6423391382
 20
-41.0062297432
 10
-0.6421293468
 20
-41.0084751816
 10
-0.6419787593
 20
-41.0106842313
 10
-0.6418885475
 20
-41.0128543138
 10
-0.6418598832
 20
-41.0149828505
 10
-0.6418939384
 20
-41.0170672631
 10
-0.6419918846
 20
-41.0191049729
  0
LINE
  5
288
100
AcDbEntity
  8
IMPORT_IGES
100
AcDbLine
 62
7
420
11158274
  6
CONTINUOUS
 10
-1.8528864733
 20
-42.6980636989
 11
-0.5527062518
 21
-43.8810065163
  0
LINE
  5
289
100
AcDbEntity
  8
IMPORT_IGES
100
AcDbLine
 62
7
420
11158274
  6
CONTINUOUS
 10
-0.7259254596
 20
-43.3878719869
 11
-1.7704554875
 21
-42.4375772314
  0
LWPOLYLINE
  5
28A
100
AcDbEntity
  8
IMPORT_IGES
100
AcDbPolyline
 62
7
420
11158274
  6
CONTINUOUS
 90
63
 70
0
 10
-0.5527062518
 20
-43.8810065163
 10
-0.5494264286
 20
-43.8840708157
 10
-0.5460444412
 20
-43.8870681512
 10
-0.5425668542
 20
-43.8899935872
 10
-0.5390002321
 20
-43.8928421886
 10
-0.5353511396
 20
-43.8956090199
 10
-0.5316261413
 20
-43.8982891459
 10
-0.5278318016
 20
-43.9008776313
 10
-0.5239746852
 20
-43.9033695406
 10
-0.5200613566
 20
-43.9057599386
 10
-0.5160983804
 20
-43.9080438899
 10
-0.5120923212
 20
-43.9102164592
 10
-0.5080497436
 20
-43.9122727112
 10
-0.503977212
 20
-43.9142077106
 10
-0.4998812912
 20
-43.916016522
 10
-0.4957685457
 20
-43.9176942101
 10
-0.4916455399
 20
-43.9192358395
 10
-0.4875188386
 20
-43.920636475
 10
-0.4833950063
 20
-43.9218911812
 10
-0.4792806075
 20
-43.9229950228
 10
-0.4751822069
 20
-43.9239430644
 10
-0.4711063689
 20
-43.9247303707
 10
-0.4670596582
 20
-43.9253520065
 10
-0.4630486394
 20
-43.9258030363
 10
-0.459079877
 20
-43.9260785248
 10
-0.4551599355
 20
-43.9261735368
 10
-0.4512953796
 20
-43.9260831368
 10
-0.4474927739
 20
-43.9258023896
 10
-0.4437586828
 20
-43.9253263599
 10
-0.4400996711
 20
-43.9246501122
 10
-0.4365223032
 20
-43.9237687112
 10
-0.4330331436
 20
-43.9226772218
 10
-0.4296378375
 20
-43.921372795
 10
-0.4263383508
 20
-43.9198609284
 10
-0.4231357303
 20
-43.9181492062
 10
-0.4200310223
 20
-43.9162452126
 10
-0.4170252736
 20
-43.9141565316
 10
-0.4141195306
 20
-43.9118907473
 10
-0.4113148399
 20
-43.909455444
 10
-0.408612248
 20
-43.9068582057
 10
-0.4060128015
 20
-43.9041066166
 10
-0.4035175469
 20
-43.9012082608
 10
-0.4011275308
 20
-43.8981707225
 10
-0.3988437997
 20
-43.8950015857
 10
-0.3966674002
 20
-43.8917084346
 10
-0.3945993789
 20
-43.8882988534
 10
-0.3926407821
 20
-43.8847804262
 10
-0.3907926567
 20
-43.8811607371
 10
-0.3890560489
 20
-43.8774473702
 10
-0.3874320055
 20
-43.8736479097
 10
-0.385921573
 20
-43.8697699398
 10
-0.3845257979
 20
-43.8658210444
 10
-0.3832457267
 20
-43.8618088079
 10
-0.3820824061
 20
-43.8577408143
 10
-0.3810368825
 20
-43.8536246477
 10
-0.3801102025
 20
-43.8494678923
 10
-0.3793034127
 20
-43.8452781322
 10
-0.3786175595
 20
-43.8410629516
 10
-0.3780536897
 20
-43.8368299346
 10
-0.3776128496
 20
-43.8325866652
 10
-0.3772960859
 20
-43.8283407278
 10
-0.3771044451
 20
-43.8240997063
 10
-0.3770389737
 20
-43.8198711849
  0
LWPOLYLINE
  5
28B
100
AcDbEntity
  8
IMPORT_IGES
100
AcDbPolyline
 62
7
420
11158274
  6
CONTINUOUS
 90
13
 70
0
 10
-1.8614107972
 20
-42.6905535346
 10
-1.860706594
 20
-42.6912184631
 10
-1.8600011993
 20
-42.6918764595
 10
-1.8592946348
 20
-42.6925274718
 10
-1.858586922
 20
-42.6931714478
 10
-1.8578780825
 20
-42.6938083355
 10
-1.857168138
 20
-42.6944380827
 10
-1.85645711
 20
-42.6950606374
 10
-1.85574502
 20
-42.6956759474
 10
-1.8550318898
 20
-42.6962839607
 10
-1.8543177409
 20
-42.6968846251
 10
-1.8536025949
 20
-42.6974778885
 10
-1.8528864733
 20
-42.6980636989
  0
LWPOLYLINE
  5
28C
100
AcDbEntity
  8
IMPORT_IGES
100
AcDbPolyline
 62
7
420
11158274
  6
CONTINUOUS
 90
87
 70
0
 10
-1.7704554875
 20
-42.4375772314
 10
-1.7745089852
 20
-42.4336221073
 10
-1.7786635869
 20
-42.4298563375
 10
-1.7829117237
 20
-42.4262802657
 10
-1.787245827
 20
-42.4228942351
 10
-1.7916583278
 20
-42.4196985894
 10
-1.7961416575
 20
-42.416693672
 10
-1.8006882473
 20
-42.4138798264
 10
-1.8052905283
 20
-42.411257396
 10
-1.8099409318
 20
-42.4088267243
 10
-1.8146318889
 20
-42.4065881548
 10
-1.819355831
 20
-42.404542031
 10
-1.8241051893
 20
-42.4026886962
 10
-1.8288723948
 20
-42.4010284941
 10
-1.833649879
 20
-42.3995617681
 10
-1.8384300729
 20
-42.3982888616
 10
-1.8432054078
 20
-42.3972101181
 10
-1.8479683149
 20
-42.3963258811
 10
-1.8527112255
 20
-42.3956364941
 10
-1.8574265707
 20
-42.3951423005
 10
-1.8621067818
 20
-42.3948436439
 10
-1.8667442899
 20
-42.3947408676
 10
-1.8713315264
 20
-42.3948343151
 10
-1.8758609224
 20
-42.39512433
 10
-1.8803249091
 20
-42.3956112557
 10
-1.8847159177
 20
-42.3962954356
 10
-1.8890263795
 20
-42.3971772133
 10
-1.8932487257
 20
-42.3982569322
 10
-1.8973753875
 20
-42.3995349358
 10
-1.9013987961
 20
-42.4010115675
 10
-1.9053113828
 20
-42.4026871709
 10
-1.9091055787
 20
-42.4045620894
 10
-1.912773815
 20
-42.4066366664
 10
-1.9163085231
 20
-42.4089112455
 10
-1.919702134
 20
-42.4113861702
 10
-1.9229470791
 20
-42.4140617838
 10
-1.9260357895
 20
-42.4169384298
 10
-1.9289606964
 20
-42.4200164519
 10
-1.9317142311
 20
-42.4232961933
 10
-1.9342888248
 20
-42.4267779976
 10
-1.9366769087
 20
-42.4304622082
 10
-1.938870914
 20
-42.4343491687
 10
-1.9408632719
 20
-42.4384392225
 10
-1.9426464137
 20
-42.442732713
 10
-1.9442127706
 20
-42.4472299838
 10
-1.9455553949
 20
-42.451924257
 10
-1.9466785012
 20
-42.4568117331
 10
-1.9475864287
 20
-42.4618819431
 10
-1.9482835163
 20
-42.4671244182
 10
-1.9487741032
 20
-42.4725286892
 10
-1.9490625285
 20
-42.4780842874
 10
-1.9491531313
 20
-42.4837807437
 10
-1.9490502507
 20
-42.4896075891
 10
-1.9487582257
 20
-42.4955543547
 10
-1.9482813955
 20
-42.5016105716
 10
-1.9476240991
 20
-42.5077657708
 10
-1.9467906757
 20
-42.5140094833
 10
-1.9457854643
 20
-42.5203312402
 10
-1.9446128041
 20
-42.5267205726
 10
-1.943277034
 20
-42.5331670114
 10
-1.9417824933
 20
-42.5396600877
 10
-1.940133521
 20
-42.5461893325
 10
-1.9383344563
 20
-42.552744277
 10
-1.9363896381
 20
-42.5593144521
 10
-1.9343034056
 20
-42.5658893889
 10
-1.9320800979
 20
-42.5724586184
 10
-1.9297240541
 20
-42.5790116716
 10
-1.9272396133
 20
-42.5855380797
 10
-1.9246311145
 20
-42.5920273737
 10
-1.9219028969
 20
-42.5984690845
 10
-1.9190592995
 20
-42.6048527433
 10
-1.9161046615
 20
-42.611167881
 10
-1.913043322
 20
-42.6174040288
 10
-1.90987962
 20
-42.6235507176
 10
-1.9066178946
 20
-42.6295974786
 10
-1.9032624849
 20
-42.6355338427
 10
-1.8998177301
 20
-42.641349341
 10
-1.8962879691
 20
-42.6470335046
 10
-1.8926775412
 20
-42.6525758645
 10
-1.8889907854
 20
-42.6579659516
 10
-1.8852320407
 20
-42.6631932972
 10
-1.8814056464
 20
-42.6682474321
 10
-1.8775159414
 20
-42.6731178875
 10
-1.8735672649
 20
-42.6777941945
 10
-1.869563956
 20
-42.6822658839
 10
-1.8655103537
 20
-42.686522487
 10
-1.8614107972
 20
-42.6905535346
  0
LINE
  5
28D
100
AcDbEntity
  8
IMPORT_IGES
100
AcDbLine
 62
7
420
11158274
  6
CONTINUOUS
 10
-18.3755935607
 20
-33.6509113476
 11
-17.3953314299
 21
-34.9076481004
  0
LINE
  5
28E
100
AcDbEntity
  8
IMPORT_IGES
100
AcDbLine
 62
7
420
11158274
  6
CONTINUOUS
 10
-19.5231571559
 20
-32.179667424
 11
-18.6160098663
 21
-33.3426890796
  0
LINE
  5
28F
100
AcDbEntity
  8
IMPORT_IGES
100
AcDbLine
 62
7
420
11158274
  6
CONTINUOUS
 10
-17.2279592548
 20
-34.7461623961
 11
-18.1351065444
 21
-33.5831407406
  0
LINE
  5
290
100
AcDbEntity
  8
IMPORT_IGES
100
AcDbLine
 62
7
420
11158274
  6
CONTINUOUS
 10
-18.3755935607
 20
-33.2748831173
 11
-19.4234550997
 21
-31.9314325081
  0
LINE
  5
291
100
AcDbEntity
  8
IMPORT_IGES
100
AcDbLine
 62
7
420
11158274
  6
CONTINUOUS
 10
-18.3817453897
 20
-31.5907652915
 11
-17.327661311
 21
-32.9793294025
  0
LINE
  5
292
100
AcDbEntity
  8
IMPORT_IGES
100
AcDbLine
 62
7
420
11158274
  6
CONTINUOUS
 10
-18.1351065444
 20
-33.5831407406
 11
-17.2279592548
 21
-33.3272663746
  0
LINE
  5
293
100
AcDbEntity
  8
IMPORT_IGES
100
AcDbLine
 62
7
420
11158274
  6
CONTINUOUS
 10
-19.3557849808
 20
-33.927421325
 11
-18.3755935607
 21
-33.6509113476
  0
LINE
  5
294
100
AcDbEntity
  8
IMPORT_IGES
100
AcDbLine
 62
7
420
11158274
  6
CONTINUOUS
 10
-17.327661311
 20
-32.9793294025
 11
-18.3755935607
 21
-33.2748831173
  0
LINE
  5
295
100
AcDbEntity
  8
IMPORT_IGES
100
AcDbLine
 62
7
420
11158274
  6
CONTINUOUS
 10
-18.6160098663
 20
-33.3426890796
 11
-19.5231571559
 21
-33.5985634456
  0
LINE
  5
296
100
AcDbEntity
  8
IMPORT_IGES
100
AcDbLine
 62
7
420
11158274
  6
CONTINUOUS
 10
-60.0941862497
 20
0.6188749771
 11
49.6487861905
 21
-54.252611243
  0
LINE
  5
297
100
AcDbEntity
  8
IMPORT_IGES
100
AcDbLine
 62
7
420
11158274
  6
CONTINUOUS
 10
-1.295778467
 20
-39.7516409229
 11
-1.0982171799
 21
-39.927284075
  0
LINE
  5
298
100
AcDbEntity
  8
IMPORT_IGES
100
AcDbLine
 62
7
420
11158274
  6
CONTINUOUS
 10
-0.4703244742
 20
-40.7700111458
 11
-1.7837863917
 21
-39.5751788103
  0
LINE
  5
299
100
AcDbEntity
  8
IMPORT_IGES
100
AcDbLine
 62
7
420
11158274
  6
CONTINUOUS
 10
-1.8622460569
 20
-39.8459536567
 11
-0.6907389373
 21
-40.9118409965
  0
LWPOLYLINE
  5
29A
100
AcDbEntity
  8
IMPORT_IGES
100
AcDbPolyline
 62
7
420
11158274
  6
CONTINUOUS
 90
13
 70
0
 10
8.2128914784
 20
-44.8262833809
 10
8.2211289187
 20
-44.8345558527
 10
8.2279044458
 20
-44.8406303113
 10
8.2348475971
 20
-44.8460221364
 10
8.2440196233
 20
-44.8517628244
 10
8.2532545002
 20
-44.8561850381
 10
8.263945382
 20
-44.8598711248
 10
8.2744422393
 20
-44.8620555347
 10
8.2818163764
 20
-44.8627136155
 10
8.2889431201
 20
-44.8625016519
 10
8.2957053433
 20
-44.8612854816
 10
8.3024427693
 20
-44.8588703744
 10
8.3089071336
 20
-44.8558098883
  0
LWPOLYLINE
  5
29B
100
AcDbEntity
  8
IMPORT_IGES
100
AcDbPolyline
 62
7
420
11158274
  6
CONTINUOUS
 90
89
 70
0
 10
-7.8219035595
 20
-37.9108088849
 10
-7.8192890363
 20
-37.9152172739
 10
-7.8165250772
 20
-37.9197349128
 10
-7.8136084537
 20
-37.9243424416
 10
-7.8105359369
 20
-37.9290205005
 10
-7.8073042983
 20
-37.9337497296
 10
-7.8039103092
 20
-37.9385107688
 10
-7.8003507409
 20
-37.9432842584
 10
-7.7966223648
 20
-37.9480508384
 10
-7.7927219521
 20
-37.9527911489
 10
-7.7886462743
 20
-37.9574858299
 10
-7.7843921025
 20
-37.9621155217
 10
-7.7799562082
 20
-37.9666608642
 10
-7.7760069295
 20
-37.9704750618
 10
-7.7719197349
 20
-37.9742008732
 10
-7.7676925915
 20
-37.9778261069
 10
-7.7633234658
 20
-37.9813385711
 10
-7.7588103248
 20
-37.9847260741
 10
-7.7541511352
 20
-37.9879764244
 10
-7.7493438638
 20
-37.9910774301
 10
-7.7451918059
 20
-37.9935580364
 10
-7.7409444726
 20
-37.9959180008
 10
-7.7366125098
 20
-37.9981506614
 10
-7.7322065632
 20
-38.0002493562
 10
-7.7277372787
 20
-38.0022074233
 10
-7.7232153021
 20
-38.0040182007
 10
-7.718651279
 20
-38.0056750264
 10
-7.7140558555
 20
-38.0071712385
 10
-7.7094396772
 20
-38.0085001751
 10
-7.70481339
 20
-38.0096551741
 10
-7.7001876397
 20
-38.0106295736
 10
-7.695573072
 20
-38.0114167117
 10
-7.6909803329
 20
-38.0120099264
 10
-7.686420068
 20
-38.0124025557
 10
-7.6819029232
 20
-38.0125879377
 10
-7.6774395442
 20
-38.0125594103
 10
-7.673040577
 20
-38.0123103118
 10
-7.6687166673
 20
-38.01183398
 10
-7.6644784609
 20
-38.011123753
 10
-7.6603366035
 20
-38.0101729689
 10
-7.6563017411
 20
-38.0089749657
 10
-7.6523845194
 20
-38.0075230815
 10
-7.6485955842
 20
-38.0058106542
 10
-7.6449455813
 20
-38.003831022
 10
-7.6414451565
 20
-38.0015775229
 10
-7.6381030366
 20
-37.9990468548
 10
-7.6349202721
 20
-37.9962491559
 10
-7.6318959944
 20
-37.9931979241
 10
-7.6290293349
 20
-37.9899066574
 10
-7.6263194252
 20
-37.9863888539
 10
-7.6237653966
 20
-37.9826580116
 10
-7.6213663806
 20
-37.9787276285
 10
-7.6191215086
 20
-37.9746112025
 10
-7.6170299121
 20
-37.9703222318
 10
-7.6150907226
 20
-37.9658742143
 10
-7.6133030714
 20
-37.961280648
 10
-7.6116660901
 20
-37.956555031
 10
-7.61017891
 20
-37.9517108612
 10
-7.6088406627
 20
-37.9467616367
 10
-7.6076504795
 20
-37.9417208555
 10
-7.606607492
 20
-37.9366020155
 10
-7.6057108315
 20
-37.9314186149
 10
-7.6049596295
 20
-37.9261841516
 10
-7.6043530174
 20
-37.9209121237
 10
-7.6038901268
 20
-37.9156160291
 10
-7.603570089
 20
-37.9103093658
 10
-7.6033920355
 20
-37.905005632
 10
-7.6033550977
 20
-37.8997183255
 10
-7.6034584071
 20
-37.8944609444
 10
-7.6037010951
 20
-37.8892469867
 10
-7.6041689746
 20
-37.8831119669
 10
-7.6048223302
 20
-37.8770608195
 10
-7.605650337
 20
-37.871096746
 10
-7.6066421699
 20
-37.8652229479
 10
-7.6077870039
 20
-37.8594426266
 10
-7.6090740141
 20
-37.8537589836
 10
-7.6104923755
 20
-37.8481752203
 10
-7.612298702
 20
-37.8417913378
 10
-7.6142518884
 20
-37.8355528442
 10
-7.6163347448
 20
-37.8294648232
 10
-7.6185300817
 20
-37.8235323586
 10
-7.6208207094
 20
-37.8177605343
 10
-7.6231894381
 20
-37.812154434
 10
-7.6256190782
 20
-37.8067191417
 10
-7.6280924399
 20
-37.801459741
 10
-7.6305923337
 20
-37.7963813158
 10
-7.6331015697
 20
-37.79148895
 10
-7.6356029584
 20
-37.7867877272
 10
-7.63807931
 20
-37.7822827315
  0
LWPOLYLINE
  5
29C
100
AcDbEntity
  8
IMPORT_IGES
100
AcDbPolyline
 62
7
420
11158274
  6
CONTINUOUS
 90
85
 70
0
 10
-8.4150025654
 20
-38.3254915724
 10
-8.4118772518
 20
-38.3309189657
 10
-8.4085766096
 20
-38.3362642414
 10
-8.4051090254
 20
-38.3415222057
 10
-8.4014828858
 20
-38.346687665
 10
-8.3977065775
 20
-38.3517554255
 10
-8.3937884871
 20
-38.3567202935
 10
-8.3897370012
 20
-38.3615770752
 10
-8.3855605066
 20
-38.3663205768
 10
-8.3812673899
 20
-38.3709456047
 10
-8.3768660377
 20
-38.375446965
 10
-8.3723648366
 20
-38.3798194642
 10
-8.3677721734
 20
-38.3840579083
 10
-8.3630964346
 20
-38.3881571037
 10
-8.3583460069
 20
-38.3921118567
 10
-8.353529277
 20
-38.3959169734
 10
-8.3486546315
 20
-38.3995672602
 10
-8.343730457
 20
-38.4030575233
 10
-8.3387651402
 20
-38.4063825689
 10
-8.3337670678
 20
-38.4095372034
 10
-8.3287446264
 20
-38.412516233
 10
-8.3237062026
 20
-38.4153144639
 10
-8.3186601831
 20
-38.4179267024
 10
-8.3136149546
 20
-38.4203477548
 10
-8.3085789036
 20
-38.4225724274
 10
-8.3035604169
 20
-38.4245955263
 10
-8.298567881
 20
-38.4264118578
 10
-8.2936096827
 20
-38.4280162283
 10
-8.2886942086
 20
-38.4294034439
 10
-8.2838298453
 20
-38.430568311
 10
-8.2790249794
 20
-38.4315056357
 10
-8.2742879977
 20
-38.4322102244
 10
-8.2696272867
 20
-38.4326768833
 10
-8.2650512332
 20
-38.4329004186
 10
-8.2605682237
 20
-38.4328756366
 10
-8.256186645
 20
-38.4325973437
 10
-8.2519148836
 20
-38.432060346
 10
-8.2477613262
 20
-38.4312594497
 10
-8.2437343595
 20
-38.4301894613
 10
-8.23984237
 20
-38.4288451868
 10
-8.2360937445
 20
-38.4272214326
 10
-8.2324968697
 20
-38.425313005
 10
-8.229060132
 20
-38.4231147102
 10
-8.2257904139
 20
-38.4206239884
 10
-8.2226885799
 20
-38.4178488158
 10
-8.2197539902
 20
-38.4147998028
 10
-8.2169860052
 20
-38.4114875594
 10
-8.214383985
 20
-38.4079226958
 10
-8.2119472898
 20
-38.4041158223
 10
-8.20967528
 20
-38.4000775491
 10
-8.2075673157
 20
-38.3958184864
 10
-8.2056227572
 20
-38.3913492443
 10
-8.2038409647
 20
-38.3866804331
 10
-8.2022212984
 20
-38.381822663
 10
-8.2007631186
 20
-38.3767865442
 10
-8.1994657855
 20
-38.3715826868
 10
-8.1983286593
 20
-38.3662217012
 10
-8.1973511004
 20
-38.3607141974
 10
-8.1965324688
 20
-38.3550707857
 10
-8.1958721249
 20
-38.3493020763
 10
-8.1953694289
 20
-38.3434186794
 10
-8.195023741
 20
-38.3374312052
 10
-8.1948344215
 20
-38.3313502639
 10
-8.1948008305
 20
-38.3251864657
 10
-8.1949223284
 20
-38.3189504208
 10
-8.1951982753
 20
-38.3126527394
 10
-8.1956280315
 20
-38.3063040317
 10
-8.1962109573
 20
-38.2999149079
 10
-8.1969464128
 20
-38.2934959783
 10
-8.1978337583
 20
-38.2870578529
 10
-8.198872354
 20
-38.2806111421
 10
-8.2000615602
 20
-38.2741664559
 10
-8.2014007371
 20
-38.2677344047
 10
-8.2028892449
 20
-38.2613255987
 10
-8.2045264439
 20
-38.2549506479
 10
-8.2063116943
 20
-38.2486201627
 10
-8.2082443564
 20
-38.2423447532
 10
-8.2103237903
 20
-38.2361350296
 10
-8.2125493563
 20
-38.2300016022
 10
-8.2149204147
 20
-38.2239550811
 10
-8.2174363256
 20
-38.2180060766
 10
-8.2200964494
 20
-38.2121651988
 10
-8.2229001462
 20
-38.2064430579
 10
-8.2258467763
 20
-38.2008502642
 10
-8.2289356999
 20
-38.1953974278
  0
LWPOLYLINE
  5
29D
100
AcDbEntity
  8
IMPORT_IGES
100
AcDbPolyline
 62
7
420
11158274
  6
CONTINUOUS
 90
31
 70
0
 10
-7.63807931
 20
-37.7822827315
 10
-7.6769480059
 20
-37.7127646477
 10
-7.7168517007
 20
-37.6436812011
 10
-7.757757069
 20
-37.5750714942
 10
-7.7996307854
 20
-37.5069746295
 10
-7.8424395245
 20
-37.4394297096
 10
-7.8861499607
 20
-37.372475837
 10
-7.9307287688
 20
-37.3061521141
 10
-7.9761426232
 20
-37.2404976437
 10
-8.0223581986
 20
-37.1755515281
 10
-8.0693421695
 20
-37.1113528698
 10
-8.1170612105
 20
-37.0479407715
 10
-8.1654819962
 20
-36.9853543357
 10
-8.2145712012
 20
-36.9236326648
 10
-8.2642955
 20
-36.8628148615
 10
-8.3146215671
 20
-36.8029400282
 10
-8.3655160773
 20
-36.7440472674
 10
-8.416945705
 20
-36.6861756817
 10
-8.4688771249
 20
-36.6293643736
 10
-8.5212770114
 20
-36.5736524457
 10
-8.5741120393
 20
-36.5190790005
 10
-8.627348883
 20
-36.4656831404
 10
-8.6809542172
 20
-36.4135039681
 10
-8.7348947164
 20
-36.362580586
 10
-8.7891370551
 20
-36.3129520967
 10
-8.8436479081
 20
-36.2646576027
 10
-8.8983939498
 20
-36.2177362065
 10
-8.9533418548
 20
-36.1722270107
 10
-9.0084582977
 20
-36.1281691178
 10
-9.0637099531
 20
-36.0856016303
 10
-9.1190634955
 20
-36.0445636508
  0
LWPOLYLINE
  5
29E
100
AcDbEntity
  8
IMPORT_IGES
100
AcDbPolyline
 62
7
420
11158274
  6
CONTINUOUS
 90
33
 70
0
 10
-8.2289356999
 20
-38.1953974278
 10
-8.2568214147
 20
-38.1447326846
 10
-8.2855240045
 20
-38.0943798587
 10
-8.3150163677
 20
-38.0443695827
 10
-8.3452714025
 20
-37.9947324892
 10
-8.3762620075
 20
-37.9454992107
 10
-8.4079610808
 20
-37.89670038
 10
-8.440341521
 20
-37.8483666295
 10
-8.4733762264
 20
-37.800528592
 10
-8.5070380954
 20
-37.7532168999
 10
-8.5413000263
 20
-37.7064621858
 10
-8.5761349174
 20
-37.6602950824
 10
-8.6115156673
 20
-37.6147462223
 10
-8.6474151742
 20
-37.5698462381
 10
-8.6838063365
 20
-37.5256257623
 10
-8.7206620526
 20
-37.4821154275
 10
-8.7579552208
 20
-37.4393458664
 10
-8.7956587396
 20
-37.3973477116
 10
-8.8337455073
 20
-37.3561515955
 10
-8.8721884222
 20
-37.3157881509
 10
-8.9109603828
 20
-37.2762880104
 10
-8.9500342874
 20
-37.2376818064
 10
-8.9893830343
 20
-37.2000001717
 10
-9.028979522
 20
-37.1632737388
 10
-9.0687966489
 20
-37.1275331403
 10
-9.1088073132
 20
-37.0928090089
 10
-9.1489844134
 20
-37.059131977
 10
-9.1893008478
 20
-37.0265326773
 10
-9.2297295148
 20
-36.9950417425
 10
-9.2702433128
 20
-36.964689805
 10
-9.3108151401
 20
-36.9355074975
 10
-9.3514178951
 20
-36.9075254526
 10
-9.3920244763
 20
-36.8807743029
  0
LWPOLYLINE
  5
29F
100
AcDbEntity
  8
IMPORT_IGES
100
AcDbPolyline
 62
7
420
11158274
  6
CONTINUOUS
 90
13
 70
0
 10
-8.8150669742
 20
-38.6205095192
 10
-8.8155728672
 20
-38.6195799694
 10
-8.8160826261
 20
-38.6186544322
 10
-8.8165962475
 20
-38.6177329578
 10
-8.8171137275
 20
-38.6168155963
 10
-8.8176350625
 20
-38.6159023976
 10
-8.8181602488
 20
-38.614993412
 10
-8.8186892828
 20
-38.6140886894
 10
-8.8192221607
 20
-38.61318828
 10
-8.819758879
 20
-38.6122922339
 10
-8.8202994339
 20
-38.6114006011
 10
-8.8208438217
 20
-38.6105134317
 10
-8.8213920389
 20
-38.6096307758
  0
LWPOLYLINE
  5
2A0
100
AcDbEntity
  8
IMPORT_IGES
100
AcDbPolyline
 62
7
420
11158274
  6
CONTINUOUS
 90
85
 70
0
 10
-9.0079259157
 20
-38.7400514451
 10
-9.0049355592
 20
-38.7455828868
 10
-9.0017604644
 20
-38.7510417869
 10
-8.9984091212
 20
-38.756422709
 10
-8.9948900198
 20
-38.7617202166
 10
-8.9912116502
 20
-38.766928873
 10
-8.9873825026
 20
-38.7720432419
 10
-8.983411067
 20
-38.7770578866
 10
-8.9793058334
 20
-38.7819673707
 10
-8.975075292
 20
-38.7867662576
 10
-8.9707279328
 20
-38.7914491108
 10
-8.9662722459
 20
-38.7960104938
 10
-8.9617167214
 20
-38.80044497
 10
-8.9570698494
 20
-38.804747103
 10
-8.9523401199
 20
-38.8089114562
 10
-8.9475360231
 20
-38.812932593
 10
-8.9426660489
 20
-38.816805077
 10
-8.9377386875
 20
-38.8205234717
 10
-8.932762429
 20
-38.8240823404
 10
-8.9277457634
 20
-38.8274762467
 10
-8.9226971808
 20
-38.8306997541
 10
-8.9176251713
 20
-38.833747426
 10
-8.912538225
 20
-38.836613826
 10
-8.9074448319
 20
-38.8392935174
 10
-8.9023534821
 20
-38.8417810638
 10
-8.8972726658
 20
-38.8440710286
 10
-8.8922108729
 20
-38.8461579754
 10
-8.8871765935
 20
-38.8480364675
 10
-8.8821783179
 20
-38.8497010685
 10
-8.8772245359
 20
-38.8511463419
 10
-8.8723237377
 20
-38.8523668511
 10
-8.8674844134
 20
-38.8533571595
 10
-8.862715053
 20
-38.8541118308
 10
-8.8580241467
 20
-38.8546254283
 10
-8.8534201844
 20
-38.8548925155
 10
-8.8489116564
 20
-38.8549076559
 10
-8.8445070525
 20
-38.854665413
 10
-8.8402148631
 20
-38.8541603503
 10
-8.836043578
 20
-38.8533870312
 10
-8.8320016875
 20
-38.8523400192
 10
-8.8280976815
 20
-38.8510138778
 10
-8.8243400501
 20
-38.8494031704
 10
-8.8207372835
 20
-38.8475024606
 10
-8.8172978717
 20
-38.8453063118
 10
-8.8140287575
 20
-38.8428119965
 10
-8.8109306947
 20
-38.8400276235
 10
-8.8080028896
 20
-38.8369640105
 10
-8.8052445487
 20
-38.8336319753
 10
-8.8026548785
 20
-38.8300423357
 10
-8.8002330854
 20
-38.8262059095
 10
-8.7979783758
 20
-38.8221335144
 10
-8.7958899562
 20
-38.8178359683
 10
-8.7939670331
 20
-38.8133240888
 10
-8.7922088128
 20
-38.8086086937
 10
-8.7906145019
 20
-38.8037006009
 10
-8.7891833067
 20
-38.7986106282
 10
-8.7879144338
 20
-38.7933495932
 10
-8.7868070895
 20
-38.7879283137
 10
-8.7858604803
 20
-38.7823576076
 10
-8.7850738127
 20
-38.7766482926
 10
-8.784446293
 20
-38.7708111865
 10
-8.7839771278
 20
-38.764857107
 10
-8.7836655235
 20
-38.758796872
 10
-8.7835106865
 20
-38.7526412992
 10
-8.7835118233
 20
-38.7464012063
 10
-8.7836681402
 20
-38.7400874113
 10
-8.7839788439
 20
-38.7337107317
 10
-8.7844431406
 20
-38.7272819855
 10
-8.7850602369
 20
-38.7208119903
 10
-8.7858293392
 20
-38.714311564
 10
-8.7867496539
 20
-38.7077915244
 10
-8.7878203875
 20
-38.7012626891
 10
-8.7890407464
 20
-38.694735876
 10
-8.7904099371
 20
-38.6882219029
 10
-8.791927166
 20
-38.6817315875
 10
-8.7935916395
 20
-38.6752757476
 10
-8.7954025641
 20
-38.668865201
 10
-8.7973591463
 20
-38.6625107655
 10
-8.7994605925
 20
-38.6562232587
 10
-8.8017061091
 20
-38.6500134986
 10
-8.8040949026
 20
-38.6438923029
 10
-8.8066261794
 20
-38.6378704893
 10
-8.809299146
 20
-38.6319588756
 10
-8.8121130088
 20
-38.6261682797
 10
-8.8150669742
 20
-38.6205095192
  0
LWPOLYLINE
  5
2A1
100
AcDbEntity
  8
IMPORT_IGES
100
AcDbPolyline
 62
7
420
11158274
  6
CONTINUOUS
 90
38
 70
0
 10
-8.8213920389
 20
-38.6096307758
 10
-8.8379316865
 20
-38.5783096774
 10
-8.8550790747
 20
-38.5471722141
 10
-8.8728129487
 20
-38.5162400558
 10
-8.8911120536
 20
-38.4855348725
 10
-8.9099551344
 20
-38.4550783343
 10
-8.9293209365
 20
-38.4248921111
 10
-8.9491882048
 20
-38.3949978729
 10
-8.9695356846
 20
-38.3654172898
 10
-8.9903421209
 20
-38.3361720316
 10
-9.0115862589
 20
-38.3072837684
 10
-9.0332468438
 20
-38.2787741702
 10
-9.0553026206
 20
-38.250664907
 10
-9.0777323345
 20
-38.2229776487
 10
-9.1005147306
 20
-38.1957340654
 10
-9.1236285542
 20
-38.168955827
 10
-9.1470525502
 20
-38.1426646035
 10
-9.1707654639
 20
-38.116882065
 10
-9.1947460403
 20
-38.0916298814
 10
-9.2189730247
 20
-38.0669297227
 10
-9.2434251621
 20
-38.0428032588
 10
-9.2680811977
 20
-38.0192721599
 10
-9.2929198766
 20
-37.9963580959
 10
-9.317919944
 20
-37.9740827367
 10
-9.343060145
 20
-37.9524677524
 10
-9.3683192246
 20
-37.9315348129
 10
-9.3936759282
 20
-37.9113055883
 10
-9.4191090007
 20
-37.8918017485
 10
-9.4445971874
 20
-37.8730449636
 10
-9.4701192333
 20
-37.8550569034
 10
-9.4956538836
 20
-37.8378592381
 10
-9.5211798835
 20
-37.8214736376
 10
-9.5466759781
 20
-37.8059217718
 10
-9.5721209124
 20
-37.7912253109
 10
-9.5974934317
 20
-37.7774059247
 10
-9.622772281
 20
-37.7644852833
 10
-9.6479362056
 20
-37.7524850566
 10
-9.6729639505
 20
-37.7414269146
  0
LWPOLYLINE
  5
2A2
100
AcDbEntity
  8
IMPORT_IGES
100
AcDbPolyline
 62
7
420
11158274
  6
CONTINUOUS
 90
55
 70
0
 10
-19.7743921952
 20
-33.8861266461
 10
-19.7743274233
 20
-33.8900137338
 10
-19.774134892
 20
-33.8939787069
 10
-19.7738172782
 20
-33.8980169486
 10
-19.7733772587
 20
-33.9021238419
 10
-19.7728175104
 20
-33.9062947701
 10
-19.77214071
 20
-33.9105251163
 10
-19.7713495344
 20
-33.9148102637
 10
-19.7704466604
 20
-33.9191455954
 10
-19.7694347649
 20
-33.9235264945
 10
-19.7683165246
 20
-33.9279483444
 10
-19.7670946164
 20
-33.932406528
 10
-19.7657717171
 20
-33.9368964285
 10
-19.7643505036
 20
-33.9414134292
 10
-19.7628336527
 20
-33.9459529131
 10
-19.7612238411
 20
-33.9505102635
 10
-19.7595237458
 20
-33.9550808635
 10
-19.7577360435
 20
-33.9596600962
 10
-19.7558634111
 20
-33.9642433448
 10
-19.7539085254
 20
-33.9688259925
 10
-19.7518740633
 20
-33.9734034224
 10
-19.7497627014
 20
-33.9779710176
 10
-19.7475771168
 20
-33.9825241614
 10
-19.7453199862
 20
-33.987058237
 10
-19.7429939864
 20
-33.9915686273
 10
-19.7406017942
 20
-33.9960507157
 10
-19.7381460865
 20
-34.0004998852
 10
-19.7356295402
 20
-34.0049115191
 10
-19.733054832
 20
-34.0092810005
 10
-19.7304246387
 20
-34.0136037125
 10
-19.7277416372
 20
-34.0178750383
 10
-19.7250085044
 20
-34.022090361
 10
-19.7222279169
 20
-34.0262450639
 10
-19.7194025518
 20
-34.0303345301
 10
-19.7165350857
 20
-34.0343541427
 10
-19.7136281955
 20
-34.0382992849
 10
-19.7106845581
 20
-34.0421653398
 10
-19.7077068503
 20
-34.0459476907
 10
-19.7046977488
 20
-34.0496417206
 10
-19.7016599306
 20
-34.0532428127
 10
-19.6985960724
 20
-34.0567463503
 10
-19.6955088511
 20
-34.0601477163
 10
-19.6924009435
 20
-34.0634422941
 10
-19.6892750264
 20
-34.0666254667
 10
-19.6861337766
 20
-34.0696926174
 10
-19.6829798711
 20
-34.0726391292
 10
-19.6798159865
 20
-34.0754603854
 10
-19.6766447998
 20
-34.078151769
 10
-19.6734689877
 20
-34.0807086633
 10
-19.6702912271
 20
-34.0831264514
 10
-19.6671141948
 20
-34.0854005165
 10
-19.6639405676
 20
-34.0875262417
 10
-19.6607730224
 20
-34.0894990102
 10
-19.657614236
 20
-34.0913142051
 10
-19.6544668851
 20
-34.0929672096
  0
LWPOLYLINE
  5
2A3
100
AcDbEntity
  8
IMPORT_IGES
100
AcDbPolyline
 62
7
420
11158274
  6
CONTINUOUS
 90
51
 70
0
 10
-16.9718451787
 20
-33.1548992001
 10
-16.9719141174
 20
-33.1504982984
 10
-16.9721188133
 20
-33.1460576661
 10
-16.9724560857
 20
-33.1415793389
 10
-16.972922754
 20
-33.1370653527
 10
-16.9735156376
 20
-33.132517743
 10
-16.9742315559
 20
-33.1279385455
 10
-16.9750673283
 20
-33.1233297961
 10
-16.9760197741
 20
-33.1186935304
 10
-16.9770857128
 20
-33.114031784
 10
-16.9782619638
 20
-33.1093465928
 10
-16.9795453465
 20
-33.1046399925
 10
-16.9809326802
 20
-33.0999140186
 10
-16.9824207843
 20
-33.0951707071
 10
-16.9840064783
 20
-33.0904120934
 10
-16.9856865816
 20
-33.0856402135
 10
-16.9874579134
 20
-33.080857103
 10
-16.9893172933
 20
-33.0760647975
 10
-16.9912615406
 20
-33.0712653329
 10
-16.9932874747
 20
-33.0664607447
 10
-16.995391915
 20
-33.0616530688
 10
-16.9975716808
 20
-33.0568443409
 10
-16.9998235917
 20
-33.0520365966
 10
-17.002144467
 20
-33.0472318716
 10
-17.004531126
 20
-33.0424322018
 10
-17.0069803882
 20
-33.0376396227
 10
-17.009489073
 20
-33.0328561701
 10
-17.0120539997
 20
-33.0280838797
 10
-17.0146719877
 20
-33.0233247872
 10
-17.0173398566
 20
-33.0185809283
 10
-17.0200544255
 20
-33.0138543388
 10
-17.022812514
 20
-33.0091470543
 10
-17.0256109414
 20
-33.0044611106
 10
-17.0284465271
 20
-32.9997985434
 10
-17.0313160905
 20
-32.9951613883
 10
-17.034216451
 20
-32.9905516811
 10
-17.037144428
 20
-32.9859714575
 10
-17.0400968409
 20
-32.9814227533
 10
-17.0430705091
 20
-32.976907604
 10
-17.046062252
 20
-32.9724280455
 10
-17.0490688889
 20
-32.9679861134
 10
-17.0520872393
 20
-32.9635838435
 10
-17.0551141226
 20
-32.9592232714
 10
-17.0581463581
 20
-32.954906433
 10
-17.0611807653
 20
-32.9506353638
 10
-17.0642141634
 20
-32.9464120996
 10
-17.0672433721
 20
-32.9422386761
 10
-17.0702652105
 20
-32.938117129
 10
-17.0732764982
 20
-32.9340494941
 10
-17.0762740545
 20
-32.9300378069
 10
-18.3746743219
 20
-31.211690802
  0
LINE
  5
2A4
100
AcDbEntity
  8
IMPORT_IGES
100
AcDbLine
 62
7
420
11158274
  6
CONTINUOUS
 10
-19.5231571559
 20
-33.5985634456
 11
-19.5231571559
 21
-32.179667424
  0
LINE
  5
2A5
100
AcDbEntity
  8
IMPORT_IGES
100
AcDbLine
 62
7
420
11158274
  6
CONTINUOUS
 10
-17.2279592548
 20
-33.3272663746
 11
-17.2279592548
 21
-34.7461623961
  0
LINE
  5
2A6
100
AcDbEntity
  8
IMPORT_IGES
100
AcDbLine
 62
7
420
11158274
  6
CONTINUOUS
 10
-16.9718451787
 20
-35.2874001543
 11
-16.9718451787
 21
-33.1548992001
  0
LINE
  5
2A7
100
AcDbEntity
  8
IMPORT_IGES
100
AcDbLine
 62
7
420
11158274
  6
CONTINUOUS
 10
-19.7735436671
 20
-31.7655680937
 11
-19.7743921952
 21
-33.8861266461
  0
LWPOLYLINE
  5
2A8
100
AcDbEntity
  8
IMPORT_IGES
100
AcDbPolyline
 62
7
420
11158274
  6
CONTINUOUS
 90
25
 70
0
 10
-50.91881969
 20
-27.6598911672
 10
-50.9224103017
 20
-27.6634373365
 10
-50.9259247938
 20
-27.6671125426
 10
-50.9293618602
 20
-27.670914408
 10
-50.9327201953
 20
-27.6748405548
 10
-50.9359984933
 20
-27.6788886053
 10
-50.9391954483
 20
-27.6830561819
 10
-50.9423097547
 20
-27.6873409068
 10
-50.9453401065
 20
-27.6917404022
 10
-50.948285198
 20
-27.6962522905
 10
-50.9511437235
 20
-27.700874194
 10
-50.953914377
 20
-27.7056037348
 10
-50.956595853
 20
-27.7104385353
 10
-50.9591868454
 20
-27.7153762178
 10
-50.9616860487
 20
-27.7204144045
 10
-50.9640921569
 20
-27.7255507177
 10
-50.9664038643
 20
-27.7307827797
 10
-50.9686198651
 20
-27.7361082128
 10
-50.9707388535
 20
-27.7415246392
 10
-50.9727595237
 20
-27.7470296812
 10
-50.97468057
 20
-27.7526209611
 10
-50.9765006865
 20
-27.7582961012
 10
-50.9782185675
 20
-27.7640527237
 10
-50.9798329071
 20
-27.7698884509
 10
-50.9813423996
 20
-27.7758009051
  0
LINE
  5
2A9
100
AcDbEntity
  8
IMPORT_IGES
100
AcDbLine
 62
7
420
11158274
  6
CONTINUOUS
 10
6.5384791858
 20
-46.9485369771
 11
6.6282294215
 21
-47.1033091697
  0
LWPOLYLINE
  5
2AA
100
AcDbEntity
  8
IMPORT_IGES
100
AcDbPolyline
 62
7
420
11158274
  6
CONTINUOUS
 90
55
 70
0
 10
6.6282294215
 20
-47.1033091697
 10
6.6298334706
 20
-47.1061074497
 10
6.6315136932
 20
-47.1088692203
 10
6.6332671698
 20
-47.1115930061
 10
6.635090981
 20
-47.1142773317
 10
6.6369822075
 20
-47.1169207217
 10
6.6389379298
 20
-47.1195217008
 10
6.6409552284
 20
-47.1220787935
 10
6.6430311841
 20
-47.1245905245
 10
6.6451628772
 20
-47.1270554183
 10
6.6473473885
 20
-47.1294719996
 10
6.6495817985
 20
-47.131838793
 10
6.6518631878
 20
-47.134154323
 10
6.6541886369
 20
-47.1364171144
 10
6.6565552265
 20
-47.1386256917
 10
6.6589600371
 20
-47.1407785795
 10
6.6614001493
 20
-47.1428743024
 10
6.6638726437
 20
-47.144911385
 10
6.6663746009
 20
-47.146888352
 10
6.6689031014
 20
-47.148803728
 10
6.6714552258
 20
-47.1506560375
 10
6.6740280547
 20
-47.1524438053
 10
6.6766186688
 20
-47.1541655558
 10
6.6792241485
 20
-47.1558198137
 10
6.6818415744
 20
-47.1574051036
 10
6.6844680272
 20
-47.1589199501
 10
6.6871005874
 20
-47.1603628778
 10
6.6897363355
 20
-47.1617324114
 10
6.6923723523
 20
-47.1630270754
 10
6.6950057181
 20
-47.1642453945
 10
6.6976335137
 20
-47.1653858933
 10
6.7002528197
 20
-47.1664470963
 10
6.7028607165
 20
-47.1674275282
 10
6.7054542848
 20
-47.1683257136
 10
6.7080306051
 20
-47.1691401771
 10
6.7105867581
 20
-47.1698694433
 10
6.7131198242
 20
-47.1705120368
 10
6.7156268842
 20
-47.1710664823
 10
6.7181050185
 20
-47.1715313043
 10
6.7205513078
 20
-47.1719050275
 10
6.7229628326
 20
-47.1721861764
 10
6.7253366736
 20
-47.1723732757
 10
6.7276699112
 20
-47.1724648499
 10
6.7299596261
 20
-47.1724594238
 10
6.7322028988
 20
-47.1723555219
 10
6.73439681
 20
-47.1721516687
 10
6.7365384402
 20
-47.171846389
 10
6.73862487
 20
-47.1714382073
 10
6.74065318
 20
-47.1709256483
 10
6.7426204507
 20
-47.1703072365
 10
6.7445237628
 20
-47.1695814966
 10
6.7463601968
 20
-47.1687469531
 10
6.7481268332
 20
-47.1678021307
 10
6.7498207528
 20
-47.166745554
 10
9.3144541461
 20
-45.3080436913
  0
LWPOLYLINE
  5
2AB
100
AcDbEntity
  8
IMPORT_IGES
100
AcDbPolyline
 62
7
420
11158274
  6
CONTINUOUS
 90
95
 70
0
 10
-9.8160304457
 20
-38.9353244866
 10
-9.8159715756
 20
-38.9425361909
 10
-9.8157787254
 20
-38.9500694136
 10
-9.8154275348
 20
-38.9579167558
 10
-9.814893644
 20
-38.9660708183
 10
-9.8141526929
 20
-38.974524202
 10
-9.8131803214
 20
-38.9832695078
 10
-9.8121442031
 20
-38.9909922218
 10
-9.8109048241
 20
-38.9989193137
 10
-9.8094468439
 20
-39.0070461239
 10
-9.8077549222
 20
-39.015367993
 10
-9.8058137184
 20
-39.0238802615
 10
-9.8036078922
 20
-39.03257827
 10
-9.8011221032
 20
-39.0414573589
 10
-9.7987053211
 20
-39.0493714412
 10
-9.7960521705
 20
-39.0574174744
 10
-9.7931523745
 20
-39.0655923368
 10
-9.7899956563
 20
-39.0738929071
 10
-9.786571739
 20
-39.0823160637
 10
-9.7828703456
 20
-39.0908586851
 10
-9.7788811992
 20
-39.0995176499
 10
-9.774594023
 20
-39.1082898366
 10
-9.7703662496
 20
-39.1164820736
 10
-9.7658858809
 20
-39.1247479132
 10
-9.7611630205
 20
-39.1330671446
 10
-9.7562077724
 20
-39.1414195569
 10
-9.7510302403
 20
-39.1497849394
 10
-9.7456405281
 20
-39.1581430812
 10
-9.7400487396
 20
-39.1664737717
 10
-9.7342649785
 20
-39.1747567999
 10
-9.7282993488
 20
-39.1829719552
 10
-9.7221619542
 20
-39.1910990267
 10
-9.7158628986
 20
-39.1991178037
 10
-9.7094122857
 20
-39.2070080753
 10
-9.7028202194
 20
-39.2147496308
 10
-9.6960968035
 20
-39.2223222593
 10
-9.6892521418
 20
-39.2297057501
 10
-9.6822963381
 20
-39.2368798925
 10
-9.6752394963
 20
-39.2438244755
 10
-9.6680917201
 20
-39.2505192885
 10
-9.6608631134
 20
-39.2569441205
 10
-9.65356378
 20
-39.2630787609
 10
-9.6462038237
 20
-39.2689029989
 10
-9.6387933483
 20
-39.2743966236
 10
-9.6313424576
 20
-39.2795394244
 10
-9.6238612555
 20
-39.2843111902
 10
-9.6163598458
 20
-39.2886917105
 10
-9.6088483322
 20
-39.2926607744
 10
-9.6013368186
 20
-39.2962032241
 10
-9.5938354089
 20
-39.2993241135
 10
-9.5863542068
 20
-39.3020335498
 10
-9.5789033161
 20
-39.3043416397
 10
-9.5714928407
 20
-39.3062584904
 10
-9.5641328844
 20
-39.3077942087
 10
-9.556833551
 20
-39.3089589017
 10
-9.5496049443
 20
-39.3097626764
 10
-9.5424571681
 20
-39.3102156396
 10
-9.5354003263
 20
-39.3103278984
 10
-9.5284445226
 20
-39.3101095597
 10
-9.5215998609
 20
-39.3095707306
 10
-9.514876445
 20
-39.308721518
 10
-9.5082843787
 20
-39.3075720288
 10
-9.5018337658
 20
-39.3061323701
 10
-9.4955347102
 20
-39.3044126488
 10
-9.4893973156
 20
-39.3024229719
 10
-9.4834316858
 20
-39.3001734463
 10
-9.4776479248
 20
-39.2976741791
 10
-9.4720561363
 20
-39.2949352771
 10
-9.4666664241
 20
-39.2919668475
 10
-9.461488892
 20
-39.2887789971
 10
-9.4565336439
 20
-39.2853818329
 10
-9.4518107835
 20
-39.2817854619
 10
-9.4473304147
 20
-39.2779999911
 10
-9.4431026414
 20
-39.2740355274
 10
-9.4388154652
 20
-39.2695505169
 10
-9.4348263188
 20
-39.2648806985
 10
-9.4311249254
 20
-39.2600394705
 10
-9.4277010081
 20
-39.2550402312
 10
-9.4245442898
 20
-39.2498963792
 10
-9.4216444939
 20
-39.2446213127
 10
-9.4189913433
 20
-39.2392284301
 10
-9.4165745612
 20
-39.2337311298
 10
-9.4140887722
 20
-39.22733783
 10
-9.411882946
 20
-39.2208456478
 10
-9.4099417422
 20
-39.214274583
 10
-9.4082498205
 20
-39.2076446356
 10
-9.4067918403
 20
-39.2009758056
 10
-9.4055524613
 20
-39.1942880927
 10
-9.404516343
 20
-39.187601497
 10
-9.4035439715
 20
-39.1798285627
 10
-9.4028030204
 20
-39.1721161301
 10
-9.4022691296
 20
-39.1644959584
 10
-9.401917939
 20
-39.1569998068
 10
-9.4017250887
 20
-39.1496594343
 10
-9.4016662187
 20
-39.1425066002
  0
LWPOLYLINE
  5
2AC
100
AcDbEntity
  8
IMPORT_IGES
100
AcDbPolyline
 62
7
420
11158274
  6
CONTINUOUS
 90
95
 70
0
 10
-9.4016662187
 20
-39.1425066002
 10
-9.4017250887
 20
-39.1352948959
 10
-9.401917939
 20
-39.1277616732
 10
-9.4022691296
 20
-39.119914331
 10
-9.4028030204
 20
-39.1117602686
 10
-9.4035439715
 20
-39.1033068849
 10
-9.404516343
 20
-39.094561579
 10
-9.4055524613
 20
-39.086838865
 10
-9.4067918403
 20
-39.0789117732
 10
-9.4082498205
 20
-39.0707849629
 10
-9.4099417422
 20
-39.0624630938
 10
-9.411882946
 20
-39.0539508253
 10
-9.4140887722
 20
-39.0452528168
 10
-9.4165745612
 20
-39.036373728
 10
-9.4189913433
 20
-39.0284596456
 10
-9.4216444939
 20
-39.0204136125
 10
-9.4245442898
 20
-39.01223875
 10
-9.4277010081
 20
-39.0039381797
 10
-9.4311249254
 20
-38.9955150231
 10
-9.4348263188
 20
-38.9869724017
 10
-9.4388154652
 20
-38.9783134369
 10
-9.4431026414
 20
-38.9695412502
 10
-9.4473304147
 20
-38.9613490132
 10
-9.4518107835
 20
-38.9530831736
 10
-9.4565336439
 20
-38.9447639423
 10
-9.461488892
 20
-38.93641153
 10
-9.4666664241
 20
-38.9280461475
 10
-9.4720561363
 20
-38.9196880056
 10
-9.4776479248
 20
-38.9113573152
 10
-9.4834316858
 20
-38.9030742869
 10
-9.4893973156
 20
-38.8948591316
 10
-9.4955347102
 20
-38.8867320601
 10
-9.5018337658
 20
-38.8787132831
 10
-9.5082843787
 20
-38.8708230115
 10
-9.514876445
 20
-38.8630814561
 10
-9.5215998609
 20
-38.8555088275
 10
-9.5284445226
 20
-38.8481253367
 10
-9.5354003263
 20
-38.8409511944
 10
-9.5424571681
 20
-38.8340066113
 10
-9.5496049443
 20
-38.8273117984
 10
-9.556833551
 20
-38.8208869663
 10
-9.5641328844
 20
-38.8147523259
 10
-9.5714928407
 20
-38.8089280879
 10
-9.5789033161
 20
-38.8034344632
 10
-9.5863542068
 20
-38.7982916625
 10
-9.5938354089
 20
-38.7935198966
 10
-9.6013368186
 20
-38.7891393763
 10
-9.6088483322
 20
-38.7851703124
 10
-9.6163598458
 20
-38.7816278628
 10
-9.6238612555
 20
-38.7785069733
 10
-9.6313424576
 20
-38.7757975371
 10
-9.6387933483
 20
-38.7734894471
 10
-9.6462038237
 20
-38.7715725965
 10
-9.65356378
 20
-38.7700368781
 10
-9.6608631134
 20
-38.7688721851
 10
-9.6680917201
 20
-38.7680684105
 10
-9.6752394963
 20
-38.7676154472
 10
-9.6822963381
 20
-38.7675031884
 10
-9.6892521418
 20
-38.7677215271
 10
-9.6960968035
 20
-38.7682603562
 10
-9.7028202194
 20
-38.7691095688
 10
-9.7094122857
 20
-38.770259058
 10
-9.7158628986
 20
-38.7716987167
 10
-9.7221619542
 20
-38.773418438
 10
-9.7282993488
 20
-38.775408115
 10
-9.7342649785
 20
-38.7776576405
 10
-9.7400487396
 20
-38.7801569078
 10
-9.7456405281
 20
-38.7828958097
 10
-9.7510302403
 20
-38.7858642394
 10
-9.7562077724
 20
-38.7890520898
 10
-9.7611630205
 20
-38.7924492539
 10
-9.7658858809
 20
-38.7960456249
 10
-9.7703662496
 20
-38.7998310957
 10
-9.774594023
 20
-38.8037955594
 10
-9.7788811992
 20
-38.8082805699
 10
-9.7828703456
 20
-38.8129503883
 10
-9.786571739
 20
-38.8177916164
 10
-9.7899956563
 20
-38.8227908556
 10
-9.7931523745
 20
-38.8279347077
 10
-9.7960521705
 20
-38.8332097742
 10
-9.7987053211
 20
-38.8386026567
 10
-9.8011221032
 20
-38.844099957
 10
-9.8036078922
 20
-38.8504932568
 10
-9.8058137184
 20
-38.8569854391
 10
-9.8077549222
 20
-38.8635565038
 10
-9.8094468439
 20
-38.8701864512
 10
-9.8109048241
 20
-38.8768552813
 10
-9.8121442031
 20
-38.8835429941
 10
-9.8131803214
 20
-38.8902295898
 10
-9.8141526929
 20
-38.8980025242
 10
-9.814893644
 20
-38.9057149567
 10
-9.8154275348
 20
-38.9133351284
 10
-9.8157787254
 20
-38.92083128
 10
-9.8159715756
 20
-38.9281716525
 10
-9.8160304457
 20
-38.9353244866
  0
LWPOLYLINE
  5
2AD
100
AcDbEntity
  8
IMPORT_IGES
100
AcDbPolyline
 62
7
420
11158274
  6
CONTINUOUS
 90
80
 70
0
 10
-50.3957171376
 20
-28.351832765
 10
-50.3411720935
 20
-28.3079700177
 10
-50.2836422174
 20
-28.2684086544
 10
-50.2232857851
 20
-28.233121639
 10
-50.1602610724
 20
-28.2020819353
 10
-50.0947263551
 20
-28.1752625074
 10
-50.0268399089
 20
-28.1526363193
 10
-49.9567600095
 20
-28.1341763348
 10
-49.8846449327
 20
-28.119855518
 10
-49.8106529543
 20
-28.1096468328
 10
-49.7349423499
 20
-28.1035232432
 10
-49.6576713955
 20
-28.1014577132
 10
-49.5789983667
 20
-28.1034232067
 10
-49.4990815392
 20
-28.1093926876
 10
-49.4180791889
 20
-28.11933912
 10
-49.3361495914
 20
-28.1332354677
 10
-49.2534510226
 20
-28.1510546948
 10
-49.1701417582
 20
-28.1727697653
 10
-49.086380074
 20
-28.198353643
 10
-49.0023242456
 20
-28.227779292
 10
-48.9181325489
 20
-28.2610196761
 10
-48.8339632596
 20
-28.2980477594
 10
-48.7499746535
 20
-28.3388365059
 10
-48.6663250063
 20
-28.3833588795
 10
-48.5831725938
 20
-28.4315878441
 10
-48.5006756916
 20
-28.4834963637
 10
-48.4189925757
 20
-28.5390574023
 10
-48.3382815217
 20
-28.5982439238
 10
-48.2587008054
 20
-28.6610288922
 10
-48.1772649354
 20
-28.7301088848
 10
-48.0972888127
 20
-28.802878349
 10
-48.0188376495
 20
-28.8791617822
 10
-47.9419766579
 20
-28.9587836819
 10
-47.8667710502
 20
-29.0415685452
 10
-47.7932860385
 20
-29.1273408695
 10
-47.7215868351
 20
-29.2159251522
 10
-47.651738652
 20
-29.3071458906
 10
-47.5838067015
 20
-29.400827582
 10
-47.5178561958
 20
-29.4967947237
 10
-47.453952347
 20
-29.5948718131
 10
-47.3921603672
 20
-29.6948833475
 10
-47.3325454688
 20
-29.7966538243
 10
-47.2751728638
 20
-29.9000077407
 10
-47.2201171502
 20
-30.0047702722
 10
-47.1674784692
 20
-30.1107923491
 10
-47.1173665167
 20
-30.2179256824
 10
-47.0698909886
 20
-30.3260219834
 10
-47.0251615807
 20
-30.4349329635
 10
-46.9832879886
 20
-30.5445103337
 10
-46.9443799084
 20
-30.6546058054
 10
-46.9085470358
 20
-30.7650710898
 10
-46.8758990665
 20
-30.8757578981
 10
-46.8465456965
 20
-30.9865179416
 10
-46.8205966215
 20
-31.0972029314
 10
-46.7981615374
 20
-31.2076645789
 10
-46.7793501399
 20
-31.3177545953
 10
-46.7642721249
 20
-31.4273246917
 10
-46.7530368216
 20
-31.5358884243
 10
-46.7455565647
 20
-31.6436108018
 10
-46.7417668792
 20
-31.7503145819
 10
-46.7416032898
 20
-31.8558225221
 10
-46.7450013214
 20
-31.9599573804
 10
-46.7518964988
 20
-32.0625419142
 10
-46.7622243468
 20
-32.1633988813
 10
-46.7759203901
 20
-32.2623510395
 10
-46.7929201537
 20
-32.3592211463
 10
-46.8131591622
 20
-32.4538319594
 10
-46.8365729406
 20
-32.5460062366
 10
-46.8630970137
 20
-32.6355667355
 10
-46.8926669062
 20
-32.7223362138
 10
-46.9252181429
 20
-32.8061374291
 10
-46.9606862487
 20
-32.8867931393
 10
-46.9990067484
 20
-32.9641261019
 10
-47.0401151668
 20
-33.0379590747
 10
-47.0839470287
 20
-33.1081148152
 10
-47.130437859
 20
-33.1744160813
 10
-47.1795231823
 20
-33.2366856306
 10
-47.2311385236
 20
-33.2947462207
 10
-47.2852194077
 20
-33.3484206094
 10
-47.3417013593
 20
-33.3975315543
  0
LWPOLYLINE
  5
2AE
100
AcDbEntity
  8
IMPORT_IGES
100
AcDbPolyline
 62
7
420
11158274
  6
CONTINUOUS
 90
54
 70
0
 10
9.2254004041
 20
-45.0010600358
 10
9.2237652912
 20
-44.9983272534
 10
9.2220587434
 20
-44.9956319495
 10
9.2202835555
 20
-44.9929755313
 10
9.2184425223
 20
-44.9903594058
 10
9.2165384383
 20
-44.98778498
 10
9.2145740982
 20
-44.9852536609
 10
9.2125522969
 20
-44.9827668558
 10
9.2104758289
 20
-44.9803259715
 10
9.208347489
 20
-44.9779324152
 10
9.2061700718
 20
-44.9755875939
 10
9.2039463721
 20
-44.9732929147
 10
9.2016791845
 20
-44.9710497846
 10
9.1993713038
 20
-44.9688596107
 10
9.1970255246
 20
-44.9667238
 10
9.1946446417
 20
-44.9646437597
 10
9.1922314497
 20
-44.9626208966
 10
9.1897887433
 20
-44.9606566179
 10
9.1873193173
 20
-44.9587523307
 10
9.1848259662
 20
-44.9569094421
 10
9.1823114849
 20
-44.9551293589
 10
9.179778668
 20
-44.9534134884
 10
9.1772303102
 20
-44.9517632376
 10
9.1746692063
 20
-44.9501800135
 10
9.1720981508
 20
-44.9486652231
 10
9.1695199385
 20
-44.9472202737
 10
9.1669373641
 20
-44.9458465721
 10
9.1643532222
 20
-44.9445455254
 10
9.1617703077
 20
-44.9433185408
 10
9.1591914152
 20
-44.9421670252
 10
9.1566193393
 20
-44.9410923857
 10
9.1540568748
 20
-44.9400960294
 10
9.1515068163
 20
-44.9391793633
 10
9.1489719586
 20
-44.9383437945
 10
9.1464550964
 20
-44.93759073
 10
9.1439590243
 20
-44.9369215769
 10
9.1414865371
 20
-44.9363377423
 10
9.1390404294
 20
-44.9358406331
 10
9.136623496
 20
-44.9354316565
 10
9.1342385315
 20
-44.9351122195
 10
9.1318883306
 20
-44.9348837292
 10
9.129575688
 20
-44.9347475926
 10
9.1273033985
 20
-44.9347052168
 10
9.1250742567
 20
-44.9347580087
 10
9.1228910573
 20
-44.9349073756
 10
9.120756595
 20
-44.9351547244
 10
9.1186736646
 20
-44.9355014622
 10
9.1166450606
 20
-44.9359489961
 10
9.1146735778
 20
-44.936498733
 10
9.1127620109
 20
-44.9371520801
 10
9.1109131546
 20
-44.9379104444
 10
9.1091298036
 20
-44.938775233
 10
9.1074147526
 20
-44.9397478529
 10
9.1057707962
 20
-44.9408297112
  0
LINE
  5
2AF
100
AcDbEntity
  8
IMPORT_IGES
100
AcDbLine
 62
7
420
11158274
  6
CONTINUOUS
 10
9.317041443
 20
-45.1591174476
 11
9.2254004041
 21
-45.0010600358
  0
LWPOLYLINE
  5
2B0
100
AcDbEntity
  8
IMPORT_IGES
100
AcDbPolyline
 62
7
420
11158274
  6
CONTINUOUS
 90
18
 70
0
 10
8.8443082286
 20
-47.2060894487
 10
8.8526554052
 20
-47.2242023365
 10
8.8608084348
 20
-47.2423902736
 10
8.8678906885
 20
-47.2587646598
 10
8.874731823
 20
-47.2752152191
 10
8.881306118
 20
-47.2917359528
 10
8.8875878535
 20
-47.3083208626
 10
8.8921917867
 20
-47.3210893248
 10
8.8965794322
 20
-47.3338863834
 10
8.9007219949
 20
-47.3467063635
 10
8.9043317972
 20
-47.3586600121
 10
8.9076657877
 20
-47.3706157958
 10
8.9095576215
 20
-47.3779547338
 10
8.9113047688
 20
-47.3852820492
 10
8.9130650311
 20
-47.393476108
 10
8.9146061782
 20
-47.4016361323
 10
8.9156998567
 20
-47.4086463054
 10
8.9159704767
 20
-47.4109061003
  0
LWPOLYLINE
  5
2B1
100
AcDbEntity
  8
IMPORT_IGES
100
AcDbPolyline
 62
7
420
11158274
  6
CONTINUOUS
 90
20
 70
0
 10
9.0931687308
 20
-47.1274860518
 10
9.0435695548
 20
-47.0196227944
 10
9.0264534235
 20
-46.9812116796
 10
9.0099451435
 20
-46.9426018191
 10
9.0001381835
 20
-46.9185994895
 10
8.9907229582
 20
-46.8944984215
 10
8.9817767972
 20
-46.8703007601
 10
8.9718051798
 20
-46.8413263255
 10
8.9626039112
 20
-46.8122686186
 10
8.9541661589
 20
-46.7831787088
 10
8.9464850906
 20
-46.7541076656
 10
8.9402069323
 20
-46.7280075779
 10
8.9344770743
 20
-46.7019709281
 10
8.9292369297
 20
-46.6760045518
 10
8.9244279118
 20
-46.6501152846
 10
8.9190984116
 20
-46.6188478891
 10
8.914242147
 20
-46.5876939331
 10
8.9097851453
 20
-46.5566435528
 10
8.9037908777
 20
-46.5110127815
 10
8.898308457
 20
-46.4655322413
  0
LWPOLYLINE
  5
2B2
100
AcDbEntity
  8
IMPORT_IGES
100
AcDbPolyline
 62
7
420
11158274
  6
CONTINUOUS
 90
55
 70
0
 10
0.3015714042
 20
-40.4615943099
 10
0.3015003086
 20
-40.4573885675
 10
0.3012913896
 20
-40.4530987859
 10
0.3009475289
 20
-40.4487299434
 10
0.300471608
 20
-40.4442870187
 10
0.2998665088
 20
-40.4397749904
 10
0.2991351128
 20
-40.435198837
 10
0.2982803018
 20
-40.4305635371
 10
0.2973049575
 20
-40.4258740693
 10
0.2962119616
 20
-40.421135412
 10
0.2950041957
 20
-40.416352544
 10
0.2936845415
 20
-40.4115304438
 10
0.2922558808
 20
-40.4066740898
 10
0.2907210952
 20
-40.4017884608
 10
0.2890830664
 20
-40.3968785353
 10
0.2873446761
 20
-40.3919492918
 10
0.285508806
 20
-40.3870057089
 10
0.2835783378
 20
-40.3820527651
 10
0.2815561531
 20
-40.3770954392
 10
0.2794451337
 20
-40.3721387095
 10
0.2772481612
 20
-40.3671875547
 10
0.2749681174
 20
-40.3622469534
 10
0.2726078839
 20
-40.3573218841
 10
0.2701703424
 20
-40.3524173253
 10
0.2676583746
 20
-40.3475382558
 10
0.2650748622
 20
-40.3426896539
 10
0.2624226869
 20
-40.3378764984
 10
0.2597047303
 20
-40.3331037677
 10
0.2569238742
 20
-40.3283764404
 10
0.2540830003
 20
-40.3236994951
 10
0.2511849902
 20
-40.3190779104
 10
0.2482327256
 20
-40.3145166649
 10
0.2452290882
 20
-40.310020737
 10
0.2421769598
 20
-40.3055951055
 10
0.2390792219
 20
-40.3012447487
 10
0.2359387563
 20
-40.2969746454
 10
0.2327584447
 20
-40.292789774
 10
0.2295411688
 20
-40.2886951132
 10
0.2262898102
 20
-40.2846956416
 10
0.2230072506
 20
-40.2807963376
 10
0.2196963718
 20
-40.2770021798
 10
0.2163600554
 20
-40.2733181469
 10
0.2130011831
 20
-40.2697492174
 10
0.2096226367
 20
-40.2663003698
 10
0.2062272977
 20
-40.2629765827
 10
0.2028180478
 20
-40.2597828348
 10
0.1993977689
 20
-40.2567241045
 10
0.1959693425
 20
-40.2538053704
 10
0.1925356503
 20
-40.2510316112
 10
0.1890995741
 20
-40.2484078053
 10
0.1856639955
 20
-40.2459389313
 10
0.1822317963
 20
-40.2436299679
 10
0.178805858
 20
-40.2414858935
 10
0.1753890624
 20
-40.2395116868
 10
0.1719842912
 20
-40.2377123263
  0
LWPOLYLINE
  5
2B3
100
AcDbEntity
  8
IMPORT_IGES
100
AcDbPolyline
 62
7
420
11158274
  6
CONTINUOUS
 90
55
 70
0
 10
-0.2020300454
 20
-43.3015042766
 10
-0.2019970815
 20
-43.3035661713
 10
-0.2018962309
 20
-43.3056695043
 10
-0.2017289167
 20
-43.3078118209
 10
-0.2014965618
 20
-43.3099906667
 10
-0.2012005892
 20
-43.3122035871
 10
-0.2008424219
 20
-43.3144481274
 10
-0.2004234829
 20
-43.3167218331
 10
-0.1999451953
 20
-43.3190222496
 10
-0.1994089819
 20
-43.3213469224
 10
-0.1988162658
 20
-43.3236933968
 10
-0.1981684701
 20
-43.3260592184
 10
-0.1974670176
 20
-43.3284419325
 10
-0.1967133315
 20
-43.3308390845
 10
-0.1959088346
 20
-43.3332482199
 10
-0.19505495
 20
-43.3356668841
 10
-0.1941531007
 20
-43.3380926225
 10
-0.1932047097
 20
-43.3405229806
 10
-0.1922112
 20
-43.3429555038
 10
-0.1911739945
 20
-43.3453877374
 10
-0.1900945163
 20
-43.347817227
 10
-0.1889741884
 20
-43.350241518
 10
-0.1878144338
 20
-43.3526581557
 10
-0.1866166754
 20
-43.3550646857
 10
-0.1853823363
 20
-43.3574586532
 10
-0.1841128395
 20
-43.3598376039
 10
-0.1828096079
 20
-43.362199083
 10
-0.1814740646
 20
-43.364540636
 10
-0.1801076325
 20
-43.3668598084
 10
-0.1787117347
 20
-43.3691541456
 10
-0.1772877941
 20
-43.3714211929
 10
-0.1758372338
 20
-43.3736584958
 10
-0.1743614767
 20
-43.3758635998
 10
-0.1728619459
 20
-43.3780340502
 10
-0.1713400642
 20
-43.3801673926
 10
-0.1697972549
 20
-43.3822611722
 10
-0.1682349407
 20
-43.3843129346
 10
-0.1666545448
 20
-43.3863202252
 10
-0.1650574901
 20
-43.3882805893
 10
-0.1634451996
 20
-43.3901915725
 10
-0.1618190964
 20
-43.3920507201
 10
-0.1601806034
 20
-43.3938555776
 10
-0.1585311435
 20
-43.3956036904
 10
-0.1568721399
 20
-43.3972926039
 10
-0.1552050155
 20
-43.3989198635
 10
-0.1535311933
 20
-43.4004830148
 10
-0.1518520964
 20
-43.401979603
 10
-0.1501691476
 20
-43.4034071736
 10
-0.14848377
 20
-43.4047632721
 10
-0.1467973866
 20
-43.4060454439
 10
-0.1451114204
 20
-43.4072512344
 10
-0.1434272944
 20
-43.408378189
 10
-0.1417464316
 20
-43.4094238532
 10
-0.1400702549
 20
-43.4103857723
 10
-0.1384001874
 20
-43.4112614919
  0
LWPOLYLINE
  5
2B4
100
AcDbEntity
  8
IMPORT_IGES
100
AcDbPolyline
 62
7
420
11158274
  6
CONTINUOUS
 90
95
 70
0
 10
-0.8857315953
 20
-41.7906277344
 10
-0.8857697844
 20
-41.7860137613
 10
-0.8858937628
 20
-41.7811941772
 10
-0.8861190932
 20
-41.7761737225
 10
-0.8864613386
 20
-41.7709571377
 10
-0.8869360618
 20
-41.7655491633
 10
-0.8875588256
 20
-41.7599545398
 10
-0.8882222483
 20
-41.7550141841
 10
-0.8890156701
 20
-41.7499431665
 10
-0.8899488914
 20
-41.7447444722
 10
-0.8910317127
 20
-41.7394210866
 10
-0.8922739346
 20
-41.7339759948
 10
-0.8936853576
 20
-41.7284121821
 10
-0.8952757821
 20
-41.7227326339
 10
-0.8968219453
 20
-41.7176704366
 10
-0.8985192258
 20
-41.7125239147
 10
-0.9003741889
 20
-41.7072950682
 10
-0.9023934005
 20
-41.7019858968
 10
-0.9045834259
 20
-41.6965984004
 10
-0.9069508309
 20
-41.6911345791
 10
-0.9095021809
 20
-41.6855964326
 10
-0.9122440416
 20
-41.6799859608
 10
-0.9149478237
 20
-41.6747464897
 10
-0.917813073
 20
-41.6694600113
 10
-0.9208333339
 20
-41.6641394404
 10
-0.9240021507
 20
-41.6587976921
 10
-0.9273130678
 20
-41.6534476811
 10
-0.9307596295
 20
-41.6481023224
 10
-0.93433538
 20
-41.6427745309
 10
-0.9380338637
 20
-41.6374772216
 10
-0.9418486249
 20
-41.6322233092
 10
-0.945773208
 20
-41.6270257087
 10
-0.9498011573
 20
-41.6218973349
 10
-0.953926017
 20
-41.6168511029
 10
-0.9581413316
 20
-41.6118999274
 10
-0.9624406452
 20
-41.6070567235
 10
-0.9668175023
 20
-41.6023344059
 10
-0.9712654472
 20
-41.5977458895
 10
-0.9757780242
 20
-41.5933040894
 10
-0.9803487776
 20
-41.5890219203
 10
-0.9849712517
 20
-41.5849122973
 10
-0.9896389909
 20
-41.580988135
 10
-0.9943455395
 20
-41.5772623486
 10
-0.9990844417
 20
-41.5737478528
 10
-1.003849242
 20
-41.5704575626
 10
-1.0086334846
 20
-41.5674043929
 10
-1.0134307139
 20
-41.5646012585
 10
-1.0182344741
 20
-41.5620610744
 10
-1.0230383088
 20
-41.5597935278
 10
-1.0278357578
 20
-41.557795395
 10
-1.0326203602
 20
-41.5560602248
 10
-1.037385655
 20
-41.5545815659
 10
-1.0421251812
 20
-41.5533529671
 10
-1.0468324779
 20
-41.5523679769
 10
-1.0515010841
 20
-41.5516201442
 10
-1.0561245388
 20
-41.5511030176
 10
-1.0606963812
 20
-41.5508101459
 10
-1.0652101501
 20
-41.5507350777
 10
-1.0696593847
 20
-41.5508713619
 10
-1.074037624
 20
-41.551212547
 10
-1.078338407
 20
-41.5517521818
 10
-1.0825552728
 20
-41.552483815
 10
-1.0866817603
 20
-41.5534009954
 10
-1.0907114087
 20
-41.5544972716
 10
-1.0946377569
 20
-41.5557661923
 10
-1.098454344
 20
-41.5572013063
 10
-1.1021547091
 20
-41.5587961622
 10
-1.1057323911
 20
-41.5605443089
 10
-1.1091809291
 20
-41.5624392949
 10
-1.1124938622
 20
-41.5644746691
 10
-1.1156647293
 20
-41.56664398
 10
-1.1186870695
 20
-41.5689407765
 10
-1.1215544218
 20
-41.5713586072
 10
-1.1242603253
 20
-41.5738910209
 10
-1.1270044996
 20
-41.5767562292
 10
-1.1295581758
 20
-41.5797397726
 10
-1.1319279165
 20
-41.5828330817
 10
-1.1341202846
 20
-41.5860275872
 10
-1.1361418426
 20
-41.5893147195
 10
-1.1379991533
 20
-41.5926859094
 10
-1.1396987794
 20
-41.5961325874
 10
-1.1412472835
 20
-41.599646184
 10
-1.1428403738
 20
-41.6037326715
 10
-1.1442544483
 20
-41.6078825787
 10
-1.1454993031
 20
-41.612083114
 10
-1.1465847345
 20
-41.6163214856
 10
-1.1475205386
 20
-41.620584902
 10
-1.1483165117
 20
-41.6248605715
 10
-1.14898245
 20
-41.6291357024
 10
-1.1496080976
 20
-41.6341056092
 10
-1.1500856431
 20
-41.6390370594
 10
-1.1504306425
 20
-41.6439097404
 10
-1.1506586518
 20
-41.6487033396
 10
-1.1507852271
 20
-41.6533975444
 10
-1.1508259244
 20
-41.657972042
  0
LWPOLYLINE
  5
2B5
100
AcDbEntity
  8
IMPORT_IGES
100
AcDbPolyline
 62
7
420
11158274
  6
CONTINUOUS
 90
95
 70
0
 10
-1.1511794112
 20
-41.9999840684
 10
-1.1511452046
 20
-42.0045973409
 10
-1.1510253429
 20
-42.0094163424
 10
-1.1508042423
 20
-42.0144363579
 10
-1.1504663194
 20
-42.0196526724
 10
-1.1499959904
 20
-42.0250605708
 10
-1.1493776719
 20
-42.0306553381
 10
-1.1487180844
 20
-42.0355960112
 10
-1.1479285071
 20
-42.0406675423
 10
-1.1469991264
 20
-42.0458669622
 10
-1.1459201288
 20
-42.0511913017
 10
-1.1446817008
 20
-42.0566375915
 10
-1.1432740287
 20
-42.0622028624
 10
-1.141687299
 20
-42.0678841451
 10
-1.1401443125
 20
-42.0729480992
 10
-1.1384501472
 20
-42.0780966123
 10
-1.1365982287
 20
-42.0833276954
 10
-1.1345819827
 20
-42.0886393592
 10
-1.132394835
 20
-42.0940296146
 10
-1.1300302111
 20
-42.0994964724
 10
-1.1274815367
 20
-42.1050379435
 10
-1.1247422376
 20
-42.1106520386
 10
-1.1220407116
 20
-42.1158951256
 10
-1.1191776097
 20
-42.1211854719
 10
-1.1161593834
 20
-42.1265101509
 10
-1.1129924843
 20
-42.1318562359
 10
-1.1096833642
 20
-42.1372108003
 10
-1.1062384745
 20
-42.1425609174
 10
-1.102664267
 20
-42.1478936605
 10
-1.0989671933
 20
-42.1531961031
 10
-1.0951537051
 20
-42.1584553183
 10
-1.0912302538
 20
-42.1636583797
 10
-1.0872032913
 20
-42.1687923606
 10
-1.0830792691
 20
-42.1738443342
 10
-1.0788646389
 20
-42.1788013739
 10
-1.0745658523
 20
-42.1836505532
 10
-1.0701893609
 20
-42.1883789452
 10
-1.0657416163
 20
-42.1929736235
 10
-1.0612290703
 20
-42.1974216612
 10
-1.0566581744
 20
-42.2017101319
 10
-1.0520353802
 20
-42.2058261087
 10
-1.0473671395
 20
-42.2097566651
 10
-1.0426599037
 20
-42.2134888744
 10
-1.0379201247
 20
-42.21700981
 10
-1.0331542539
 20
-42.2203065451
 10
-1.0283687431
 20
-42.2233661533
 10
-1.0235700439
 20
-42.2261757077
 10
-1.0187646078
 20
-42.2287222817
 10
-1.0139588899
 20
-42.2309961773
 10
-1.0091593585
 20
-42.233000611
 10
-1.0043724853
 20
-42.2347420275
 10
-0.9996047419
 20
-42.236226872
 10
-0.9948625999
 20
-42.2374615894
 10
-0.990152531
 20
-42.2384526248
 10
-0.985481007
 20
-42.239206423
 10
-0.9808544993
 20
-42.2397294291
 10
-0.9762794797
 20
-42.240028088
 10
-0.9717624198
 20
-42.2401088448
 10
-0.9673097914
 20
-42.2399781444
 10
-0.962928066
 20
-42.2396424318
 10
-0.9586237153
 20
-42.2391081521
 10
-0.9544032109
 20
-42.2383817501
 10
-0.9502730246
 20
-42.2374696708
 10
-0.9462396279
 20
-42.2363783593
 10
-0.9423094925
 20
-42.2351142605
 10
-0.9384890902
 20
-42.2336838195
 10
-0.9347848924
 20
-42.2320934811
 10
-0.931203371
 20
-42.2303496904
 10
-0.9277509975
 20
-42.2284588924
 10
-0.9244342436
 20
-42.226427532
 10
-0.921259581
 20
-42.2242620542
 10
-0.9182334812
 20
-42.2219689041
 10
-0.9153624161
 20
-42.2195545266
 10
-0.9126528571
 20
-42.2170253666
 10
-0.9099047976
 20
-42.2141634536
 10
-0.9073473154
 20
-42.211182973
 10
-0.904973847
 20
-42.2080925031
 10
-0.9027778292
 20
-42.2049006223
 10
-0.9007526985
 20
-42.2016159091
 10
-0.8988918914
 20
-42.1982469417
 10
-0.8971888446
 20
-42.1948022987
 10
-0.8956369947
 20
-42.1912905583
 10
-0.8940401715
 20
-42.1872059851
 10
-0.89262246
 20
-42.183057784
 10
-0.8913740631
 20
-42.1788587601
 10
-0.8902851833
 20
-42.1746217184
 10
-0.8893460236
 20
-42.1703594641
 10
-0.8885467865
 20
-42.166084802
 10
-0.8878776748
 20
-42.1618105374
 10
-0.8872484381
 20
-42.1568414809
 10
-0.8867674236
 20
-42.1519107283
 10
-0.8864190737
 20
-42.1470386136
 10
-0.8861878308
 20
-42.1422454708
 10
-0.8860581371
 20
-42.1375516337
 10
-0.8860144348
 20
-42.1329774364
  0
LINE
  5
2B6
100
AcDbEntity
  8
IMPORT_IGES
100
AcDbLine
 62
7
420
11158274
  6
CONTINUOUS
 10
-0.6419918846
 20
-41.0191049729
 11
-0.642071612
 21
-43.3598273103
  0
LINE
  5
2B7
100
AcDbEntity
  8
IMPORT_IGES
100
AcDbLine
 62
7
420
11158274
  6
CONTINUOUS
 10
-0.3770389737
 20
-43.8198711849
 11
-0.3770389737
 21
-40.9749683717
  0
LINE
  5
2B8
100
AcDbEntity
  8
IMPORT_IGES
100
AcDbLine
 62
7
420
11158274
  6
CONTINUOUS
 10
-0.2020226059
 20
-43.1315143467
 11
-0.2020300454
 21
-43.3015042766
  0
LINE
  5
2B9
100
AcDbEntity
  8
IMPORT_IGES
100
AcDbLine
 62
7
420
11158274
  6
CONTINUOUS
 10
0.0364710941
 20
-40.5714068746
 11
0.0364770719
 21
-43.0960781856
  0
LINE
  5
2BA
100
AcDbEntity
  8
IMPORT_IGES
100
AcDbLine
 62
7
420
11158274
  6
CONTINUOUS
 10
0.3015714042
 20
-43.4697103995
 11
0.3015714042
 21
-40.4615943099
  0
LINE
  5
2BB
100
AcDbEntity
  8
IMPORT_IGES
100
AcDbLine
 62
7
420
11158274
  6
CONTINUOUS
 10
-0.8860144348
 20
-42.1329774364
 11
-0.8857315953
 21
-41.7906277344
  0
LINE
  5
2BC
100
AcDbEntity
  8
IMPORT_IGES
100
AcDbLine
 62
7
420
11158274
  6
CONTINUOUS
 10
-1.1508259244
 20
-41.657972042
 11
-1.1511794258
 21
-41.9999982745
  0
LWPOLYLINE
  5
2BD
100
AcDbEntity
  8
IMPORT_IGES
100
AcDbPolyline
 62
7
420
11158274
  6
CONTINUOUS
 90
48
 70
0
 10
-0.3770389737
 20
-40.9749683717
 10
-0.3769905781
 20
-40.9708282345
 10
-0.3770643115
 20
-40.966604397
 10
-0.3772579254
 20
-40.9623017997
 10
-0.3775691711
 20
-40.9579253829
 10
-0.3779958
 20
-40.9534800871
 10
-0.3785355635
 20
-40.9489708527
 10
-0.3791862129
 20
-40.9444026202
 10
-0.3799454997
 20
-40.93978033
 10
-0.3808111752
 20
-40.9351089226
 10
-0.3817809907
 20
-40.9303933384
 10
-0.3828526978
 20
-40.9256385178
 10
-0.3840240476
 20
-40.9208494014
 10
-0.3852927917
 20
-40.9160309295
 10
-0.3866566814
 20
-40.9111880425
 10
-0.388113468
 20
-40.906325681
 10
-0.389660903
 20
-40.9014487854
 10
-0.3912967377
 20
-40.896562296
 10
-0.3930187235
 20
-40.8916711534
 10
-0.3948246117
 20
-40.886780298
 10
-0.3967121539
 20
-40.8818946703
 10
-0.3986791012
 20
-40.8770192106
 10
-0.4007232051
 20
-40.8721588595
 10
-0.402842217
 20
-40.8673185573
 10
-0.4050338883
 20
-40.8625032445
 10
-0.4072959703
 20
-40.8577178616
 10
-0.4096262144
 20
-40.8529673489
 10
-0.412022372
 20
-40.848256647
 10
-0.4144821944
 20
-40.8435906963
 10
-0.4170034331
 20
-40.8389744372
 10
-0.4195838394
 20
-40.8344128102
 10
-0.4222211647
 20
-40.8299107557
 10
-0.4249131603
 20
-40.8254732141
 10
-0.4276575777
 20
-40.8211051259
 10
-0.4304521682
 20
-40.8168114316
 10
-0.4332946831
 20
-40.8125970715
 10
-0.436182874
 20
-40.8084669862
 10
-0.4391144921
 20
-40.804426116
 10
-0.4420872888
 20
-40.8004794014
 10
-0.4450990155
 20
-40.7966317829
 10
-0.4481474236
 20
-40.7928882009
 10
-0.4512302644
 20
-40.7892535958
 10
-0.4543452894
 20
-40.7857329081
 10
-0.4574902498
 20
-40.7823310782
 10
-0.4606628972
 20
-40.7790530466
 10
-0.4638609828
 20
-40.7759037537
 10
-0.467082258
 20
-40.77288814
 10
-0.4703244742
 20
-40.7700111458
  0
LWPOLYLINE
  5
2BE
100
AcDbEntity
  8
IMPORT_IGES
100
AcDbPolyline
 62
7
420
11158274
  6
CONTINUOUS
 90
93
 70
0
 10
-9.0665121533
 20
-35.8835736366
 10
-9.0654981673
 20
-35.8797225305
 10
-9.0645314721
 20
-35.875668109
 10
-9.0636287385
 20
-35.8714085656
 10
-9.0628066374
 20
-35.866942094
 10
-9.0620818396
 20
-35.862266888
 10
-9.0614710162
 20
-35.8573811412
 10
-9.0610508043
 20
-35.8530244157
 10
-9.0607370749
 20
-35.8485105427
 10
-9.0605403264
 20
-35.8438383845
 10
-9.0604710569
 20
-35.8390068038
 10
-9.0605397648
 20
-35.8340146629
 10
-9.0607569484
 20
-35.8288608244
 10
-9.0611331059
 20
-35.8235441507
 10
-9.0616009051
 20
-35.8187575914
 10
-9.0622054895
 20
-35.8138447285
 10
-9.0629538922
 20
-35.8088048
 10
-9.0638531462
 20
-35.8036370438
 10
-9.0649102845
 20
-35.7983406979
 10
-9.0661323402
 20
-35.7929150003
 10
-9.0675263463
 20
-35.787359189
 10
-9.0690993358
 20
-35.7816725018
 10
-9.0707826097
 20
-35.7760919254
 10
-9.0726332663
 20
-35.7704042286
 10
-9.0746472557
 20
-35.7646236085
 10
-9.0768205277
 20
-35.7587642622
 10
-9.0791490324
 20
-35.7528403867
 10
-9.0816287196
 20
-35.7468661792
 10
-9.0842555394
 20
-35.7408558367
 10
-9.0870254417
 20
-35.7348235562
 10
-9.0899343765
 20
-35.7287835349
 10
-9.0929782937
 20
-35.7227499699
 10
-9.0961531434
 20
-35.7167370581
 10
-9.0994548754
 20
-35.7107589967
 10
-9.1028794398
 20
-35.7048299827
 10
-9.1064227864
 20
-35.6989642133
 10
-9.1100808654
 20
-35.6931758854
 10
-9.1138496265
 20
-35.6874791962
 10
-9.1177250199
 20
-35.6818883427
 10
-9.1217029954
 20
-35.6764175221
 10
-9.125779503
 20
-35.6710809313
 10
-9.1299504927
 20
-35.6658927674
 10
-9.1342119145
 20
-35.6608672276
 10
-9.1385597183
 20
-35.6560185089
 10
-9.142989854
 20
-35.6513608084
 10
-9.1474982717
 20
-35.6469083231
 10
-9.1520809213
 20
-35.6426752501
 10
-9.1567329167
 20
-35.6386730036
 10
-9.1614460277
 20
-35.6349018664
 10
-9.1662111881
 20
-35.6313593383
 10
-9.1710193314
 20
-35.6280429192
 10
-9.1758613915
 20
-35.6249501089
 10
-9.1807283021
 20
-35.6220784073
 10
-9.1856109968
 20
-35.6194253143
 10
-9.1905004095
 20
-35.6169883297
 10
-9.1953874738
 20
-35.6147649534
 10
-9.2002631235
 20
-35.6127526852
 10
-9.2051182923
 20
-35.6109490251
 10
-9.2099439138
 20
-35.6093514728
 10
-9.2147309219
 20
-35.6079575283
 10
-9.2194702502
 20
-35.6067646914
 10
-9.2241528324
 20
-35.6057704619
 10
-9.2287696024
 20
-35.6049723398
 10
-9.2333114937
 20
-35.6043678248
 10
-9.2377694402
 20
-35.6039544169
 10
-9.2421343756
 20
-35.6037296159
 10
-9.2463972334
 20
-35.6036909217
 10
-9.2505489476
 20
-35.6038358342
 10
-9.2545804518
 20
-35.6041618531
 10
-9.2584826797
 20
-35.6046664784
 10
-9.2622465651
 20
-35.6053472099
 10
-9.2658630416
 20
-35.6062015475
 10
-9.2694661251
 20
-35.6072722896
 10
-9.2729038441
 20
-35.6085192402
 10
-9.2761806207
 20
-35.6099329459
 10
-9.2793008768
 20
-35.6115039534
 10
-9.2822690343
 20
-35.6132228093
 10
-9.2850895153
 20
-35.6150800603
 10
-9.2877667416
 20
-35.617066253
 10
-9.2903051353
 20
-35.6191719342
 10
-9.2930418299
 20
-35.6217126124
 10
-9.2956095683
 20
-35.6243828988
 10
-9.2980149513
 20
-35.6271686821
 10
-9.3002645796
 20
-35.6300558513
 10
-9.3023650538
 20
-35.6330302951
 10
-9.3043229747
 20
-35.6360779026
 10
-9.3061449429
 20
-35.6391845625
 10
-9.3081075495
 20
-35.6428648092
 10
-9.3099045753
 20
-35.646583818
 10
-9.3115465022
 20
-35.6503191811
 10
-9.3130438117
 20
-35.6540484906
 10
-9.3144069856
 20
-35.6577493384
 10
-9.3156465054
 20
-35.6613993167
  0
LWPOLYLINE
  5
2BF
100
AcDbEntity
  8
IMPORT_IGES
100
AcDbPolyline
 62
7
420
11158274
  6
CONTINUOUS
 90
17
 70
0
 10
-47.3417013593
 20
-33.3975315543
 10
-47.3561894583
 20
-33.4090754819
 10
-47.3708225869
 20
-33.4203203471
 10
-47.3855997377
 20
-33.4312633807
 10
-47.4005199033
 20
-33.4419018132
 10
-47.4155820762
 20
-33.4522328751
 10
-47.4307852489
 20
-33.4622537971
 10
-47.4461284142
 20
-33.4719618097
 10
-47.4616105645
 20
-33.4813541436
 10
-47.4772306924
 20
-33.4904280293
 10
-47.4929877905
 20
-33.4991806975
 10
-47.5088808514
 20
-33.5076093786
 10
-47.5249088676
 20
-33.5157113034
 10
-47.5410708318
 20
-33.5234837023
 10
-47.5573657365
 20
-33.530923806
 10
-47.5737925742
 20
-33.5380288451
 10
-47.5903503376
 20
-33.5447960501
  0
LWPOLYLINE
  5
2C0
100
AcDbEntity
  8
IMPORT_IGES
100
AcDbPolyline
 62
7
420
11158274
  6
CONTINUOUS
 90
76
 70
0
 10
-45.4606242028
 20
-34.9514441179
 10
-45.4698740984
 20
-34.958664566
 10
-45.4786564718
 20
-34.9665655776
 10
-45.4869669503
 20
-34.9751231795
 10
-45.4948011612
 20
-34.9843133984
 10
-45.5021547319
 20
-34.9941122612
 10
-45.5090232896
 20
-35.0044957944
 10
-45.5154024617
 20
-35.015440025
 10
-45.5212878755
 20
-35.0269209796
 10
-45.5266751582
 20
-35.038914685
 10
-45.5315599373
 20
-35.0513971679
 10
-45.53593784
 20
-35.0643444551
 10
-45.5398044935
 20
-35.0777325733
 10
-45.5431555254
 20
-35.0915375493
 10
-45.5459865627
 20
-35.1057354097
 10
-45.5482932329
 20
-35.1203021814
 10
-45.5500711633
 20
-35.1352138911
 10
-45.5513159811
 20
-35.1504465656
 10
-45.5520233137
 20
-35.1659762315
 10
-45.5521887884
 20
-35.1817789157
 10
-45.5518080325
 20
-35.1978306449
 10
-45.5508766733
 20
-35.2141074457
 10
-45.5493903382
 20
-35.2305853451
 10
-45.5473446544
 20
-35.2472403697
 10
-45.5447352492
 20
-35.2640485462
 10
-45.5415577499
 20
-35.2809859014
 10
-45.5378119213
 20
-35.2980251287
 10
-45.5335107743
 20
-35.3151402486
 10
-45.5286712933
 20
-35.3323019788
 10
-45.5233104625
 20
-35.3494810364
 10
-45.5174452665
 20
-35.366648139
 10
-45.5110926896
 20
-35.383774004
 10
-45.5042697161
 20
-35.4008293487
 10
-45.4969933305
 20
-35.4177848905
 10
-45.4892805171
 20
-35.434611347
 10
-45.4811482603
 20
-35.4512794353
 10
-45.4726135444
 20
-35.4677598731
 10
-45.4636933539
 20
-35.4840233776
 10
-45.4544046731
 20
-35.5000406664
 10
-45.4447644865
 20
-35.5157824567
 10
-45.4347897783
 20
-35.531219466
 10
-45.4244975329
 20
-35.5463224117
 10
-45.4139047348
 20
-35.5610620112
 10
-45.4030283683
 20
-35.5754089819
 10
-45.3918854178
 20
-35.5893340412
 10
-45.3804928676
 20
-35.6028079065
 10
-45.3688677022
 20
-35.6158012953
 10
-45.3570269058
 20
-35.6282849248
 10
-45.344987463
 20
-35.6402295127
 10
-45.3327663581
 20
-35.6516057761
 10
-45.3203805753
 20
-35.6623844326
 10
-45.3078478272
 20
-35.6725401941
 10
-45.2951887381
 20
-35.682063751
 10
-45.2824246601
 20
-35.6909497884
 10
-45.2695769457
 20
-35.699192991
 10
-45.2566669471
 20
-35.706788044
 10
-45.2437160167
 20
-35.7137296322
 10
-45.2307455067
 20
-35.7200124407
 10
-45.2177767695
 20
-35.7256311543
 10
-45.2048311574
 20
-35.7305804581
 10
-45.1919300226
 20
-35.7348550371
 10
-45.1790947176
 20
-35.7384495761
 10
-45.1663465944
 20
-35.7413587603
 10
-45.1537070056
 20
-35.7435772744
 10
-45.1411973034
 20
-35.7450998035
 10
-45.1288388401
 20
-35.7459210326
 10
-45.116652968
 20
-35.7460356466
 10
-45.1046610394
 20
-35.7454383305
 10
-45.0928844066
 20
-35.7441237692
 10
-45.0813444219
 20
-35.7420866477
 10
-45.0700624377
 20
-35.739321651
 10
-45.0590598062
 20
-35.7358234641
 10
-45.0483578797
 20
-35.7315867719
 10
-45.0379780106
 20
-35.7266062593
 10
-45.0279415511
 20
-35.7208766114
 10
-45.0182698536
 20
-35.7143925131
  0
LINE
  5
2C1
100
AcDbEntity
  8
IMPORT_IGES
100
AcDbLine
 62
250
  6
CONTINUOUS
 10
59.477570449
 20
28.6306520634
 11
60.2553879083
 21
29.0195607931
  0
LWPOLYLINE
  5
2C2
100
AcDbEntity
  8
0
100
AcDbPolyline
 62
250
  6
CONTINUOUS
 90
5
 70
0
 10
68.5971962405
 20
31.7133222339
 10
68.6214432843
 20
31.7223536451
 10
68.644896499
 20
31.7259340746
 10
68.6668589798
 20
31.7239571284
 10
68.6841675146
 20
31.7177965499
  0
LINE
  5
2C3
100
AcDbEntity
  8
0
100
AcDbLine
 62
7
  6
CONTINUOUS
 10
69.1603487184
 20
-41.0064311954
 11
68.8309188624
 21
-40.8417162674
  0
LWPOLYLINE
  5
2C4
100
AcDbEntity
  8
IMPORT_IGES
100
AcDbPolyline
 62
7
420
11158274
  6
CONTINUOUS
 90
39
 70
0
 10
32.8310422276
 20
-73.8020964455
 10
32.8355044297
 20
-73.8118871268
 10
32.8401656641
 20
-73.8216494333
 10
32.8450196081
 20
-73.8313761651
 10
32.8500599391
 20
-73.8410601223
 10
32.8552803345
 20
-73.8506941052
 10
32.8606744715
 20
-73.8602709139
 10
32.8662360275
 20
-73.8697833487
 10
32.8719586798
 20
-73.8792242097
 10
32.8778361058
 20
-73.8885862971
 10
32.8838619829
 20
-73.8978624111
 10
32.8900299882
 20
-73.907045352
 10
32.8963337993
 20
-73.9161279198
 10
32.9027670933
 20
-73.9251029148
 10
32.9093235478
 20
-73.9339631372
 10
32.9159968399
 20
-73.9427013871
 10
32.922780647
 20
-73.9513104648
 10
32.9296686466
 20
-73.9597831704
 10
32.9366545158
 20
-73.9681123042
 10
32.943731932
 20
-73.9762906663
 10
32.9508945727
 20
-73.9843110569
 10
32.958136115
 20
-73.9921662762
 10
32.9654502364
 20
-73.9998491244
 10
32.9728306142
 20
-74.0073524017
 10
32.9802709258
 20
-74.0146689082
 10
32.9877648484
 20
-74.0217914442
 10
32.9953060593
 20
-74.0287128099
 10
33.0028882361
 20
-74.0354258054
 10
33.0105050559
 20
-74.0419232309
 10
33.0181501961
 20
-74.0481978867
 10
33.025817334
 20
-74.0542425729
 10
33.0335001471
 20
-74.0600500897
 10
33.0411923125
 20
-74.0656132372
 10
33.0488875078
 20
-74.0709248158
 10
33.0565794101
 20
-74.0759776255
 10
33.0642616968
 20
-74.0807644666
 10
33.0719280453
 20
-74.0852781393
 10
33.079572133
 20
-74.0895114437
 10
33.087187637
 20
-74.09345718
  0
LINE
  5
2C5
100
AcDbEntity
  8
IMPORT_IGES
100
AcDbLine
 62
7
420
11158274
  6
CONTINUOUS
 10
32.2178624907
 20
-72.4229357599
 11
32.8310422276
 21
-73.8020964454
  0
LWPOLYLINE
  5
2C6
100
AcDbEntity
  8
IMPORT_IGES
100
AcDbPolyline
 62
7
420
11158274
  6
CONTINUOUS
 90
24
 70
0
 10
8.6309691787
 20
-46.5659842441
 10
8.6354478186
 20
-46.5913017055
 10
8.640130843
 20
-46.6166662865
 10
8.6450587853
 20
-46.6420782102
 10
8.6509103112
 20
-46.670584943
 10
8.6571377601
 20
-46.6991448999
 10
8.6637592346
 20
-46.7277516805
 10
8.6695567086
 20
-46.7514800798
 10
8.6756527163
 20
-46.7752302277
 10
8.6820629687
 20
-46.7989961321
 10
8.6888031768
 20
-46.8227718011
 10
8.6955839077
 20
-46.8455510318
 10
8.7026932242
 20
-46.8683188983
 10
8.7101424685
 20
-46.8910605738
 10
8.7179429825
 20
-46.9137612317
 10
8.7261061083
 20
-46.9364060452
 10
8.7342795296
 20
-46.9580635298
 10
8.7427586175
 20
-46.979656771
 10
8.7515049615
 20
-47.0011865502
 10
8.7604801511
 20
-47.022653649
 10
8.7734658141
 20
-47.052823204
 10
8.7868021528
 20
-47.082869865
 10
8.8004610814
 20
-47.1127938507
 10
8.8443082286
 20
-47.2060894487
  0
LWPOLYLINE
  5
2C7
100
AcDbEntity
  8
IMPORT_IGES
100
AcDbPolyline
 62
7
420
11158274
  6
CONTINUOUS
 90
54
 70
0
 10
0.0364770721
 20
-43.0960781857
 10
0.0364427752
 20
-43.0981185898
 10
0.0363408169
 20
-43.1001328979
 10
0.0361726108
 20
-43.1021200366
 10
0.0359395703
 20
-43.1040789325
 10
0.0356431091
 20
-43.1060085124
 10
0.0352846405
 20
-43.1079077028
 10
0.0348655782
 20
-43.1097754303
 10
0.0343873356
 20
-43.1116106217
 10
0.0338513262
 20
-43.1134122035
 10
0.0332589635
 20
-43.1151791024
 10
0.032611661
 20
-43.1169102451
 10
0.0319108323
 20
-43.1186045581
 10
0.0311578909
 20
-43.1202609681
 10
0.0303542501
 20
-43.1218784018
 10
0.0295013237
 20
-43.1234557857
 10
0.028600525
 20
-43.1249920465
 10
0.0276532675
 20
-43.126486111
 10
0.0266609649
 20
-43.1279369056
 10
0.0256250305
 20
-43.129343357
 10
0.0245468779
 20
-43.1307043919
 10
0.0234279206
 20
-43.1320189369
 10
0.0222695721
 20
-43.1332859187
 10
0.0210732459
 20
-43.1345042639
 10
0.0198403555
 20
-43.1356728991
 10
0.0185723144
 20
-43.1367907509
 10
0.0172705361
 20
-43.1378567461
 10
0.0159364342
 20
-43.1388698112
 10
0.0145714221
 20
-43.1398288728
 10
0.0131769134
 20
-43.1407328577
 10
0.0117543215
 20
-43.1415806925
 10
0.01030506
 20
-43.1423713037
 10
0.0088305423
 20
-43.1431036181
 10
0.007332182
 20
-43.1437765622
 10
0.0058113926
 20
-43.1443890628
 10
0.0042695875
 20
-43.1449400464
 10
0.0027081804
 20
-43.1454284397
 10
0.0011285846
 20
-43.1458531693
 10
-0.0004677863
 20
-43.1462131619
 10
-0.0020795188
 20
-43.1465073441
 10
-0.0037051993
 20
-43.1467346425
 10
-0.0053434144
 20
-43.1468939838
 10
-0.0069927507
 20
-43.1469842946
 10
-0.0086517944
 20
-43.1470045015
 10
-0.0103191323
 20
-43.1469535313
 10
-0.0119933507
 20
-43.1468303105
 10
-0.0136730361
 20
-43.1466337657
 10
-0.0153567751
 20
-43.1463628237
 10
-0.0170431542
 20
-43.146016411
 10
-0.0187307597
 20
-43.1455934543
 10
-0.0204181783
 20
-43.1450928802
 10
-0.0221039965
 20
-43.1445136154
 10
-0.0237868006
 20
-43.1438545865
 10
-0.0254651772
 20
-43.1431147201
  0
LWPOLYLINE
  5
2C8
100
AcDbEntity
  8
IMPORT_IGES
100
AcDbPolyline
 62
7
420
11158274
  6
CONTINUOUS
 90
61
 70
0
 10
-0.642071612
 20
-43.3598273103
 10
-0.6421991923
 20
-43.3618319723
 10
-0.6424053862
 20
-43.3637964181
 10
-0.6426883541
 20
-43.3657200326
 10
-0.6430462567
 20
-43.3676022004
 10
-0.6434772545
 20
-43.3694423065
 10
-0.6439795079
 20
-43.3712397357
 10
-0.6445511774
 20
-43.3729938726
 10
-0.6451904237
 20
-43.3747041021
 10
-0.6458954072
 20
-43.3763698089
 10
-0.6466642884
 20
-43.377990378
 10
-0.6474952278
 20
-43.379565194
 10
-0.6483863861
 20
-43.3810936417
 10
-0.6493359236
 20
-43.3825751061
 10
-0.650342001
 20
-43.3840089717
 10
-0.6514027787
 20
-43.3853946235
 10
-0.6525164172
 20
-43.3867314462
 10
-0.6536810772
 20
-43.3880188246
 10
-0.654894919
 20
-43.3892561435
 10
-0.6561561033
 20
-43.3904427877
 10
-0.6574627904
 20
-43.391578142
 10
-0.6588131411
 20
-43.3926615911
 10
-0.6602053157
 20
-43.3936925199
 10
-0.6616374748
 20
-43.3946703132
 10
-0.663107779
 20
-43.3955943558
 10
-0.6646143887
 20
-43.3964640323
 10
-0.6661554644
 20
-43.3972787277
 10
-0.6677291667
 20
-43.3980378268
 10
-0.6693336562
 20
-43.3987407142
 10
-0.6709670932
 20
-43.3993867749
 10
-0.6726276384
 20
-43.3999753935
 10
-0.6743134522
 20
-43.400505955
 10
-0.6760226953
 20
-43.400977844
 10
-0.677753528
 20
-43.4013904454
 10
-0.6795041109
 20
-43.4017431439
 10
-0.6812726046
 20
-43.4020353245
 10
-0.6830571696
 20
-43.4022663717
 10
-0.6848559663
 20
-43.4024356705
 10
-0.6866671554
 20
-43.4025426056
 10
-0.6884888972
 20
-43.4025865619
 10
-0.6903193524
 20
-43.402566924
 10
-0.6921566815
 20
-43.4024830769
 10
-0.6939990449
 20
-43.4023344052
 10
-0.6958446033
 20
-43.4021202938
 10
-0.6976915171
 20
-43.4018401275
 10
-0.6995379468
 20
-43.4014932911
 10
-0.701382053
 20
-43.4010791694
 10
-0.7032219961
 20
-43.400597147
 10
-0.7050559368
 20
-43.400046609
 10
-0.7068820355
 20
-43.3994269399
 10
-0.7086984527
 20
-43.3987375247
 10
-0.710503349
 20
-43.3979777481
 10
-0.7122948849
 20
-43.3971469949
 10
-0.7140712209
 20
-43.3962446499
 10
-0.7158305176
 20
-43.3952700979
 10
-0.7175709353
 20
-43.3942227236
 10
-0.7192906348
 20
-43.393101912
 10
-0.7209877764
 20
-43.3919070477
 10
-0.7226605207
 20
-43.3906375155
 10
-0.7243070283
 20
-43.3892927003
 10
-0.7259254596
 20
-43.3878719869
  0
LINE
  5
2C9
100
AcDbEntity
  8
IMPORT_IGES
100
AcDbLine
 62
7
420
11158274
  6
CONTINUOUS
 10
-9.3156465054
 20
-35.6613993167
 11
-9.383395242
 21
-35.868915502
  0
LINE
  5
2CA
100
AcDbEntity
  8
IMPORT_IGES
100
AcDbLine
 62
7
420
11158274
  6
CONTINUOUS
 10
-9.4699054373
 20
-36.133898535
 11
-9.6645295992
 21
-36.7300375281
  0
LINE
  5
2CB
100
AcDbEntity
  8
IMPORT_IGES
100
AcDbLine
 62
7
420
11158274
  6
CONTINUOUS
 10
-9.7560064696
 20
-37.0102336193
 11
-9.9714266618
 21
-37.6700714071
  0
LINE
  5
2CC
100
AcDbEntity
  8
IMPORT_IGES
100
AcDbLine
 62
7
420
11158274
  6
CONTINUOUS
 10
-10.0720386293
 20
-38.963984426
 11
-9.7673558857
 21
-38.030594771
  0
LINE
  5
2CD
100
AcDbEntity
  8
IMPORT_IGES
100
AcDbLine
 62
7
420
11158274
  6
CONTINUOUS
 10
-9.6729639505
 20
-37.7414269146
 11
-9.478911604
 21
-37.1469513278
  0
LINE
  5
2CE
100
AcDbEntity
  8
IMPORT_IGES
100
AcDbLine
 62
7
420
11158274
  6
CONTINUOUS
 10
-9.3920244763
 20
-36.8807743029
 11
-9.2036742436
 21
-36.3037670308
  0
LINE
  5
2CF
100
AcDbEntity
  8
IMPORT_IGES
100
AcDbLine
 62
7
420
11158274
  6
CONTINUOUS
 10
-9.1190634955
 20
-36.0445636508
 11
-9.0665121533
 21
-35.8835736366
  0
LWPOLYLINE
  5
2D0
100
AcDbEntity
  8
IMPORT_IGES
100
AcDbPolyline
 62
7
420
11158274
  6
CONTINUOUS
 90
85
 70
0
 10
-10.0981556207
 20
-38.0582455847
 10
-10.319711329
 20
-38.7368283354
 10
-10.3209689982
 20
-38.7414657076
 10
-10.3220287072
 20
-38.7463100934
 10
-10.3228933737
 20
-38.7513504172
 10
-10.3235659157
 20
-38.7565756034
 10
-10.324049251
 20
-38.7619745764
 10
-10.3243462974
 20
-38.7675362606
 10
-10.3244599728
 20
-38.7732495804
 10
-10.324393195
 20
-38.7791034601
 10
-10.3241488819
 20
-38.7850868242
 10
-10.3237299513
 20
-38.7911885971
 10
-10.3231393211
 20
-38.7973977031
 10
-10.3223799092
 20
-38.8037030667
 10
-10.3214546332
 20
-38.8100936122
 10
-10.3203664113
 20
-38.8165582641
 10
-10.319118161
 20
-38.8230859466
 10
-10.3177128004
 20
-38.8296655843
 10
-10.3161532472
 20
-38.8362861015
 10
-10.3144424194
 20
-38.8429364226
 10
-10.3125832347
 20
-38.849605472
 10
-10.3105786109
 20
-38.856282174
 10
-10.3084314661
 20
-38.8629554532
 10
-10.3061447179
 20
-38.8696142338
 10
-10.3037212843
 20
-38.8762474403
 10
-10.3011640831
 20
-38.882843997
 10
-10.2984760321
 20
-38.8893928284
 10
-10.2956600492
 20
-38.8958828588
 10
-10.2927190522
 20
-38.9023030126
 10
-10.289655959
 20
-38.9086422143
 10
-10.2864736874
 20
-38.9148893882
 10
-10.2831751553
 20
-38.9210334587
 10
-10.2797632805
 20
-38.9270633502
 10
-10.2762409809
 20
-38.9329679871
 10
-10.2726111744
 20
-38.9387362937
 10
-10.2688767786
 20
-38.9443571946
 10
-10.2650407116
 20
-38.949819614
 10
-10.2611058912
 20
-38.9551124764
 10
-10.2570752351
 20
-38.9602247062
 10
-10.2529516614
 20
-38.9651452277
 10
-10.2487380877
 20
-38.9698629653
 10
-10.2444374319
 20
-38.9743668435
 10
-10.240052612
 20
-38.9786457866
 10
-10.2355872679
 20
-38.9826908168
 10
-10.2310479284
 20
-38.9865013478
 10
-10.2264418443
 20
-38.990078891
 10
-10.2217762666
 20
-38.9934249578
 10
-10.2170584463
 20
-38.9965410597
 10
-10.2122956342
 20
-38.999428708
 10
-10.2074950812
 20
-39.0020894142
 10
-10.2026640383
 20
-39.0045246897
 10
-10.1978097564
 20
-39.006736046
 10
-10.1929394864
 20
-39.0087249945
 10
-10.1880604793
 20
-39.0104930467
 10
-10.1831799859
 20
-39.0120417138
 10
-10.1783052571
 20
-39.0133725075
 10
-10.1734435439
 20
-39.0144869391
 10
-10.1686020973
 20
-39.01538652
 10
-10.163788168
 20
-39.0160727618
 10
-10.1590090071
 20
-39.0165471757
 10
-10.1542718654
 20
-39.0168112732
 10
-10.149583994
 20
-39.0168665659
 10
-10.1449526436
 20
-39.016714565
 10
-10.1403850652
 20
-39.0163567821
 10
-10.1358885097
 20
-39.0157947285
 10
-10.1314702281
 20
-39.0150299157
 10
-10.1271374712
 20
-39.0140638551
 10
-10.1228974901
 20
-39.0128980582
 10
-10.1187575355
 20
-39.0115340364
 10
-10.1147248585
 20
-39.0099733011
 10
-10.1108067098
 20
-39.0082173637
 10
-10.1070103406
 20
-39.0062677357
 10
-10.1033430016
 20
-39.0041259286
 10
-10.0998119438
 20
-39.0017934536
 10
-10.0964244181
 20
-38.9992718223
 10
-10.0931876754
 20
-38.9965625462
 10
-10.0901089667
 20
-38.9936671365
 10
-10.0871955429
 20
-38.9905871048
 10
-10.0844546548
 20
-38.9873239625
 10
-10.0818935535
 20
-38.9838792211
 10
-10.0795194897
 20
-38.9802543918
 10
-10.0773397145
 20
-38.9764509863
 10
-10.0753614787
 20
-38.9724705159
 10
-10.0735920334
 20
-38.968314492
 10
-10.0720386293
 20
-38.963984426
  0
LWPOLYLINE
  5
2D1
100
AcDbEntity
  8
IMPORT_IGES
100
AcDbPolyline
 62
7
420
11158274
  6
CONTINUOUS
 90
76
 70
0
 10
-44.6512887315
 20
-36.3473413213
 10
-44.6605385403
 20
-36.3545617523
 10
-44.6693206677
 20
-36.3624627156
 10
-44.6776307628
 20
-36.3710202422
 10
-44.6854644746
 20
-36.3802103631
 10
-44.6928174521
 20
-36.3900091094
 10
-44.6996853443
 20
-36.400392512
 10
-44.7060638002
 20
-36.4113366019
 10
-44.7119484689
 20
-36.4228174102
 10
-44.7173349993
 20
-36.4348109679
 10
-44.7222190405
 20
-36.4472933059
 10
-44.7265962415
 20
-36.4602404553
 10
-44.7304622512
 20
-36.4736284471
 10
-44.7338127188
 20
-36.4874333122
 10
-44.7366432932
 20
-36.5016310818
 10
-44.7389496234
 20
-36.5161977867
 10
-44.7407273584
 20
-36.5311094581
 10
-44.7419721473
 20
-36.5463421268
 10
-44.7426796391
 20
-36.561871824
 10
-44.7428454827
 20
-36.5776745807
 10
-44.7424653272
 20
-36.5937264277
 10
-44.7415348217
 20
-36.6100033962
 10
-44.740049615
 20
-36.6264815171
 10
-44.7380053563
 20
-36.6431368215
 10
-44.7353976945
 20
-36.6599453404
 10
-44.7322222787
 20
-36.6768831047
 10
-44.7284783109
 20
-36.6939252562
 10
-44.7241792054
 20
-36.7110433789
 10
-44.7193419299
 20
-36.7282081678
 10
-44.7139834515
 20
-36.7453903177
 10
-44.7081207379
 20
-36.7625605235
 10
-44.7017707563
 20
-36.7796894799
 10
-44.6949504743
 20
-36.7967478818
 10
-44.6876768592
 20
-36.813706424
 10
-44.6799668785
 20
-36.8305358014
 10
-44.6718374997
 20
-36.8472067088
 10
-44.66330569
 20
-36.8636898411
 10
-44.6543884171
 20
-36.8799558931
 10
-44.6451026482
 20
-36.8959755596
 10
-44.6354653509
 20
-36.9117195354
 10
-44.6254934925
 20
-36.9271585155
 10
-44.6152040405
 20
-36.9422631946
 10
-44.6046139624
 20
-36.9570042676
 10
-44.5937402254
 20
-36.9713524293
 10
-44.5825997971
 20
-36.9852783745
 10
-44.571209645
 20
-36.9987527982
 10
-44.5595867363
 20
-37.0117463951
 10
-44.5477480386
 20
-37.02422986
 10
-44.5357105192
 20
-37.0361738879
 10
-44.5234911457
 20
-37.0475491734
 10
-44.5111068854
 20
-37.0583264116
 10
-44.4985754388
 20
-37.0684802978
 10
-44.4859174388
 20
-37.0780015296
 10
-44.4731542511
 20
-37.0868848052
 10
-44.4603072417
 20
-37.095124823
 10
-44.4473977764
 20
-37.102716281
 10
-44.4344472211
 20
-37.1096538775
 10
-44.4214769416
 20
-37.1159323108
 10
-44.4085083038
 20
-37.121546279
 10
-44.3955626736
 20
-37.1264904803
 10
-44.3826614168
 20
-37.1307596131
 10
-44.3698258993
 20
-37.1343483755
 10
-44.357077487
 20
-37.1372514656
 10
-44.3444375457
 20
-37.1394635819
 10
-44.3319274412
 20
-37.1409794224
 10
-44.3195685395
 20
-37.1417936853
 10
-44.3073822065
 20
-37.141901069
 10
-44.2953898079
 20
-37.1412962716
 10
-44.2836127096
 20
-37.1399739913
 10
-44.2720722775
 20
-37.1379289263
 10
-44.2607898775
 20
-37.135155775
 10
-44.2497868755
 20
-37.1316492354
 10
-44.2390846372
 20
-37.1274040058
 10
-44.2287045285
 20
-37.1224147845
 10
-44.2186679154
 20
-37.1166762696
 10
-44.2089961637
 20
-37.1101831593
  0
LWPOLYLINE
  5
2D2
100
AcDbEntity
  8
IMPORT_IGES
100
AcDbPolyline
 62
7
420
11158274
  6
CONTINUOUS
 90
76
 70
0
 10
-43.8420150416
 20
-37.7432076339
 10
-43.8512647244
 20
-37.7504281883
 10
-43.8600464786
 20
-37.7583295095
 10
-43.8683559599
 20
-37.76688761
 10
-43.876188824
 20
-37.7760785024
 10
-43.8835407269
 20
-37.785878199
 10
-43.8904073242
 20
-37.7962627125
 10
-43.8967842717
 20
-37.8072080554
 10
-43.9026672253
 20
-37.8186902401
 10
-43.9080518406
 20
-37.8306852792
 10
-43.9129337735
 20
-37.8431691852
 10
-43.9173086798
 20
-37.8561179706
 10
-43.9211722152
 20
-37.8695076478
 10
-43.9245200356
 20
-37.8833142295
 10
-43.9273477966
 20
-37.8975137282
 10
-43.9296511541
 20
-37.9120821562
 10
-43.9314257639
 20
-37.9269955262
 10
-43.9326672817
 20
-37.9422298507
 10
-43.9333713633
 20
-37.9577611421
 10
-43.9335336646
 20
-37.973565413
 10
-43.9331498412
 20
-37.9896186759
 10
-43.932215549
 20
-38.0058969433
 10
-43.9307264437
 20
-38.0223762277
 10
-43.9286781812
 20
-38.0390325416
 10
-43.9260664171
 20
-38.0558418976
 10
-43.9228868074
 20
-38.0727803081
 10
-43.9191391382
 20
-38.0898204556
 10
-43.9148364131
 20
-38.1069363647
 10
-43.9099956021
 20
-38.1240987597
 10
-43.9046336756
 20
-38.1412783653
 10
-43.8987676036
 20
-38.1584459059
 10
-43.8924143562
 20
-38.1755721061
 10
-43.8855909036
 20
-38.1926276903
 10
-43.8783142159
 20
-38.2095833832
 10
-43.8706012634
 20
-38.2264099092
 10
-43.862469016
 20
-38.2430779928
 10
-43.8539344441
 20
-38.2595583587
 10
-43.8450145177
 20
-38.2758217312
 10
-43.8357262069
 20
-38.2918388349
 10
-43.8260864819
 20
-38.3075803943
 10
-43.816112313
 20
-38.323017134
 10
-43.8058206701
 20
-38.3381197785
 10
-43.7952285234
 20
-38.3528590522
 10
-43.7843528432
 20
-38.3672056798
 10
-43.7732105995
 20
-38.3811303857
 10
-43.7618187625
 20
-38.3946038944
 10
-43.7501943023
 20
-38.4075969306
 10
-43.7383541891
 20
-38.4200802186
 10
-43.726315393
 20
-38.432024483
 10
-43.7140948842
 20
-38.4434004484
 10
-43.7017096328
 20
-38.4541788393
 10
-43.689177348
 20
-38.4643343643
 10
-43.6765186952
 20
-38.4738576691
 10
-43.6637550791
 20
-38.4827433835
 10
-43.6509079039
 20
-38.4909861373
 10
-43.6379985743
 20
-38.4985805604
 10
-43.6250484948
 20
-38.5055212825
 10
-43.6120790698
 20
-38.5118029335
 10
-43.5991117038
 20
-38.5174201431
 10
-43.5861678014
 20
-38.5223675412
 10
-43.573268767
 20
-38.5266397576
 10
-43.5604360052
 20
-38.5302314222
 10
-43.5476909203
 20
-38.5331371646
 10
-43.535054917
 20
-38.5353516148
 10
-43.5225493998
 20
-38.5368694025
 10
-43.510195773
 20
-38.5376851576
 10
-43.4980154413
 20
-38.5377935098
 10
-43.4860298091
 20
-38.5371890891
 10
-43.4742602809
 20
-38.5358665251
 10
-43.4627282612
 20
-38.5338204477
 10
-43.4514551545
 20
-38.5310454868
 10
-43.4404623653
 20
-38.5275362721
 10
-43.4297712982
 20
-38.5232874335
 10
-43.4194033575
 20
-38.5182936007
 10
-43.4093799479
 20
-38.5125494036
 10
-43.3997224737
 20
-38.506049472
  0
LWPOLYLINE
  5
2D3
100
AcDbEntity
  8
IMPORT_IGES
100
AcDbPolyline
 62
7
420
11158274
  6
CONTINUOUS
 90
50
 70
0
 10
-45.0182698536
 20
-35.7143925131
 10
-44.9861964641
 20
-35.6898230437
 10
-44.9554594658
 20
-35.6636101636
 10
-44.9260588587
 20
-35.6357953795
 10
-44.8979946428
 20
-35.6064201979
 10
-44.8712668182
 20
-35.5755261254
 10
-44.8458753848
 20
-35.5431546685
 10
-44.8218203426
 20
-35.5093473337
 10
-44.7991016917
 20
-35.4741456276
 10
-44.777719432
 20
-35.4375910568
 10
-44.7576735635
 20
-35.3997251279
 10
-44.7389640863
 20
-35.3605893473
 10
-44.7215910003
 20
-35.3202252217
 10
-44.7055543055
 20
-35.2786742576
 10
-44.690854002
 20
-35.2359779615
 10
-44.6774900896
 20
-35.1921778401
 10
-44.6654625686
 20
-35.1473153999
 10
-44.6547714387
 20
-35.1014321473
 10
-44.6454167001
 20
-35.0545695891
 10
-44.6373983527
 20
-35.0067692317
 10
-44.6307163966
 20
-34.9580725818
 10
-44.6253708316
 20
-34.9085211458
 10
-44.6213616579
 20
-34.8581564303
 10
-44.6186888755
 20
-34.8070199419
 10
-44.6173524842
 20
-34.7551531871
 10
-44.6173524842
 20
-34.7025976725
 10
-44.6186888755
 20
-34.6493949047
 10
-44.6213616579
 20
-34.5955863902
 10
-44.6253708316
 20
-34.5412136356
 10
-44.6307163966
 20
-34.4863181473
 10
-44.6373983527
 20
-34.4309414321
 10
-44.6454167001
 20
-34.3751249964
 10
-44.6547714387
 20
-34.3189103467
 10
-44.6654625686
 20
-34.2623389898
 10
-44.6774900896
 20
-34.205452432
 10
-44.690854002
 20
-34.14829218
 10
-44.7055543055
 20
-34.0908997403
 10
-44.7215910003
 20
-34.0333166195
 10
-44.7389640863
 20
-33.9755843242
 10
-44.7576735635
 20
-33.9177443608
 10
-44.777719432
 20
-33.859838236
 10
-44.7991016917
 20
-33.8019074563
 10
-44.8218203426
 20
-33.7439935283
 10
-44.8458753848
 20
-33.6861379585
 10
-44.8712668182
 20
-33.6283822534
 10
-44.8979946428
 20
-33.5707679198
 10
-44.9260588587
 20
-33.513336464
 10
-44.9554594658
 20
-33.4561293926
 10
-44.9861964641
 20
-33.3991882123
 10
-45.0182698536
 20
-33.3425544295
  0
LWPOLYLINE
  5
2D4
100
AcDbEntity
  8
IMPORT_IGES
100
AcDbPolyline
 62
7
420
11158274
  6
CONTINUOUS
 90
50
 70
0
 10
-44.2089961637
 20
-37.1101831593
 10
-44.1501183725
 20
-37.0650886626
 10
-44.0936938227
 20
-37.0169767048
 10
-44.0397225142
 20
-36.9659234918
 10
-43.988204447
 20
-36.9120052296
 10
-43.939139621
 20
-36.8552981243
 10
-43.8925280364
 20
-36.7958783817
 10
-43.848369693
 20
-36.733822208
 10
-43.806664591
 20
-36.6692058089
 10
-43.7674127302
 20
-36.6021053906
 10
-43.7306141108
 20
-36.532597159
 10
-43.6962687326
 20
-36.4607573201
 10
-43.6643765958
 20
-36.3866620799
 10
-43.6349377002
 20
-36.3103876442
 10
-43.607952046
 20
-36.2320102192
 10
-43.583419633
 20
-36.1516060108
 10
-43.5613404613
 20
-36.0692512249
 10
-43.5417145309
 20
-35.9850220676
 10
-43.5245418419
 20
-35.8989947448
 10
-43.5098223941
 20
-35.8112454625
 10
-43.4975561876
 20
-35.7218504267
 10
-43.4877432224
 20
-35.6308858433
 10
-43.4803834985
 20
-35.5384279184
 10
-43.4754770159
 20
-35.4445528578
 10
-43.4730237746
 20
-35.3493368677
 10
-43.4730237746
 20
-35.2528561539
 10
-43.4754770159
 20
-35.1551869224
 10
-43.4803834985
 20
-35.0564053793
 10
-43.4877432224
 20
-34.9565877305
 10
-43.4975561876
 20
-34.8558101819
 10
-43.5098223941
 20
-34.7541489396
 10
-43.5245418419
 20
-34.6516802095
 10
-43.5417145309
 20
-34.5484801977
 10
-43.5613404613
 20
-34.44462511
 10
-43.583419633
 20
-34.3401911524
 10
-43.607952046
 20
-34.235254531
 10
-43.6349377002
 20
-34.1298914517
 10
-43.6643765958
 20
-34.0241781206
 10
-43.6962687326
 20
-33.9181907434
 10
-43.7306141108
 20
-33.8120055264
 10
-43.7674127302
 20
-33.7056986753
 10
-43.806664591
 20
-33.5993463962
 10
-43.848369693
 20
-33.4930248952
 10
-43.8925280364
 20
-33.3868103781
 10
-43.939139621
 20
-33.2807790509
 10
-43.988204447
 20
-33.1750071196
 10
-44.0397225142
 20
-33.0695707902
 10
-44.0936938227
 20
-32.9645462687
 10
-44.1501183725
 20
-32.860009761
 10
-44.2089961637
 20
-32.7560374732
  0
LWPOLYLINE
  5
2D5
100
AcDbEntity
  8
IMPORT_IGES
100
AcDbPolyline
 62
7
420
11158274
  6
CONTINUOUS
 90
50
 70
0
 10
-43.3997224737
 20
-38.506049472
 10
-43.3140328704
 20
-38.4404245752
 10
-43.2319136671
 20
-38.3704083789
 10
-43.153364864
 20
-38.2961117771
 10
-43.0783864611
 20
-38.2176456635
 10
-43.0069784583
 20
-38.135120932
 10
-42.9391408556
 20
-38.0486484764
 10
-42.8748736531
 20
-37.9583391904
 10
-42.8141768507
 20
-37.864303968
 10
-42.7570504485
 20
-37.7666537029
 10
-42.7034944464
 20
-37.665499289
 10
-42.6535088444
 20
-37.5609516201
 10
-42.6070936426
 20
-37.45312159
 10
-42.5642488409
 20
-37.3421200925
 10
-42.5249744393
 20
-37.2280580214
 10
-42.4892704379
 20
-37.1110462707
 10
-42.4571368367
 20
-36.991195734
 10
-42.4285736356
 20
-36.8686173052
 10
-42.4035808346
 20
-36.7434218781
 10
-42.3821584337
 20
-36.6157203466
 10
-42.364306433
 20
-36.4856236045
 10
-42.3500248325
 20
-36.3532425456
 10
-42.339313632
 20
-36.2186880637
 10
-42.3321728318
 20
-36.0820710526
 10
-42.3286024316
 20
-35.9435024061
 10
-42.3286024316
 20
-35.8030930182
 10
-42.3321728318
 20
-35.6609537825
 10
-42.339313632
 20
-35.517195593
 10
-42.3500248325
 20
-35.3719293434
 10
-42.364306433
 20
-35.2252659276
 10
-42.3821584337
 20
-35.0773162393
 10
-42.4035808346
 20
-34.9281911724
 10
-42.4285736356
 20
-34.7780016208
 10
-42.4571368367
 20
-34.6268584782
 10
-42.4892704379
 20
-34.4748726385
 10
-42.5249744393
 20
-34.3221549954
 10
-42.5642488409
 20
-34.1688164429
 10
-42.6070936426
 20
-34.0149678746
 10
-42.6535088444
 20
-33.8607201846
 10
-42.7034944464
 20
-33.7061842664
 10
-42.7570504485
 20
-33.5514710141
 10
-42.8141768507
 20
-33.3966913214
 10
-42.8748736531
 20
-33.2419560821
 10
-42.9391408556
 20
-33.0873761901
 10
-43.0069784583
 20
-32.9330625391
 10
-43.0783864611
 20
-32.7791260231
 10
-43.153364864
 20
-32.6256775357
 10
-43.2319136671
 20
-32.4728279709
 10
-43.3140328704
 20
-32.3206882224
 10
-43.3997224737
 20
-32.1693691841
  0
LINE
  5
2D6
100
AcDbEntity
  8
0
100
AcDbLine
 62
250
  6
CONTINUOUS
 10
66.836552157
 20
32.3350544834
 11
60.3615077733
 21
29.0725668777
  0
LINE
  5
2D7
100
AcDbEntity
  8
0
100
AcDbLine
 62
250
  6
CONTINUOUS
 10
60.715007316
 20
28.4628703544
 11
67.1900516997
 21
31.7253579601
  0
LINE
  5
2D8
100
AcDbEntity
  8
IMPORT_IGES
100
AcDbLine
 62
250
  6
CONTINUOUS
 10
59.8311238396
 20
28.0208626662
 11
60.6089412989
 21
28.4097713959
  0
LINE
  5
2D9
100
AcDbEntity
  8
0
100
AcDbLine
 62
250
  6
CONTINUOUS
 10
68.5971960541
 20
31.7133223265
 11
67.2719589284
 21
31.0559949424
  0
LINE
  5
2DA
100
AcDbEntity
  8
0
100
AcDbLine
 62
250
  6
CONTINUOUS
 10
67.2719589284
 20
29.7999390983
 11
69.1627953239
 21
30.73780789
  0
LWPOLYLINE
  5
2DB
100
AcDbEntity
  8
IMPORT_IGES
100
AcDbPolyline
 62
7
420
11158274
  6
CONTINUOUS
 90
18
 70
0
 10
-50.4948295371
 20
-27.3759189628
 10
-50.5222615558
 20
-27.3883433505
 10
-50.5494091075
 20
-27.4013133908
 10
-50.5762668002
 20
-27.4148269496
 10
-50.6028292416
 20
-27.428881893
 10
-50.6290910397
 20
-27.4434760869
 10
-50.6550468022
 20
-27.4586073973
 10
-50.6806911371
 20
-27.4742736901
 10
-50.7060186521
 20
-27.4904728314
 10
-50.7310239551
 20
-27.5072026871
 10
-50.755701654
 20
-27.5244611231
 10
-50.7800463567
 20
-27.5422460055
 10
-50.8040526708
 20
-27.5605552002
 10
-50.8277152044
 20
-27.5793865731
 10
-50.8510285653
 20
-27.5987379903
 10
-50.8739873613
 20
-27.6186073178
 10
-50.8965862002
 20
-27.6389924214
 10
-50.91881969
 20
-27.6598911672
  0
LINE
  5
2DC
100
AcDbEntity
  8
IMPORT_IGES
100
AcDbLine
 62
7
420
11158274
  6
CONTINUOUS
 10
33.250105014
 20
-73.4087938563
 11
32.8558165424
 21
-72.5221776427
  0
LWPOLYLINE
  5
2DD
100
AcDbEntity
  8
IMPORT_IGES
100
AcDbPolyline
 62
7
420
11158274
  6
CONTINUOUS
 90
3
 70
0
 10
8.898308457
 20
-46.4655322413
 10
8.8858602306
 20
-46.354140386
 10
8.8787059493
 20
-46.2881780493
  0
LINE
  5
2DE
100
AcDbEntity
  8
IMPORT_IGES
100
AcDbLine
 62
7
420
11158274
  6
CONTINUOUS
 10
8.8787059493
 20
-46.2881780493
 11
8.8787059493
 21
-46.2372802502
  0
LWPOLYLINE
  5
2DF
100
AcDbEntity
  8
IMPORT_IGES
100
AcDbPolyline
 62
7
420
11158274
  6
CONTINUOUS
 90
46
 70
0
 10
7.2362937577
 20
-45.3919611205
 10
7.2422793564
 20
-45.3411299503
 10
7.2490612524
 20
-45.2909365789
 10
7.2564414158
 20
-45.2412071015
 10
7.2642218164
 20
-45.1917676132
 10
7.2729643232
 20
-45.138219321
 10
7.2820762854
 20
-45.0849183936
 10
7.291688334
 20
-45.0319750899
 10
7.3019310999
 20
-44.979499669
 10
7.3096471936
 20
-44.9426823611
 10
7.3178397885
 20
-44.9062463105
 10
7.3266034068
 20
-44.8702827127
 10
7.3360325703
 20
-44.834882763
 10
7.3462218013
 20
-44.800137657
 10
7.3555078803
 20
-44.7713335878
 10
7.3654834386
 20
-44.7431692516
 10
7.3762264387
 20
-44.7157505396
 10
7.3878148429
 20
-44.689183343
 10
7.4003266136
 20
-44.6635735531
 10
7.4104175673
 20
-44.6449823757
 10
7.421135048
 20
-44.6271160568
 10
7.4325368485
 20
-44.6100955236
 10
7.4446807615
 20
-44.5940417029
 10
7.4576245795
 20
-44.5790755217
 10
7.4714260952
 20
-44.5653179072
 10
7.4843184468
 20
-44.5543064563
 10
7.4978992733
 20
-44.5444120138
 10
7.5121479179
 20
-44.5357217728
 10
7.5270437238
 20
-44.5283229266
 10
7.5425660342
 20
-44.5223026683
 10
7.5586941925
 20
-44.517748191
 10
7.5761895572
 20
-44.5145965589
 10
7.5942249937
 20
-44.5129505381
 10
7.612699418
 20
-44.5126142465
 10
7.631511746
 20
-44.5133918017
 10
7.6505608936
 20
-44.5150873217
 10
7.678695293
 20
-44.5189134236
 10
7.7070970421
 20
-44.524265882
 10
7.7357429632
 20
-44.5311255131
 10
7.7646098786
 20
-44.5394731331
 10
7.7856151825
 20
-44.546439249
 10
7.8066995609
 20
-44.5542293849
 10
7.8278385602
 20
-44.5628988545
 10
7.8490077265
 20
-44.5725029717
 10
7.8728275831
 20
-44.584343575
 10
7.8966538027
 20
-44.5966359108
  0
LWPOLYLINE
  5
2E0
100
AcDbEntity
  8
IMPORT_IGES
100
AcDbPolyline
 62
7
420
11158274
  6
CONTINUOUS
 90
38
 70
0
 10
6.8989356991
 20
-45.5073820204
 10
6.8908805639
 20
-45.5656143762
 10
6.8822557808
 20
-45.6234461894
 10
6.8754272034
 20
-45.6655613916
 10
6.8681116828
 20
-45.7073192495
 10
6.8612550339
 20
-45.7432343163
 10
6.8590734526
 20
-45.7542103254
 10
6.8572293168
 20
-45.7654430454
 10
6.856501004
 20
-45.7719980342
 10
6.8561195767
 20
-45.7787644922
 10
6.8561930324
 20
-45.7857719969
 10
6.856917997
 20
-45.7936930704
 10
6.8584525868
 20
-45.8018221982
 10
6.8602226952
 20
-45.8080556566
 10
6.862473938
 20
-45.8142656759
 10
6.8651399764
 20
-45.8203743003
 10
6.8688259567
 20
-45.827483464
 10
6.8730418815
 20
-45.8342347444
 10
6.8766337726
 20
-45.8390783218
 10
6.8805033852
 20
-45.8434793685
 10
6.8846027139
 20
-45.8472627839
 10
6.8884891037
 20
-45.8500556811
 10
6.8924430009
 20
-45.85224732
 10
6.896974197
 20
-45.8540931718
 10
6.9014428586
 20
-45.8552877935
 10
6.9058073191
 20
-45.8558983901
 10
6.9109452069
 20
-45.8559549595
 10
6.9158926767
 20
-45.855393153
 10
6.920676238
 20
-45.8543631834
 10
6.9302827378
 20
-45.8511546057
 10
6.9393535847
 20
-45.846807859
 10
6.9463738672
 20
-45.8426511437
 10
6.9532172112
 20
-45.8381660017
 10
6.9748289514
 20
-45.823123164
 10
6.9961457427
 20
-45.8075722466
 10
7.0173766689
 20
-45.7918728903
 10
7.0484654095
 20
-45.7692351801
 10
7.1103381726
 20
-45.7245523743
  0
LWPOLYLINE
  5
2E1
100
AcDbEntity
  8
0
100
AcDbPolyline
 62
250
  6
CONTINUOUS
 90
6
 70
0
 10
69.1627953231
 20
30.7378048804
 10
69.1845176657
 20
30.7511909503
 10
69.2013195542
 20
30.766243637
 10
69.2127017217
 20
30.7825156685
 10
69.2183259461
 20
30.7995235788
 10
69.2189271263
 20
30.8072719736
  0
LWPOLYLINE
  5
2E2
100
AcDbEntity
  8
IMPORT_IGES
100
AcDbPolyline
 62
7
420
11158274
  6
CONTINUOUS
 90
83
 70
0
 10
-47.5903503376
 20
-33.5447960501
 10
-47.5989126091
 20
-33.5486174359
 10
-47.6071918575
 20
-33.5531528259
 10
-47.6151832566
 20
-33.5583796513
 10
-47.6228819803
 20
-33.5642753433
 10
-47.6302832024
 20
-33.5708173328
 10
-47.6373820966
 20
-33.5779830511
 10
-47.6441738368
 20
-33.5857499293
 10
-47.6506535967
 20
-33.5940953985
 10
-47.6568165502
 20
-33.6029968898
 10
-47.6626578712
 20
-33.6124318343
 10
-47.6681727333
 20
-33.6223776632
 10
-47.6733563104
 20
-33.6328118076
 10
-47.6782037763
 20
-33.6437116986
 10
-47.6827103049
 20
-33.6550547673
 10
-47.6868710698
 20
-33.6668184449
 10
-47.690681245
 20
-33.6789801625
 10
-47.6941360043
 20
-33.6915173511
 10
-47.6972305213
 20
-33.704407442
 10
-47.6999599701
 20
-33.7176278663
 10
-47.7023195243
 20
-33.731156055
 10
-47.7043043577
 20
-33.7449694393
 10
-47.7059096443
 20
-33.7590454504
 10
-47.7071305577
 20
-33.7733615192
 10
-47.7079622718
 20
-33.7878950771
 10
-47.7083999603
 20
-33.802623555
 10
-47.7084387972
 20
-33.8175243842
 10
-47.7080739562
 20
-33.8325749956
 10
-47.7073006111
 20
-33.8477528206
 10
-47.7061139358
 20
-33.8630352901
 10
-47.7045091039
 20
-33.8783998353
 10
-47.7024812894
 20
-33.8938238873
 10
-47.7000256661
 20
-33.9092848773
 10
-47.6971374077
 20
-33.9247602364
 10
-47.693811688
 20
-33.9402273956
 10
-47.6900436809
 20
-33.9556637862
 10
-47.6858285602
 20
-33.9710468392
 10
-47.6811614996
 20
-33.9863539858
 10
-47.6760376731
 20
-34.001562657
 10
-47.6704522543
 20
-34.0166502841
 10
-47.6644004171
 20
-34.0315942981
 10
-47.6578773353
 20
-34.0463721302
 10
-47.6508823183
 20
-34.0609632189
 10
-47.6434321238
 20
-34.0753531688
 10
-47.6355476652
 20
-34.0895295999
 10
-47.6272498561
 20
-34.1034801323
 10
-47.6185596102
 20
-34.117192386
 10
-47.6094978408
 20
-34.130653981
 10
-47.6000854615
 20
-34.1438525375
 10
-47.590343386
 20
-34.1567756753
 10
-47.5802925277
 20
-34.1694110147
 10
-47.5699538002
 20
-34.1817461756
 10
-47.559348117
 20
-34.193768778
 10
-47.5484963916
 20
-34.2054664421
 10
-47.5374195377
 20
-34.2168267878
 10
-47.5261384687
 20
-34.2278374353
 10
-47.5146740982
 20
-34.2384860045
 10
-47.5030473397
 20
-34.2487601155
 10
-47.4912791068
 20
-34.2586473884
 10
-47.479390313
 20
-34.2681354431
 10
-47.4674018719
 20
-34.2772118998
 10
-47.455334697
 20
-34.2858643785
 10
-47.4432097018
 20
-34.2940804992
 10
-47.4310477999
 20
-34.301847882
 10
-47.4188699048
 20
-34.3091541469
 10
-47.4066969301
 20
-34.3159869139
 10
-47.3945497894
 20
-34.3223338032
 10
-47.382449396
 20
-34.3281824347
 10
-47.3704166637
 20
-34.3335204285
 10
-47.3584725059
 20
-34.3383354047
 10
-47.3466378362
 20
-34.3426149832
 10
-47.3349335681
 20
-34.3463467842
 10
-47.3233806152
 20
-34.3495184277
 10
-47.311999891
 20
-34.3521175337
 10
-47.300812309
 20
-34.3541317222
 10
-47.2898387829
 20
-34.3555486134
 10
-47.279100226
 20
-34.3563558272
 10
-47.2686175521
 20
-34.3565409838
 10
-47.2584116746
 20
-34.356091703
 10
-47.248503507
 20
-34.3549956051
 10
-47.238913963
 20
-34.3532403101
 10
-47.2296639559
 20
-34.3508134379
 10
-47.2207743995
 20
-34.3477026086
  0
LWPOLYLINE
  5
2E3
100
AcDbEntity
  8
IMPORT_IGES
100
AcDbPolyline
 62
7
420
11158274
  6
CONTINUOUS
 90
80
 70
0
 10
-47.2207743995
 20
-34.3477026086
 10
-47.1346274091
 20
-34.3100842218
 10
-47.0510190271
 20
-34.2666632409
 10
-46.9700844953
 20
-34.2175693252
 10
-46.8919590558
 20
-34.1629321342
 10
-46.8167779502
 20
-34.1028813272
 10
-46.7446764207
 20
-34.0375465638
 10
-46.675789709
 20
-33.9670575033
 10
-46.6102530571
 20
-33.8915438052
 10
-46.5482017068
 20
-33.8111351288
 10
-46.4897709
 20
-33.7259611336
 10
-46.4350958787
 20
-33.636151479
 10
-46.3843118847
 20
-33.5418358244
 10
-46.3375541599
 20
-33.4431438292
 10
-46.2949579462
 20
-33.3402051529
 10
-46.2566390242
 20
-33.2331669823
 10
-46.2226263322
 20
-33.1222208339
 10
-46.1929296899
 20
-33.0075754232
 10
-46.1675589169
 20
-32.8894394658
 10
-46.146523833
 20
-32.7680216773
 10
-46.1298342578
 20
-32.6435307734
 10
-46.117500011
 20
-32.5161754695
 10
-46.1095309122
 20
-32.3861644813
 10
-46.1059367812
 20
-32.2537065244
 10
-46.1067274374
 20
-32.1190103143
 10
-46.1119127007
 20
-31.9822845667
 10
-46.1215023907
 20
-31.8437379971
 10
-46.1355063271
 20
-31.7035793211
 10
-46.1539343294
 20
-31.5620172543
 10
-46.1767830351
 20
-31.4192558511
 10
-46.2039868101
 20
-31.2755383377
 10
-46.2354662401
 20
-31.1311034399
 10
-46.2711419111
 20
-30.9861898837
 10
-46.3109344091
 20
-30.8410363951
 10
-46.3547643198
 20
-30.6958816999
 10
-46.4025522293
 20
-30.5509645243
 10
-46.4542187234
 20
-30.406523594
 10
-46.5096843881
 20
-30.2627976351
 10
-46.5688698092
 20
-30.1200253735
 10
-46.6316955726
 20
-29.9784455352
 10
-46.6980822643
 20
-29.838296846
 10
-46.7679504701
 20
-29.699818032
 10
-46.841220776
 20
-29.5632478191
 10
-46.9177966117
 20
-29.4288238341
 10
-46.9975378631
 20
-29.2967357163
 10
-47.08028762
 20
-29.1671722385
 10
-47.1658889723
 20
-29.0403221735
 10
-47.2541850097
 20
-28.9163742941
 10
-47.3450188221
 20
-28.7955173732
 10
-47.4382334992
 20
-28.6779401834
 10
-47.5336721308
 20
-28.5638314977
 10
-47.6311778067
 20
-28.4533800888
 10
-47.7305936168
 20
-28.3467747295
 10
-47.8317626508
 20
-28.2442041927
 10
-47.9345279984
 20
-28.1458572511
 10
-48.0387327496
 20
-28.0519226776
 10
-48.1442199941
 20
-27.9625892449
 10
-48.2508295684
 20
-27.8780293536
 10
-48.3583900534
 20
-27.7983485364
 10
-48.4667267828
 20
-27.72363598
 10
-48.5756650903
 20
-27.6539808712
 10
-48.6850303098
 20
-27.5894723966
 10
-48.7946477748
 20
-27.5301997431
 10
-48.9043428192
 20
-27.4762520973
 10
-49.0139407768
 20
-27.4277186459
 10
-49.1232669812
 20
-27.3846885757
 10
-49.2321467661
 20
-27.3472510733
 10
-49.3404054654
 20
-27.3154953256
 10
-49.4478684128
 20
-27.2895105192
 10
-49.554360942
 20
-27.2693858408
 10
-49.6597083868
 20
-27.2552104772
 10
-49.7593218343
 20
-27.2472737139
 10
-49.8575770403
 20
-27.2448116086
 10
-49.9543251573
 20
-27.2477652525
 10
-50.049417338
 20
-27.2560757369
 10
-50.1427047349
 20
-27.2696841532
 10
-50.2340385007
 20
-27.2885315926
 10
-50.3232697879
 20
-27.3125591465
 10
-50.4102497492
 20
-27.3417079061
 10
-50.4948295371
 20
-27.3759189628
  0
LWPOLYLINE
  5
2E4
100
AcDbEntity
  8
0
100
AcDbPolyline
 62
250
  6
CONTINUOUS
 90
6
 70
0
 10
66.8631820825
 20
32.3192328407
 10
66.8634652793
 20
32.3193054476
 10
66.9072579534
 20
32.3229952054
 10
66.9487356237
 20
32.3186824679
 10
66.9871885957
 20
32.3064410274
 10
66.9955657261
 20
32.3025077158
  0
LWPOLYLINE
  5
2E5
100
AcDbEntity
  8
IMPORT_IGES
100
AcDbPolyline
 62
7
420
11158274
  6
CONTINUOUS
 90
78
 70
0
 10
36.7551379047
 20
-75.3737768195
 10
36.7494278487
 20
-75.3578301965
 10
36.7432233764
 20
-75.3418850761
 10
36.7365429826
 20
-75.3259690766
 10
36.7294051616
 20
-75.3101098162
 10
36.7218284081
 20
-75.294334913
 10
36.7138312167
 20
-75.2786719854
 10
36.7054320818
 20
-75.2631486513
 10
36.696649498
 20
-75.2477925292
 10
36.6875019598
 20
-75.2326312371
 10
36.6780079619
 20
-75.2176923932
 10
36.6681859987
 20
-75.2030036158
 10
36.6580545649
 20
-75.188592523
 10
36.6476321549
 20
-75.174486733
 10
36.6369372633
 20
-75.1607138641
 10
36.6259883847
 20
-75.1473015344
 10
36.6148040136
 20
-75.1342773621
 10
36.6034026446
 20
-75.1216689655
 10
36.5918027722
 20
-75.1095039626
 10
36.5800228909
 20
-75.0978099717
 10
36.5680814954
 20
-75.0866146111
 10
36.5559970801
 20
-75.0759454988
 10
36.5437881396
 20
-75.0658302531
 10
36.5314731685
 20
-75.0562964922
 10
36.5190706613
 20
-75.0473718343
 10
36.5065991126
 20
-75.0390838976
 10
36.4940726718
 20
-75.0314529094
 10
36.4815151159
 20
-75.0244857326
 10
36.4689459131
 20
-75.0181813616
 10
36.4563845315
 20
-75.0125387913
 10
36.4438504392
 20
-75.0075570161
 10
36.4313631045
 20
-75.0032350309
 10
36.4189419956
 20
-74.9995718302
 10
36.4066065805
 20
-74.9965664087
 10
36.3943763274
 20
-74.994217761
 10
36.3822707046
 20
-74.9925248818
 10
36.3703091802
 20
-74.9914867658
 10
36.3585112223
 20
-74.9911024076
 10
36.3468962992
 20
-74.9913708018
 10
36.3354838789
 20
-74.9922909431
 10
36.3242934298
 20
-74.9938618262
 10
36.3133444199
 20
-74.9960824456
 10
36.3026563174
 20
-74.9989517962
 10
36.2922485904
 20
-75.0024688724
 10
36.2821407073
 20
-75.006632669
 10
36.272352136
 20
-75.0114421806
 10
36.2629023448
 20
-75.0168964019
 10
36.2538108019
 20
-75.0229943274
 10
36.2450969754
 20
-75.029734952
 10
36.2367803336
 20
-75.0371172702
 10
36.2288803444
 20
-75.0451402766
 10
36.2214164763
 20
-75.053802966
 10
36.2144052875
 20
-75.0630994855
 10
36.2078506595
 20
-75.0730060014
 10
36.2017535868
 20
-75.0834938642
 10
36.1961150637
 20
-75.0945344246
 10
36.1909360847
 20
-75.1060990332
 10
36.1862176442
 20
-75.1181590407
 10
36.1819607366
 20
-75.1306857976
 10
36.1781663564
 20
-75.1436506546
 10
36.174835498
 20
-75.1570249623
 10
36.1719691558
 20
-75.1707800714
 10
36.1695683243
 20
-75.1848873324
 10
36.1676339978
 20
-75.1993180961
 10
36.1661671709
 20
-75.214043713
 10
36.1651688379
 20
-75.2290355337
 10
36.1646399932
 20
-75.2442649089
 10
36.1645816313
 20
-75.2597031892
 10
36.1649947467
 20
-75.2753217253
 10
36.1658803337
 20
-75.2910918677
 10
36.1672393867
 20
-75.3069849671
 10
36.1690729003
 20
-75.3229723742
 10
36.1713818688
 20
-75.3390254395
 10
36.1741672866
 20
-75.3551155136
 10
36.1774301482
 20
-75.3712139473
 10
36.1811714481
 20
-75.3872920911
 10
36.1853921805
 20
-75.4033212956
 10
36.1900933401
 20
-75.4192729115
  0
LWPOLYLINE
  5
2E6
100
AcDbEntity
  8
IMPORT_IGES
100
AcDbPolyline
 62
7
420
11158274
  6
CONTINUOUS
 90
60
 70
0
 10
40.6215213454
 20
-75.1068439389
 10
40.5825115428
 20
-74.9918257798
 10
40.5407530908
 20
-74.8772274655
 10
40.4962783717
 20
-74.7631981255
 10
40.4491197682
 20
-74.6498868892
 10
40.3993096628
 20
-74.5374428862
 10
40.3446500785
 20
-74.4213901215
 10
40.2872540803
 20
-74.3065811149
 10
40.2272272768
 20
-74.1931567633
 10
40.1646752767
 20
-74.0812579633
 10
40.0997036887
 20
-73.9710256117
 10
40.0324181216
 20
-73.8626006052
 10
39.962924184
 20
-73.7561238406
 10
39.8913274846
 20
-73.6517362147
 10
39.8177336321
 20
-73.5495786242
 10
39.7422482353
 20
-73.4497919658
 10
39.6649769029
 20
-73.3525171362
 10
39.5860252435
 20
-73.2578950323
 10
39.5054988658
 20
-73.1660665508
 10
39.4235033787
 20
-73.0771725884
 10
39.3401443906
 20
-72.9913540419
 10
39.2555275105
 20
-72.908751808
 10
39.1697583469
 20
-72.8295067834
 10
39.0829425086
 20
-72.753759865
 10
38.9951903275
 20
-72.6816395344
 10
38.9066219781
 20
-72.613217251
 10
38.8173623257
 20
-72.5485521842
 10
38.7275362358
 20
-72.4877035032
 10
38.6372685738
 20
-72.4307303774
 10
38.5466842051
 20
-72.3776919759
 10
38.455907995
 20
-72.3286474681
 10
38.365064809
 20
-72.2836560233
 10
38.2742795125
 20
-72.2427768106
 10
38.1836769709
 20
-72.2060689994
 10
38.0933820496
 20
-72.173591759
 10
38.003519614
 20
-72.1454042586
 10
37.9142145294
 20
-72.1215656676
 10
37.8255916614
 20
-72.1021351551
 10
37.7377758752
 20
-72.0871718905
 10
37.6508920363
 20
-72.076735043
 10
37.5650650102
 20
-72.0708837819
 10
37.4804196621
 20
-72.0696772765
 10
37.3970757181
 20
-72.0731525938
 10
37.3151441612
 20
-72.0812577851
 10
37.2347307732
 20
-72.0939185766
 10
37.1559413356
 20
-72.1110606943
 10
37.0788816304
 20
-72.1326098646
 10
37.0036574391
 20
-72.1584918136
 10
36.9303745435
 20
-72.1886322675
 10
36.8591387253
 20
-72.2229569524
 10
36.7900557662
 20
-72.2613915945
 10
36.7232314479
 20
-72.3038619201
 10
36.6587715522
 20
-72.3502936553
 10
36.5967818608
 20
-72.4006125263
 10
36.5373681553
 20
-72.4547442593
 10
36.4806362176
 20
-72.5126145805
 10
36.4266918293
 20
-72.574149216
 10
36.3756407721
 20
-72.639273892
 10
36.3275888277
 20
-72.7079143347
 10
36.2826417779
 20
-72.7799962704
  0
LWPOLYLINE
  5
2E7
100
AcDbEntity
  8
IMPORT_IGES
100
AcDbPolyline
 62
7
420
11158274
  6
CONTINUOUS
 90
77
 70
0
 10
36.1900933401
 20
-75.4192729115
 10
36.233379722
 20
-75.5520229281
 10
36.2807317353
 20
-75.6848074263
 10
36.3320116926
 20
-75.8173615399
 10
36.3870819061
 20
-75.9494204026
 10
36.4458046884
 20
-76.0807191482
 10
36.5080423518
 20
-76.2109929106
 10
36.5736572087
 20
-76.3399768234
 10
36.6425115716
 20
-76.4674060206
 10
36.7144677528
 20
-76.5930156358
 10
36.7893880648
 20
-76.7165408029
 10
36.86713482
 20
-76.8377166556
 10
36.9475703308
 20
-76.9562783277
 10
37.0305569096
 20
-77.0719609531
 10
37.1159568689
 20
-77.1844996654
 10
37.203632521
 20
-77.2936295985
 10
37.2934461784
 20
-77.3990858861
 10
37.3852559162
 20
-77.5006317208
 10
37.4788892511
 20
-77.5981276301
 10
37.574169364
 20
-77.6914623941
 10
37.6709194359
 20
-77.7805247928
 10
37.7689626476
 20
-77.8652036065
 10
37.8681221801
 20
-77.9453876151
 10
37.9682212144
 20
-78.0209655989
 10
38.0690829313
 20
-78.0918263379
 10
38.1705305119
 20
-78.1578586121
 10
38.272387137
 20
-78.2189512018
 10
38.3744759875
 20
-78.2749928871
 10
38.4766202445
 20
-78.3258724479
 10
38.5786430889
 20
-78.3714786645
 10
38.6803677015
 20
-78.4117003169
 10
38.7816172634
 20
-78.4464261852
 10
38.8822149554
 20
-78.4755450496
 10
38.9819883766
 20
-78.4989695207
 10
39.0807746033
 20
-78.5167056842
 10
39.1784151527
 20
-78.528783613
 10
39.274751542
 20
-78.53523338
 10
39.3696252882
 20
-78.5360850583
 10
39.4628779087
 20
-78.5313687207
 10
39.5543509204
 20
-78.5211144402
 10
39.6438858406
 20
-78.5053522898
 10
39.7313241864
 20
-78.4841123425
 10
39.8165074751
 20
-78.4574246711
 10
39.8992772236
 20
-78.4253193486
 10
39.9794749493
 20
-78.387826448
 10
40.0569421692
 20
-78.3449760422
 10
40.1315204005
 20
-78.2967982042
 10
40.2030511604
 20
-78.243323007
 10
40.271375966
 20
-78.1845805234
 10
40.3363516637
 20
-78.1206248835
 10
40.3978962771
 20
-78.0516065858
 10
40.4559431616
 20
-77.9777001896
 10
40.5104256727
 20
-77.8990802541
 10
40.5612771655
 20
-77.8159213387
 10
40.6084309955
 20
-77.7283980026
 10
40.6518205179
 20
-77.6366848051
 10
40.6913790882
 20
-77.5409563057
 10
40.7270400616
 20
-77.4413870634
 10
40.7587367935
 20
-77.3381516377
 10
40.7864026392
 20
-77.2314245879
 10
40.8099709541
 20
-77.1213804732
 10
40.8293750935
 20
-77.0081938529
 10
40.8445484127
 20
-76.8920392863
 10
40.8554242671
 20
-76.7730913328
 10
40.8619360121
 20
-76.6515245516
 10
40.8640378755
 20
-76.5303064241
 10
40.8619525477
 20
-76.4069758681
 10
40.855728745
 20
-76.2817572345
 10
40.8454151836
 20
-76.1548748743
 10
40.8310605801
 20
-76.0265531382
 10
40.8127136506
 20
-75.8970163772
 10
40.7904231116
 20
-75.7664889422
 10
40.7642376794
 20
-75.6351951842
 10
40.7342060704
 20
-75.5033594539
 10
40.7003770008
 20
-75.3712061023
 10
40.662799187
 20
-75.2389594804
 10
40.6215213454
 20
-75.1068439389
  0
LWPOLYLINE
  5
2E8
100
AcDbEntity
  8
IMPORT_IGES
100
AcDbPolyline
 62
7
420
11158274
  6
CONTINUOUS
 90
18
 70
0
 10
-10.2097707487
 20
-38.1391290286
 10
-10.2038627586
 20
-38.1333063603
 10
-10.197865481
 20
-38.1276116587
 10
-10.1917803332
 20
-38.122045951
 10
-10.1856087325
 20
-38.1166102642
 10
-10.1793520964
 20
-38.1113056256
 10
-10.1730118422
 20
-38.1061330622
 10
-10.1665893874
 20
-38.1010936012
 10
-10.1600861491
 20
-38.0961882696
 10
-10.153503545
 20
-38.0914180945
 10
-10.1468429922
 20
-38.0867841032
 10
-10.1401059081
 20
-38.0822873226
 10
-10.1332937102
 20
-38.07792878
 10
-10.1264078159
 20
-38.0737095024
 10
-10.1194496423
 20
-38.069630517
 10
-10.1124206071
 20
-38.0656928508
 10
-10.1053221274
 20
-38.061897531
 10
-10.0981556207
 20
-38.0582455847
  0
LWPOLYLINE
  5
2E9
100
AcDbEntity
  8
IMPORT_IGES
100
AcDbPolyline
 62
7
420
11158274
  6
CONTINUOUS
 90
34
 70
0
 10
-10.802694099
 20
-37.1316458056
 10
-10.7786273064
 20
-37.1116068727
 10
-10.7538325548
 20
-37.0925614532
 10
-10.7283340155
 20
-37.0745123509
 10
-10.7021558598
 20
-37.0574623697
 10
-10.6753222592
 20
-37.0414143134
 10
-10.647857385
 20
-37.0263709856
 10
-10.6197854085
 20
-37.0123351903
 10
-10.591130501
 20
-36.9993097311
 10
-10.561916834
 20
-36.987297412
 10
-10.5321685788
 20
-36.9763010367
 10
-10.5019099067
 20
-36.966323409
 10
-10.4711649891
 20
-36.9573673326
 10
-10.4399579973
 20
-36.9494356115
 10
-10.4083131028
 20
-36.9425310493
 10
-10.3762544767
 20
-36.9366564498
 10
-10.3438062906
 20
-36.931814617
 10
-10.3109927157
 20
-36.9280083545
 10
-10.2778379234
 20
-36.9252404662
 10
-10.244366085
 20
-36.9235137558
 10
-10.210601372
 20
-36.9228310271
 10
-10.1765679556
 20
-36.923195084
 10
-10.1422900072
 20
-36.9246087302
 10
-10.1077916981
 20
-36.9270747695
 10
-10.0730971998
 20
-36.9305960058
 10
-10.0382306835
 20
-36.9351752427
 10
-10.0032163207
 20
-36.9408152842
 10
-9.9680782826
 20
-36.9475189339
 10
-9.9328407406
 20
-36.9552889958
 10
-9.897527866
 20
-36.9641282735
 10
-9.8621638303
 20
-36.974039571
 10
-9.8267728048
 20
-36.9850256919
 10
-9.7913789608
 20
-36.99708944
 10
-9.7560064696
 20
-37.0102336193
  0
LWPOLYLINE
  5
2EA
100
AcDbEntity
  8
IMPORT_IGES
100
AcDbPolyline
 62
7
420
11158274
  6
CONTINUOUS
 90
89
 70
0
 10
-11.5796173544
 20
-35.8115137092
 10
-11.5820945226
 20
-35.813541062
 10
-11.5845968314
 20
-35.8157395642
 10
-11.5871070811
 20
-35.81812134
 10
-11.5896080718
 20
-35.8206985137
 10
-11.5920826037
 20
-35.8234832097
 10
-11.5945134771
 20
-35.8264875523
 10
-11.596883492
 20
-35.8297236658
 10
-11.5991754488
 20
-35.8332036746
 10
-11.6013721476
 20
-35.836939703
 10
-11.6034563886
 20
-35.8409438752
 10
-11.6054109721
 20
-35.8452283157
 10
-11.6072186981
 20
-35.8498051487
 10
-11.6086382533
 20
-35.8539700594
 10
-11.6099264454
 20
-35.858366332
 10
-11.6110724429
 20
-35.8630016016
 10
-11.6120654144
 20
-35.8678835032
 10
-11.6128945288
 20
-35.8730196721
 10
-11.6135489545
 20
-35.8784177434
 10
-11.6140178602
 20
-35.8840853521
 10
-11.6142613719
 20
-35.8890571673
 10
-11.6143654671
 20
-35.8942119176
 10
-11.6143292749
 20
-35.8995369648
 10
-11.6141519243
 20
-35.9050196712
 10
-11.6138325444
 20
-35.9106473987
 10
-11.6133702642
 20
-35.9164075092
 10
-11.6127642128
 20
-35.9222873649
 10
-11.6120135192
 20
-35.9282743277
 10
-11.6111173124
 20
-35.9343557596
 10
-11.6100747215
 20
-35.9405190227
 10
-11.6088848756
 20
-35.946751479
 10
-11.6075469037
 20
-35.9530404904
 10
-11.6060599348
 20
-35.9593734191
 10
-11.6044230979
 20
-35.9657376269
 10
-11.6026355222
 20
-35.972120476
 10
-11.6006963367
 20
-35.9785093283
 10
-11.5986046704
 20
-35.9848915459
 10
-11.5963596524
 20
-35.9912544907
 10
-11.5939604117
 20
-35.9975855248
 10
-11.5914060773
 20
-36.0038720101
 10
-11.5886957784
 20
-36.0101013088
 10
-11.5858286439
 20
-36.0162607828
 10
-11.5828038029
 20
-36.0223377941
 10
-11.5796203844
 20
-36.0283197047
 10
-11.5762775176
 20
-36.0341938767
 10
-11.5727762521
 20
-36.0399491143
 10
-11.569125321
 20
-36.0455799907
 10
-11.5653353779
 20
-36.051082521
 10
-11.5614170765
 20
-36.0564527209
 10
-11.5573810705
 20
-36.0616866055
 10
-11.5532380136
 20
-36.0667801902
 10
-11.5489985595
 20
-36.0717294905
 10
-11.544673362
 20
-36.0765305216
 10
-11.5402730746
 20
-36.0811792989
 10
-11.535808351
 20
-36.0856718378
 10
-11.5312898451
 20
-36.0900041535
 10
-11.5267282104
 20
-36.0941722616
 10
-11.5221341007
 20
-36.0981721773
 10
-11.5175181696
 20
-36.101999916
 10
-11.5128910709
 20
-36.105651493
 10
-11.5082634583
 20
-36.1091229237
 10
-11.5036459853
 20
-36.1124102235
 10
-11.4990493059
 20
-36.1155094077
 10
-11.4944840735
 20
-36.1184164916
 10
-11.4899609419
 20
-36.1211274907
 10
-11.4854905649
 20
-36.1236384202
 10
-11.4810835961
 20
-36.1259452955
 10
-11.4767506891
 20
-36.1280441321
 10
-11.4725024978
 20
-36.1299309452
 10
-11.4683496757
 20
-36.1316017501
 10
-11.4635416247
 20
-36.1333071283
 10
-11.4588817927
 20
-36.1347149614
 10
-11.4543681396
 20
-36.1358394854
 10
-11.4499986252
 20
-36.1366949363
 10
-11.4457712091
 20
-36.1372955501
 10
-11.4416838512
 20
-36.1376555629
 10
-11.4377345112
 20
-36.1377892106
 10
-11.4332986654
 20
-36.137678025
 10
-11.4290446605
 20
-36.1373007144
 10
-11.4249692568
 20
-36.1366798851
 10
-11.4210692143
 20
-36.1358381434
 10
-11.4173412934
 20
-36.1347980955
 10
-11.4137822542
 20
-36.1335823477
 10
-11.4103888568
 20
-36.1322135061
 10
-11.4071578616
 20
-36.1307141772
 10
-11.4040860286
 20
-36.129106967
 10
-11.401170118
 20
-36.127414482
 10
-11.39840689
 20
-36.1256593283
 10
-11.3957931049
 20
-36.1238641122
  0
LWPOLYLINE
  5
2EB
100
AcDbEntity
  8
IMPORT_IGES
100
AcDbPolyline
 62
7
420
11158274
  6
CONTINUOUS
 90
37
 70
0
 10
-11.3957931049
 20
-36.1238641122
 10
-11.3560056811
 20
-36.0923063132
 10
-11.3149683663
 20
-36.0623203908
 10
-11.2727199835
 20
-36.0339364284
 10
-11.2292993555
 20
-36.0071845093
 10
-11.1847453051
 20
-35.9820947169
 10
-11.1390966552
 20
-35.9586971345
 10
-11.0923922287
 20
-35.9370218456
 10
-11.0446708483
 20
-35.9170989334
 10
-10.9959713371
 20
-35.8989584814
 10
-10.9463325178
 20
-35.8826305729
 10
-10.8957932133
 20
-35.8681452912
 10
-10.8443922464
 20
-35.8555327197
 10
-10.7921684401
 20
-35.8448229418
 10
-10.7391606171
 20
-35.8360460409
 10
-10.6854076003
 20
-35.8292321002
 10
-10.6309482126
 20
-35.8244112032
 10
-10.5758212769
 20
-35.8216134332
 10
-10.520065616
 20
-35.8208688736
 10
-10.4637229155
 20
-35.8221974975
 10
-10.4068463121
 20
-35.8255788379
 10
-10.3494918053
 20
-35.8309823171
 10
-10.2917153947
 20
-35.8383773578
 10
-10.2335730795
 20
-35.8477333826
 10
-10.1751208594
 20
-35.8590198141
 10
-10.1164147338
 20
-35.8722060749
 10
-10.0575107021
 20
-35.8872615875
 10
-9.9984647639
 20
-35.9041557746
 10
-9.9393329186
 20
-35.9228580586
 10
-9.8801711656
 20
-35.9433378623
 10
-9.8210355045
 20
-35.9655646083
 10
-9.7619819348
 20
-35.989507719
 10
-9.7030664558
 20
-36.0151366171
 10
-9.6443450671
 20
-36.0424207251
 10
-9.5858737681
 20
-36.0713294658
 10
-9.5277085584
 20
-36.1018322615
 10
-9.4699054373
 20
-36.133898535
  0
LWPOLYLINE
  5
2EC
100
AcDbEntity
  8
IMPORT_IGES
100
AcDbPolyline
 62
7
420
11158274
  6
CONTINUOUS
 90
85
 70
0
 10
-10.9887609645
 20
-36.8154847955
 10
-10.9918492671
 20
-36.817849243
 10
-10.9947952842
 20
-36.8204958751
 10
-10.9975983768
 20
-36.8234147236
 10
-11.0002579056
 20
-36.8265958202
 10
-11.0027732315
 20
-36.8300291967
 10
-11.0051437153
 20
-36.8337048849
 10
-11.0073687178
 20
-36.8376129166
 10
-11.0094475999
 20
-36.8417433234
 10
-11.0113797223
 20
-36.8460861373
 10
-11.013164446
 20
-36.8506313899
 10
-11.0148011317
 20
-36.855369113
 10
-11.0162891402
 20
-36.8602893385
 10
-11.0176278324
 20
-36.865382098
 10
-11.0188165691
 20
-36.8706374234
 10
-11.0198547111
 20
-36.8760453464
 10
-11.0207416193
 20
-36.8815958988
 10
-11.0214766544
 20
-36.8872791123
 10
-11.0220591774
 20
-36.8930850188
 10
-11.0224885489
 20
-36.89900365
 10
-11.02276413
 20
-36.9050250377
 10
-11.0228852813
 20
-36.9111392136
 10
-11.0228513637
 20
-36.9173362095
 10
-11.022661738
 20
-36.9236060572
 10
-11.0223157651
 20
-36.9299387885
 10
-11.0218128057
 20
-36.9363244351
 10
-11.0211522207
 20
-36.9427530288
 10
-11.020333371
 20
-36.9492146014
 10
-11.0193556173
 20
-36.9556991846
 10
-11.0182183205
 20
-36.9621968103
 10
-11.0169208414
 20
-36.9686975101
 10
-11.0154625408
 20
-36.9751913159
 10
-11.0138427796
 20
-36.9816682595
 10
-11.0120609185
 20
-36.9881183725
 10
-11.0101163184
 20
-36.9945316868
 10
-11.0080083402
 20
-37.0008982342
 10
-11.0057363446
 20
-37.0072080463
 10
-11.0032996924
 20
-37.0134511551
 10
-11.0006977446
 20
-37.0196175922
 10
-10.9979298619
 20
-37.0256973895
 10
-10.9949954051
 20
-37.0316805786
 10
-10.9918937351
 20
-37.0375571915
 10
-10.9886242127
 20
-37.0433172597
 10
-10.9851877027
 20
-37.0489519445
 10
-10.9815910858
 20
-37.0544569238
 10
-10.9778427464
 20
-37.059829005
 10
-10.9739510694
 20
-37.0650649954
 10
-10.9699244392
 20
-37.0701617023
 10
-10.9657712406
 20
-37.0751159331
 10
-10.9614998581
 20
-37.0799244952
 10
-10.9571186763
 20
-37.0845841958
 10
-10.9526360799
 20
-37.0890918422
 10
-10.9480604534
 20
-37.0934442419
 10
-10.9434001815
 20
-37.0976382021
 10
-10.9386636489
 20
-37.1016705302
 10
-10.93385924
 20
-37.1055380335
 10
-10.9289953396
 20
-37.1092375193
 10
-10.9240803323
 20
-37.112765795
 10
-10.9191226026
 20
-37.116119668
 10
-10.9141305352
 20
-37.1192959454
 10
-10.9091125148
 20
-37.1222914348
 10
-10.9040769258
 20
-37.1251029433
 10
-10.899032153
 20
-37.1277272784
 10
-10.8939865809
 20
-37.1301612473
 10
-10.8889485943
 20
-37.1324016575
 10
-10.8839265776
 20
-37.1344453162
 10
-10.8789289155
 20
-37.1362890307
 10
-10.8739639926
 20
-37.1379296085
 10
-10.8690401936
 20
-37.1393638568
 10
-10.8641659031
 20
-37.1405885829
 10
-10.8593495056
 20
-37.1416005943
 10
-10.8545993858
 20
-37.1423966982
 10
-10.8499239283
 20
-37.1429737019
 10
-10.8453315177
 20
-37.1433284129
 10
-10.8408305387
 20
-37.1434576384
 10
-10.8364293759
 20
-37.1433581857
 10
-10.8321364138
 20
-37.1430268623
 10
-10.8279600371
 20
-37.1424604753
 10
-10.8239086304
 20
-37.1416558323
 10
-10.8199905783
 20
-37.1406097404
 10
-10.8162142655
 20
-37.139319007
 10
-10.8125880766
 20
-37.1377804396
 10
-10.8091203961
 20
-37.1359908453
 10
-10.8058196087
 20
-37.1339470315
 10
-10.802694099
 20
-37.1316458056
  0
LWPOLYLINE
  5
2ED
100
AcDbEntity
  8
IMPORT_IGES
100
AcDbPolyline
 62
7
420
11158274
  6
CONTINUOUS
 90
42
 70
0
 10
-19.6973882668
 20
-31.6381483392
 10
-19.7005121375
 20
-31.6392239173
 10
-19.7035992911
 20
-31.6404276165
 10
-19.7066476812
 20
-31.6417573978
 10
-19.7096552613
 20
-31.6432112217
 10
-19.7126199849
 20
-31.6447870491
 10
-19.7155398055
 20
-31.6464828407
 10
-19.7184126768
 20
-31.6482965573
 10
-19.7212365522
 20
-31.6502261596
 10
-19.7240093853
 20
-31.6522696085
 10
-19.7267291295
 20
-31.6544248646
 10
-19.7293937386
 20
-31.6566898887
 10
-19.7320011659
 20
-31.6590626415
 10
-19.7345493651
 20
-31.6615410839
 10
-19.7370362896
 20
-31.6641231766
 10
-19.739459893
 20
-31.6668068804
 10
-19.7418181289
 20
-31.6695901559
 10
-19.7441089507
 20
-31.672470964
 10
-19.746330312
 20
-31.6754472654
 10
-19.7484801665
 20
-31.6785170208
 10
-19.7505564675
 20
-31.6816781911
 10
-19.7525571686
 20
-31.684928737
 10
-19.7544802234
 20
-31.6882666192
 10
-19.7563235854
 20
-31.6916897986
 10
-19.7580852082
 20
-31.6951962357
 10
-19.7597630452
 20
-31.6987838915
 10
-19.76135505
 20
-31.7024507267
 10
-19.7628591763
 20
-31.706194702
 10
-19.7642733774
 20
-31.7100137782
 10
-19.7655956069
 20
-31.713905916
 10
-19.7668238184
 20
-31.7178690762
 10
-19.7679559655
 20
-31.7219012196
 10
-19.7689900015
 20
-31.7260003069
 10
-19.7699238802
 20
-31.7301642989
 10
-19.770755555
 20
-31.7343911563
 10
-19.7714829794
 20
-31.7386788399
 10
-19.7721041071
 20
-31.7430253104
 10
-19.7726168914
 20
-31.7474285286
 10
-19.7730192861
 20
-31.7518864553
 10
-19.7733092446
 20
-31.7563970512
 10
-19.7734847204
 20
-31.7609582771
 10
-19.7735436671
 20
-31.7655680937
  0
LINE
  5
2EE
100
AcDbEntity
  8
IMPORT_IGES
100
AcDbLine
 62
7
420
11158274
  6
CONTINUOUS
 10
-19.4234550997
 20
-31.9314325081
 11
-18.3817453897
 21
-31.5907652915
  0
LINE
  5
2EF
100
AcDbEntity
  8
IMPORT_IGES
100
AcDbLine
 62
7
420
11158274
  6
CONTINUOUS
 10
-18.3746743219
 20
-31.211690802
 11
-19.6973882668
 21
-31.6381483392
  0
LWPOLYLINE
  5
2F0
100
AcDbEntity
  8
IMPORT_IGES
100
AcDbPolyline
 62
7
420
11158274
  6
CONTINUOUS
 90
13
 70
0
 10
-10.2159367977
 20
-38.1439512243
 10
-10.2153951092
 20
-38.1435885437
 10
-10.2148583536
 20
-38.1432187886
 10
-10.2143265701
 20
-38.1428419448
 10
-10.2137997981
 20
-38.1424579982
 10
-10.2132780768
 20
-38.1420669347
 10
-10.2127614455
 20
-38.1416687401
 10
-10.2122499436
 20
-38.1412634003
 10
-10.2117436102
 20
-38.1408509012
 10
-10.2112424848
 20
-38.1404312286
 10
-10.2107466065
 20
-38.1400043684
 10
-10.2102560147
 20
-38.1395703064
 10
-10.2097707487
 20
-38.1391290286
  0
LWPOLYLINE
  5
2F1
100
AcDbEntity
  8
IMPORT_IGES
100
AcDbPolyline
 62
7
420
11158274
  6
CONTINUOUS
 90
85
 70
0
 10
-10.3963046255
 20
-37.8221744825
 10
-10.399535426
 20
-37.8243062147
 10
-10.4026277217
 20
-37.8267298268
 10
-10.4055807202
 20
-37.8294352977
 10
-10.4083936289
 20
-37.832412607
 10
-10.4110656552
 20
-37.8356517337
 10
-10.4135960066
 20
-37.8391426572
 10
-10.4159838904
 20
-37.8428753567
 10
-10.4182285142
 20
-37.8468398115
 10
-10.4203290853
 20
-37.8510260009
 10
-10.4222848112
 20
-37.8554239041
 10
-10.4240948993
 20
-37.8600235004
 10
-10.425758557
 20
-37.864814769
 10
-10.4272749919
 20
-37.8697876892
 10
-10.4286434113
 20
-37.8749322402
 10
-10.4298630226
 20
-37.8802384014
 10
-10.4309330333
 20
-37.885696152
 10
-10.4318526509
 20
-37.8912954712
 10
-10.4326210826
 20
-37.8970263384
 10
-10.4332375361
 20
-37.9028787327
 10
-10.4337012187
 20
-37.9088426335
 10
-10.4340113379
 20
-37.9149080199
 10
-10.4341671011
 20
-37.9210648713
 10
-10.4341677156
 20
-37.9273031669
 10
-10.4340123891
 20
-37.9336128861
 10
-10.4337003288
 20
-37.9399840079
 10
-10.4332307423
 20
-37.9464065118
 10
-10.4326028369
 20
-37.952870377
 10
-10.4318158201
 20
-37.9593655826
 10
-10.4308688993
 20
-37.9658821081
 10
-10.429761282
 20
-37.9724099327
 10
-10.4284921756
 20
-37.9789390355
 10
-10.4270607876
 20
-37.9854593959
 10
-10.4254663253
 20
-37.9919609932
 10
-10.4237079961
 20
-37.9984338066
 10
-10.4217850077
 20
-38.0048678154
 10
-10.4196965672
 20
-38.0112529988
 10
-10.4174418823
 20
-38.017579336
 10
-10.4150201603
 20
-38.0238368065
 10
-10.4124306087
 20
-38.0300153893
 10
-10.4096724349
 20
-38.0361050639
 10
-10.4067448463
 20
-38.0420958093
 10
-10.4036470504
 20
-38.047977605
 10
-10.4003782546
 20
-38.0537404302
 10
-10.3969392128
 20
-38.0593754253
 10
-10.3933368655
 20
-38.0648783759
 10
-10.3895796994
 20
-38.0702462288
 10
-10.3856762014
 20
-38.0754759307
 10
-10.3816348584
 20
-38.0805644283
 10
-10.3774641571
 20
-38.0855086685
 10
-10.3731725846
 20
-38.090305598
 10
-10.3687686275
 20
-38.0949521636
 10
-10.3642607728
 20
-38.099445312
 10
-10.3596575073
 20
-38.10378199
 10
-10.3549673178
 20
-38.1079591444
 10
-10.3501986913
 20
-38.1119737219
 10
-10.3453601145
 20
-38.1158226692
 10
-10.3404600744
 20
-38.1195029332
 10
-10.3355070578
 20
-38.1230114607
 10
-10.3305095515
 20
-38.1263451982
 10
-10.3254760424
 20
-38.1295010928
 10
-10.3204150173
 20
-38.132476091
 10
-10.3153349631
 20
-38.1352671396
 10
-10.3102443667
 20
-38.1378711855
 10
-10.3051517148
 20
-38.1402851754
 10
-10.3000654944
 20
-38.142506056
 10
-10.2949941923
 20
-38.1445307742
 10
-10.2899462954
 20
-38.1463562766
 10
-10.2849302905
 20
-38.14797951
 10
-10.2799546644
 20
-38.1493974213
 10
-10.2750279041
 20
-38.1506069571
 10
-10.2701584964
 20
-38.1516050642
 10
-10.265354928
 20
-38.1523886894
 10
-10.260625686
 20
-38.1529547794
 10
-10.255979257
 20
-38.1533002811
 10
-10.2514241281
 20
-38.1534221412
 10
-10.246968786
 20
-38.1533173064
 10
-10.2426217176
 20
-38.1529827234
 10
-10.2383914097
 20
-38.1524153392
 10
-10.2342863492
 20
-38.1516121004
 10
-10.230315023
 20
-38.1505699537
 10
-10.2264859179
 20
-38.149285846
 10
-10.2228075207
 20
-38.1477567241
 10
-10.2192883184
 20
-38.1459795346
 10
-10.2159367977
 20
-38.1439512243
  0
LWPOLYLINE
  5
2F2
100
AcDbEntity
  8
IMPORT_IGES
100
AcDbPolyline
 62
7
420
11158274
  6
CONTINUOUS
 90
82
 70
0
 10
39.853602865
 20
-76.0210708039
 10
39.8530927808
 20
-75.9925685226
 10
39.8515822296
 20
-75.9636025893
 10
39.8490941363
 20
-75.9342218152
 10
39.8456514256
 20
-75.9044750111
 10
39.8412770224
 20
-75.874410988
 10
39.8359938518
 20
-75.8440785568
 10
39.8298248385
 20
-75.8135265284
 10
39.8227929074
 20
-75.7828037139
 10
39.8149209834
 20
-75.7519589241
 10
39.8062319914
 20
-75.72104097
 10
39.7967488562
 20
-75.6900986625
 10
39.7864945028
 20
-75.6591808126
 10
39.7754918561
 20
-75.6283362312
 10
39.7637638409
 20
-75.5976137293
 10
39.751333382
 20
-75.5670621178
 10
39.7382234045
 20
-75.5367302076
 10
39.7244568331
 20
-75.5066668097
 10
39.7100565927
 20
-75.476920735
 10
39.6950456083
 20
-75.4475407944
 10
39.6794468046
 20
-75.418575799
 10
39.6632831067
 20
-75.3900745596
 10
39.6457283459
 20
-75.3606966859
 10
39.6276026344
 20
-75.3319158326
 10
39.6089325431
 20
-75.3037639154
 10
39.5897446425
 20
-75.2762728496
 10
39.5700655035
 20
-75.2494745507
 10
39.5499216966
 20
-75.2234009342
 10
39.5293397926
 20
-75.1980839154
 10
39.5083463622
 20
-75.1735554099
 10
39.4869679761
 20
-75.1498473331
 10
39.4652312049
 20
-75.1269916004
 10
39.4431626194
 20
-75.1050201273
 10
39.4207887902
 20
-75.0839648292
 10
39.3981362881
 20
-75.0638576216
 10
39.3752316838
 20
-75.0447304199
 10
39.3521015479
 20
-75.0266151396
 10
39.3287724511
 20
-75.0095436961
 10
39.3052709642
 20
-74.9935480048
 10
39.2816236578
 20
-74.9786599813
 10
39.2578571027
 20
-74.964911541
 10
39.2339978694
 20
-74.9523345992
 10
39.2100660855
 20
-74.9409521135
 10
39.1861079712
 20
-74.9307754263
 10
39.1621633513
 20
-74.9218060525
 10
39.1382720508
 20
-74.9140455076
 10
39.1144738943
 20
-74.9074953064
 10
39.0908087067
 20
-74.9021569643
 10
39.0673163128
 20
-74.8980319964
 10
39.0440365374
 20
-74.8951219178
 10
39.0210092052
 20
-74.8934282436
 10
38.9982741412
 20
-74.8929524891
 10
38.97587117
 20
-74.8936961694
 10
38.9538401165
 20
-74.8956607995
 10
38.9322208056
 20
-74.8988478948
 10
38.9110530619
 20
-74.9032589703
 10
38.8903767102
 20
-74.9088955412
 10
38.8702315755
 20
-74.9157591226
 10
38.8506574825
 20
-74.9238512297
 10
38.831694256
 20
-74.9331733777
 10
38.8133817207
 20
-74.9437270816
 10
38.7957597016
 20
-74.9555138567
 10
38.7788576347
 20
-74.9685337438
 10
38.7626997337
 20
-74.9827522411
 10
38.7472992965
 20
-74.9981324813
 10
38.7326696208
 20
-75.0146375968
 10
38.7188240042
 20
-75.0322307202
 10
38.7057757447
 20
-75.050874984
 10
38.6935381399
 20
-75.0705335209
 10
38.6821244876
 20
-75.0911694634
 10
38.6715480856
 20
-75.112745944
 10
38.6618222316
 20
-75.1352260953
 10
38.6529602233
 20
-75.1585730499
 10
38.6449753585
 20
-75.1827499402
 10
38.637880935
 20
-75.2077198989
 10
38.6316902506
 20
-75.2334460586
 10
38.6264166028
 20
-75.2598915517
 10
38.6220732897
 20
-75.2870195108
 10
38.6186736087
 20
-75.3147930685
 10
38.6162308579
 20
-75.3431753573
 10
38.6147583348
 20
-75.3721295098
 10
38.6142693372
 20
-75.4016186586
  0
LWPOLYLINE
  5
2F3
100
AcDbEntity
  8
IMPORT_IGES
100
AcDbPolyline
 62
7
420
11158274
  6
CONTINUOUS
 90
82
 70
0
 10
38.6142693372
 20
-75.4016186586
 10
38.6147719141
 20
-75.4315818642
 10
38.6162564097
 20
-75.4619923151
 10
38.6187095489
 20
-75.4927999422
 10
38.6221180568
 20
-75.5239546767
 10
38.6264686586
 20
-75.5554064495
 10
38.6317480792
 20
-75.5871051917
 10
38.6379430437
 20
-75.6190008342
 10
38.6450402772
 20
-75.651043308
 10
38.6530265047
 20
-75.6831825442
 10
38.6618884512
 20
-75.7153684737
 10
38.6716128419
 20
-75.7475510276
 10
38.6821864019
 20
-75.7796801369
 10
38.693595856
 20
-75.8117057326
 10
38.7058279295
 20
-75.8435777457
 10
38.7188693473
 20
-75.8752461073
 10
38.7327068346
 20
-75.9066607482
 10
38.7473271163
 20
-75.9377715996
 10
38.7627169176
 20
-75.9685285924
 10
38.7788629634
 20
-75.9988816577
 10
38.7957519789
 20
-76.0287807265
 10
38.8133727576
 20
-76.0581882196
 10
38.8316839283
 20
-76.0870529991
 10
38.8506456612
 20
-76.1153367808
 10
38.8702181265
 20
-76.1430012806
 10
38.8903614945
 20
-76.1700082145
 10
38.9110359353
 20
-76.1963192982
 10
38.9322016193
 20
-76.2218962478
 10
38.9538187166
 20
-76.2467007792
 10
38.9758473975
 20
-76.2706946082
 10
38.9982478322
 20
-76.2938394508
 10
39.0209801909
 20
-76.3160970229
 10
39.0440046439
 20
-76.3374290403
 10
39.0672813613
 20
-76.357797219
 10
39.0907705135
 20
-76.377163275
 10
39.1144322706
 20
-76.395488924
 10
39.1382268029
 20
-76.412735882
 10
39.1621142805
 20
-76.428865865
 10
39.1860548738
 20
-76.4438405888
 10
39.2100087529
 20
-76.4576217693
 10
39.2339360881
 20
-76.4701711224
 10
39.2577992625
 20
-76.4814576444
 10
39.2815695112
 20
-76.4914794526
 10
39.3052202818
 20
-76.5002419445
 10
39.3287250224
 20
-76.5077505178
 10
39.3520571808
 20
-76.51401057
 10
39.3751902048
 20
-76.5190274988
 10
39.3980975424
 20
-76.5228067018
 10
39.4207526415
 20
-76.5253535766
 10
39.4431289498
 20
-76.5266735208
 10
39.4651999153
 20
-76.5267719319
 10
39.4869389858
 20
-76.5256542077
 10
39.5083196093
 20
-76.5233257457
 10
39.5293152335
 20
-76.5197919435
 10
39.5498993064
 20
-76.5150581987
 10
39.5700452759
 20
-76.5091299089
 10
39.5897265898
 20
-76.5020124717
 10
39.608916696
 20
-76.4937112848
 10
39.6275890423
 20
-76.4842317457
 10
39.6457170767
 20
-76.4735792521
 10
39.6632742469
 20
-76.4617592015
 10
39.6794403277
 20
-76.4494249839
 10
39.6950415698
 20
-76.4360624288
 10
39.7100550085
 20
-76.4216973114
 10
39.7244576792
 20
-76.4063554069
 10
39.7382266173
 20
-76.3900624905
 10
39.7513388582
 20
-76.3728443375
 10
39.7637714373
 20
-76.3547267231
 10
39.7755013899
 20
-76.3357354225
 10
39.7865057515
 20
-76.315896211
 10
39.7967615574
 20
-76.2952348638
 10
39.8062458429
 20
-76.2737771561
 10
39.8149356435
 20
-76.2515488632
 10
39.8228079946
 20
-76.2285757602
 10
39.8298399315
 20
-76.2048836225
 10
39.8360084896
 20
-76.1804982252
 10
39.8412907043
 20
-76.1554453436
 10
39.845663611
 20
-76.1297507529
 10
39.849104245
 20
-76.1034402284
 10
39.8515896418
 20
-76.0765395452
 10
39.8530968366
 20
-76.0490744787
 10
39.853602865
 20
-76.0210708039
  0
LWPOLYLINE
  5
2F4
100
AcDbEntity
  8
IMPORT_IGES
100
AcDbPolyline
 62
7
420
11158274
  6
CONTINUOUS
 90
18
 70
0
 10
7.1197439908
 20
-45.7171256464
 10
7.1292493807
 20
-45.7078083852
 10
7.1380511646
 20
-45.6974476105
 10
7.1461911961
 20
-45.6861924978
 10
7.1562364697
 20
-45.6698542494
 10
7.1654582482
 20
-45.6525671469
 10
7.1772671765
 20
-45.6279009585
 10
7.188444026
 20
-45.6025164546
 10
7.195404314
 20
-45.5859507914
 10
7.20208977
 20
-45.5691033473
 10
7.2083440902
 20
-45.551864435
 10
7.2140109708
 20
-45.5341243675
 10
7.2189341079
 20
-45.5157734573
 10
7.2231205347
 20
-45.4961706992
 10
7.226540084
 20
-45.4759544652
 10
7.2293799684
 20
-45.4552750727
 10
7.2318274004
 20
-45.4342828394
 10
7.2362937577
 20
-45.3919611205
  0
LINE
  5
2F5
100
AcDbEntity
  8
IMPORT_IGES
100
AcDbLine
 62
7
420
11158274
  6
CONTINUOUS
 10
8.8787059493
 20
-46.2372802502
 11
8.6518683635
 21
-46.4525774263
  0
LWPOLYLINE
  5
2F6
100
AcDbEntity
  8
IMPORT_IGES
100
AcDbPolyline
 62
7
420
11158274
  6
CONTINUOUS
 90
27
 70
0
 10
7.2714735548
 20
-44.1891147374
 10
7.2613025255
 20
-44.1974629898
 10
7.2513854649
 20
-44.2062187875
 10
7.2336955815
 20
-44.2234243459
 10
7.2168326254
 20
-44.2418518594
 10
7.2007648232
 20
-44.2614036274
 10
7.1854604016
 20
-44.2819819492
 10
7.1687341423
 20
-44.3068463809
 10
7.1529405623
 20
-44.3328523885
 10
7.1380411688
 20
-44.3599085416
 10
7.1239974691
 20
-44.38792341
 10
7.1088169353
 20
-44.4212903949
 10
7.0946409463
 20
-44.4556919764
 10
7.0813882007
 20
-44.4910103565
 10
7.0672037574
 20
-44.5325689968
 10
7.0540355075
 20
-44.5750638111
 10
7.0417887184
 20
-44.6183767085
 10
7.0313170167
 20
-44.6586159743
 10
7.0214872682
 20
-44.6993885127
 10
7.0122497665
 20
-44.7406419673
 10
7.00160815
 20
-44.7920777528
 10
6.9917156897
 20
-44.8440924042
 10
6.9824973104
 20
-44.8966137164
 10
6.9725351201
 20
-44.9581448349
 10
6.9632390153
 20
-45.0201534622
 10
6.954467331
 20
-45.0825312498
 10
6.8989356991
 20
-45.5073820204
  0
LWPOLYLINE
  5
2F7
100
AcDbEntity
  8
IMPORT_IGES
100
AcDbPolyline
 62
7
420
11158274
  6
CONTINUOUS
 90
48
 70
0
 10
8.4052576878
 20
-44.7859803184
 10
8.4073454604
 20
-44.7842945965
 10
8.4110272626
 20
-44.7806830425
 10
8.4153602598
 20
-44.7752502288
 10
8.4191421124
 20
-44.7691082066
 10
8.4217862938
 20
-44.7636195544
 10
8.4240357124
 20
-44.7577228442
 10
8.4258852135
 20
-44.7514562109
 10
8.4274210789
 20
-44.7443509177
 10
8.4284839555
 20
-44.7368915361
 10
8.4290411744
 20
-44.7296308619
 10
8.4291548346
 20
-44.7221173678
 10
8.4287986938
 20
-44.7143818921
 10
8.42789175
 20
-44.7059975839
 10
8.4264592953
 20
-44.6974642394
 10
8.4245307376
 20
-44.6888466525
 10
8.4222222838
 20
-44.6804921219
 10
8.4195033364
 20
-44.6721497262
 10
8.4163995358
 20
-44.6638497755
 10
8.4129748293
 20
-44.655728273
 10
8.409190993
 20
-44.6477485177
 10
8.4050394889
 20
-44.6399812485
 10
8.3995414567
 20
-44.6309496945
 10
8.3936099923
 20
-44.6222801948
 10
8.3873610927
 20
-44.613921169
 10
8.3809107549
 20
-44.6058210366
 10
8.3695264523
 20
-44.5922807592
 10
8.3579524927
 20
-44.5791792245
 10
8.3462549817
 20
-44.5663345978
 10
8.3311494651
 20
-44.5500334545
 10
8.3159140373
 20
-44.5339915957
 10
8.2949082781
 20
-44.5127237642
 10
8.2736525865
 20
-44.4920878239
 10
8.2522600121
 20
-44.4720588515
 10
8.2306903121
 20
-44.452566821
 10
8.2089581846
 20
-44.4336213823
 10
8.1870783276
 20
-44.4152321853
 10
8.1637158283
 20
-44.3963354538
 10
8.1402165268
 20
-44.3780689181
 10
8.1165934039
 20
-44.3604256248
 10
8.0928594404
 20
-44.3433986204
 10
8.0701722099
 20
-44.3277687369
 10
8.0474102276
 20
-44.3127739719
 10
8.0245874467
 20
-44.2984971119
 10
8.0017178206
 20
-44.285020943
 10
7.9776634342
 20
-44.2717573413
 10
7.9535828149
 20
-44.2591845274
 10
7.8639579172
 20
-44.2142419232
  0
LWPOLYLINE
  5
2F8
100
AcDbEntity
  8
IMPORT_IGES
100
AcDbPolyline
 62
7
420
11158274
  6
CONTINUOUS
 90
54
 70
0
 10
6.5380916915
 20
-46.8017953346
 10
6.5365432178
 20
-46.8030213785
 10
6.5350553562
 20
-46.8043649586
 10
6.5336280614
 20
-46.805822651
 10
6.5322612877
 20
-46.8073910322
 10
6.5309549896
 20
-46.8090666785
 10
6.5297091214
 20
-46.8108461661
 10
6.5285236378
 20
-46.8127260714
 10
6.5273984931
 20
-46.8147029707
 10
6.5263336418
 20
-46.8167734402
 10
6.5253290383
 20
-46.8189340563
 10
6.524384637
 20
-46.8211813953
 10
6.5235003926
 20
-46.8235120335
 10
6.5226762592
 20
-46.8259225471
 10
6.5219121916
 20
-46.8284095126
 10
6.521208144
 20
-46.8309695061
 10
6.5205640709
 20
-46.8335991041
 10
6.5199799268
 20
-46.8362948828
 10
6.5194556661
 20
-46.8390534185
 10
6.5189912434
 20
-46.8418712875
 10
6.5185866129
 20
-46.8447450661
 10
6.5182417293
 20
-46.8476713307
 10
6.5179565469
 20
-46.8506466575
 10
6.5177310201
 20
-46.8536676229
 10
6.5175651035
 20
-46.856730803
 10
6.5174587515
 20
-46.8598327744
 10
6.5174119185
 20
-46.8629701132
 10
6.517424559
 20
-46.8661393957
 10
6.5174966275
 20
-46.8693371984
 10
6.5176280783
 20
-46.8725600974
 10
6.517818866
 20
-46.875804669
 10
6.5180689449
 20
-46.8790674897
 10
6.5183782696
 20
-46.8823451356
 10
6.5187467945
 20
-46.8856341831
 10
6.519174474
 20
-46.8889312086
 10
6.5196612627
 20
-46.8922327882
 10
6.5202071148
 20
-46.8955354983
 10
6.520811985
 20
-46.8988359152
 10
6.5214758276
 20
-46.9021306153
 10
6.522198597
 20
-46.9054161747
 10
6.5229802479
 20
-46.9086891699
 10
6.5238207345
 20
-46.9119461772
 10
6.5247200114
 20
-46.9151837727
 10
6.5256780329
 20
-46.9183985329
 10
6.5266947536
 20
-46.921587034
 10
6.5277701279
 20
-46.9247458524
 10
6.5289041103
 20
-46.9278715644
 10
6.5300966551
 20
-46.9309607462
 10
6.5313477169
 20
-46.9340099741
 10
6.5326572501
 20
-46.9370158246
 10
6.5340252091
 20
-46.9399748738
 10
6.5354515485
 20
-46.942883698
 10
6.5369362225
 20
-46.9457388737
 10
6.5384791858
 20
-46.9485369771
  0
LWPOLYLINE
  5
2F9
100
AcDbEntity
  8
IMPORT_IGES
100
AcDbPolyline
 62
7
420
11158274
  6
CONTINUOUS
 90
3
 70
0
 10
7.1103381726
 20
-45.7245523743
 10
7.1161715865
 20
-45.7201522565
 10
7.1197439908
 20
-45.7171256464
  0
LINE
  5
2FA
100
AcDbEntity
  8
0
100
AcDbLine
 62
7
  6
CONTINUOUS
 10
67.2719589284
 20
-7.1917134675
 11
69.1627953222
 21
-6.2332731318
  0
LWPOLYLINE
  5
2FB
100
AcDbEntity
  8
IMPORT_IGES
100
AcDbPolyline
 62
7
420
11158274
  6
CONTINUOUS
 90
18
 70
0
 10
8.6518683635
 20
-46.4525774263
 10
8.649049993
 20
-46.4546797015
 10
8.6463176252
 20
-46.4569211878
 10
8.6430367262
 20
-46.4601756072
 10
8.6400347564
 20
-46.463841797
 10
8.6373060864
 20
-46.4678709182
 10
8.6345540796
 20
-46.4727871812
 10
8.6321349498
 20
-46.4780691262
 10
8.6300422312
 20
-46.4836842399
 10
8.628219271
 20
-46.4898088813
 10
8.6267578682
 20
-46.4962381903
 10
8.6256775488
 20
-46.5029554237
 10
8.62491845
 20
-46.5111641259
 10
8.6247131935
 20
-46.5196983165
 10
8.624931987
 20
-46.5262601668
 10
8.6255129569
 20
-46.5329616273
 10
8.6265238439
 20
-46.5401504858
 10
8.6309691787
 20
-46.5659842441
  0
LINE
  5
2FC
100
AcDbEntity
  8
IMPORT_IGES
100
AcDbLine
 62
7
420
11158274
  6
CONTINUOUS
 10
7.9476749988
 20
-46.9629411102
 11
7.8291937971
 21
-47.0488889184
  0
LINE
  5
2FD
100
AcDbEntity
  8
IMPORT_IGES
100
AcDbLine
 62
7
420
11158274
  6
CONTINUOUS
 10
8.3089071336
 20
-44.8558098883
 11
8.4052576878
 21
-44.7859803184
  0
LINE
  5
2FE
100
AcDbEntity
  8
IMPORT_IGES
100
AcDbLine
 62
7
420
11158274
  6
CONTINUOUS
 10
9.1057707963
 20
-44.9408297112
 11
6.5380916915
 21
-46.8017953346
  0
LWPOLYLINE
  5
2FF
100
AcDbEntity
  8
IMPORT_IGES
100
AcDbPolyline
 62
7
420
11158274
  6
CONTINUOUS
 90
55
 70
0
 10
9.3144541461
 20
-45.3080436913
 10
9.3160945383
 20
-45.3069296901
 10
9.3176758849
 20
-45.3056933376
 10
9.3191981254
 20
-45.3043381135
 10
9.3206611993
 20
-45.3028674978
 10
9.3220650462
 20
-45.3012849704
 10
9.3234096056
 20
-45.299594011
 10
9.324694817
 20
-45.2977980996
 10
9.3259206201
 20
-45.295900716
 10
9.3270869543
 20
-45.2939053401
 10
9.3281937592
 20
-45.2918154518
 10
9.3292409743
 20
-45.2896345309
 10
9.3302285392
 20
-45.2873660572
 10
9.3311563935
 20
-45.2850135108
 10
9.3320244766
 20
-45.2825803714
 10
9.3328327281
 20
-45.2800701189
 10
9.3335810876
 20
-45.2774862332
 10
9.3342694946
 20
-45.2748321941
 10
9.3348978887
 20
-45.2721114815
 10
9.3354662093
 20
-45.2693275753
 10
9.3359743961
 20
-45.2664839553
 10
9.3364223885
 20
-45.2635841014
 10
9.3368101262
 20
-45.2606314936
 10
9.3371375486
 20
-45.2576296115
 10
9.3374045954
 20
-45.2545819352
 10
9.337611206
 20
-45.2514919445
 10
9.33775732
 20
-45.2483631192
 10
9.337842877
 20
-45.2451989392
 10
9.3378678164
 20
-45.2420028844
 10
9.3378320779
 20
-45.2387784347
 10
9.337735601
 20
-45.2355290699
 10
9.3375783252
 20
-45.2322582698
 10
9.33736019
 20
-45.2289695145
 10
9.3370811351
 20
-45.2256662836
 10
9.3367410999
 20
-45.2223520572
 10
9.336340024
 20
-45.219030315
 10
9.335877847
 20
-45.215704537
 10
9.3353545083
 20
-45.2123782029
 10
9.3347699476
 20
-45.2090547927
 10
9.3341241044
 20
-45.2057377862
 10
9.3334169181
 20
-45.2024306634
 10
9.3326483285
 20
-45.199136904
 10
9.3318182749
 20
-45.1958599879
 10
9.330926697
 20
-45.1926033951
 10
9.3299735343
 20
-45.1893706053
 10
9.3289587264
 20
-45.1861650985
 10
9.3278822127
 20
-45.1829903545
 10
9.3267439329
 20
-45.1798498531
 10
9.3255438264
 20
-45.1767470743
 10
9.3242818329
 20
-45.1736854979
 10
9.3229578918
 20
-45.1706686038
 10
9.3215719427
 20
-45.1676998719
 10
9.3201239252
 20
-45.1647827819
 10
9.3186137787
 20
-45.1619208139
 10
9.317041443
 20
-45.1591174476
  0
LWPOLYLINE
  5
300
100
AcDbEntity
  8
IMPORT_IGES
100
AcDbPolyline
 62
7
420
11158274
  6
CONTINUOUS
 90
75
 70
0
 10
7.8291937971
 20
-47.0488889184
 10
7.8274728995
 20
-47.0498300703
 10
7.8257697006
 20
-47.0509286328
 10
7.8240876148
 20
-47.0521803567
 10
7.8224300563
 20
-47.0535809927
 10
7.8208004393
 20
-47.0551262915
 10
7.8192021781
 20
-47.0568120037
 10
7.817638687
 20
-47.05863388
 10
7.8161133801
 20
-47.0605876711
 10
7.8146296717
 20
-47.0626691277
 10
7.8131909761
 20
-47.0648740005
 10
7.8118007074
 20
-47.0671980401
 10
7.81046228
 20
-47.0696369972
 10
7.809179108
 20
-47.0721866226
 10
7.8079546057
 20
-47.0748426669
 10
7.8067921873
 20
-47.0776008807
 10
7.8056952672
 20
-47.0804570149
 10
7.8046672594
 20
-47.0834068199
 10
7.8037115783
 20
-47.0864460467
 10
7.8028760072
 20
-47.089403949
 10
7.8021113171
 20
-47.092434681
 10
7.8014204111
 20
-47.0955346297
 10
7.800806192
 20
-47.0987001819
 10
7.8002715631
 20
-47.1019277246
 10
7.7998194273
 20
-47.1052136447
 10
7.7994526876
 20
-47.1085543291
 10
7.799174247
 20
-47.1119461649
 10
7.7989870086
 20
-47.1153855388
 10
7.7988938754
 20
-47.118868838
 10
7.7988977504
 20
-47.1223924492
 10
7.7990015367
 20
-47.1259527595
 10
7.7992081373
 20
-47.1295461557
 10
7.7995204551
 20
-47.1331690248
 10
7.7999413932
 20
-47.1368177538
 10
7.8004738548
 20
-47.1404887295
 10
7.8011207426
 20
-47.144178339
 10
7.8018849599
 20
-47.1478829691
 10
7.8027694096
 20
-47.1515990067
 10
7.8037757001
 20
-47.1553227569
 10
7.8049002617
 20
-47.1590501969
 10
7.8061382298
 20
-47.1627772219
 10
7.8074847402
 20
-47.1664997272
 10
7.8089349283
 20
-47.170213608
 10
7.8104839297
 20
-47.1739147595
 10
7.81212688
 20
-47.1775990771
 10
7.8138589149
 20
-47.181262456
 10
7.8156751698
 20
-47.1849007914
 10
7.8175707803
 20
-47.1885099786
 10
7.8195408821
 20
-47.1920859129
 10
7.8215806107
 20
-47.1956244894
 10
7.8236851017
 20
-47.1991216035
 10
7.8258494906
 20
-47.2025731504
 10
7.8280689131
 20
-47.2059750253
 10
7.8303385047
 20
-47.2093231236
 10
7.832653401
 20
-47.2126133404
 10
7.8350087375
 20
-47.215841571
 10
7.83739965
 20
-47.2190037107
 10
7.8399566113
 20
-47.2222652887
 10
7.8425420701
 20
-47.2254438273
 10
7.8451503055
 20
-47.2285344989
 10
7.8477755964
 20
-47.2315324758
 10
7.8504122218
 20
-47.2344329306
 10
7.8530544606
 20
-47.2372310356
 10
7.8556965919
 20
-47.2399219633
 10
7.8583328945
 20
-47.2425008861
 10
7.8609576474
 20
-47.2449629763
 10
7.8635651297
 20
-47.2473034065
 10
7.8661496202
 20
-47.249517349
 10
7.8687053979
 20
-47.2515999762
 10
7.8712267419
 20
-47.2535464606
 10
7.873707931
 20
-47.2553519746
 10
7.8761432443
 20
-47.2570116906
 10
7.8785269607
 20
-47.258520781
 10
7.8808533592
 20
-47.2598744182
 10
7.8831167187
 20
-47.2610677747
  0
LINE
  5
301
100
AcDbEntity
  8
IMPORT_IGES
100
AcDbLine
 62
7
420
11158274
  6
CONTINUOUS
 10
49.6487861905
 20
21.0223168539
 11
-60.0941862497
 21
75.893803074
  0
LINE
  5
302
100
AcDbEntity
  8
IMPORT_IGES
100
AcDbLine
 62
7
420
11158274
  6
CONTINUOUS
 10
49.6487861905
 20
-54.252611243
 11
49.6487861905
 21
21.0223168539
  0
LINE
  5
303
100
AcDbEntity
  8
IMPORT_IGES
100
AcDbLine
 62
7
  6
CONTINUOUS
 10
-69.9229705082
 20
93.330922542
 11
59.477570449
 21
28.6306520634
  0
LINE
  5
304
100
AcDbEntity
  8
IMPORT_IGES
100
AcDbLine
 62
7
  6
CONTINUOUS
 10
-69.1451530489
 20
93.7198312716
 11
60.2553879083
 21
29.0195607931
  0
LINE
  5
305
100
AcDbEntity
  8
0
100
AcDbLine
 62
7
  6
CONTINUOUS
 10
60.3615077733
 20
29.0725668777
 11
-69.0391408796
 21
93.7728912042
  0
LWPOLYLINE
  5
306
100
AcDbEntity
  8
IMPORT_IGES
100
AcDbPolyline
 62
7
  6
CONTINUOUS
 90
22
 70
0
 10
59.477570449
 20
28.6306520634
 10
59.5044053326
 20
28.6159316277
 10
59.5307564292
 20
28.5991015999
 10
59.5566237387
 20
28.5801619801
 10
59.5821383399
 20
28.5589809173
 10
59.607169154
 20
28.5356902625
 10
59.6313229443
 20
28.5106855684
 10
59.6545853093
 20
28.4839448685
 10
59.6769706504
 20
28.4554901294
 10
59.6981289347
 20
28.4257828031
 10
59.7180423579
 20
28.3948061756
 10
59.7367287243
 20
28.362576961
 10
59.7538914137
 20
28.3296067534
 10
59.7695095107
 20
28.2958842047
 10
59.7836039306
 20
28.261420663
 10
59.7959407999
 20
28.2267617661
 10
59.8064963036
 20
28.1919017836
 10
59.8152942565
 20
28.1568464459
 10
59.8221722295
 20
28.1221585823
 10
59.8270760795
 20
28.0880258028
 10
59.8300599495
 20
28.0542604974
 10
59.8311238396
 20
28.0208626662
  0
LWPOLYLINE
  5
307
100
AcDbEntity
  8
IMPORT_IGES
100
AcDbPolyline
 62
7
  6
CONTINUOUS
 90
22
 70
0
 10
60.6089412989
 20
28.4097713959
 10
60.6078774088
 20
28.4431692271
 10
60.6048935388
 20
28.4769345324
 10
60.5999896889
 20
28.511067312
 10
60.5931117158
 20
28.5457551755
 10
60.5843137629
 20
28.5808105132
 10
60.5737582592
 20
28.6156704958
 10
60.5614213899
 20
28.6503293927
 10
60.54732697
 20
28.6847929344
 10
60.531708873
 20
28.718515483
 10
60.5145461836
 20
28.7514856907
 10
60.4958598172
 20
28.7837149053
 10
60.475946394
 20
28.8146915327
 10
60.4547881097
 20
28.844398859
 10
60.4324027686
 20
28.8728535982
 10
60.4091404036
 20
28.899594298
 10
60.3849866133
 20
28.9245989921
 10
60.3599557992
 20
28.947889647
 10
60.334441198
 20
28.9690707098
 10
60.3085738885
 20
28.9880103296
 10
60.282222792
 20
29.0048403573
 10
60.2553879083
 20
29.0195607931
  0
LINE
  5
308
100
AcDbEntity
  8
IMPORT_IGES
100
AcDbLine
 62
7
  6
CONTINUOUS
 10
59.8311238396
 20
28.0208626662
 11
59.8311238396
 21
-97.3796158018
  0
LINE
  5
309
100
AcDbEntity
  8
IMPORT_IGES
100
AcDbLine
 62
7
  6
CONTINUOUS
 10
60.6089412989
 20
28.4097713959
 11
60.6089412989
 21
-96.9907070721
  0
LINE
  5
30A
100
AcDbEntity
  8
0
100
AcDbLine
 62
7
  6
CONTINUOUS
 10
60.715007316
 20
28.4628703544
 11
60.715007316
 21
-96.9377400135
  0
LWPOLYLINE
  5
30B
100
AcDbEntity
  8
IMPORT_IGES
100
AcDbPolyline
 62
7
  6
CONTINUOUS
 90
13
 70
0
 10
59.8311238396
 20
-97.3796158018
 10
59.8300599495
 20
-97.4119497429
 10
59.8270760795
 20
-97.4427311783
 10
59.8221722295
 20
-97.4719601079
 10
59.8152942565
 20
-97.4997699984
 10
59.8064963036
 20
-97.5260273832
 10
59.7959407999
 20
-97.550331862
 10
59.7836039306
 20
-97.5726538896
 10
59.7695095107
 20
-97.5930230114
 10
59.7538914137
 20
-97.6111274631
 10
59.7367287243
 20
-97.6269349813
 10
59.7180423579
 20
-97.6404778295
 10
59.7011990048
 20
-97.6500418212
  0
LINE
  5
30C
100
AcDbEntity
  8
IMPORT_IGES
100
AcDbLine
 62
7
  6
CONTINUOUS
 10
60.6078774088
 20
-97.0230410133
 11
60.6089412989
 21
-96.9907070721
  0
LWPOLYLINE
  5
30D
100
AcDbEntity
  8
0
100
AcDbPolyline
 62
250
  6
CONTINUOUS
 90
6
 70
0
 10
67.2719589284
 20
31.8552941203
 10
67.2676813591
 20
31.8226625722
 10
67.2549218415
 20
31.790589359
 10
67.2338986946
 20
31.7596232622
 10
67.2049716303
 20
31.7302941203
 10
67.1900516997
 20
31.7191294933
  0
LWPOLYLINE
  5
30E
100
AcDbEntity
  8
IMPORT_IGES
100
AcDbPolyline
 62
7
  6
CONTINUOUS
 90
7
 70
0
 10
-69.1451530489
 20
93.7198312716
 10
-69.1719879325
 20
93.7319457196
 10
-69.1983390291
 20
93.7414667884
 10
-69.2242063385
 20
93.748394478
 10
-69.2497209398
 20
93.7527280165
 10
-69.2747517539
 20
93.7544681758
 10
-69.2989055442
 20
93.7536172719
  0
LWPOLYLINE
  5
30F
100
AcDbEntity
  8
0
100
AcDbPolyline
 62
250
  6
CONTINUOUS
 90
5
 70
0
 10
-62.4980631755
 20
97.0493221666
 10
-62.506440306
 20
97.0532554782
 10
-62.544893278
 20
97.0654969188
 10
-62.5863709482
 20
97.0698096562
 10
-62.6262398663
 20
97.0664504951
  0
LINE
  5
310
100
AcDbEntity
  8
0
100
AcDbLine
 62
7
  6
CONTINUOUS
 10
-62.7862632019
 20
97.1464621629
 11
66.836552157
 21
32.3350544834
  0
LINE
  5
311
100
AcDbEntity
  8
0
100
AcDbLine
 62
7
  6
CONTINUOUS
 10
-62.4980631755
 20
97.0493221666
 11
66.9955657261
 21
32.3025077158
  0
LINE
  5
312
100
AcDbEntity
  8
0
100
AcDbLine
 62
250
  6
CONTINUOUS
 10
68.5971960541
 20
31.7133223265
 11
-45.308666363
 21
88.6662535362
  0
LINE
  5
313
100
AcDbEntity
  8
0
100
AcDbLine
 62
7
  6
CONTINUOUS
 10
-45.2216918401
 20
88.6707262273
 11
68.6841708158
 21
31.7177948994
  0
LWPOLYLINE
  5
314
100
AcDbEntity
  8
0
100
AcDbPolyline
 62
250
  6
CONTINUOUS
 90
4
 70
0
 10
68.597196041
 20
31.71332232
 10
68.6713100868
 20
31.670616953
 10
68.7441317867
 20
31.616781582
 10
68.8144029383
 20
31.5527311563
  0
LWPOLYLINE
  5
315
100
AcDbEntity
  8
0
100
AcDbPolyline
 62
7
  6
CONTINUOUS
 90
13
 70
0
 10
68.6841665856
 20
31.7177968595
 10
68.7593408361
 20
31.6743150623
 10
68.8307317749
 20
31.6214714434
 10
68.8977550146
 20
31.5603599085
 10
68.95999599
 20
31.4918791923
 10
69.0169105678
 20
31.4169971354
 10
69.0677513519
 20
31.3370169305
 10
69.1119485568
 20
31.253156448
 10
69.1491450618
 20
31.1662801251
 10
69.1789169079
 20
31.0772951739
 10
69.2008062416
 20
30.9871178068
 10
69.2143129714
 20
30.89675756
 10
69.2189271263
 20
30.8072720509
  0
LINE
  5
316
100
AcDbEntity
  8
0
100
AcDbLine
 62
250
  6
CONTINUOUS
 10
69.1582357234
 20
30.8307932181
 11
69.1627953239
 21
30.73780789
  0
LINE
  5
317
100
AcDbEntity
  8
0
100
AcDbLine
 62
7
  6
CONTINUOUS
 10
67.1900516997
 20
31.7253579601
 11
67.1900516997
 21
-93.9473499415
  0
LINE
  5
318
100
AcDbEntity
  8
0
100
AcDbLine
 62
7
  6
CONTINUOUS
 10
67.2719589284
 20
31.8552941203
 11
67.2719589284
 21
-93.6591933303
  0
LINE
  5
319
100
AcDbEntity
  8
0
100
AcDbLine
 62
7
  6
CONTINUOUS
 10
67.3011508874
 20
-7.1769164438
 11
67.3011508874
 21
-41.4583760012
  0
LINE
  5
31A
100
AcDbEntity
  8
0
100
AcDbLine
 62
250
  6
CONTINUOUS
 10
69.1627953239
 20
30.73780789
 11
69.1627953222
 21
-6.2332731318
  0
LINE
  5
31B
100
AcDbEntity
  8
0
100
AcDbLine
 62
250
  6
CONTINUOUS
 10
69.1627953224
 20
-75.6943027586
 11
69.1627953222
 21
-41.1480928684
  0
LINE
  5
31C
100
AcDbEntity
  8
0
100
AcDbLine
 62
7
  6
CONTINUOUS
 10
69.2189273621
 20
30.8072733192
 11
69.2189273621
 21
-6.1648497334
  0
LINE
  5
31D
100
AcDbEntity
  8
0
100
AcDbLine
 62
7
  6
CONTINUOUS
 10
69.2189273621
 20
-41.0775845927
 11
69.2189273621
 21
-75.6248366888
  0
LWPOLYLINE
  5
31E
100
AcDbEntity
  8
IMPORT_IGES
100
AcDbPolyline
 62
7
420
11158274
  6
CONTINUOUS
 90
76
 70
0
 10
36.76033505
 20
-73.5591764658
 10
36.7930710759
 20
-73.4916215392
 10
36.8289311437
 20
-73.4271626753
 10
36.867807333
 20
-73.3658980963
 10
36.9095917231
 20
-73.3079260242
 10
36.9541763937
 20
-73.2533446812
 10
37.0014534242
 20
-73.2022522893
 10
37.0513148941
 20
-73.1547470708
 10
37.103652883
 20
-73.1109272478
 10
37.1583594704
 20
-73.0708910422
 10
37.2153267357
 20
-73.0347366764
 10
37.2744467585
 20
-73.0025623723
 10
37.3356116183
 20
-72.9744663521
 10
37.3987133946
 20
-72.9505468379
 10
37.4636441669
 20
-72.9309020518
 10
37.5302960146
 20
-72.915630216
 10
37.5985610174
 20
-72.9048295525
 10
37.6683269765
 20
-72.8985728797
 10
37.7394599042
 20
-72.8968317669
 10
37.8118215012
 20
-72.8995522777
 10
37.8852734682
 20
-72.9066804759
 10
37.9596775059
 20
-72.9181624254
 10
38.0348953149
 20
-72.9339441899
 10
38.1107885958
 20
-72.9539718331
 10
38.1872190494
 20
-72.9781914188
 10
38.2640483762
 20
-73.0065490107
 10
38.341138277
 20
-73.0389906727
 10
38.4183504523
 20
-73.0754624686
 10
38.4955466029
 20
-73.1159104619
 10
38.5725884295
 20
-73.1602807167
 10
38.6493376325
 20
-73.2085192965
 10
38.7256559128
 20
-73.2605722651
 10
38.801404971
 20
-73.3163856864
 10
38.8764490107
 20
-73.3758893685
 10
38.9506637983
 20
-73.4389493418
 10
39.0239275984
 20
-73.5054154066
 10
39.0961186754
 20
-73.5751373634
 10
39.1671152938
 20
-73.6479650123
 10
39.2367957183
 20
-73.7237481539
 10
39.3050382132
 20
-73.8023365884
 10
39.3717210431
 20
-73.8835801163
 10
39.4367224725
 20
-73.9673285378
 10
39.4999207659
 20
-74.0534316534
 10
39.5611941879
 20
-74.1417392633
 10
39.6204210029
 20
-74.232101168
 10
39.6774794755
 20
-74.3243671677
 10
39.7322478701
 20
-74.418387063
 10
39.7846044513
 20
-74.514010654
 10
39.8344274835
 20
-74.6110877412
 10
39.8816064744
 20
-74.709459253
 10
39.926083187
 20
-74.8089459966
 10
39.9678104895
 20
-74.9093599751
 10
40.0067412502
 20
-75.0105131915
 10
40.0428283371
 20
-75.1122176488
 10
40.0760246186
 20
-75.21428535
 10
40.1062829627
 20
-75.3165282981
 10
40.1335562378
 20
-75.4187584961
 10
40.1577973121
 20
-75.5207879471
 10
40.1789590537
 20
-75.622428654
 10
40.1969943308
 20
-75.7234926199
 10
40.2118560116
 20
-75.8237918478
 10
40.2234969644
 20
-75.9231383408
 10
40.2318700574
 20
-76.0213441017
 10
40.2369281587
 20
-76.1182211337
 10
40.2386241365
 20
-76.2135814397
 10
40.2370276279
 20
-76.304433575
 10
40.2322683001
 20
-76.3935542997
 10
40.2243891393
 20
-76.4808151953
 10
40.2134331315
 20
-76.5660878432
 10
40.1994432627
 20
-76.6492438252
 10
40.1824625189
 20
-76.7301547226
 10
40.1625338864
 20
-76.8086921171
 10
40.139700351
 20
-76.8847275902
 10
40.1140048988
 20
-76.9581327234
 10
40.085490516
 20
-77.0287790983
 10
40.0542001885
 20
-77.0965382964
  0
LWPOLYLINE
  5
31F
100
AcDbEntity
  8
IMPORT_IGES
100
AcDbPolyline
 62
7
420
11158274
  6
CONTINUOUS
 90
61
 70
0
 10
40.0542001885
 20
-77.0965382964
 10
40.0231155111
 20
-77.1560049117
 10
39.9897674995
 20
-77.2128386744
 10
39.954189264
 20
-77.2669406696
 10
39.9164139147
 20
-77.3182119824
 10
39.8764745618
 20
-77.3665536979
 10
39.8344043155
 20
-77.4118669012
 10
39.7902448645
 20
-77.4540659631
 10
39.7440731
 20
-77.4931175641
 10
39.6959745058
 20
-77.5290016915
 10
39.6460345657
 20
-77.5616983323
 10
39.5943387634
 20
-77.5911874738
 10
39.5409725827
 20
-77.6174491032
 10
39.4860215072
 20
-77.6404632074
 10
39.4295710206
 20
-77.6602097738
 10
39.3717066069
 20
-77.6766687895
 10
39.3125137495
 20
-77.6898202415
 10
39.2520779324
 20
-77.6996441172
 10
39.1904846391
 20
-77.7061204035
 10
39.1278193535
 20
-77.7092290878
 10
39.0641675593
 20
-77.708950157
 10
38.9996147403
 20
-77.7052635985
 10
38.93424638
 20
-77.6981493993
 10
38.8681479623
 20
-77.6875875465
 10
38.801404971
 20
-77.6735580275
 10
38.734103499
 20
-77.6560536622
 10
38.666340053
 20
-77.6351207441
 10
38.5982117709
 20
-77.610818537
 10
38.5298157906
 20
-77.5832063048
 10
38.4612492502
 20
-77.5523433115
 10
38.3926092875
 20
-77.518288821
 10
38.3239930405
 20
-77.4811020971
 10
38.2554976473
 20
-77.4408424037
 10
38.1872202456
 20
-77.3975690047
 10
38.1192579736
 20
-77.3513411641
 10
38.0517079691
 20
-77.3022181458
 10
37.9846673701
 20
-77.2502592136
 10
37.9182333146
 20
-77.1955236314
 10
37.8525029405
 20
-77.1380706632
 10
37.7875733858
 20
-77.0779595728
 10
37.7235417884
 20
-77.0152496242
 10
37.6605052863
 20
-76.9500000812
 10
37.5985610174
 20
-76.8822702078
 10
37.537803232
 20
-76.8121343139
 10
37.4783105853
 20
-76.7397221836
 10
37.4201588714
 20
-76.665178593
 10
37.3634238844
 20
-76.5886483184
 10
37.3081814183
 20
-76.5102761359
 10
37.2545072672
 20
-76.4302068218
 10
37.202477225
 20
-76.3485851523
 10
37.1521670859
 20
-76.2655559036
 10
37.1036526438
 20
-76.1812638519
 10
37.0570096928
 20
-76.0958537735
 10
37.012314027
 20
-76.0094704444
 10
36.9696414404
 20
-75.922258641
 10
36.929067727
 20
-75.8343631395
 10
36.8906686809
 20
-75.745928716
 10
36.8545200961
 20
-75.6571001468
 10
36.8206977666
 20
-75.5680222082
 10
36.7892774866
 20
-75.4788396762
 10
36.7551379047
 20
-75.3737768195
  0
LWPOLYLINE
  5
320
100
AcDbEntity
  8
IMPORT_IGES
100
AcDbPolyline
 62
7
420
11158274
  6
CONTINUOUS
 90
83
 70
0
 10
34.2868575746
 20
-73.8648210464
 10
34.292836225
 20
-73.8567653678
 10
34.2983961949
 20
-73.8480696831
 10
34.3035394916
 20
-73.8387605629
 10
34.3082681227
 20
-73.8288645778
 10
34.3125840955
 20
-73.8184082985
 10
34.3164894174
 20
-73.8074182956
 10
34.3199860959
 20
-73.7959211397
 10
34.3230761385
 20
-73.7839434014
 10
34.3257615525
 20
-73.7715116513
 10
34.3280443453
 20
-73.7586524601
 10
34.3299265245
 20
-73.7453923984
 10
34.3314100974
 20
-73.7317580368
 10
34.3324970715
 20
-73.7177759459
 10
34.3331894541
 20
-73.7034726963
 10
34.3334892528
 20
-73.6888748587
 10
34.3333984749
 20
-73.6740090036
 10
34.3329191279
 20
-73.6589017018
 10
34.3320532192
 20
-73.6435795238
 10
34.3308027562
 20
-73.6280690402
 10
34.3291697464
 20
-73.6123968216
 10
34.3271561971
 20
-73.5965894388
 10
34.3247641159
 20
-73.5806734622
 10
34.3219955102
 20
-73.5646754626
 10
34.3188523873
 20
-73.5486220105
 10
34.3153367547
 20
-73.5325396765
 10
34.3114506199
 20
-73.5164550313
 10
34.3071959902
 20
-73.5003946455
 10
34.3025748731
 20
-73.4843850897
 10
34.297589276
 20
-73.4684529346
 10
34.2922412064
 20
-73.4526247507
 10
34.2865326716
 20
-73.4369271087
 10
34.2804656792
 20
-73.4213865791
 10
34.2740422365
 20
-73.4060297327
 10
34.267264351
 20
-73.3908831401
 10
34.26013403
 20
-73.3759733717
 10
34.2526532811
 20
-73.3613269984
 10
34.2448241116
 20
-73.3469705906
 10
34.236648529
 20
-73.332930719
 10
34.2281285407
 20
-73.3192339543
 10
34.2192661542
 20
-73.3059068671
 10
34.2100633768
 20
-73.2929760279
 10
34.2005252638
 20
-73.2804641966
 10
34.1906690617
 20
-73.2683788903
 10
34.1805150648
 20
-73.2567238153
 10
34.1700835675
 20
-73.2455026776
 10
34.1593948639
 20
-73.2347191838
 10
34.1484692485
 20
-73.2243770399
 10
34.1373270155
 20
-73.2144799522
 10
34.1259884592
 20
-73.2050316271
 10
34.1144738739
 20
-73.1960357707
 10
34.102803554
 20
-73.1874960893
 10
34.0909977938
 20
-73.1794162892
 10
34.0790768875
 20
-73.1718000767
 10
34.0670611294
 20
-73.1646511579
 10
34.0549708139
 20
-73.1579732392
 10
34.0428262353
 20
-73.1517700269
 10
34.0306476878
 20
-73.1460452271
 10
34.0184554658
 20
-73.1408025461
 10
34.0062698636
 20
-73.1360456902
 10
33.9941111755
 20
-73.1317783657
 10
33.9819996958
 20
-73.1280042788
 10
33.9699557188
 20
-73.1247271358
 10
33.9579995387
 20
-73.1219506429
 10
33.94615145
 20
-73.1196785063
 10
33.9344317469
 20
-73.1179144325
 10
33.9228607237
 20
-73.1166621275
 10
33.9114586747
 20
-73.1159252977
 10
33.9002458943
 20
-73.1157076493
 10
33.8892426767
 20
-73.1160128886
 10
33.8784693162
 20
-73.1168447219
 10
33.8679461072
 20
-73.1182068553
 10
33.8576933439
 20
-73.1201029952
 10
33.8477313207
 20
-73.1225368478
 10
33.8380803318
 20
-73.1255121194
 10
33.8287606716
 20
-73.1290325163
 10
33.8197926343
 20
-73.1331017446
 10
33.8111965144
 20
-73.1377235107
 10
33.802992606
 20
-73.1429015208
 10
33.7952012035
 20
-73.1486394812
 10
33.7878426011
 20
-73.1549410981
 10
33.7809370933
 20
-73.1618100777
 10
33.7745049743
 20
-73.1692501265
  0
LWPOLYLINE
  5
321
100
AcDbEntity
  8
IMPORT_IGES
100
AcDbPolyline
 62
7
420
11158274
  6
CONTINUOUS
 90
46
 70
0
 10
32.2178624907
 20
-71.9835411401
 10
32.2133899271
 20
-71.9894182205
 10
32.2091206618
 20
-71.9956220813
 10
32.2050546948
 20
-72.0021422513
 10
32.2011920262
 20
-72.0089682594
 10
32.1975326559
 20
-72.0160896342
 10
32.1940765839
 20
-72.0234959046
 10
32.1908238104
 20
-72.0311765993
 10
32.1877743351
 20
-72.0391212472
 10
32.1849281583
 20
-72.0473193769
 10
32.1822852797
 20
-72.0557605173
 10
32.1798456995
 20
-72.0644341972
 10
32.1776094177
 20
-72.0733299453
 10
32.1755764342
 20
-72.0824372904
 10
32.1737467491
 20
-72.0917457613
 10
32.1721203623
 20
-72.1012448867
 10
32.1706972738
 20
-72.1109241955
 10
32.1694774838
 20
-72.1207732164
 10
32.168460992
 20
-72.1307814782
 10
32.1676477986
 20
-72.1409385097
 10
32.1670379036
 20
-72.1512338396
 10
32.1666313069
 20
-72.1616569968
 10
32.1664280085
 20
-72.1721975099
 10
32.1664280085
 20
-72.1828449079
 10
32.1666313069
 20
-72.1935887194
 10
32.1670379036
 20
-72.2044184732
 10
32.1676477986
 20
-72.2153236982
 10
32.168460992
 20
-72.2262939231
 10
32.1694774838
 20
-72.2373186766
 10
32.1706972738
 20
-72.2483874876
 10
32.1721203623
 20
-72.2594898848
 10
32.1737467491
 20
-72.2706153971
 10
32.1755764342
 20
-72.2817535531
 10
32.1776094177
 20
-72.2928938817
 10
32.1798456995
 20
-72.3040259116
 10
32.1822852797
 20
-72.3151391717
 10
32.1849281583
 20
-72.3262231906
 10
32.1877743351
 20
-72.3372674972
 10
32.1908238104
 20
-72.3482616203
 10
32.1940765839
 20
-72.3591950886
 10
32.1975326559
 20
-72.3700574309
 10
32.2011920262
 20
-72.380838176
 10
32.2050546948
 20
-72.3915268527
 10
32.2091206618
 20
-72.4021129897
 10
32.2133899271
 20
-72.4125861159
 10
32.2178624907
 20
-72.4229357599
  0
LINE
  5
322
100
AcDbEntity
  8
IMPORT_IGES
100
AcDbLine
 62
7
420
11158274
  6
CONTINUOUS
 10
32.8310422276
 20
-71.217484525
 11
32.2178624907
 21
-71.9835411401
  0
LINE
  5
323
100
AcDbEntity
  8
IMPORT_IGES
100
AcDbLine
 62
7
420
11158274
  6
CONTINUOUS
 10
33.7745049743
 20
-73.1692501265
 11
33.487654242
 21
-73.5275684703
  0
LINE
  5
324
100
AcDbEntity
  8
IMPORT_IGES
100
AcDbLine
 62
7
420
11158274
  6
CONTINUOUS
 10
32.8558165424
 20
-72.5221776427
 11
33.250105014
 21
-72.0298499006
  0
LINE
  5
325
100
AcDbEntity
  8
0
100
AcDbLine
 62
7
  6
CONTINUOUS
 10
69.1627953222
 20
-41.1480928684
 11
67.2719589284
 21
-42.1476704774
  0
LINE
  5
326
100
AcDbEntity
  8
0
100
AcDbLine
 62
7
  6
CONTINUOUS
 10
67.2719589284
 20
-41.4727778312
 11
68.5505658321
 21
-40.8419781233
  0
LWPOLYLINE
  5
327
100
AcDbEntity
  8
0
100
AcDbPolyline
 62
250
  6
CONTINUOUS
 90
5
 70
0
 10
-45.2216918401
 20
88.6707262273
 10
-45.239003569
 20
88.6768884321
 10
-45.2609660675
 20
88.6788654057
 10
-45.2844193185
 20
88.6752849871
 10
-45.3086664154
 20
88.6662535618
  0
LWPOLYLINE
  5
328
100
AcDbEntity
  8
0
100
AcDbPolyline
 62
250
  6
CONTINUOUS
 90
4
 70
0
 10
68.8144029383
 20
31.5527311563
 10
68.8809070959
 20
31.4795547416
 10
68.942504429
 20
31.3985026053
 10
68.9981510713
 20
31.3109645658
  0
LWPOLYLINE
  5
329
100
AcDbEntity
  8
0
100
AcDbPolyline
 62
7
  6
CONTINUOUS
 90
10
 70
0
 10
69.2189273236
 20
-75.6248347276
 10
69.2151267952
 20
-75.703041903
 10
69.2040005621
 20
-75.7763696431
 10
69.1859694767
 20
-75.8444340055
 10
69.1614525151
 20
-75.9069174038
 10
69.1308830461
 20
-75.9635199408
 10
69.0948288052
 20
-76.0138220872
 10
69.0539782604
 20
-76.0574515025
 10
69.0090401547
 20
-76.0941999731
 10
68.9640085904
 20
-76.1222153482
  0
LINE
  5
32A
100
AcDbEntity
  8
0
100
AcDbLine
 62
250
  6
CONTINUOUS
 10
69.1627953092
 20
-75.6943027657
 11
69.1582355616
 21
-75.7821619699
  0
LWPOLYLINE
  5
32B
100
AcDbEntity
  8
0
100
AcDbPolyline
 62
250
  6
CONTINUOUS
 90
6
 70
0
 10
69.2189273236
 20
-75.6248367296
 10
69.2183259505
 20
-75.6325854806
 10
69.2127017358
 20
-75.6495916771
 10
69.2013195734
 20
-75.6658624888
 10
69.184517681
 20
-75.6809143864
 10
69.1627953223
 20
-75.694300096
  0
LINE
  5
32C
100
AcDbEntity
  8
0
100
AcDbLine
 62
250
  6
CONTINUOUS
 10
67.2676813591
 20
-93.6918248784
 11
67.2719589284
 21
-93.6591933303
  0
LWPOLYLINE
  5
32D
100
AcDbEntity
  8
IMPORT_IGES
100
AcDbPolyline
 62
7
420
11158274
  6
CONTINUOUS
 90
83
 70
0
 10
35.6993024253
 20
-74.5710434717
 10
35.7052811224
 20
-74.5629875662
 10
35.7108409384
 20
-74.5542915781
 10
35.71598389
 20
-74.5449820821
 10
35.7207119943
 20
-74.5350856525
 10
35.725027268
 20
-74.5246288638
 10
35.7289317281
 20
-74.5136382906
 10
35.7324273915
 20
-74.5021405072
 10
35.7355162749
 20
-74.4901620882
 10
35.7382003954
 20
-74.4777296079
 10
35.7404817699
 20
-74.464869641
 10
35.7423624151
 20
-74.4516087618
 10
35.743844348
 20
-74.4379735448
 10
35.7449295854
 20
-74.4239905645
 10
35.7456201443
 20
-74.4096863954
 10
35.7459180416
 20
-74.3950876119
 10
35.745825294
 20
-74.3802207886
 10
35.7453439186
 20
-74.3651124998
 10
35.7444759322
 20
-74.34978932
 10
35.7432233517
 20
-74.3342778238
 10
35.7415881939
 20
-74.3186045855
 10
35.7395724758
 20
-74.3027961797
 10
35.7371782143
 20
-74.2868791808
 10
35.7344074261
 20
-74.2708801633
 10
35.7312621283
 20
-74.2548257017
 10
35.7277443377
 20
-74.2387423704
 10
35.7238560711
 20
-74.2226567439
 10
35.7195993456
 20
-74.2065953967
 10
35.7149761779
 20
-74.1905849032
 10
35.7099885849
 20
-74.1746518379
 10
35.7046385836
 20
-74.1588227753
 10
35.6989281908
 20
-74.1431242899
 10
35.6928594234
 20
-74.1275829561
 10
35.6864342983
 20
-74.1122253484
 10
35.6796548324
 20
-74.0970780413
 10
35.6725230425
 20
-74.0821676092
 10
35.6650409456
 20
-74.0675206266
 10
35.6572105585
 20
-74.0531636679
 10
35.6490338981
 20
-74.0391233077
 10
35.6405129813
 20
-74.0254261205
 10
35.6316498251
 20
-74.0120986806
 10
35.6224464462
 20
-73.9991675626
 10
35.6129068063
 20
-73.9866541342
 10
35.6030491713
 20
-73.9745673948
 10
35.5928938281
 20
-73.9629110414
 10
35.5824610641
 20
-73.9516887708
 10
35.5717711664
 20
-73.9409042799
 10
35.560844422
 20
-73.9305612656
 10
35.5497011183
 20
-73.9206634247
 10
35.5383615423
 20
-73.9112144541
 10
35.5268459812
 20
-73.9022180507
 10
35.5151747221
 20
-73.8936779115
 10
35.5033680523
 20
-73.8855977332
 10
35.4914462589
 20
-73.8779812127
 10
35.479429629
 20
-73.870832047
 10
35.4673384499
 20
-73.864153933
 10
35.4551930086
 20
-73.8579505674
 10
35.4430135923
 20
-73.8522256472
 10
35.4308204882
 20
-73.8469828693
 10
35.4186339834
 20
-73.8422259305
 10
35.4064743652
 20
-73.8379585277
 10
35.3943619206
 20
-73.8341843579
 10
35.3823169369
 20
-73.8309071178
 10
35.3703597011
 20
-73.8281305044
 10
35.3585105005
 20
-73.8258582146
 10
35.3467896222
 20
-73.8240939452
 10
35.3352173534
 20
-73.8228413931
 10
35.3238139811
 20
-73.8221042553
 10
35.3125997927
 20
-73.8218862285
 10
35.3015950753
 20
-73.8221910096
 10
35.2908201159
 20
-73.8230222957
 10
35.2802952018
 20
-73.8243837834
 10
35.2700406201
 20
-73.8262791697
 10
35.2600766581
 20
-73.8287121516
 10
35.2504236027
 20
-73.8316864258
 10
35.2411017413
 20
-73.8352056892
 10
35.232131361
 20
-73.8392736388
 10
35.2235327489
 20
-73.8438939714
 10
35.2153261921
 20
-73.8490703839
 10
35.207531978
 20
-73.8548065732
 10
35.2001703935
 20
-73.8611062361
 10
35.1932617259
 20
-73.8679730696
 10
35.1868262624
 20
-73.8754107705
  0
LWPOLYLINE
  5
32E
100
AcDbEntity
  8
IMPORT_IGES
100
AcDbPolyline
 62
7
420
11158274
  6
CONTINUOUS
 90
93
 70
0
 10
34.8066239349
 20
-74.3504926793
 10
34.8016193337
 20
-74.3569346127
 10
34.7966004823
 20
-74.3638262509
 10
34.791611346
 20
-74.3711911959
 10
34.7866958901
 20
-74.3790530495
 10
34.7818980798
 20
-74.3874354136
 10
34.7772618805
 20
-74.3963618903
 10
34.773449951
 20
-74.4044641158
 10
34.7698167437
 20
-74.4129983006
 10
34.7663899452
 20
-74.4219793077
 10
34.7631972422
 20
-74.4314220001
 10
34.7602663212
 20
-74.4413412409
 10
34.7576248689
 20
-74.4517518931
 10
34.7553005718
 20
-74.4626688196
 10
34.7535487436
 20
-74.4726481177
 10
34.7520794828
 20
-74.4830363688
 10
34.7509113373
 20
-74.4938435298
 10
34.7500628549
 20
-74.5050795577
 10
34.7495525835
 20
-74.5167544097
 10
34.7493990709
 20
-74.5288780428
 10
34.7496208651
 20
-74.541460414
 10
34.7502365138
 20
-74.5545114804
 10
34.7512122237
 20
-74.5674835374
 10
34.7525660034
 20
-74.5808625817
 10
34.7542958525
 20
-74.5946144749
 10
34.7563997707
 20
-74.6087050784
 10
34.7588757576
 20
-74.6231002537
 10
34.7617218128
 20
-74.6377658623
 10
34.7649359362
 20
-74.6526677656
 10
34.7685161272
 20
-74.6677718251
 10
34.7724603857
 20
-74.6830439023
 10
34.7767667111
 20
-74.6984498586
 10
34.7814331033
 20
-74.7139555555
 10
34.7864575618
 20
-74.7295268544
 10
34.7918380864
 20
-74.7451296169
 10
34.7975726767
 20
-74.7607297044
 10
34.8036593322
 20
-74.7762929783
 10
34.8100960529
 20
-74.7917853002
 10
34.8168808381
 20
-74.8071725314
 10
34.8240116877
 20
-74.8224205335
 10
34.8314866014
 20
-74.837495168
 10
34.8393035786
 20
-74.8523622962
 10
34.8474606192
 20
-74.8669877798
 10
34.8559557228
 20
-74.88133748
 10
34.864786889
 20
-74.8953772585
 10
34.8739521175
 20
-74.9090729766
 10
34.883449408
 20
-74.9223904958
 10
34.8932727419
 20
-74.9353006974
 10
34.9034000284
 20
-74.9477945415
 10
34.9138051582
 20
-74.9598680082
 10
34.9244620223
 20
-74.9715170774
 10
34.9353445114
 20
-74.9827377289
 10
34.9464265165
 20
-74.9935259429
 10
34.9576819283
 20
-75.0038776993
 10
34.9690846379
 20
-75.013788978
 10
34.980608536
 20
-75.0232557589
 10
34.9922275135
 20
-75.0322740221
 10
35.0039154613
 20
-75.0408397475
 10
35.0156462701
 20
-75.0489489151
 10
35.027393831
 20
-75.0565975048
 10
35.0391320348
 20
-75.0637814966
 10
35.0508347722
 20
-75.0704968705
 10
35.0624759343
 20
-75.0767396063
 10
35.0740294118
 20
-75.0825056841
 10
35.0854690956
 20
-75.0877910839
 10
35.0967688766
 20
-75.0925917855
 10
35.1079026456
 20
-75.096903769
 10
35.1188442936
 20
-75.1007230143
 10
35.1295677113
 20
-75.1040455014
 10
35.1400467896
 20
-75.1068672102
 10
35.1502554194
 20
-75.1091841207
 10
35.1601674916
 20
-75.1109922129
 10
35.170155131
 20
-75.1123350953
 10
35.1797995239
 20
-75.1131460592
 10
35.1891075395
 20
-75.1134496514
 10
35.1980860473
 20
-75.1132704185
 10
35.2067419165
 20
-75.1126329073
 10
35.2150820165
 20
-75.1115616646
 10
35.2231132167
 20
-75.1100812371
 10
35.2308423862
 20
-75.1082161715
 10
35.2393147015
 20
-75.1056451712
 10
35.247411754
 20
-75.1026404887
 10
35.2551437977
 20
-75.0992387652
 10
35.2625210864
 20
-75.0954766421
 10
35.2695538742
 20
-75.0913907604
 10
35.2762524148
 20
-75.0870177614
 10
35.2826269623
 20
-75.0823942862
 10
35.2896681229
 20
-75.0767325411
 10
35.2962985324
 20
-75.0708379278
 10
35.3025344736
 20
-75.0647686312
 10
35.3083922295
 20
-75.058582836
 10
35.3138880828
 20
-75.0523387273
 10
35.3190383164
 20
-75.0460944899
  0
LINE
  5
32F
100
AcDbEntity
  8
IMPORT_IGES
100
AcDbLine
 62
7
420
11158274
  6
CONTINUOUS
 10
35.1868262624
 20
-73.8754107705
 11
34.8066239349
 21
-74.3504926793
  0
LINE
  5
330
100
AcDbEntity
  8
IMPORT_IGES
100
AcDbLine
 62
7
420
11158274
  6
CONTINUOUS
 10
33.9065934657
 20
-74.3398720645
 11
34.2868575746
 21
-73.8648210464
  0
LINE
  5
331
100
AcDbEntity
  8
IMPORT_IGES
100
AcDbLine
 62
7
420
11158274
  6
CONTINUOUS
 10
35.3190383164
 20
-75.0460944899
 11
35.6993024253
 21
-74.5710434717
  0
LINE
  5
332
100
AcDbEntity
  8
0
100
AcDbLine
 62
250
  6
CONTINUOUS
 10
68.9981510713
 20
31.3109645658
 11
69.0469026566
 21
31.2184414399
  0
LWPOLYLINE
  5
333
100
AcDbEntity
  8
0
100
AcDbPolyline
 62
250
  6
CONTINUOUS
 90
5
 70
0
 10
69.0469026566
 20
31.2184414399
 10
69.0879180988
 20
31.1225120254
 10
69.1204874819
 20
31.024811477
 10
69.1440564044
 20
30.9270117805
 10
69.1582357234
 20
30.8307932181
  0
LWPOLYLINE
  5
334
100
AcDbEntity
  8
0
100
AcDbPolyline
 62
250
  6
CONTINUOUS
 90
6
 70
0
 10
69.1582355616
 20
-75.7821619699
 10
69.144055842
 20
-75.8636861487
 10
69.1204863627
 20
-75.9374880044
 10
69.0879163678
 20
-76.0023130918
 10
69.0469003531
 20
-76.057054892
 10
68.9981483183
 20
-76.1007732746
  0
LINE
  5
335
100
AcDbEntity
  8
0
100
AcDbLine
 62
250
  6
CONTINUOUS
 10
67.2549218415
 20
-93.7238980916
 11
67.2676813591
 21
-93.6918248784
  0
LINE
  5
336
100
AcDbEntity
  8
0
100
AcDbLine
 62
250
  6
CONTINUOUS
 10
68.9981483183
 20
-76.1007732746
 11
68.96420664
 21
-76.1221096727
  0
LINE
  5
337
100
AcDbEntity
  8
0
100
AcDbLine
 62
250
  6
CONTINUOUS
 10
69.1627953224
 20
-75.6943027586
 11
67.2719589284
 21
-76.7144523721
  0
LINE
  5
338
100
AcDbEntity
  8
0
100
AcDbLine
 62
7
  6
CONTINUOUS
 10
68.9642050001
 20
-76.1221105575
 11
67.2719589284
 21
-77.0351161361
  0
LWPOLYLINE
  5
339
100
AcDbEntity
  8
IMPORT_IGES
100
AcDbPolyline
 62
7
  6
CONTINUOUS
 90
4
 70
0
 10
-69.2989055442
 20
93.7536172719
 10
-69.3221679092
 20
93.7501389371
 10
-69.3445532503
 20
93.744069539
 10
-69.3657115346
 20
93.735520497
  0
LWPOLYLINE
  5
33A
100
AcDbEntity
  8
IMPORT_IGES
100
AcDbPolyline
 62
7
  6
CONTINUOUS
 90
10
 70
0
 10
60.5145461836
 20
-97.2380262517
 10
60.531708873
 20
-97.2222187334
 10
60.54732697
 20
-97.2041142817
 10
60.5614213899
 20
-97.18374516
 10
60.5737582592
 20
-97.1614231324
 10
60.5843137629
 20
-97.1371186535
 10
60.5931117158
 20
-97.1108612687
 10
60.5999896889
 20
-97.0830513782
 10
60.6048935388
 20
-97.0538224486
 10
60.6078774088
 20
-97.0230410133
  0
LWPOLYLINE
  5
33B
100
AcDbEntity
  8
0
100
AcDbPolyline
 62
250
  6
CONTINUOUS
 90
4
 70
0
 10
67.1900516997
 20
-93.7953579574
 10
67.2049716303
 20
-93.7841933303
 10
67.2338986946
 20
-93.7548641884
 10
67.2549218415
 20
-93.7238980916
  0
LWPOLYLINE
  5
33C
100
AcDbEntity
  8
IMPORT_IGES
100
AcDbPolyline
 62
7
  6
CONTINUOUS
 90
3
 70
0
 10
60.4790164641
 20
-97.2611330915
 10
60.4958598172
 20
-97.2515690999
 10
60.5145461836
 20
-97.2380262517
  0
LINE
  5
33D
100
AcDbEntity
  8
IMPORT_IGES
100
AcDbLine
 62
250
  6
CONTINUOUS
 10
59.8311238396
 20
-97.3796158018
 11
60.6089412989
 21
-96.9907070721
  0
LINE
  5
33E
100
AcDbEntity
  8
IMPORT_IGES
100
AcDbLine
 62
7
  6
CONTINUOUS
 10
59.7011772467
 20
-97.650052702
 11
60.478994706
 21
-97.2611439723
  0
LWPOLYLINE
  5
33F
100
AcDbEntity
  8
IMPORT_IGES
100
AcDbPolyline
 62
7
  6
CONTINUOUS
 90
11
 70
0
 10
59.7011990048
 20
-97.6500418212
 10
59.6981289347
 20
-97.6515410338
 10
59.6769706504
 20
-97.6600900758
 10
59.6545853093
 20
-97.6661594738
 10
59.6313229443
 20
-97.6696378086
 10
59.607169154
 20
-97.6704887125
 10
59.5821383399
 20
-97.6687485532
 10
59.5566237387
 20
-97.6644150147
 10
59.5307564292
 20
-97.6574873251
 10
59.5044053326
 20
-97.6479662563
 10
59.477570449
 20
-97.6358518084
  0
LINE
  5
340
100
AcDbEntity
  8
0
100
AcDbLine
 62
250
  6
CONTINUOUS
 10
67.1900516997
 20
-93.9473499415
 11
60.715007316
 21
-96.9377400135
  0
LINE
  5
341
100
AcDbEntity
  8
0
100
AcDbLine
 62
7
  6
CONTINUOUS
 10
60.5798531477
 20
-97.2106627946
 11
67.0548975313
 21
-94.2202727226
  0
ARC
  5
342
100
AcDbEntity
  8
0
100
AcDbCircle
 62
7
  6
CONTINUOUS
 10
66.7719589284
 20
-93.6591933303
 40
0.5
100
AcDbArc
 50
326.8930251366
 51
360.0
  0
ARC
  5
343
100
AcDbEntity
  8
0
100
AcDbCircle
 62
7
  6
CONTINUOUS
 10
66.7719589284
 20
31.8552941203
 40
0.5
100
AcDbArc
 50
0.0
 51
63.4349488229
  0
ARC
  5
344
100
AcDbEntity
  8
0
100
AcDbCircle
 62
7
  6
CONTINUOUS
 10
-62.7216699733
 20
96.6021085711
 40
0.5
100
AcDbArc
 50
63.4349488229
 51
87.0058052981
  0
ELLIPSE
  5
345
100
AcDbEntity
  8
0
100
AcDbEllipse
 62
7
  6
CONTINUOUS
 10
68.6894975062
 20
-40.9139384833
 30
0.0
 11
0.1999986848
 21
0.0014353456
 31
0.0
 40
0.5053247124
 41
0.7817715775
 42
2.3351146118
  0
ELLIPSE
  5
346
100
AcDbEntity
  8
0
100
AcDbEllipse
 62
7
  6
CONTINUOUS
 10
69.0189273621
 20
-6.1637809148
 30
0.0
 11
0.1999987752
 21
-0.0014150365
 31
0.0
 40
0.4946372042
 41
-0.7644452152
 42
0.0034943154
  0
ELLIPSE
  5
347
100
AcDbEntity
  8
0
100
AcDbEllipse
 62
7
  6
CONTINUOUS
 10
69.0189273621
 20
-41.0786534113
 30
0.0
 11
0.1999986848
 21
0.0014353456
 31
0.0
 40
0.5053247124
 41
-0.7715714567
 42
0.7817715775
  0
ELLIPSE
  5
348
100
AcDbEntity
  8
0
100
AcDbEllipse
 62
7
  6
CONTINUOUS
 10
66.836444453
 20
31.9020296735
 30
0.0
 11
-0.2235807756
 21
0.4472283268
 31
0.0
 40
0.6125552124
 41
4.0278891191
 42
5.5983808594
  0
ELLIPSE
  5
349
100
AcDbEntity
  8
0
100
AcDbEllipse
 62
7
  6
CONTINUOUS
 10
66.836444453
 20
-93.7704144082
 30
0.0
 11
-0.2237009107
 21
0.4473351135
 31
0.0
 40
0.6121897086
 41
-3.1606075395
 42
-2.2557347927
  0
ELLIPSE
  5
34A
100
AcDbEntity
  8
0
100
AcDbEllipse
 62
7
  6
CONTINUOUS
 10
-62.7861554979
 20
96.713329649
 30
0.0
 11
-0.2237009107
 21
0.4473351135
 31
0.0
 40
0.6121897086
 41
-0.6846338793
 42
0.0190173802
  0
ELLIPSE
  5
34B
100
AcDbEntity
  8
0
100
AcDbEllipse
 62
7
  6
CONTINUOUS
 10
60.3614000694
 20
-96.7608044802
 30
0.0
 11
-0.2237009107
 21
0.4473351135
 31
0.0
 40
0.6121897086
 41
2.9797142595
 42
4.0274505145
  0
ELLIPSE
  5
34C
100
AcDbEntity
  8
0
100
AcDbEllipse
 62
7
  6
CONTINUOUS
 10
-69.0390331756
 20
93.3397586903
 30
0.0
 11
-0.2237009107
 21
0.4473351135
 31
0.0
 40
0.6121897086
 41
-0.6846338794
 42
0.1918522764
  0
ELLIPSE
  5
34D
100
AcDbEntity
  8
0
100
AcDbEllipse
 62
7
  6
CONTINUOUS
 10
60.3614000694
 20
28.6395420678
 30
0.0
 11
-0.2235807756
 21
0.4472283268
 31
0.0
 40
0.6125552124
 41
4.0278891191
 42
5.5983808594
  0
ENDSEC
  0
SECTION
  2
OBJECTS
  0
DICTIONARY
  5
C
100
AcDbDictionary
280
0
281
1
  3
ACAD_GROUP
350
D
  3
ACAD_MLINESTYLE
350
17
  3
ACAD_LAYOUT
350
1A
  3
ACAD_PLOTSETTINGS
350
19
  3
ACAD_PLOTSTYLENAME
350
E
  0
DICTIONARY
  5
D
102
{ACAD_REACTORS
330
C
102
}
100
AcDbDictionary
280
0
281
1
  0
ACDBDICTIONARYWDFLT
  5
E
102
{ACAD_REACTORS
330
C
102
}
100
AcDbDictionary
281
1
  3
Normal
350
F
100
AcDbDictionaryWithDefault
340
F
  0
DICTIONARY
  5
17
102
{ACAD_REACTORS
330
C
102
}
100
AcDbDictionary
280
0
281
1
  3
Standard
350
18
  0
DICTIONARY
  5
19
102
{ACAD_REACTORS
330
C
102
}
100
AcDbDictionary
281
1
  0
DICTIONARY
  5
1A
102
{ACAD_REACTORS
330
C
102
}
100
AcDbDictionary
281
1
  3
Model
350
34E
  3
Layout1
350
34F
  0
ACDBPLACEHOLDER
  5
F
102
{ACAD_REACTORS
330
E
102
}
  0
MLINESTYLE
  5
18
102
{ACAD_REACTORS
330
17
102
}
100
AcDbMlineStyle
  2
STANDARD
 70
0
  3

 62
256
 51
90.0
 52
90.0
 71
2
 49
0.5
 62
256
  6
BYLAYER
 49
-0.5
 62
256
  6
BYLAYER
  0
LAYOUT
  5
34E
102
{ACAD_REACTORS
330
1A
102
}
100
AcDbPlotSettings
  1

  2
none_device
  4
ISO_A3_(420.00_x_297.00_MM)
  6

 40
0.0
 41
0.0
 42
0.0
 43
0.0
 44
420.0
 45
297.0
 46
0.0
 47
0.0
 48
0.0
 49
0.0
140
0.0
141
0.0
142
1.0
143
1.0
 70
1024
 72
1
 73
0
 74
0
  7

 75
0
147
1.0
148
0.0
149
0.0
100
AcDbLayout
  1
Model
 70
0
 71
0
 10
0.0
 20
0.0
 11
420.0
 21
297.0
 12
0.0
 22
0.0
 32
0.0
 14
0.0
 24
0.0
 34
0.0
 15
0.0
 25
0.0
 35
0.0
146
0.0
 13
0.0
 23
0.0
 33
0.0
 16
1.0
 26
0.0
 36
0.0
 17
0.0
 27
1.0
 37
0.0
 76
0
330
23A
345
0
346
0
  0
LAYOUT
  5
34F
102
{ACAD_REACTORS
330
1A
102
}
100
AcDbPlotSettings
  1

  2
none_device
  4
ISO_A3_(420.00_x_297.00_MM)
  6

 40
0.0
 41
0.0
 42
0.0
 43
0.0
 44
420.0
 45
297.0
 46
0.0
 47
0.0
 48
0.0
 49
0.0
140
0.0
141
0.0
142
1.0
143
1.0
 70
0
 72
1
 73
0
 74
0
  7

 75
0
147
1.0
148
0.0
149
0.0
100
AcDbLayout
  1
Layout1
 70
0
 71
1
 10
0.0
 20
0.0
 11
420.0
 21
297.0
 12
0.0
 22
0.0
 32
0.0
 14
0.0
 24
0.0
 34
0.0
 15
0.0
 25
0.0
 35
0.0
146
0.0
 13
0.0
 23
0.0
 33
0.0
 16
1.0
 26
0.0
 36
0.0
 17
0.0
 27
1.0
 37
0.0
 76
0
330
23B
345
0
346
0
  0
ENDSEC
  0
EOF
