  0
SECTION
  2
HEADER
  9
$ACADVER
  1
AC1015
  9
$DWGCODEPAGE
  3
ANSI_1252
  9
$EXTMAX
 10
297.0
 20
210.0
 30
0.0
  9
$EXTMIN
 10
0.0
 20
0.0
 30
0.0
  9
$LIMMIN
 10
0.0
 20
0.0
  9
$LIMMAX
 10
297.0
 20
210.0
  9
$VIEWCTR
 10
148.5
 20
105.0
  9
$VIEWSIZE
 40
210.0
  9
$CLAYER
  8
0
  9
$LTSCALE
 40
16.335
  9
$CELTYPE
  6
BYLAYER
  9
$DIMSCALE
 40
1.0
  9
$DIMASZ
 40
3.0
  9
$DIMEXO
 40
0.5
  9
$DIMDLI
 40
11.286
  9
$DIMEXE
 40
1.5
  9
$DIMCEN
 40
2.673
  9
$DIMLFAC
 40
1.0
  9
$DIMBLK
  1
_FILLED
  9
$DIMALT
 70
0
  9
$DIMALTF
 40
0.0393700787
  9
$DIMTXT
 40
3.0
  9
$DIMTOL
 70
1
  9
$DIMLIM
 70
0
  9
$DIMTFAC
 40
1.0
  9
$DIMTP
 40
0.01
  9
$DIMTM
 40
0.01
  9
$DIMGAP
 40
0.625
  9
$DIMDSEP
 70
44
  9
$AUNITS
 70
0
  9
$PDMODE
 70
3
  9
$PDSIZE
 40
3.0
  9
$HANDSEED
  5
5F4
  9
$TILEMODE
 70
1
  9
$MEASUREMENT
 70
1
  9
$INSUNITS
 70
4
  0
ENDSEC
  0
SECTION
  2
CLASSES
  0
CLASS
  1
ACDBDICTIONARYWDFLT
  2
AcDbDictionaryWithDefault
  3
AutoCAD 2000
 90
0
280
0
281
0
  0
CLASS
  1
ACDBPLACEHOLDER
  2
AcDbPlaceHolder
  3
AutoCAD 2000
 90
0
280
0
281
0
  0
CLASS
  1
LAYOUT
  2
AcDbLayout
  3
AutoCAD 2000
 90
0
280
0
281
0
  0
ENDSEC
  0
SECTION
  2
TABLES
  0
TABLE
  2
VPORT
  5
8
100
AcDbSymbolTable
 70
2
  0
VPORT
  5
1F4
100
AcDbSymbolTableRecord
100
AcDbViewportTableRecord
  2
*ACTIVE
 70
0
 10
0.0
 20
0.0
 11
1.0
 21
1.0
 12
148.5
 22
105.0
 13
0.0
 23
0.0
 14
1.0
 24
1.0
 15
0.0
 25
0.0
 16
0.0
 26
0.0
 36
1.0
 17
0.0
 27
0.0
 37
0.0
 40
210.0
 41
1.4142857143
 42
50.0
 43
0.0
 44
0.0
 50
0.0
 51
0.0
 71
0
 72
100
 73
1
 74
1
 75
0
 76
0
 77
0
 78
0
  0
ENDTAB
  0
TABLE
  2
LTYPE
  5
5
100
AcDbSymbolTable
 70
6
  0
LTYPE
  5
14
100
AcDbSymbolTableRecord
100
AcDbLinetypeTableRecord
  2
BYBLOCK
 70
0
  3

 72
65
 73
0
 40
0.0
  0
LTYPE
  5
15
100
AcDbSymbolTableRecord
100
AcDbLinetypeTableRecord
  2
BYLAYER
 70
0
  3

 72
65
 73
0
 40
0.0
  0
LTYPE
  5
16
100
AcDbSymbolTableRecord
100
AcDbLinetypeTableRecord
  2
CONTINUOUS
 70
64
  3
Solid line
 72
65
 73
0
 40
0.0
  0
LTYPE
  5
1F5
100
AcDbSymbolTableRecord
100
AcDbLinetypeTableRecord
  2
CENTER
 70
64
  3
____ _ ____ _ ____ _ ____ _ ____ _ ____ _ ____
 72
65
 73
4
 40
0.6
 49
0.375
 74
0
 49
-0.075
 74
0
 49
0.075
 74
0
 49
-0.075
 74
0
  0
LTYPE
  5
1F6
100
AcDbSymbolTableRecord
100
AcDbLinetypeTableRecord
  2
HIDDEN
 70
64
  3
- - - - - - - - - - - - - - - - - - - -
 72
65
 73
2
 40
0.2
 49
0.1
 74
0
 49
-0.1
 74
0
  0
LTYPE
  5
1F7
100
AcDbSymbolTableRecord
100
AcDbLinetypeTableRecord
  2
PHANTOM
 70
64
  3
_____ _ _ _____ _ _ _____ _ _ _____
 72
65
 73
6
 40
0.8
 49
0.45
 74
0
 49
-0.05
 74
0
 49
0.1
 74
0
 49
-0.05
 74
0
 49
0.1
 74
0
 49
-0.05
 74
0
  0
LTYPE
  5
1F8
100
AcDbSymbolTableRecord
100
AcDbLinetypeTableRecord
  2
DOT
 70
64
  3
. . . . . . . . . . . . . . . . . . . .
 72
65
 73
2
 40
0.2
 49
0.1
 74
0
 49
-0.1
 74
0
  0
LTYPE
  5
1F9
100
AcDbSymbolTableRecord
100
AcDbLinetypeTableRecord
  2
DASHED
 70
64
  3
- - - - - - - - - - - - - - - - - - - -
 72
65
 73
2
 40
0.2
 49
0.1
 74
0
 49
-0.1
 74
0
  0
ENDTAB
  0
TABLE
  2
LAYER
  5
2
100
AcDbSymbolTable
 70
36
  0
LAYER
  5
10
100
AcDbSymbolTableRecord
100
AcDbLayerTableRecord
  2
0
 70
0
 62
7
  6
CONTINUOUS
370
-3
390
F
  0
LAYER
  5
1FA
100
AcDbSymbolTableRecord
100
AcDbLayerTableRecord
  2
DEFAULT_1
 70
0
 62
7
  6
CENTER
370
-3
390
F
  0
LAYER
  5
1FB
100
AcDbSymbolTableRecord
100
AcDbLayerTableRecord
  2
DEFAULT_2
 70
0
 62
7
  6
HIDDEN
370
-3
390
F
  0
LAYER
  5
1FC
100
AcDbSymbolTableRecord
100
AcDbLayerTableRecord
  2
DEFAULT_3
 70
0
 62
7
  6
PHANTOM
370
-3
390
F
  0
LAYER
  5
1FD
100
AcDbSymbolTableRecord
100
AcDbLayerTableRecord
  2
0603_C_REF_90000
 70
0
 62
7
  6
CONTINUOUS
370
-3
390
F
  0
LAYER
  5
1FE
100
AcDbSymbolTableRecord
100
AcDbLayerTableRecord
  2
0603_C_REF_90000_1
 70
0
 62
7
  6
CONTINUOUS
370
-3
390
F
  0
LAYER
  5
1FF
100
AcDbSymbolTableRecord
100
AcDbLayerTableRecord
  2
0603_C_REF_90000_2
 70
0
 62
7
  6
CONTINUOUS
370
-3
390
F
  0
LAYER
  5
200
100
AcDbSymbolTableRecord
100
AcDbLayerTableRecord
  2
0603_C_REF_90000_3
 70
0
 62
7
  6
CONTINUOUS
370
-3
390
F
  0
LAYER
  5
201
100
AcDbSymbolTableRecord
100
AcDbLayerTableRecord
  2
0603_C_REF_90000_4
 70
0
 62
7
  6
CONTINUOUS
370
-3
390
F
  0
LAYER
  5
202
100
AcDbSymbolTableRecord
100
AcDbLayerTableRecord
  2
0603_C_REF_90000_5
 70
0
 62
7
  6
CONTINUOUS
370
-3
390
F
  0
LAYER
  5
203
100
AcDbSymbolTableRecord
100
AcDbLayerTableRecord
  2
0603_C_REF_90000_6
 70
0
 62
7
  6
CONTINUOUS
370
-3
390
F
  0
LAYER
  5
204
100
AcDbSymbolTableRecord
100
AcDbLayerTableRecord
  2
0603_C_REF_90000_7
 70
0
 62
7
  6
CONTINUOUS
370
-3
390
F
  0
LAYER
  5
205
100
AcDbSymbolTableRecord
100
AcDbLayerTableRecord
  2
0603_C_REF_90000_8
 70
0
 62
7
  6
CONTINUOUS
370
-3
390
F
  0
LAYER
  5
206
100
AcDbSymbolTableRecord
100
AcDbLayerTableRecord
  2
0603_R_REF_55000
 70
0
 62
7
  6
CONTINUOUS
370
-3
390
F
  0
LAYER
  5
207
100
AcDbSymbolTableRecord
100
AcDbLayerTableRecord
  2
0603_R_REF_55000_1
 70
0
 62
7
  6
CONTINUOUS
370
-3
390
F
  0
LAYER
  5
208
100
AcDbSymbolTableRecord
100
AcDbLayerTableRecord
  2
0603_R_REF_55000_10
 70
0
 62
7
  6
CONTINUOUS
370
-3
390
F
  0
LAYER
  5
209
100
AcDbSymbolTableRecord
100
AcDbLayerTableRecord
  2
0603_R_REF_55000_11
 70
0
 62
7
  6
CONTINUOUS
370
-3
390
F
  0
LAYER
  5
20A
100
AcDbSymbolTableRecord
100
AcDbLayerTableRecord
  2
0603_R_REF_55000_12
 70
0
 62
7
  6
CONTINUOUS
370
-3
390
F
  0
LAYER
  5
20B
100
AcDbSymbolTableRecord
100
AcDbLayerTableRecord
  2
0603_R_REF_55000_13
 70
0
 62
7
  6
CONTINUOUS
370
-3
390
F
  0
LAYER
  5
20C
100
AcDbSymbolTableRecord
100
AcDbLayerTableRecord
  2
0603_R_REF_55000_14
 70
0
 62
7
  6
CONTINUOUS
370
-3
390
F
  0
LAYER
  5
20D
100
AcDbSymbolTableRecord
100
AcDbLayerTableRecord
  2
0603_R_REF_55000_15
 70
0
 62
7
  6
CONTINUOUS
370
-3
390
F
  0
LAYER
  5
20E
100
AcDbSymbolTableRecord
100
AcDbLayerTableRecord
  2
0603_R_REF_55000_16
 70
0
 62
7
  6
CONTINUOUS
370
-3
390
F
  0
LAYER
  5
20F
100
AcDbSymbolTableRecord
100
AcDbLayerTableRecord
  2
0603_R_REF_55000_17
 70
0
 62
7
  6
CONTINUOUS
370
-3
390
F
  0
LAYER
  5
210
100
AcDbSymbolTableRecord
100
AcDbLayerTableRecord
  2
0603_R_REF_55000_18
 70
0
 62
7
  6
CONTINUOUS
370
-3
390
F
  0
LAYER
  5
211
100
AcDbSymbolTableRecord
100
AcDbLayerTableRecord
  2
0603_R_REF_55000_19
 70
0
 62
7
  6
CONTINUOUS
370
-3
390
F
  0
LAYER
  5
212
100
AcDbSymbolTableRecord
100
AcDbLayerTableRecord
  2
0603_R_REF_55000_2
 70
0
 62
7
  6
CONTINUOUS
370
-3
390
F
  0
LAYER
  5
213
100
AcDbSymbolTableRecord
100
AcDbLayerTableRecord
  2
0603_R_REF_55000_20
 70
0
 62
7
  6
CONTINUOUS
370
-3
390
F
  0
LAYER
  5
214
100
AcDbSymbolTableRecord
100
AcDbLayerTableRecord
  2
0603_R_REF_55000_21
 70
0
 62
7
  6
CONTINUOUS
370
-3
390
F
  0
LAYER
  5
215
100
AcDbSymbolTableRecord
100
AcDbLayerTableRecord
  2
0603_R_REF_55000_22
 70
0
 62
7
  6
CONTINUOUS
370
-3
390
F
  0
LAYER
  5
216
100
AcDbSymbolTableRecord
100
AcDbLayerTableRecord
  2
0603_R_REF_55000_23
 70
0
 62
7
  6
CONTINUOUS
370
-3
390
F
  0
LAYER
  5
217
100
AcDbSymbolTableRecord
100
AcDbLayerTableRecord
  2
0603_R_REF_55000_24
 70
0
 62
7
  6
CONTINUOUS
370
-3
390
F
  0
LAYER
  5
218
100
AcDbSymbolTableRecord
100
AcDbLayerTableRecord
  2
0603_R_REF_55000_25
 70
0
 62
7
  6
CONTINUOUS
370
-3
390
F
  0
LAYER
  5
219
100
AcDbSymbolTableRecord
100
AcDbLayerTableRecord
  2
0603_R_REF_55000_26
 70
0
 62
7
  6
CONTINUOUS
370
-3
390
F
  0
LAYER
  5
21A
100
AcDbSymbolTableRecord
100
AcDbLayerTableRecord
  2
0603_R_REF_55000_27
 70
0
 62
7
  6
CONTINUOUS
370
-3
390
F
  0
LAYER
  5
21B
100
AcDbSymbolTableRecord
100
AcDbLayerTableRecord
  2
0603_R_REF_55000_28
 70
0
 62
7
  6
CONTINUOUS
370
-3
390
F
  0
LAYER
  5
21C
100
AcDbSymbolTableRecord
100
AcDbLayerTableRecord
  2
0603_R_REF_55000_29
 70
0
 62
7
  6
CONTINUOUS
370
-3
390
F
  0
LAYER
  5
21D
100
AcDbSymbolTableRecord
100
AcDbLayerTableRecord
  2
0603_R_REF_55000_3
 70
0
 62
7
  6
CONTINUOUS
370
-3
390
F
  0
LAYER
  5
21E
100
AcDbSymbolTableRecord
100
AcDbLayerTableRecord
  2
0603_R_REF_55000_30
 70
0
 62
7
  6
CONTINUOUS
370
-3
390
F
  0
LAYER
  5
21F
100
AcDbSymbolTableRecord
100
AcDbLayerTableRecord
  2
0603_R_REF_55000_31
 70
0
 62
7
  6
CONTINUOUS
370
-3
390
F
  0
LAYER
  5
220
100
AcDbSymbolTableRecord
100
AcDbLayerTableRecord
  2
0603_R_REF_55000_32
 70
0
 62
7
  6
CONTINUOUS
370
-3
390
F
  0
LAYER
  5
221
100
AcDbSymbolTableRecord
100
AcDbLayerTableRecord
  2
0603_R_REF_55000_33
 70
0
 62
7
  6
CONTINUOUS
370
-3
390
F
  0
LAYER
  5
222
100
AcDbSymbolTableRecord
100
AcDbLayerTableRecord
  2
0603_R_REF_55000_34
 70
0
 62
7
  6
CONTINUOUS
370
-3
390
F
  0
LAYER
  5
223
100
AcDbSymbolTableRecord
100
AcDbLayerTableRecord
  2
0603_R_REF_55000_35
 70
0
 62
7
  6
CONTINUOUS
370
-3
390
F
  0
LAYER
  5
224
100
AcDbSymbolTableRecord
100
AcDbLayerTableRecord
  2
0603_R_REF_55000_36
 70
0
 62
7
  6
CONTINUOUS
370
-3
390
F
  0
LAYER
  5
225
100
AcDbSymbolTableRecord
100
AcDbLayerTableRecord
  2
0603_R_REF_55000_37
 70
0
 62
7
  6
CONTINUOUS
370
-3
390
F
  0
LAYER
  5
226
100
AcDbSymbolTableRecord
100
AcDbLayerTableRecord
  2
0603_R_REF_55000_38
 70
0
 62
7
  6
CONTINUOUS
370
-3
390
F
  0
LAYER
  5
227
100
AcDbSymbolTableRecord
100
AcDbLayerTableRecord
  2
0603_R_REF_55000_39
 70
0
 62
7
  6
CONTINUOUS
370
-3
390
F
  0
LAYER
  5
228
100
AcDbSymbolTableRecord
100
AcDbLayerTableRecord
  2
0603_R_REF_55000_4
 70
0
 62
7
  6
CONTINUOUS
370
-3
390
F
  0
LAYER
  5
229
100
AcDbSymbolTableRecord
100
AcDbLayerTableRecord
  2
0603_R_REF_55000_40
 70
0
 62
7
  6
CONTINUOUS
370
-3
390
F
  0
LAYER
  5
22A
100
AcDbSymbolTableRecord
100
AcDbLayerTableRecord
  2
0603_R_REF_55000_41
 70
0
 62
7
  6
CONTINUOUS
370
-3
390
F
  0
LAYER
  5
22B
100
AcDbSymbolTableRecord
100
AcDbLayerTableRecord
  2
0603_R_REF_55000_42
 70
0
 62
7
  6
CONTINUOUS
370
-3
390
F
  0
LAYER
  5
22C
100
AcDbSymbolTableRecord
100
AcDbLayerTableRecord
  2
0603_R_REF_55000_43
 70
0
 62
7
  6
CONTINUOUS
370
-3
390
F
  0
LAYER
  5
22D
100
AcDbSymbolTableRecord
100
AcDbLayerTableRecord
  2
0603_R_REF_55000_5
 70
0
 62
7
  6
CONTINUOUS
370
-3
390
F
  0
LAYER
  5
22E
100
AcDbSymbolTableRecord
100
AcDbLayerTableRecord
  2
0603_R_REF_55000_6
 70
0
 62
7
  6
CONTINUOUS
370
-3
390
F
  0
LAYER
  5
22F
100
AcDbSymbolTableRecord
100
AcDbLayerTableRecord
  2
0603_R_REF_55000_7
 70
0
 62
7
  6
CONTINUOUS
370
-3
390
F
  0
LAYER
  5
230
100
AcDbSymbolTableRecord
100
AcDbLayerTableRecord
  2
0603_R_REF_55000_8
 70
0
 62
7
  6
CONTINUOUS
370
-3
390
F
  0
LAYER
  5
231
100
AcDbSymbolTableRecord
100
AcDbLayerTableRecord
  2
0603_R_REF_55000_9
 70
0
 62
7
  6
CONTINUOUS
370
-3
390
F
  0
LAYER
  5
232
100
AcDbSymbolTableRecord
100
AcDbLayerTableRecord
  2
0612_ARRAY_C_YAGEO_130000
 70
0
 62
7
  6
CONTINUOUS
370
-3
390
F
  0
LAYER
  5
233
100
AcDbSymbolTableRecord
100
AcDbLayerTableRecord
  2
0612_ARRAY_C_YAGEO_130000_1
 70
0
 62
7
  6
CONTINUOUS
370
-3
390
F
  0
LAYER
  5
234
100
AcDbSymbolTableRecord
100
AcDbLayerTableRecord
  2
06___PRT_ALL_SURFS
 70
0
 62
7
  6
CONTINUOUS
370
-3
390
F
  0
LAYER
  5
235
100
AcDbSymbolTableRecord
100
AcDbLayerTableRecord
  2
06___PRT_ALL_SURFS_1
 70
0
 62
7
  6
CONTINUOUS
370
-3
390
F
  0
LAYER
  5
236
100
AcDbSymbolTableRecord
100
AcDbLayerTableRecord
  2
06___PRT_ALL_SURFS_10
 70
0
 62
7
  6
CONTINUOUS
370
-3
390
F
  0
LAYER
  5
237
100
AcDbSymbolTableRecord
100
AcDbLayerTableRecord
  2
06___PRT_ALL_SURFS_12
 70
0
 62
7
  6
CONTINUOUS
370
-3
390
F
  0
LAYER
  5
238
100
AcDbSymbolTableRecord
100
AcDbLayerTableRecord
  2
06___PRT_ALL_SURFS_13
 70
0
 62
7
  6
CONTINUOUS
370
-3
390
F
  0
LAYER
  5
239
100
AcDbSymbolTableRecord
100
AcDbLayerTableRecord
  2
06___PRT_ALL_SURFS_14
 70
0
 62
7
  6
CONTINUOUS
370
-3
390
F
  0
LAYER
  5
23A
100
AcDbSymbolTableRecord
100
AcDbLayerTableRecord
  2
06___PRT_ALL_SURFS_16
 70
0
 62
7
  6
CONTINUOUS
370
-3
390
F
  0
LAYER
  5
23B
100
AcDbSymbolTableRecord
100
AcDbLayerTableRecord
  2
06___PRT_ALL_SURFS_2
 70
0
 62
7
  6
CONTINUOUS
370
-3
390
F
  0
LAYER
  5
23C
100
AcDbSymbolTableRecord
100
AcDbLayerTableRecord
  2
06___PRT_ALL_SURFS_20
 70
0
 62
7
  6
CONTINUOUS
370
-3
390
F
  0
LAYER
  5
23D
100
AcDbSymbolTableRecord
100
AcDbLayerTableRecord
  2
06___PRT_ALL_SURFS_21
 70
0
 62
7
  6
CONTINUOUS
370
-3
390
F
  0
LAYER
  5
23E
100
AcDbSymbolTableRecord
100
AcDbLayerTableRecord
  2
06___PRT_ALL_SURFS_22
 70
0
 62
7
  6
CONTINUOUS
370
-3
390
F
  0
LAYER
  5
23F
100
AcDbSymbolTableRecord
100
AcDbLayerTableRecord
  2
06___PRT_ALL_SURFS_24
 70
0
 62
7
  6
CONTINUOUS
370
-3
390
F
  0
LAYER
  5
240
100
AcDbSymbolTableRecord
100
AcDbLayerTableRecord
  2
06___PRT_ALL_SURFS_3
 70
0
 62
7
  6
CONTINUOUS
370
-3
390
F
  0
LAYER
  5
241
100
AcDbSymbolTableRecord
100
AcDbLayerTableRecord
  2
06___PRT_ALL_SURFS_4
 70
0
 62
7
  6
CONTINUOUS
370
-3
390
F
  0
LAYER
  5
242
100
AcDbSymbolTableRecord
100
AcDbLayerTableRecord
  2
06___PRT_ALL_SURFS_5
 70
0
 62
7
  6
CONTINUOUS
370
-3
390
F
  0
LAYER
  5
243
100
AcDbSymbolTableRecord
100
AcDbLayerTableRecord
  2
06___PRT_ALL_SURFS_6
 70
0
 62
7
  6
CONTINUOUS
370
-3
390
F
  0
LAYER
  5
244
100
AcDbSymbolTableRecord
100
AcDbLayerTableRecord
  2
06___PRT_ALL_SURFS_7
 70
0
 62
7
  6
CONTINUOUS
370
-3
390
F
  0
LAYER
  5
245
100
AcDbSymbolTableRecord
100
AcDbLayerTableRecord
  2
06___PRT_ALL_SURFS_8
 70
0
 62
7
  6
CONTINUOUS
370
-3
390
F
  0
LAYER
  5
246
100
AcDbSymbolTableRecord
100
AcDbLayerTableRecord
  2
06___PRT_ALL_SURFS_9
 70
0
 62
7
  6
CONTINUOUS
370
-3
390
F
  0
LAYER
  5
247
100
AcDbSymbolTableRecord
100
AcDbLayerTableRecord
  2
0805_C_REF_145000
 70
0
 62
7
  6
CONTINUOUS
370
-3
390
F
  0
LAYER
  5
248
100
AcDbSymbolTableRecord
100
AcDbLayerTableRecord
  2
0805_LED_REF_60000
 70
0
 62
7
  6
CONTINUOUS
370
-3
390
F
  0
LAYER
  5
249
100
AcDbSymbolTableRecord
100
AcDbLayerTableRecord
  2
0805_LED_REF_60000_1
 70
0
 62
7
  6
CONTINUOUS
370
-3
390
F
  0
LAYER
  5
24A
100
AcDbSymbolTableRecord
100
AcDbLayerTableRecord
  2
0805_LED_REF_60000_2
 70
0
 62
7
  6
CONTINUOUS
370
-3
390
F
  0
LAYER
  5
24B
100
AcDbSymbolTableRecord
100
AcDbLayerTableRecord
  2
0805_LED_REF_60000_3
 70
0
 62
7
  6
CONTINUOUS
370
-3
390
F
  0
LAYER
  5
24C
100
AcDbSymbolTableRecord
100
AcDbLayerTableRecord
  2
0805_LED_REF_60000_4
 70
0
 62
7
  6
CONTINUOUS
370
-3
390
F
  0
LAYER
  5
24D
100
AcDbSymbolTableRecord
100
AcDbLayerTableRecord
  2
0805_LED_REF_60000_5
 70
0
 62
7
  6
CONTINUOUS
370
-3
390
F
  0
LAYER
  5
24E
100
AcDbSymbolTableRecord
100
AcDbLayerTableRecord
  2
0805_LED_REF_60000_6
 70
0
 62
7
  6
CONTINUOUS
370
-3
390
F
  0
LAYER
  5
24F
100
AcDbSymbolTableRecord
100
AcDbLayerTableRecord
  2
0805_LED_REF_60000_7
 70
0
 62
7
  6
CONTINUOUS
370
-3
390
F
  0
LAYER
  5
250
100
AcDbSymbolTableRecord
100
AcDbLayerTableRecord
  2
0805_LED_REF_60000_8
 70
0
 62
7
  6
CONTINUOUS
370
-3
390
F
  0
LAYER
  5
251
100
AcDbSymbolTableRecord
100
AcDbLayerTableRecord
  2
0805_LED_REF_60000_9
 70
0
 62
7
  6
CONTINUOUS
370
-3
390
F
  0
LAYER
  5
252
100
AcDbSymbolTableRecord
100
AcDbLayerTableRecord
  2
0805_R_REF_60000
 70
0
 62
7
  6
CONTINUOUS
370
-3
390
F
  0
LAYER
  5
253
100
AcDbSymbolTableRecord
100
AcDbLayerTableRecord
  2
1206_C_REF_180000
 70
0
 62
7
  6
CONTINUOUS
370
-3
390
F
  0
LAYER
  5
254
100
AcDbSymbolTableRecord
100
AcDbLayerTableRecord
  2
1206_C_REF_180000_1
 70
0
 62
7
  6
CONTINUOUS
370
-3
390
F
  0
LAYER
  5
255
100
AcDbSymbolTableRecord
100
AcDbLayerTableRecord
  2
ASSI
 70
0
 62
7
  6
CONTINUOUS
370
-3
390
F
  0
LAYER
  5
256
100
AcDbSymbolTableRecord
100
AcDbLayerTableRecord
  2
CARTELLINO
 70
0
 62
7
  6
CONTINUOUS
370
-3
390
F
  0
LAYER
  5
257
100
AcDbSymbolTableRecord
100
AcDbLayerTableRecord
  2
CN8F_P2_SMD_GREENCONN_CSFC210-0
 70
0
 62
7
  6
CONTINUOUS
370
-3
390
F
  0
LAYER
  5
258
100
AcDbSymbolTableRecord
100
AcDbLayerTableRecord
  2
CN8M_P2_SMD_GREENCONN_GPFC217-0
 70
0
 62
7
  6
CONTINUOUS
370
-3
390
F
  0
LAYER
  5
259
100
AcDbSymbolTableRecord
100
AcDbLayerTableRecord
  2
CN8M_STRIP_ADIMPEX_C25-08-AG1-6
 70
0
 62
7
  6
CONTINUOUS
370
-3
390
F
  0
LAYER
  5
25A
100
AcDbSymbolTableRecord
100
AcDbLayerTableRecord
  2
CN8M_STRIP_ADIMPEX_C25-08-AG1_1
 70
0
 62
7
  6
CONTINUOUS
370
-3
390
F
  0
LAYER
  5
25B
100
AcDbSymbolTableRecord
100
AcDbLayerTableRecord
  2
CN_MINI_USB_B_MUSB5S-BMHF_66500
 70
0
 62
7
  6
CONTINUOUS
370
-3
390
F
  0
LAYER
  5
25C
100
AcDbSymbolTableRecord
100
AcDbLayerTableRecord
  2
COLOR1
 70
0
 62
7
  6
CONTINUOUS
370
-3
390
F
  0
LAYER
  5
25D
100
AcDbSymbolTableRecord
100
AcDbLayerTableRecord
  2
COLOR13
 70
0
 62
7
  6
CONTINUOUS
370
-3
390
F
  0
LAYER
  5
25E
100
AcDbSymbolTableRecord
100
AcDbLayerTableRecord
  2
COLOR16
 70
0
 62
7
  6
CONTINUOUS
370
-3
390
F
  0
LAYER
  5
25F
100
AcDbSymbolTableRecord
100
AcDbLayerTableRecord
  2
COLOR5
 70
0
 62
7
  6
CONTINUOUS
370
-3
390
F
  0
LAYER
  5
260
100
AcDbSymbolTableRecord
100
AcDbLayerTableRecord
  2
COLOR6
 70
0
 62
7
  6
CONTINUOUS
370
-3
390
F
  0
LAYER
  5
261
100
AcDbSymbolTableRecord
100
AcDbLayerTableRecord
  2
COORDINATE
 70
0
 62
7
  6
CONTINUOUS
370
-3
390
F
  0
LAYER
  5
262
100
AcDbSymbolTableRecord
100
AcDbLayerTableRecord
  2
COPY_PUBLISH
 70
0
 62
7
  6
CONTINUOUS
370
-3
390
F
  0
LAYER
  5
263
100
AcDbSymbolTableRecord
100
AcDbLayerTableRecord
  2
COSMETICI
 70
0
 62
7
  6
CONTINUOUS
370
-3
390
F
  0
LAYER
  5
264
100
AcDbSymbolTableRecord
100
AcDbLayerTableRecord
  2
CR_RR4_8P_3_2X1_6__60000
 70
0
 62
7
  6
CONTINUOUS
370
-3
390
F
  0
LAYER
  5
265
100
AcDbSymbolTableRecord
100
AcDbLayerTableRecord
  2
CR_RR4_8P_3_2X1_6__60000_1
 70
0
 62
7
  6
CONTINUOUS
370
-3
390
F
  0
LAYER
  5
266
100
AcDbSymbolTableRecord
100
AcDbLayerTableRecord
  2
CR_TP1_D2_TOP__3500
 70
0
 62
7
  6
CONTINUOUS
370
-3
390
F
  0
LAYER
  5
267
100
AcDbSymbolTableRecord
100
AcDbLayerTableRecord
  2
CR_TP1_D2_TOP__3500_1
 70
0
 62
7
  6
CONTINUOUS
370
-3
390
F
  0
LAYER
  5
268
100
AcDbSymbolTableRecord
100
AcDbLayerTableRecord
  2
CR_TP1_D2_TOP__3500_2
 70
0
 62
7
  6
CONTINUOUS
370
-3
390
F
  0
LAYER
  5
269
100
AcDbSymbolTableRecord
100
AcDbLayerTableRecord
  2
CR_TP1_D2_TOP__3500_3
 70
0
 62
7
  6
CONTINUOUS
370
-3
390
F
  0
LAYER
  5
26A
100
AcDbSymbolTableRecord
100
AcDbLayerTableRecord
  2
CR_TP1_D2_TOP__3500_4
 70
0
 62
7
  6
CONTINUOUS
370
-3
390
F
  0
LAYER
  5
26B
100
AcDbSymbolTableRecord
100
AcDbLayerTableRecord
  2
CR_TP1_D2_TOP__3500_5
 70
0
 62
7
  6
CONTINUOUS
370
-3
390
F
  0
LAYER
  5
26C
100
AcDbSymbolTableRecord
100
AcDbLayerTableRecord
  2
CR_TP1_D2_TOP__3500_6
 70
0
 62
7
  6
CONTINUOUS
370
-3
390
F
  0
LAYER
  5
26D
100
AcDbSymbolTableRecord
100
AcDbLayerTableRecord
  2
CR_TP1_D2_TOP__3500_7
 70
0
 62
7
  6
CONTINUOUS
370
-3
390
F
  0
LAYER
  5
26E
100
AcDbSymbolTableRecord
100
AcDbLayerTableRecord
  2
CR_TP1_D2_TOP__3500_8
 70
0
 62
7
  6
CONTINUOUS
370
-3
390
F
  0
LAYER
  5
26F
100
AcDbSymbolTableRecord
100
AcDbLayerTableRecord
  2
CR_TP1_D2_TOP__3500_9
 70
0
 62
7
  6
CONTINUOUS
370
-3
390
F
  0
LAYER
  5
270
100
AcDbSymbolTableRecord
100
AcDbLayerTableRecord
  2
CS3500R00-B
 70
0
 62
7
  6
CONTINUOUS
370
-3
390
F
  0
LAYER
  5
271
100
AcDbSymbolTableRecord
100
AcDbLayerTableRecord
  2
CS3500R01
 70
0
 62
7
  6
CONTINUOUS
370
-3
390
F
  0
LAYER
  5
272
100
AcDbSymbolTableRecord
100
AcDbLayerTableRecord
  2
CS3500R02
 70
0
 62
7
  6
CONTINUOUS
370
-3
390
F
  0
LAYER
  5
273
100
AcDbSymbolTableRecord
100
AcDbLayerTableRecord
  2
CS3500R03_10P
 70
0
 62
7
  6
CONTINUOUS
370
-3
390
F
  0
LAYER
  5
274
100
AcDbSymbolTableRecord
100
AcDbLayerTableRecord
  2
CS3500R03_CARTELLINO
 70
0
 62
7
  6
CONTINUOUS
370
-3
390
F
  0
LAYER
  5
275
100
AcDbSymbolTableRecord
100
AcDbLayerTableRecord
  2
CURVE
 70
0
 62
7
  6
CONTINUOUS
370
-3
390
F
  0
LAYER
  5
276
100
AcDbSymbolTableRecord
100
AcDbLayerTableRecord
  2
DO214AA_265000
 70
0
 62
7
  6
CONTINUOUS
370
-3
390
F
  0
LAYER
  5
277
100
AcDbSymbolTableRecord
100
AcDbLayerTableRecord
  2
DO214AA_265000_1
 70
0
 62
7
  6
CONTINUOUS
370
-3
390
F
  0
LAYER
  5
278
100
AcDbSymbolTableRecord
100
AcDbLayerTableRecord
  2
DRAFT
 70
0
 62
7
  6
CONTINUOUS
370
-3
390
F
  0
LAYER
  5
279
100
AcDbSymbolTableRecord
100
AcDbLayerTableRecord
  2
FIDUCIAL_1MM_0
 70
0
 62
7
  6
CONTINUOUS
370
-3
390
F
  0
LAYER
  5
27A
100
AcDbSymbolTableRecord
100
AcDbLayerTableRecord
  2
FIDUCIAL_1MM_0_1
 70
0
 62
7
  6
CONTINUOUS
370
-3
390
F
  0
LAYER
  5
27B
100
AcDbSymbolTableRecord
100
AcDbLayerTableRecord
  2
FIDUCIAL_1MM_0_2
 70
0
 62
7
  6
CONTINUOUS
370
-3
390
F
  0
LAYER
  5
27C
100
AcDbSymbolTableRecord
100
AcDbLayerTableRecord
  2
FIDUCIAL_1MM_0_3
 70
0
 62
7
  6
CONTINUOUS
370
-3
390
F
  0
LAYER
  5
27D
100
AcDbSymbolTableRecord
100
AcDbLayerTableRecord
  2
FIDUCIAL_1_2_MM_RUOTATO_45_0
 70
0
 62
7
  6
CONTINUOUS
370
-3
390
F
  0
LAYER
  5
27E
100
AcDbSymbolTableRecord
100
AcDbLayerTableRecord
  2
FIDUCIAL_1_2_MM_RUOTATO_45_0_1
 70
0
 62
7
  6
CONTINUOUS
370
-3
390
F
  0
LAYER
  5
27F
100
AcDbSymbolTableRecord
100
AcDbLayerTableRecord
  2
GEOMETRIA_SOLIDA
 70
0
 62
7
  6
CONTINUOUS
370
-3
390
F
  0
LAYER
  5
280
100
AcDbSymbolTableRecord
100
AcDbLayerTableRecord
  2
GEOMETRIA_SOLIDA_1
 70
0
 62
7
  6
CONTINUOUS
370
-3
390
F
  0
LAYER
  5
281
100
AcDbSymbolTableRecord
100
AcDbLayerTableRecord
  2
GEOMETRIA_SOLIDA_2
 70
0
 62
7
  6
CONTINUOUS
370
-3
390
F
  0
LAYER
  5
282
100
AcDbSymbolTableRecord
100
AcDbLayerTableRecord
  2
GEOMETRIA_SOLIDA_3
 70
0
 62
7
  6
CONTINUOUS
370
-3
390
F
  0
LAYER
  5
283
100
AcDbSymbolTableRecord
100
AcDbLayerTableRecord
  2
GEOMETRIA_SOLIDA_4
 70
0
 62
7
  6
CONTINUOUS
370
-3
390
F
  0
LAYER
  5
284
100
AcDbSymbolTableRecord
100
AcDbLayerTableRecord
  2
GEOMETRIA_SOLIDA_5
 70
0
 62
7
  6
CONTINUOUS
370
-3
390
F
  0
LAYER
  5
285
100
AcDbSymbolTableRecord
100
AcDbLayerTableRecord
  2
GEOMETRIA_SOLIDA_6
 70
0
 62
7
  6
CONTINUOUS
370
-3
390
F
  0
LAYER
  5
286
100
AcDbSymbolTableRecord
100
AcDbLayerTableRecord
  2
GEOMETRIA_SOLIDA_7
 70
0
 62
7
  6
CONTINUOUS
370
-3
390
F
  0
LAYER
  5
287
100
AcDbSymbolTableRecord
100
AcDbLayerTableRecord
  2
GEOMETRIA_SOLIDA_8
 70
0
 62
7
  6
CONTINUOUS
370
-3
390
F
  0
LAYER
  5
288
100
AcDbSymbolTableRecord
100
AcDbLayerTableRecord
  2
GEOMETRIA_SOLIDA_9
 70
0
 62
7
  6
CONTINUOUS
370
-3
390
F
  0
LAYER
  5
289
100
AcDbSymbolTableRecord
100
AcDbLayerTableRecord
  2
IMPORT_IGES
 70
0
 62
7
  6
CONTINUOUS
370
-3
390
F
  0
LAYER
  5
28A
100
AcDbSymbolTableRecord
100
AcDbLayerTableRecord
  2
INTF_1
 70
0
 62
7
  6
CONTINUOUS
370
-3
390
F
  0
LAYER
  5
28B
100
AcDbSymbolTableRecord
100
AcDbLayerTableRecord
  2
INTF_11
 70
0
 62
7
  6
CONTINUOUS
370
-3
390
F
  0
LAYER
  5
28C
100
AcDbSymbolTableRecord
100
AcDbLayerTableRecord
  2
INTF_5
 70
0
 62
7
  6
CONTINUOUS
370
-3
390
F
  0
LAYER
  5
28D
100
AcDbSymbolTableRecord
100
AcDbLayerTableRecord
  2
INTF_7
 70
0
 62
7
  6
CONTINUOUS
370
-3
390
F
  0
LAYER
  5
28E
100
AcDbSymbolTableRecord
100
AcDbLayerTableRecord
  2
INTF_CYAN
 70
0
 62
7
  6
CONTINUOUS
370
-3
390
F
  0
LAYER
  5
28F
100
AcDbSymbolTableRecord
100
AcDbLayerTableRecord
  2
INTF_RED
 70
0
 62
7
  6
CONTINUOUS
370
-3
390
F
  0
LAYER
  5
290
100
AcDbSymbolTableRecord
100
AcDbLayerTableRecord
  2
LITTELFUSE_449_SERIES_269000
 70
0
 62
7
  6
CONTINUOUS
370
-3
390
F
  0
LAYER
  5
291
100
AcDbSymbolTableRecord
100
AcDbLayerTableRecord
  2
LQFP32-7_0-7_0-9_0-9_0-1_6-0_8-
 70
0
 62
7
  6
CONTINUOUS
370
-3
390
F
  0
LAYER
  5
292
100
AcDbSymbolTableRecord
100
AcDbLayerTableRecord
  2
MELF_0207_REF_220000
 70
0
 62
7
  6
CONTINUOUS
370
-3
390
F
  0
LAYER
  5
293
100
AcDbSymbolTableRecord
100
AcDbLayerTableRecord
  2
MSOP8-3_0-4_9-1_1-REF_110000
 70
0
 62
7
  6
CONTINUOUS
370
-3
390
F
  0
LAYER
  5
294
100
AcDbSymbolTableRecord
100
AcDbLayerTableRecord
  2
NOTE
 70
0
 62
7
  6
CONTINUOUS
370
-3
390
F
  0
LAYER
  5
295
100
AcDbSymbolTableRecord
100
AcDbLayerTableRecord
  2
PIANI
 70
0
 62
7
  6
CONTINUOUS
370
-3
390
F
  0
LAYER
  5
296
100
AcDbSymbolTableRecord
100
AcDbLayerTableRecord
  2
PUNTI
 70
0
 62
7
  6
CONTINUOUS
370
-3
390
F
  0
LAYER
  5
297
100
AcDbSymbolTableRecord
100
AcDbLayerTableRecord
  2
QFP32-7_0-7_0-9_0-9_0-1_6-0_8-0
 70
0
 62
7
  6
CONTINUOUS
370
-3
390
F
  0
LAYER
  5
298
100
AcDbSymbolTableRecord
100
AcDbLayerTableRecord
  2
RACCORDO
 70
0
 62
7
  6
CONTINUOUS
370
-3
390
F
  0
LAYER
  5
299
100
AcDbSymbolTableRecord
100
AcDbLayerTableRecord
  2
SC70-6_REF_H1_1_110000
 70
0
 62
7
  6
CONTINUOUS
370
-3
390
F
  0
LAYER
  5
29A
100
AcDbSymbolTableRecord
100
AcDbLayerTableRecord
  2
SC70-6_REF_H1_1_110000_1
 70
0
 62
7
  6
CONTINUOUS
370
-3
390
F
  0
LAYER
  5
29B
100
AcDbSymbolTableRecord
100
AcDbLayerTableRecord
  2
SIMBOLI
 70
0
 62
7
  6
CONTINUOUS
370
-3
390
F
  0
LAYER
  5
29C
100
AcDbSymbolTableRecord
100
AcDbLayerTableRecord
  2
SMUSSO
 70
0
 62
7
  6
CONTINUOUS
370
-3
390
F
  0
LAYER
  5
29D
100
AcDbSymbolTableRecord
100
AcDbLayerTableRecord
  2
SNAPLINE
 70
0
 62
7
  6
CONTINUOUS
370
-3
390
F
  0
LAYER
  5
29E
100
AcDbSymbolTableRecord
100
AcDbLayerTableRecord
  2
SOT143B_REF_110000
 70
0
 62
7
  6
CONTINUOUS
370
-3
390
F
  0
LAYER
  5
29F
100
AcDbSymbolTableRecord
100
AcDbLayerTableRecord
  2
SOT143B_REF_110000_1
 70
0
 62
7
  6
CONTINUOUS
370
-3
390
F
  0
LAYER
  5
2A0
100
AcDbSymbolTableRecord
100
AcDbLayerTableRecord
  2
SOT223_REF_H1_8_180000
 70
0
 62
7
  6
CONTINUOUS
370
-3
390
F
  0
LAYER
  5
2A1
100
AcDbSymbolTableRecord
100
AcDbLayerTableRecord
  2
SOT23_H1_1_REF_110000
 70
0
 62
7
  6
CONTINUOUS
370
-3
390
F
  0
LAYER
  5
2A2
100
AcDbSymbolTableRecord
100
AcDbLayerTableRecord
  2
SOT23_H1_1_REF_110000_1
 70
0
 62
7
  6
CONTINUOUS
370
-3
390
F
  0
LAYER
  5
2A3
100
AcDbSymbolTableRecord
100
AcDbLayerTableRecord
  2
SOT23_H1_1_REF_110000_2
 70
0
 62
7
  6
CONTINUOUS
370
-3
390
F
  0
LAYER
  5
2A4
100
AcDbSymbolTableRecord
100
AcDbLayerTableRecord
  2
SOT23_H1_1_REF_110000_3
 70
0
 62
7
  6
CONTINUOUS
370
-3
390
F
  0
LAYER
  5
2A5
100
AcDbSymbolTableRecord
100
AcDbLayerTableRecord
  2
SOT23_H1_1_REF_110000_4
 70
0
 62
7
  6
CONTINUOUS
370
-3
390
F
  0
LAYER
  5
2A6
100
AcDbSymbolTableRecord
100
AcDbLayerTableRecord
  2
SUPERFICI
 70
0
 62
7
  6
CONTINUOUS
370
-3
390
F
  0
LAYER
  5
2A7
100
AcDbSymbolTableRecord
100
AcDbLayerTableRecord
  2
SUPERFICI_4
 70
0
 62
7
  6
CONTINUOUS
370
-3
390
F
  0
LAYER
  5
2A8
100
AcDbSymbolTableRecord
100
AcDbLayerTableRecord
  2
SWITCH_SMD_ALPS_SKPM_SERIES_500
 70
0
 62
7
  6
CONTINUOUS
370
-3
390
F
  0
LAYER
  5
2A9
100
AcDbSymbolTableRecord
100
AcDbLayerTableRecord
  2
SWITCH_SMD_ALPS_SKPM_SERIES_5_1
 70
0
 62
7
  6
CONTINUOUS
370
-3
390
F
  0
LAYER
  5
2AA
100
AcDbSymbolTableRecord
100
AcDbLayerTableRecord
  2
SWITCH_SMD_ALPS_SKPM_SERIES_5_2
 70
0
 62
7
  6
CONTINUOUS
370
-3
390
F
  0
LAYER
  5
2AB
100
AcDbSymbolTableRecord
100
AcDbLayerTableRecord
  2
SWITCH_SMD_ALPS_SKPM_SERIES_5_3
 70
0
 62
7
  6
CONTINUOUS
370
-3
390
F
  0
LAYER
  5
2AC
100
AcDbSymbolTableRecord
100
AcDbLayerTableRecord
  2
SWITCH_SMD_ALPS_SKPM_SERIES_5_4
 70
0
 62
7
  6
CONTINUOUS
370
-3
390
F
  0
LAYER
  5
2AD
100
AcDbSymbolTableRecord
100
AcDbLayerTableRecord
  2
SWITCH_SMD_ALPS_SKPM_SERIES_5_5
 70
0
 62
7
  6
CONTINUOUS
370
-3
390
F
  0
LAYER
  5
2AE
100
AcDbSymbolTableRecord
100
AcDbLayerTableRecord
  2
SWITCH_SMD_ALPS_SKPM_SERIES_5_6
 70
0
 62
7
  6
CONTINUOUS
370
-3
390
F
  0
LAYER
  5
2AF
100
AcDbSymbolTableRecord
100
AcDbLayerTableRecord
  2
SWITCH_SMD_ALPS_SKPM_SERIES_5_7
 70
0
 62
7
  6
CONTINUOUS
370
-3
390
F
  0
LAYER
  5
2B0
100
AcDbSymbolTableRecord
100
AcDbLayerTableRecord
  2
SWITCH_SMD_ALPS_SKPM_SERIES_5_8
 70
0
 62
7
  6
CONTINUOUS
370
-3
390
F
  0
LAYER
  5
2B1
100
AcDbSymbolTableRecord
100
AcDbLayerTableRecord
  2
SWITCH_SMD_ALPS_SKPM_SERIES_5_9
 70
0
 62
7
  6
CONTINUOUS
370
-3
390
F
  0
LAYER
  5
2B2
100
AcDbSymbolTableRecord
100
AcDbLayerTableRecord
  2
SYMBOL_DATA_10000
 70
0
 62
7
  6
CONTINUOUS
370
-3
390
F
  0
LAYER
  5
2B3
100
AcDbSymbolTableRecord
100
AcDbLayerTableRecord
  2
SYMBOL_E2_10000
 70
0
 62
7
  6
CONTINUOUS
370
-3
390
F
  0
LAYER
  5
2B4
100
AcDbSymbolTableRecord
100
AcDbLayerTableRecord
  2
SYMBOL_E4_10000
 70
0
 62
7
  6
CONTINUOUS
370
-3
390
F
  0
LAYER
  5
2B5
100
AcDbSymbolTableRecord
100
AcDbLayerTableRecord
  2
SYMBOL_NO-PB_10000
 70
0
 62
7
  6
CONTINUOUS
370
-3
390
F
  0
LAYER
  5
2B6
100
AcDbSymbolTableRecord
100
AcDbLayerTableRecord
  2
TPD4E001DRL_SOTFL-6_60000
 70
0
 62
7
  6
CONTINUOUS
370
-3
390
F
  0
LAYER
  5
2B7
100
AcDbSymbolTableRecord
100
AcDbLayerTableRecord
  2
TPD4E001DRL_SOTFL-6_60000_1
 70
0
 62
7
  6
CONTINUOUS
370
-3
390
F
  0
LAYER
  5
2B8
100
AcDbSymbolTableRecord
100
AcDbLayerTableRecord
  2
TRASH
 70
0
 62
7
  6
CONTINUOUS
370
-3
390
F
  0
LAYER
  5
2B9
100
AcDbSymbolTableRecord
100
AcDbLayerTableRecord
  2
WUERTH_74279202_0805_60000
 70
0
 62
7
  6
CONTINUOUS
370
-3
390
F
  0
LAYER
  5
2BA
100
AcDbSymbolTableRecord
100
AcDbLayerTableRecord
  2
WUERTH_744242471_350000
 70
0
 62
7
  6
CONTINUOUS
370
-3
390
F
  0
LAYER
  5
2BB
100
AcDbSymbolTableRecord
100
AcDbLayerTableRecord
  2
___SHELL
 70
0
 62
7
  6
CONTINUOUS
370
-3
390
F
  0
ENDTAB
  0
TABLE
  2
STYLE
  5
3
100
AcDbSymbolTable
 70
1
  0
STYLE
  5
11
100
AcDbSymbolTableRecord
100
AcDbTextStyleTableRecord
  2
STANDARD
 70
0
 40
0.0
 41
0.8
 50
0.0
 71
0
 42
0.2
  3
txt
  4

  0
STYLE
  5
2BC
100
AcDbSymbolTableRecord
100
AcDbTextStyleTableRecord
  2
TEXTSTYLE_1
 70
0
 40
0.0
 41
0.8
 50
0.0
 71
0
 42
0.2
  3
gdt
  4

  0
ENDTAB
  0
TABLE
  2
VIEW
  5
6
100
AcDbSymbolTable
 70
0
  0
ENDTAB
  0
TABLE
  2
UCS
  5
7
100
AcDbSymbolTable
 70
0
  0
ENDTAB
  0
TABLE
  2
APPID
  5
9
100
AcDbSymbolTable
 70
1
  0
APPID
  5
2BD
100
AcDbSymbolTableRecord
100
AcDbRegAppTableRecord
  2
ACAD
 70
0
  0
ENDTAB
  0
TABLE
  2
BLOCK_RECORD
  5
1
100
AcDbSymbolTable
 70
0
  0
BLOCK_RECORD
  5
2BE
100
AcDbSymbolTableRecord
100
AcDbBlockTableRecord
  2
*Model_Space
  0
BLOCK_RECORD
  5
2BF
100
AcDbSymbolTableRecord
100
AcDbBlockTableRecord
  2
*Paper_Space
  0
ENDTAB
  0
TABLE
  2
DIMSTYLE
  5
A
100
AcDbSymbolTable
 70
1
100
AcDbDimStyleTable
 71
0
  0
DIMSTYLE
105
2C0
100
AcDbSymbolTableRecord
100
AcDbDimStyleTableRecord
  2
STANDARD
 70
0
  3

  4

 40
1.0
 41
3.0
 42
0.5
 43
0.38
 44
1.5
 45
0.0
 46
0.0
 47
0.01
 48
0.01
140
3.0
141
0.09
142
0.0
143
25.4
144
1.0
145
0.0
146
1.0
147
0.625
 71
1.0
 72
0.0
 73
0
 74
0
 75
0
 76
0
 77
1
 78
8
170
0
171
2
172
0
173
0
174
0
175
0
176
0
177
0
178
0
270
2
271
2
272
2
273
2
274
2
275
0
280
0
281
0
282
0
283
1
284
8
285
0
286
0
287
3
288
0
340
11
278
44
  0
ENDTAB
  0
ENDSEC
  0
SECTION
  2
BLOCKS
  0
BLOCK
  5
20
100
AcDbEntity
  8
0
100
AcDbBlockBegin
  2
*Model_Space
 70
0
 10
0.0
 20
0.0
 30
0.0
  3
*Model_Space
  1

  0
ENDBLK
  5
21
100
AcDbEntity
  8
0
100
AcDbBlockEnd
  0
BLOCK
  5
1C
100
AcDbEntity
  8
0
100
AcDbBlockBegin
  2
*Paper_Space
 70
0
 10
0.0
 20
0.0
 30
0.0
  3
*Paper_Space
  1

  0
ENDBLK
  5
1D
100
AcDbEntity
  8
0
100
AcDbBlockEnd
  0
ENDSEC
  0
SECTION
  2
ENTITIES
  0
LINE
  5
2C1
100
AcDbEntity
  8
RACCORDO
100
AcDbLine
 62
253
  6
CONTINUOUS
 10
12.5951141491
 20
-53.2742745679
 11
12.5677555797
 21
-53.2749227597
  0
LWPOLYLINE
  5
2C2
100
AcDbEntity
  8
RACCORDO
100
AcDbPolyline
 62
253
  6
CONTINUOUS
 90
6
 70
0
 10
12.5677555797
 20
-53.2749227597
 10
12.5392598504
 20
-53.2720985476
 10
12.5098438206
 20
-53.2658234238
 10
12.4797313597
 20
-53.2561451413
 10
12.4491516449
 20
-53.2431373558
 10
12.4183374063
 20
-53.2268990616
  0
LINE
  5
2C3
100
AcDbEntity
  8
RACCORDO
100
AcDbLine
 62
7
  6
CONTINUOUS
 10
-35.0619108316
 20
64.6257289904
 11
-34.3264702435
 21
65.0503631688
  0
LINE
  5
2C4
100
AcDbEntity
  8
ASSI
100
AcDbLine
 62
7
  6
CONTINUOUS
 10
-35.0619108316
 20
64.6257289904
 11
-34.3264702435
 21
65.0503631688
  0
LINE
  5
2C5
100
AcDbEntity
  8
RACCORDO
100
AcDbLine
 62
253
  6
CONTINUOUS
 10
-35.4100338978
 20
64.086478234
 11
-33.8264460833
 21
65.0008219911
  0
LINE
  5
2C6
100
AcDbEntity
  8
ASSI
100
AcDbLine
 62
253
  6
CONTINUOUS
 10
-35.4100338978
 20
64.086478234
 11
-33.8264460833
 21
65.0008219911
  0
LINE
  5
2C7
100
AcDbEntity
  8
RACCORDO
100
AcDbLine
 62
7
  6
CONTINUOUS
 10
-34.7128542665
 20
60.2490323495
 11
-34.0436270454
 21
60.6354357596
  0
LINE
  5
2C8
100
AcDbEntity
  8
RACCORDO
100
AcDbLine
 62
253
  6
CONTINUOUS
 10
-34.4628421864
 20
60.2242617607
 11
-33.8971704281
 21
60.5508735444
  0
LWPOLYLINE
  5
2C9
100
AcDbEntity
  8
RACCORDO
100
AcDbPolyline
 62
7
  6
CONTINUOUS
 90
15
 70
0
 10
-34.3264593965
 20
65.0503443824
 10
-34.3116500388
 20
65.058408047
 10
-34.280965561
 20
65.0722380827
 10
-34.248731059
 20
65.0830402056
 10
-34.2149620743
 20
65.0908447754
 10
-34.1799994739
 20
65.0955730121
 10
-34.1438311688
 20
65.097193758
 10
-34.106469248
 20
65.0957381709
 10
-34.068290846
 20
65.0912209434
 10
-34.0292876933
 20
65.0836110669
 10
-33.9894680595
 20
65.07293955
 10
-33.9492338873
 20
65.0593141121
 10
-33.9087191577
 20
65.0427706595
 10
-33.8677898897
 20
65.0232732858
 10
-33.8264460833
 20
65.0008219911
  0
LWPOLYLINE
  5
2CA
100
AcDbEntity
  8
ASSI
100
AcDbPolyline
 62
7
  6
CONTINUOUS
 90
15
 70
0
 10
-34.3264593965
 20
65.0503443824
 10
-34.3116500388
 20
65.058408047
 10
-34.280965561
 20
65.0722380827
 10
-34.248731059
 20
65.0830402056
 10
-34.2149620743
 20
65.0908447754
 10
-34.1799994739
 20
65.0955730121
 10
-34.1438311688
 20
65.097193758
 10
-34.106469248
 20
65.0957381709
 10
-34.068290846
 20
65.0912209434
 10
-34.0292876933
 20
65.0836110669
 10
-33.9894680595
 20
65.07293955
 10
-33.9492338873
 20
65.0593141121
 10
-33.9087191577
 20
65.0427706595
 10
-33.8677898897
 20
65.0232732858
 10
-33.8264460833
 20
65.0008219911
  0
LINE
  5
2CB
100
AcDbEntity
  8
RACCORDO
100
AcDbLine
 62
7
  6
CONTINUOUS
 10
-15.5682390001
 20
69.5883716528
 11
-29.1355082741
 21
62.2923332913
  0
LINE
  5
2CC
100
AcDbEntity
  8
ASSI
100
AcDbLine
 62
7
  6
CONTINUOUS
 10
-15.5682390001
 20
69.5883716528
 11
-29.1355082741
 21
62.2923332913
  0
LINE
  5
2CD
100
AcDbEntity
  8
RACCORDO
100
AcDbLine
 62
253
  6
CONTINUOUS
 10
-15.0796747893
 20
69.5325137296
 11
-28.8498153301
 21
62.127377766
  0
LINE
  5
2CE
100
AcDbEntity
  8
ASSI
100
AcDbLine
 62
253
  6
CONTINUOUS
 10
-15.0796747893
 20
69.5325137296
 11
-28.8498153301
 21
62.127377766
  0
LINE
  5
2CF
100
AcDbEntity
  8
RACCORDO
100
AcDbLine
 62
253
  6
CONTINUOUS
 10
-15.5682390001
 20
69.5883716528
 11
-15.5623397593
 21
69.591468484
  0
LINE
  5
2D0
100
AcDbEntity
  8
ASSI
100
AcDbLine
 62
253
  6
CONTINUOUS
 10
-15.5682390001
 20
69.5883716528
 11
-15.5623397593
 21
69.591468484
  0
LWPOLYLINE
  5
2D1
100
AcDbEntity
  8
RACCORDO
100
AcDbPolyline
 62
253
  6
CONTINUOUS
 90
14
 70
0
 10
-15.5623397593
 20
69.591468484
 10
-15.5316465707
 20
69.6052916325
 10
-15.4994448201
 20
69.6160935082
 10
-15.4658432981
 20
69.6238377115
 10
-15.4309556243
 20
69.6284978326
 10
-15.3948982317
 20
69.6300583529
 10
-15.3577937025
 20
69.6285138235
 10
-15.3197707337
 20
69.6238690137
 10
-15.280958783
 20
69.6161408973
 10
-15.2414871273
 20
69.6053561155
 10
-15.2014880394
 20
69.5915494076
 10
-15.1610956808
 20
69.5747667263
 10
-15.1204457921
 20
69.5550658547
 10
-15.0796747893
 20
69.5325137296
  0
LWPOLYLINE
  5
2D2
100
AcDbEntity
  8
ASSI
100
AcDbPolyline
 62
253
  6
CONTINUOUS
 90
14
 70
0
 10
-15.5623397593
 20
69.591468484
 10
-15.5316465707
 20
69.6052916325
 10
-15.4994448201
 20
69.6160935082
 10
-15.4658432981
 20
69.6238377115
 10
-15.4309556243
 20
69.6284978326
 10
-15.3948982317
 20
69.6300583529
 10
-15.3577937025
 20
69.6285138235
 10
-15.3197707337
 20
69.6238690137
 10
-15.280958783
 20
69.6161408973
 10
-15.2414871273
 20
69.6053561155
 10
-15.2014880394
 20
69.5915494076
 10
-15.1610956808
 20
69.5747667263
 10
-15.1204457921
 20
69.5550658547
 10
-15.0796747893
 20
69.5325137296
  0
LWPOLYLINE
  5
2D3
100
AcDbEntity
  8
RACCORDO
100
AcDbPolyline
 62
7
  6
CONTINUOUS
 90
13
 70
0
 10
-34.7128542665
 20
60.2490323495
 10
-34.7486249191
 20
60.2263046978
 10
-34.782681461
 20
60.2003477812
 10
-34.8146569103
 20
60.1713101711
 10
-34.8441888281
 20
60.1394067928
 10
-34.8709678099
 20
60.1048751424
 10
-34.8947430778
 20
60.0679425209
 10
-34.9152927199
 20
60.0288375856
 10
-34.9323474801
 20
59.9879707294
 10
-34.9456990852
 20
59.9458311496
 10
-34.9552670782
 20
59.9027313944
 10
-34.9609898723
 20
59.8590252507
 10
-34.9628421864
 20
59.8160299269
  0
LINE
  5
2D4
100
AcDbEntity
  8
RACCORDO
100
AcDbLine
 62
253
  6
CONTINUOUS
 10
-32.9829873736
 20
57.3228060716
 11
-33.1900499803
 21
57.2032507177
  0
LINE
  5
2D5
100
AcDbEntity
  8
ASSI
100
AcDbLine
 62
7
  6
CONTINUOUS
 10
-35.7002790535
 20
52.9782044462
 11
-36.1952538003
 21
52.6924122309
  0
LINE
  5
2D6
100
AcDbEntity
  8
0
100
AcDbLine
 62
7
  6
CONTINUOUS
 10
-28.1695918338
 20
57.2438414474
 11
-27.7453277651
 21
57.4888062034
  0
LINE
  5
2D7
100
AcDbEntity
  8
ASSI
100
AcDbLine
 62
7
  6
CONTINUOUS
 10
-28.1695918338
 20
57.2438414474
 11
-27.7453277651
 21
57.4888062034
  0
LWPOLYLINE
  5
2D8
100
AcDbEntity
  8
0
100
AcDbPolyline
 62
7
  6
CONTINUOUS
 90
45
 70
0
 10
-36.1952538003
 20
52.6924122309
 10
-36.3078645989
 20
52.6308842033
 10
-36.4253441663
 20
52.5732642788
 10
-36.5476925027
 20
52.5195524573
 10
-36.675297028
 20
52.4696137997
 10
-36.8077703222
 20
52.4235832451
 10
-36.9439501253
 20
52.3818656111
 10
-37.0838694358
 20
52.3444992234
 10
-37.2274952551
 20
52.3114457563
 10
-37.3735663278
 20
52.282995051
 10
-37.5221027844
 20
52.2591880293
 10
-37.6730844944
 20
52.2399837694
 10
-37.8251898104
 20
52.225549347
 10
-37.9784193641
 20
52.2159256357
 10
-38.132772524
 20
52.2110717619
 10
-38.2869257485
 20
52.2110321809
 10
-38.4408946606
 20
52.2158492034
 10
-38.5946636372
 20
52.2254805187
 10
-38.7468622683
 20
52.239843649
 10
-38.8974688293
 20
52.2589807812
 10
-39.0465050446
 20
52.2828497285
 10
-39.1926656769
 20
52.3112414523
 10
-39.3359254689
 20
52.3441956784
 10
-39.4763096779
 20
52.381672681
 10
-39.6125888386
 20
52.4233442441
 10
-39.7447268946
 20
52.4692472107
 10
-39.8727599022
 20
52.5193447379
 10
-39.9955665653
 20
52.5731980805
 10
-40.1131009786
 20
52.6308402281
 10
-40.2254090473
 20
52.6922381912
 10
-40.3315071912
 20
52.756854257
 10
-40.4313408656
 20
52.8247166917
 10
-40.5249646151
 20
52.8957972292
 10
-40.6115584934
 20
52.9694733573
 10
-40.6910607539
 20
53.0457678747
 10
-40.7635331431
 20
53.1246579829
 10
-40.8283409548
 20
53.2054527743
 10
-40.8854168674
 20
53.2881689788
 10
-40.9348282025
 20
53.3727898665
 10
-40.9761422189
 20
53.4585743401
 10
-41.0092877941
 20
53.5455326199
 10
-41.0343360506
 20
53.6336544856
 10
-41.0510676157
 20
53.722168178
 10
-41.0594094397
 20
53.8110771389
 10
-41.0604616444
 20
53.8559948219
  0
LWPOLYLINE
  5
2D9
100
AcDbEntity
  8
ASSI
100
AcDbPolyline
 62
7
  6
CONTINUOUS
 90
45
 70
0
 10
-36.1952538003
 20
52.6924122309
 10
-36.3078645989
 20
52.6308842033
 10
-36.4253441663
 20
52.5732642788
 10
-36.5476925027
 20
52.5195524573
 10
-36.675297028
 20
52.4696137997
 10
-36.8077703222
 20
52.4235832451
 10
-36.9439501253
 20
52.3818656111
 10
-37.0838694358
 20
52.3444992234
 10
-37.2274952551
 20
52.3114457563
 10
-37.3735663278
 20
52.282995051
 10
-37.5221027844
 20
52.2591880293
 10
-37.6730844944
 20
52.2399837694
 10
-37.8251898104
 20
52.225549347
 10
-37.9784193641
 20
52.2159256357
 10
-38.132772524
 20
52.2110717619
 10
-38.2869257485
 20
52.2110321809
 10
-38.4408946606
 20
52.2158492034
 10
-38.5946636372
 20
52.2254805187
 10
-38.7468622683
 20
52.239843649
 10
-38.8974688293
 20
52.2589807812
 10
-39.0465050446
 20
52.2828497285
 10
-39.1926656769
 20
52.3112414523
 10
-39.3359254689
 20
52.3441956784
 10
-39.4763096779
 20
52.381672681
 10
-39.6125888386
 20
52.4233442441
 10
-39.7447268946
 20
52.4692472107
 10
-39.8727599022
 20
52.5193447379
 10
-39.9955665653
 20
52.5731980805
 10
-40.1131009786
 20
52.6308402281
 10
-40.2254090473
 20
52.6922381912
 10
-40.3315071912
 20
52.756854257
 10
-40.4313408656
 20
52.8247166917
 10
-40.5249646151
 20
52.8957972292
 10
-40.6115584934
 20
52.9694733573
 10
-40.6910607539
 20
53.0457678747
 10
-40.7635331431
 20
53.1246579829
 10
-40.8283409548
 20
53.2054527743
 10
-40.8854168674
 20
53.2881689788
 10
-40.9348282025
 20
53.3727898665
 10
-40.9761422189
 20
53.4585743401
 10
-41.0092877941
 20
53.5455326199
 10
-41.0343360506
 20
53.6336544856
 10
-41.0510676157
 20
53.722168178
 10
-41.0594094397
 20
53.8110771389
 10
-41.0604616444
 20
53.8559948219
  0
LWPOLYLINE
  5
2DA
100
AcDbEntity
  8
0
100
AcDbPolyline
 62
7
  6
CONTINUOUS
 90
37
 70
0
 10
-39.1651022813
 20
54.4071655229
 10
-39.1001133725
 20
54.4422453974
 10
-39.0319219258
 20
54.4745578905
 10
-38.9605279413
 20
54.5041030019
 10
-38.8855992217
 20
54.5309832546
 10
-38.8074679643
 20
54.5550961256
 10
-38.7271307604
 20
54.5761340471
 10
-38.6445593523
 20
54.5940576294
 10
-38.5597819977
 20
54.6089062621
 10
-38.4738800614
 20
54.6204905457
 10
-38.3868391377
 20
54.6287686645
 10
-38.2986736322
 20
54.6337824342
 10
-38.2105081267
 20
54.6354679024
 10
-38.1223426212
 20
54.6337824342
 10
-38.0341771157
 20
54.6287686645
 10
-37.947136192
 20
54.6204905457
 10
-37.8612342556
 20
54.6089062621
 10
-37.7764569011
 20
54.5940576294
 10
-37.693885493
 20
54.5761340471
 10
-37.6135482891
 20
54.5550961256
 10
-37.5354170317
 20
54.5309832546
 10
-37.4604883121
 20
54.5041030019
 10
-37.3888031543
 20
54.4744199181
 10
-37.3203205344
 20
54.4419694528
 10
-37.2559139721
 20
54.4071655229
 10
-37.1956356808
 20
54.369977981
 10
-37.1394334471
 20
54.3304369745
 10
-37.0880241501
 20
54.2890468629
 10
-37.0414691863
 20
54.2457839593
 10
-36.9997071591
 20
54.2006719504
 10
-36.9632707578
 20
54.1542862558
 10
-36.9322282026
 20
54.1066105596
 10
-36.9065112732
 20
54.0576611776
 10
-36.8864479981
 20
54.0080624762
 10
-36.8721107995
 20
53.9578061377
 10
-36.8634272552
 20
53.9069004798
 10
-36.8605081267
 20
53.8559948219
  0
LWPOLYLINE
  5
2DB
100
AcDbEntity
  8
ASSI
100
AcDbPolyline
 62
7
  6
CONTINUOUS
 90
37
 70
0
 10
-39.1651022813
 20
54.4071655229
 10
-39.1001133725
 20
54.4422453974
 10
-39.0319219258
 20
54.4745578905
 10
-38.9605279413
 20
54.5041030019
 10
-38.8855992217
 20
54.5309832546
 10
-38.8074679643
 20
54.5550961256
 10
-38.7271307604
 20
54.5761340471
 10
-38.6445593523
 20
54.5940576294
 10
-38.5597819977
 20
54.6089062621
 10
-38.4738800614
 20
54.6204905457
 10
-38.3868391377
 20
54.6287686645
 10
-38.2986736322
 20
54.6337824342
 10
-38.2105081267
 20
54.6354679024
 10
-38.1223426212
 20
54.6337824342
 10
-38.0341771157
 20
54.6287686645
 10
-37.947136192
 20
54.6204905457
 10
-37.8612342556
 20
54.6089062621
 10
-37.7764569011
 20
54.5940576294
 10
-37.693885493
 20
54.5761340471
 10
-37.6135482891
 20
54.5550961256
 10
-37.5354170317
 20
54.5309832546
 10
-37.4604883121
 20
54.5041030019
 10
-37.3888031543
 20
54.4744199181
 10
-37.3203205344
 20
54.4419694528
 10
-37.2559139721
 20
54.4071655229
 10
-37.1956356808
 20
54.369977981
 10
-37.1394334471
 20
54.3304369745
 10
-37.0880241501
 20
54.2890468629
 10
-37.0414691863
 20
54.2457839593
 10
-36.9997071591
 20
54.2006719504
 10
-36.9632707578
 20
54.1542862558
 10
-36.9322282026
 20
54.1066105596
 10
-36.9065112732
 20
54.0576611776
 10
-36.8864479981
 20
54.0080624762
 10
-36.8721107995
 20
53.9578061377
 10
-36.8634272552
 20
53.9069004798
 10
-36.8605081267
 20
53.8559948219
  0
LWPOLYLINE
  5
2DC
100
AcDbEntity
  8
0
100
AcDbPolyline
 62
7
  6
CONTINUOUS
 90
37
 70
0
 10
-37.2559139721
 20
53.3048241209
 10
-37.3209028809
 20
53.2697442463
 10
-37.3890943276
 20
53.2374317533
 10
-37.4604883121
 20
53.2078866418
 10
-37.5354170317
 20
53.1810063892
 10
-37.6135482891
 20
53.1568935181
 10
-37.693885493
 20
53.1358555966
 10
-37.7764569011
 20
53.1179320143
 10
-37.8612342556
 20
53.1030833816
 10
-37.947136192
 20
53.091499098
 10
-38.0341771157
 20
53.0832209792
 10
-38.1223426212
 20
53.0782072095
 10
-38.2105081267
 20
53.0765217413
 10
-38.2986736322
 20
53.0782072095
 10
-38.3868391377
 20
53.0832209792
 10
-38.4738800614
 20
53.091499098
 10
-38.5597819977
 20
53.1030833816
 10
-38.6445593523
 20
53.1179320143
 10
-38.7271307604
 20
53.1358555966
 10
-38.8074679643
 20
53.1568935181
 10
-38.8855992217
 20
53.1810063892
 10
-38.9605279413
 20
53.2078866418
 10
-39.032213099
 20
53.2375697256
 10
-39.1006957189
 20
53.270020191
 10
-39.1651022813
 20
53.3048241209
 10
-39.2253805725
 20
53.3420116628
 10
-39.2815828062
 20
53.3815526692
 10
-39.3329921033
 20
53.4229427809
 10
-39.3795470671
 20
53.4662056845
 10
-39.4213090942
 20
53.5113176933
 10
-39.4577454956
 20
53.557703388
 10
-39.4887880508
 20
53.6053790842
 10
-39.5145049801
 20
53.6543284662
 10
-39.5345682552
 20
53.7039271676
 10
-39.5489054538
 20
53.7541835061
 10
-39.5575889982
 20
53.805089164
 10
-39.5605081267
 20
53.8559948219
  0
LWPOLYLINE
  5
2DD
100
AcDbEntity
  8
ASSI
100
AcDbPolyline
 62
7
  6
CONTINUOUS
 90
37
 70
0
 10
-37.2559139721
 20
53.3048241209
 10
-37.3209028809
 20
53.2697442463
 10
-37.3890943276
 20
53.2374317533
 10
-37.4604883121
 20
53.2078866418
 10
-37.5354170317
 20
53.1810063892
 10
-37.6135482891
 20
53.1568935181
 10
-37.693885493
 20
53.1358555966
 10
-37.7764569011
 20
53.1179320143
 10
-37.8612342556
 20
53.1030833816
 10
-37.947136192
 20
53.091499098
 10
-38.0341771157
 20
53.0832209792
 10
-38.1223426212
 20
53.0782072095
 10
-38.2105081267
 20
53.0765217413
 10
-38.2986736322
 20
53.0782072095
 10
-38.3868391377
 20
53.0832209792
 10
-38.4738800614
 20
53.091499098
 10
-38.5597819977
 20
53.1030833816
 10
-38.6445593523
 20
53.1179320143
 10
-38.7271307604
 20
53.1358555966
 10
-38.8074679643
 20
53.1568935181
 10
-38.8855992217
 20
53.1810063892
 10
-38.9605279413
 20
53.2078866418
 10
-39.032213099
 20
53.2375697256
 10
-39.1006957189
 20
53.270020191
 10
-39.1651022813
 20
53.3048241209
 10
-39.2253805725
 20
53.3420116628
 10
-39.2815828062
 20
53.3815526692
 10
-39.3329921033
 20
53.4229427809
 10
-39.3795470671
 20
53.4662056845
 10
-39.4213090942
 20
53.5113176933
 10
-39.4577454956
 20
53.557703388
 10
-39.4887880508
 20
53.6053790842
 10
-39.5145049801
 20
53.6543284662
 10
-39.5345682552
 20
53.7039271676
 10
-39.5489054538
 20
53.7541835061
 10
-39.5575889982
 20
53.805089164
 10
-39.5605081267
 20
53.8559948219
  0
LWPOLYLINE
  5
2DE
100
AcDbEntity
  8
RACCORDO
100
AcDbPolyline
 62
253
  6
CONTINUOUS
 90
4
 70
0
 10
16.1346019013
 20
-59.197513891
 10
16.09834447
 20
-59.1834799711
 10
16.0616711663
 20
-59.1664628216
 10
16.0245819903
 20
-59.1464624426
  0
LWPOLYLINE
  5
2DF
100
AcDbEntity
  8
ASSI
100
AcDbPolyline
 62
253
  6
CONTINUOUS
 90
4
 70
0
 10
16.1346019013
 20
-59.197513891
 10
16.09834447
 20
-59.1834799711
 10
16.0616711663
 20
-59.1664628216
 10
16.0245819903
 20
-59.1464624426
  0
LWPOLYLINE
  5
2E0
100
AcDbEntity
  8
RACCORDO
100
AcDbPolyline
 62
7
  6
CONTINUOUS
 90
12
 70
0
 10
-35.4100338978
 20
64.086478234
 10
-35.3544744489
 20
64.1516154192
 10
-35.3054405395
 20
64.2133302979
 10
-35.2624756909
 20
64.2713925738
 10
-35.2251803411
 20
64.3256336095
 10
-35.1930322037
 20
64.3758376634
 10
-35.1654474236
 20
64.4217507151
 10
-35.1419881272
 20
64.4632445359
 10
-35.1223380895
 20
64.5002127439
 10
-35.106149332
 20
64.5324682248
 10
-35.0930514999
 20
64.5598164679
 10
-35.0826959073
 20
64.5823046803
  0
LWPOLYLINE
  5
2E1
100
AcDbEntity
  8
ASSI
100
AcDbPolyline
 62
7
  6
CONTINUOUS
 90
12
 70
0
 10
-35.4100338978
 20
64.086478234
 10
-35.3544744489
 20
64.1516154192
 10
-35.3054405395
 20
64.2133302979
 10
-35.2624756909
 20
64.2713925738
 10
-35.2251803411
 20
64.3256336095
 10
-35.1930322037
 20
64.3758376634
 10
-35.1654474236
 20
64.4217507151
 10
-35.1419881272
 20
64.4632445359
 10
-35.1223380895
 20
64.5002127439
 10
-35.106149332
 20
64.5324682248
 10
-35.0930514999
 20
64.5598164679
 10
-35.0826959073
 20
64.5823046803
  0
LINE
  5
2E2
100
AcDbEntity
  8
RACCORDO
100
AcDbLine
 62
7
  6
CONTINUOUS
 10
-35.4100338978
 20
64.086478234
 11
-35.4197523651
 21
64.0756708865
  0
LINE
  5
2E3
100
AcDbEntity
  8
ASSI
100
AcDbLine
 62
7
  6
CONTINUOUS
 10
-35.4100338978
 20
64.086478234
 11
-35.4197523651
 21
64.0756708865
  0
LINE
  5
2E4
100
AcDbEntity
  8
RACCORDO
100
AcDbLine
 62
7
  6
CONTINUOUS
 10
-35.4197523651
 20
64.0756708865
 11
-35.4295992668
 21
64.0648978257
  0
LINE
  5
2E5
100
AcDbEntity
  8
ASSI
100
AcDbLine
 62
7
  6
CONTINUOUS
 10
-35.4197523651
 20
64.0756708865
 11
-35.4295992668
 21
64.0648978257
  0
LINE
  5
2E6
100
AcDbEntity
  8
RACCORDO
100
AcDbLine
 62
7
  6
CONTINUOUS
 10
-35.4295992668
 20
64.0648978257
 11
-35.439574603
 21
64.0541590518
  0
LINE
  5
2E7
100
AcDbEntity
  8
ASSI
100
AcDbLine
 62
7
  6
CONTINUOUS
 10
-35.4295992668
 20
64.0648978257
 11
-35.439574603
 21
64.0541590518
  0
LINE
  5
2E8
100
AcDbEntity
  8
0
100
AcDbLine
 62
7
  6
CONTINUOUS
 10
-35.7002790535
 20
49.9572644221
 11
-36.1952538003
 21
49.6714722068
  0
LINE
  5
2E9
100
AcDbEntity
  8
ASSI
100
AcDbLine
 62
7
  6
CONTINUOUS
 10
-35.7002790535
 20
49.9572644221
 11
-36.1952538003
 21
49.6714722068
  0
LINE
  5
2EA
100
AcDbEntity
  8
DRAFT
100
AcDbLine
 62
7
  6
CONTINUOUS
 10
-20.7413469583
 20
57.4456497511
 11
-17.2040419991
 21
59.4396989257
  0
LINE
  5
2EB
100
AcDbEntity
  8
ASSI
100
AcDbLine
 62
7
  6
CONTINUOUS
 10
-20.7413469583
 20
57.4456497511
 11
-17.2040419991
 21
59.4396989257
  0
LINE
  5
2EC
100
AcDbEntity
  8
DRAFT
100
AcDbLine
 62
7
  6
CONTINUOUS
 10
-21.4996920178
 20
57.8835086842
 11
-17.921938233
 21
59.8542032138
  0
LINE
  5
2ED
100
AcDbEntity
  8
ASSI
100
AcDbLine
 62
7
  6
CONTINUOUS
 10
-21.4996920178
 20
57.8835086842
 11
-17.921938233
 21
59.8542032138
  0
LWPOLYLINE
  5
2EE
100
AcDbEntity
  8
RACCORDO
100
AcDbPolyline
 62
253
  6
CONTINUOUS
 90
22
 70
0
 10
15.2388735061
 20
-54.3532091123
 10
15.2874733584
 20
-54.3716650873
 10
15.3378495661
 20
-54.3884582392
 10
15.3898316741
 20
-54.4035317459
 10
15.4432437943
 20
-54.4168346035
 10
15.4979051948
 20
-54.4283217984
 10
15.5536309123
 20
-54.4379544602
 10
15.6102323846
 20
-54.4456999948
 10
15.6675180938
 20
-54.451532195
 10
15.7252942086
 20
-54.4554313269
 10
15.7833652361
 20
-54.4573841971
 10
15.8415346792
 20
-54.457384197
 10
15.8996057066
 20
-54.4554313268
 10
15.9573818212
 20
-54.4515321948
 10
16.0146675302
 20
-54.4456999945
 10
16.0712690024
 20
-54.4379544598
 10
16.1269947202
 20
-54.4283217978
 10
16.1816561212
 20
-54.4168346027
 10
16.2350682416
 20
-54.4035317448
 10
16.2870503493
 20
-54.3884582382
 10
16.3374265564
 20
-54.3716650863
 10
16.3860264079
 20
-54.3532091114
  0
LWPOLYLINE
  5
2EF
100
AcDbEntity
  8
ASSI
100
AcDbPolyline
 62
253
  6
CONTINUOUS
 90
22
 70
0
 10
15.2388735061
 20
-54.3532091123
 10
15.2874733584
 20
-54.3716650873
 10
15.3378495661
 20
-54.3884582392
 10
15.3898316741
 20
-54.4035317459
 10
15.4432437943
 20
-54.4168346035
 10
15.4979051948
 20
-54.4283217984
 10
15.5536309123
 20
-54.4379544602
 10
15.6102323846
 20
-54.4456999948
 10
15.6675180938
 20
-54.451532195
 10
15.7252942086
 20
-54.4554313269
 10
15.7833652361
 20
-54.4573841971
 10
15.8415346792
 20
-54.457384197
 10
15.8996057066
 20
-54.4554313268
 10
15.9573818212
 20
-54.4515321948
 10
16.0146675302
 20
-54.4456999945
 10
16.0712690024
 20
-54.4379544598
 10
16.1269947202
 20
-54.4283217978
 10
16.1816561212
 20
-54.4168346027
 10
16.2350682416
 20
-54.4035317448
 10
16.2870503493
 20
-54.3884582382
 10
16.3374265564
 20
-54.3716650863
 10
16.3860264079
 20
-54.3532091114
  0
LWPOLYLINE
  5
2F0
100
AcDbEntity
  8
RACCORDO
100
AcDbPolyline
 62
7
  6
CONTINUOUS
 90
19
 70
0
 10
-35.4881470191
 20
41.3025808507
 10
-35.5006250217
 20
41.2947158423
 10
-35.5128258685
 20
41.2858165229
 10
-35.5247495595
 20
41.2758828927
 10
-35.536482184
 20
41.2648240699
 10
-35.5479376526
 20
41.2527309363
 10
-35.5588576972
 20
41.2398761363
 10
-35.5692301551
 20
41.2262423678
 10
-35.579067189
 20
41.2118469329
 10
-35.5881470191
 20
41.1970143826
 10
-35.5964524446
 20
41.1817347871
 10
-35.6040006662
 20
41.1660180761
 10
-35.6106215062
 20
41.1502185892
 10
-35.6162938983
 20
41.1343344459
 10
-35.6210389087
 20
41.1183675267
 10
-35.6247495595
 20
41.1026778121
 10
-35.6273901911
 20
41.0873852957
 10
-35.6289964631
 20
41.0723699839
 10
-35.6295683753
 20
41.0576318767
  0
LWPOLYLINE
  5
2F1
100
AcDbEntity
  8
ASSI
100
AcDbPolyline
 62
7
  6
CONTINUOUS
 90
19
 70
0
 10
-35.4881470191
 20
41.3025808507
 10
-35.5006250217
 20
41.2947158423
 10
-35.5128258685
 20
41.2858165229
 10
-35.5247495595
 20
41.2758828927
 10
-35.536482184
 20
41.2648240699
 10
-35.5479376526
 20
41.2527309363
 10
-35.5588576972
 20
41.2398761363
 10
-35.5692301551
 20
41.2262423678
 10
-35.579067189
 20
41.2118469329
 10
-35.5881470191
 20
41.1970143826
 10
-35.5964524446
 20
41.1817347871
 10
-35.6040006662
 20
41.1660180761
 10
-35.6106215062
 20
41.1502185892
 10
-35.6162938983
 20
41.1343344459
 10
-35.6210389087
 20
41.1183675267
 10
-35.6247495595
 20
41.1026778121
 10
-35.6273901911
 20
41.0873852957
 10
-35.6289964631
 20
41.0723699839
 10
-35.6295683753
 20
41.0576318767
  0
LINE
  5
2F2
100
AcDbEntity
  8
RACCORDO
100
AcDbLine
 62
7
  6
CONTINUOUS
 10
-37.0791372768
 20
42.2211986857
 11
-36.218477105
 21
42.7181330823
  0
LINE
  5
2F3
100
AcDbEntity
  8
ASSI
100
AcDbLine
 62
7
  6
CONTINUOUS
 10
-37.0791372768
 20
42.2211986857
 11
-36.218477105
 21
42.7181330823
  0
LINE
  5
2F4
100
AcDbEntity
  8
RACCORDO
100
AcDbLine
 62
7
  6
CONTINUOUS
 10
-34.9628421864
 20
41.6058852775
 11
-35.4881470191
 21
41.3025808507
  0
LINE
  5
2F5
100
AcDbEntity
  8
ASSI
100
AcDbLine
 62
7
  6
CONTINUOUS
 10
-34.9628421864
 20
41.6058852775
 11
-35.4881470191
 21
41.3025808507
  0
LINE
  5
2F6
100
AcDbEntity
  8
RACCORDO
100
AcDbLine
 62
7
  6
CONTINUOUS
 10
-34.9628421864
 20
40.5444739177
 11
-35.4881470191
 21
40.2411694909
  0
LINE
  5
2F7
100
AcDbEntity
  8
ASSI
100
AcDbLine
 62
7
  6
CONTINUOUS
 10
-34.9628421864
 20
40.5444739177
 11
-35.4881470191
 21
40.2411694909
  0
LWPOLYLINE
  5
2F8
100
AcDbEntity
  8
RACCORDO
100
AcDbPolyline
 62
7
  6
CONTINUOUS
 90
10
 70
0
 10
-35.5881518511
 20
-26.7193014416
 10
-35.579067189
 20
-26.7236516215
 10
-35.5692301551
 20
-26.7266874962
 10
-35.5588576972
 20
-26.7283434103
 10
-35.5479376526
 20
-26.7285880165
 10
-35.536482184
 20
-26.7274526621
 10
-35.5247495595
 20
-26.7249629442
 10
-35.5128258685
 20
-26.721127395
 10
-35.5006250217
 20
-26.7159374823
 10
-35.4881470191
 20
-26.7093932061
  0
LWPOLYLINE
  5
2F9
100
AcDbEntity
  8
ASSI
100
AcDbPolyline
 62
7
  6
CONTINUOUS
 90
10
 70
0
 10
-35.5881518511
 20
-26.7193014416
 10
-35.579067189
 20
-26.7236516215
 10
-35.5692301551
 20
-26.7266874962
 10
-35.5588576972
 20
-26.7283434103
 10
-35.5479376526
 20
-26.7285880165
 10
-35.536482184
 20
-26.7274526621
 10
-35.5247495595
 20
-26.7249629442
 10
-35.5128258685
 20
-26.721127395
 10
-35.5006250217
 20
-26.7159374823
 10
-35.4881470191
 20
-26.7093932061
  0
LWPOLYLINE
  5
2FA
100
AcDbEntity
  8
RACCORDO
100
AcDbPolyline
 62
253
  6
CONTINUOUS
 90
19
 70
0
 10
13.6911296124
 20
-55.8397144212
 10
13.7233451129
 20
-55.8567564407
 10
13.7580150896
 20
-55.8721098094
 10
13.7948749289
 20
-55.8856571783
 10
13.8336435525
 20
-55.8972950557
 10
13.8740247283
 20
-55.9069343402
 10
13.9157092238
 20
-55.91450115
 10
13.9583816782
 20
-55.9199380084
 10
14.0017132701
 20
-55.9232027953
 10
14.0453629167
 20
-55.9242705911
 10
14.0889907519
 20
-55.9231351104
 10
14.1322705543
 20
-55.9198068717
 10
14.1748817855
 20
-55.9143113515
 10
14.2165398532
 20
-55.9066820442
 10
14.256884308
 20
-55.8969816762
 10
14.2955038564
 20
-55.8853189966
 10
14.332087044
 20
-55.871811816
 10
14.366410725
 20
-55.8565674335
 10
14.3982363936
 20
-55.8397144212
  0
LWPOLYLINE
  5
2FB
100
AcDbEntity
  8
RACCORDO
100
AcDbPolyline
 62
253
  6
CONTINUOUS
 90
19
 70
0
 10
-33.8971567614
 20
-26.4849526536
 10
-33.8649971757
 20
-26.5019675873
 10
-33.830391589
 20
-26.5172994189
 10
-33.7936033708
 20
-26.5308314641
 10
-33.7549125016
 20
-26.5424607357
 10
-33.7146134424
 20
-26.552098728
 10
-33.6730128933
 20
-26.55967209
 10
-33.6304274596
 20
-26.5651231839
 10
-33.5871812422
 20
-26.5684105236
 10
-33.5436033708
 20
-26.5695090904
 10
-33.5000254995
 20
-26.5684105236
 10
-33.456779282
 20
-26.5651231839
 10
-33.4141938483
 20
-26.55967209
 10
-33.3725932992
 20
-26.552098728
 10
-33.33229424
 20
-26.5424607357
 10
-33.2936033708
 20
-26.5308314641
 10
-33.2568151527
 20
-26.5172994189
 10
-33.222209566
 20
-26.5019675872
 10
-33.1900499803
 20
-26.4849526536
  0
LWPOLYLINE
  5
2FC
100
AcDbEntity
  8
RACCORDO
100
AcDbPolyline
 62
253
  6
CONTINUOUS
 90
25
 70
0
 10
15.246764531
 20
-53.3087433639
 10
15.2850078929
 20
-53.3294221715
 10
15.3252337923
 20
-53.3484993241
 10
15.3674422291
 20
-53.3659748217
 10
15.4118615412
 20
-53.3819249521
 10
15.4582633907
 20
-53.3962734275
 10
15.5059627644
 20
-53.4087913852
 10
15.554938353
 20
-53.4194383474
 10
15.6052114657
 20
-53.4282547918
 10
15.6561610168
 20
-53.4351332886
 10
15.7078054505
 20
-53.4400513095
 10
15.7601263226
 20
-53.4430313828
 10
15.8124472148
 20
-53.4440336629
 10
15.8647681297
 20
-53.4430315884
 10
15.9170890646
 20
-53.4400517207
 10
15.9687335934
 20
-53.4351338983
 10
16.019683306
 20
-53.4282555792
 10
16.0699566124
 20
-53.4194393055
 10
16.1189323167
 20
-53.408792542
 10
16.166631469
 20
-53.3962749343
 10
16.2130330193
 20
-53.3819268369
 10
16.2574526203
 20
-53.3659767784
 10
16.2996621564
 20
-53.3485009347
 10
16.3398897432
 20
-53.3294231299
 10
16.3781353809
 20
-53.3087433639
  0
LWPOLYLINE
  5
2FD
100
AcDbEntity
  8
ASSI
100
AcDbPolyline
 62
253
  6
CONTINUOUS
 90
25
 70
0
 10
15.246764531
 20
-53.3087433639
 10
15.2850078929
 20
-53.3294221715
 10
15.3252337923
 20
-53.3484993241
 10
15.3674422291
 20
-53.3659748217
 10
15.4118615412
 20
-53.3819249521
 10
15.4582633907
 20
-53.3962734275
 10
15.5059627644
 20
-53.4087913852
 10
15.554938353
 20
-53.4194383474
 10
15.6052114657
 20
-53.4282547918
 10
15.6561610168
 20
-53.4351332886
 10
15.7078054505
 20
-53.4400513095
 10
15.7601263226
 20
-53.4430313828
 10
15.8124472148
 20
-53.4440336629
 10
15.8647681297
 20
-53.4430315884
 10
15.9170890646
 20
-53.4400517207
 10
15.9687335934
 20
-53.4351338983
 10
16.019683306
 20
-53.4282555792
 10
16.0699566124
 20
-53.4194393055
 10
16.1189323167
 20
-53.408792542
 10
16.166631469
 20
-53.3962749343
 10
16.2130330193
 20
-53.3819268369
 10
16.2574526203
 20
-53.3659767784
 10
16.2996621564
 20
-53.3485009347
 10
16.3398897432
 20
-53.3294231299
 10
16.3781353809
 20
-53.3087433639
  0
LWPOLYLINE
  5
2FE
100
AcDbEntity
  8
RACCORDO
100
AcDbPolyline
 62
7
  6
CONTINUOUS
 90
25
 70
0
 10
15.146759699
 20
-54.3800629593
 10
15.1946175155
 20
-54.4059492561
 10
15.2445616524
 20
-54.4296156627
 10
15.2964004561
 20
-54.4510523792
 10
15.3499956459
 20
-54.470266893
 10
15.4051327336
 20
-54.4872347655
 10
15.4614821048
 20
-54.5019098419
 10
15.5187715891
 20
-54.5142822248
 10
15.5768788505
 20
-54.5243779682
 10
15.6356636772
 20
-54.532209747
 10
15.6949280922
 20
-54.5377790247
 10
15.7544851391
 20
-54.5410904499
 10
15.8142015319
 20
-54.5421499999
 10
15.8738881786
 20
-54.5409594084
 10
15.9333532039
 20
-54.5375227926
 10
15.9924596604
 20
-54.531840597
 10
16.0510266397
 20
-54.5239141395
 10
16.1088568254
 20
-54.5137485983
 10
16.1657998049
 20
-54.5013411067
 10
16.221704195
 20
-54.4866837456
 10
16.2763446165
 20
-54.4697868454
 10
16.3294888613
 20
-54.4506705653
 10
16.380951758
 20
-54.4293437304
 10
16.4305659596
 20
-54.4058056148
 10
16.478140213
 20
-54.3800629593
  0
LWPOLYLINE
  5
2FF
100
AcDbEntity
  8
ASSI
100
AcDbPolyline
 62
7
  6
CONTINUOUS
 90
25
 70
0
 10
15.146759699
 20
-54.3800629593
 10
15.1946175155
 20
-54.4059492561
 10
15.2445616524
 20
-54.4296156627
 10
15.2964004561
 20
-54.4510523792
 10
15.3499956459
 20
-54.470266893
 10
15.4051327336
 20
-54.4872347655
 10
15.4614821048
 20
-54.5019098419
 10
15.5187715891
 20
-54.5142822248
 10
15.5768788505
 20
-54.5243779682
 10
15.6356636772
 20
-54.532209747
 10
15.6949280922
 20
-54.5377790247
 10
15.7544851391
 20
-54.5410904499
 10
15.8142015319
 20
-54.5421499999
 10
15.8738881786
 20
-54.5409594084
 10
15.9333532039
 20
-54.5375227926
 10
15.9924596604
 20
-54.531840597
 10
16.0510266397
 20
-54.5239141395
 10
16.1088568254
 20
-54.5137485983
 10
16.1657998049
 20
-54.5013411067
 10
16.221704195
 20
-54.4866837456
 10
16.2763446165
 20
-54.4697868454
 10
16.3294888613
 20
-54.4506705653
 10
16.380951758
 20
-54.4293437304
 10
16.4305659596
 20
-54.4058056148
 10
16.478140213
 20
-54.3800629593
  0
LWPOLYLINE
  5
300
100
AcDbEntity
  8
RACCORDO
100
AcDbPolyline
 62
253
  6
CONTINUOUS
 90
4
 70
0
 10
15.1053431748
 20
-54.2885155871
 10
15.1476540854
 20
-54.3115639049
 10
15.1922144551
 20
-54.3331527633
 10
15.2388735061
 20
-54.3532091123
  0
LWPOLYLINE
  5
301
100
AcDbEntity
  8
ASSI
100
AcDbPolyline
 62
253
  6
CONTINUOUS
 90
4
 70
0
 10
15.1053431748
 20
-54.2885155871
 10
15.1476540854
 20
-54.3115639049
 10
15.1922144551
 20
-54.3331527633
 10
15.2388735061
 20
-54.3532091123
  0
LWPOLYLINE
  5
302
100
AcDbEntity
  8
RACCORDO
100
AcDbPolyline
 62
253
  6
CONTINUOUS
 90
28
 70
0
 10
15.1053431748
 20
-53.553692338
 10
15.14765409
 20
-53.5767406582
 10
15.1922144639
 20
-53.5983295182
 10
15.2388735184
 20
-53.6183858681
 10
15.2874733726
 20
-53.6368418432
 10
15.3378495812
 20
-53.6536349948
 10
15.3898316918
 20
-53.6687085015
 10
15.4432438183
 20
-53.6820113599
 10
15.4979052269
 20
-53.6934985554
 10
15.5536309507
 20
-53.703131217
 10
15.6102324251
 20
-53.7108767506
 10
15.6675181343
 20
-53.7167089493
 10
15.7252942492
 20
-53.7206080799
 10
15.7833652797
 20
-53.7225609487
 10
15.841534726
 20
-53.7225609471
 10
15.8996057515
 20
-53.7206080754
 10
15.9573818488
 20
-53.7167089433
 10
16.0146675358
 20
-53.7108767447
 10
16.0712690064
 20
-53.70313121
 10
16.1269947647
 20
-53.6934985402
 10
16.1816562234
 20
-53.6820113301
 10
16.235068376
 20
-53.6687084595
 10
16.2870504707
 20
-53.6536349513
 10
16.3374266438
 20
-53.636841806
 10
16.3860264642
 20
-53.6183858396
 10
16.4326854932
 20
-53.5983294975
 10
16.4772458435
 20
-53.5767406471
 10
16.5195567372
 20
-53.553692338
  0
LWPOLYLINE
  5
303
100
AcDbEntity
  8
ASSI
100
AcDbPolyline
 62
253
  6
CONTINUOUS
 90
28
 70
0
 10
15.1053431748
 20
-53.553692338
 10
15.14765409
 20
-53.5767406582
 10
15.1922144639
 20
-53.5983295182
 10
15.2388735184
 20
-53.6183858681
 10
15.2874733726
 20
-53.6368418432
 10
15.3378495812
 20
-53.6536349948
 10
15.3898316918
 20
-53.6687085015
 10
15.4432438183
 20
-53.6820113599
 10
15.4979052269
 20
-53.6934985554
 10
15.5536309507
 20
-53.703131217
 10
15.6102324251
 20
-53.7108767506
 10
15.6675181343
 20
-53.7167089493
 10
15.7252942492
 20
-53.7206080799
 10
15.7833652797
 20
-53.7225609487
 10
15.841534726
 20
-53.7225609471
 10
15.8996057515
 20
-53.7206080754
 10
15.9573818488
 20
-53.7167089433
 10
16.0146675358
 20
-53.7108767447
 10
16.0712690064
 20
-53.70313121
 10
16.1269947647
 20
-53.6934985402
 10
16.1816562234
 20
-53.6820113301
 10
16.235068376
 20
-53.6687084595
 10
16.2870504707
 20
-53.6536349513
 10
16.3374266438
 20
-53.636841806
 10
16.3860264642
 20
-53.6183858396
 10
16.4326854932
 20
-53.5983294975
 10
16.4772458435
 20
-53.5767406471
 10
16.5195567372
 20
-53.553692338
  0
LINE
  5
304
100
AcDbEntity
  8
RACCORDO
100
AcDbLine
 62
7
  6
CONTINUOUS
 10
16.0659985145
 20
-59.2380098148
 11
-35.5527965121
 21
-29.4339645019
  0
LINE
  5
305
100
AcDbEntity
  8
ASSI
100
AcDbLine
 62
7
  6
CONTINUOUS
 10
16.0659985145
 20
-59.2380098148
 11
-35.5527965121
 21
-29.4339645019
  0
LINE
  5
306
100
AcDbEntity
  8
RACCORDO
100
AcDbLine
 62
253
  6
CONTINUOUS
 10
16.0245819903
 20
-59.1464624426
 11
-35.5942130363
 21
-29.3424171297
  0
LINE
  5
307
100
AcDbEntity
  8
ASSI
100
AcDbLine
 62
253
  6
CONTINUOUS
 10
16.0245819903
 20
-59.1464624426
 11
-35.5942130363
 21
-29.3424171297
  0
LINE
  5
308
100
AcDbEntity
  8
0
100
AcDbLine
 62
7
  6
CONTINUOUS
 10
-28.1695918338
 20
-32.9761241382
 11
-23.9269511467
 21
-35.4257716981
  0
LINE
  5
309
100
AcDbEntity
  8
ASSI
100
AcDbLine
 62
7
  6
CONTINUOUS
 10
-28.1695918338
 20
-32.9761241382
 11
-23.9269511467
 21
-35.4257716981
  0
LINE
  5
30A
100
AcDbEntity
  8
0
100
AcDbLine
 62
7
  6
CONTINUOUS
 10
4.3573201008
 20
-51.7567554312
 11
8.5999607879
 21
-54.2064029912
  0
LINE
  5
30B
100
AcDbEntity
  8
ASSI
100
AcDbLine
 62
7
  6
CONTINUOUS
 10
4.3573201008
 20
-51.7567554312
 11
8.5999607879
 21
-54.2064029912
  0
LINE
  5
30C
100
AcDbEntity
  8
0
100
AcDbLine
 62
7
  6
CONTINUOUS
 10
-27.7453277651
 20
-32.7311593822
 11
-23.9269511467
 21
-34.9358421861
  0
LINE
  5
30D
100
AcDbEntity
  8
ASSI
100
AcDbLine
 62
7
  6
CONTINUOUS
 10
-27.7453277651
 20
-32.7311593822
 11
-23.9269511467
 21
-34.9358421861
  0
LINE
  5
30E
100
AcDbEntity
  8
0
100
AcDbLine
 62
7
  6
CONTINUOUS
 10
4.7815841695
 20
-51.5117906752
 11
8.5999607879
 21
-53.7164734792
  0
LINE
  5
30F
100
AcDbEntity
  8
ASSI
100
AcDbLine
 62
7
  6
CONTINUOUS
 10
4.7815841695
 20
-51.5117906752
 11
8.5999607879
 21
-53.7164734792
  0
LINE
  5
310
100
AcDbEntity
  8
RACCORDO
100
AcDbLine
 62
7
  6
CONTINUOUS
 10
-34.7128542665
 20
-28.0609457494
 11
13.7946709229
 21
-56.0685828517
  0
LINE
  5
311
100
AcDbEntity
  8
RACCORDO
100
AcDbLine
 62
253
  6
CONTINUOUS
 10
-34.816395577
 20
-27.8320773189
 11
13.6911296124
 21
-55.8397144212
  0
LINE
  5
312
100
AcDbEntity
  8
0
100
AcDbLine
 62
7
  6
CONTINUOUS
 10
14.4739959994
 20
-55.9650567498
 11
15.0346324967
 21
-56.2887612369
  0
LINE
  5
313
100
AcDbEntity
  8
ASSI
100
AcDbLine
 62
7
  6
CONTINUOUS
 10
14.4739959994
 20
-55.9650567498
 11
15.0346324967
 21
-56.2887612369
  0
LINE
  5
314
100
AcDbEntity
  8
0
100
AcDbLine
 62
7
  6
CONTINUOUS
 10
14.7568387119
 20
-55.8017469125
 11
15.0346324967
 21
-55.9621415622
  0
LINE
  5
315
100
AcDbEntity
  8
ASSI
100
AcDbLine
 62
7
  6
CONTINUOUS
 10
14.7568387119
 20
-55.8017469125
 11
15.0346324967
 21
-55.9621415622
  0
LINE
  5
316
100
AcDbEntity
  8
RACCORDO
100
AcDbLine
 62
7
  6
CONTINUOUS
 10
-37.1791421088
 20
-25.8006836066
 11
-35.5881518511
 21
-26.7193014416
  0
LINE
  5
317
100
AcDbEntity
  8
ASSI
100
AcDbLine
 62
7
  6
CONTINUOUS
 10
-37.1791421088
 20
-25.8006836066
 11
-35.5881518511
 21
-26.7193014416
  0
LINE
  5
318
100
AcDbEntity
  8
RACCORDO
100
AcDbLine
 62
253
  6
CONTINUOUS
 10
-37.220558633
 20
-25.7091362344
 11
-35.6295683753
 21
-26.6277540694
  0
LINE
  5
319
100
AcDbEntity
  8
ASSI
100
AcDbLine
 62
253
  6
CONTINUOUS
 10
-37.220558633
 20
-25.7091362344
 11
-35.6295683753
 21
-26.6277540694
  0
LINE
  5
31A
100
AcDbEntity
  8
RACCORDO
100
AcDbLine
 62
253
  6
CONTINUOUS
 10
12.0647840157
 20
-53.8392714967
 11
-33.1900499803
 21
-27.7096975237
  0
LINE
  5
31B
100
AcDbEntity
  8
RACCORDO
100
AcDbLine
 62
253
  6
CONTINUOUS
 10
-35.6295683753
 20
-25.8929308203
 11
-37.220558633
 21
-24.9743129853
  0
LINE
  5
31C
100
AcDbEntity
  8
ASSI
100
AcDbLine
 62
253
  6
CONTINUOUS
 10
-35.6295683753
 20
-25.8929308203
 11
-37.220558633
 21
-24.9743129853
  0
LINE
  5
31D
100
AcDbEntity
  8
RACCORDO
100
AcDbLine
 62
253
  6
CONTINUOUS
 10
-35.4881470191
 20
-25.6479818463
 11
-37.0791372768
 21
-24.7293640113
  0
LINE
  5
31E
100
AcDbEntity
  8
ASSI
100
AcDbLine
 62
253
  6
CONTINUOUS
 10
-35.4881470191
 20
-25.6479818463
 11
-37.0791372768
 21
-24.7293640113
  0
LWPOLYLINE
  5
31F
100
AcDbEntity
  8
RACCORDO
100
AcDbPolyline
 62
253
  6
CONTINUOUS
 90
18
 70
0
 10
-33.1900499803
 20
-27.7096975237
 10
-33.2362309669
 20
-27.6813007019
 10
-33.2819505603
 20
-27.6497337366
 10
-33.3272087605
 20
-27.6149966279
 10
-33.3722425796
 20
-27.5768827501
 10
-33.4168150054
 20
-27.5355987289
 10
-33.4602150012
 20
-27.4917644413
 10
-33.5023730546
 20
-27.4453856475
 10
-33.543358678
 20
-27.3964565872
 10
-33.5826693711
 20
-27.345579857
 10
-33.6202938877
 20
-27.2927192786
 10
-33.656243474
 20
-27.2379110302
 10
-33.6900493685
 20
-27.1818662423
 10
-33.7216819221
 20
-27.1245692879
 10
-33.7511707839
 20
-27.0660357941
 10
-33.7781361393
 20
-27.0070237726
 10
-33.8025419457
 20
-26.9475399357
 10
-33.8244242457
 20
-26.8875775711
  0
LWPOLYLINE
  5
320
100
AcDbEntity
  8
RACCORDO
100
AcDbPolyline
 62
253
  6
CONTINUOUS
 90
25
 70
0
 10
-35.5942130363
 20
-29.3424171297
 10
-35.6313022128
 20
-29.3195878575
 10
-35.6679755168
 20
-29.2942555949
 10
-35.7042329484
 20
-29.2664203417
 10
-35.7402464916
 20
-29.2359282909
 10
-35.7758441624
 20
-29.2029332495
 10
-35.8105100079
 20
-29.1678966393
 10
-35.8442087845
 20
-29.1308083899
 10
-35.8769757359
 20
-29.0916785717
 10
-35.9084006407
 20
-29.0509988175
 10
-35.9384698325
 20
-29.0087456817
 10
-35.9671969777
 20
-28.96494261
 10
-35.9942128543
 20
-28.9201515721
 10
-36.0194951151
 20
-28.874359583
 10
-36.0430661073
 20
-28.8275796277
 10
-36.0646236502
 20
-28.7804126303
 10
-36.0841405534
 20
-28.732858585
 10
-36.1016440073
 20
-28.6849174976
 10
-36.1169134026
 20
-28.6371903098
 10
-36.1299224201
 20
-28.5896513996
 10
-36.1406973789
 20
-28.542326389
 10
-36.1490966276
 20
-28.4958930863
 10
-36.155072949
 20
-28.4505774276
 10
-36.1586735602
 20
-28.4061534766
 10
-36.1598984612
 20
-28.3626212336
  0
LWPOLYLINE
  5
321
100
AcDbEntity
  8
ASSI
100
AcDbPolyline
 62
253
  6
CONTINUOUS
 90
25
 70
0
 10
-35.5942130363
 20
-29.3424171297
 10
-35.6313022128
 20
-29.3195878575
 10
-35.6679755168
 20
-29.2942555949
 10
-35.7042329484
 20
-29.2664203417
 10
-35.7402464916
 20
-29.2359282909
 10
-35.7758441624
 20
-29.2029332495
 10
-35.8105100079
 20
-29.1678966393
 10
-35.8442087845
 20
-29.1308083899
 10
-35.8769757359
 20
-29.0916785717
 10
-35.9084006407
 20
-29.0509988175
 10
-35.9384698325
 20
-29.0087456817
 10
-35.9671969777
 20
-28.96494261
 10
-35.9942128543
 20
-28.9201515721
 10
-36.0194951151
 20
-28.874359583
 10
-36.0430661073
 20
-28.8275796277
 10
-36.0646236502
 20
-28.7804126303
 10
-36.0841405534
 20
-28.732858585
 10
-36.1016440073
 20
-28.6849174976
 10
-36.1169134026
 20
-28.6371903098
 10
-36.1299224201
 20
-28.5896513996
 10
-36.1406973789
 20
-28.542326389
 10
-36.1490966276
 20
-28.4958930863
 10
-36.155072949
 20
-28.4505774276
 10
-36.1586735602
 20
-28.4061534766
 10
-36.1598984612
 20
-28.3626212336
  0
LWPOLYLINE
  5
322
100
AcDbEntity
  8
RACCORDO
100
AcDbPolyline
 62
253
  6
CONTINUOUS
 90
10
 70
0
 10
-34.816395577
 20
-27.8320773189
 10
-34.8459113205
 20
-27.8134764916
 10
-34.8725024217
 20
-27.7934584816
 10
-34.8959656398
 20
-27.7721760736
 10
-34.9161217325
 20
-27.7497915606
 10
-34.9328163845
 20
-27.7264759819
 10
-34.9459216399
 20
-27.7024078789
 10
-34.9553379523
 20
-27.6777693318
 10
-34.9609923674
 20
-27.6527502024
 10
-34.9628421862
 20
-27.6279469975
  0
LWPOLYLINE
  5
323
100
AcDbEntity
  8
RACCORDO
100
AcDbPolyline
 62
253
  6
CONTINUOUS
 90
10
 70
0
 10
-35.5527965121
 20
-29.4339645019
 10
-35.5611267289
 20
-29.4282768994
 10
-35.5686372795
 20
-29.4213116201
 10
-35.5752661739
 20
-29.413124463
 10
-35.5809629623
 20
-29.4037777384
 10
-35.5856842893
 20
-29.3933425803
 10
-35.5893942233
 20
-29.3818984066
 10
-35.5920645296
 20
-29.3695323145
 10
-35.5936748857
 20
-29.3563384176
 10
-35.5942130363
 20
-29.3424171297
  0
LWPOLYLINE
  5
324
100
AcDbEntity
  8
ASSI
100
AcDbPolyline
 62
253
  6
CONTINUOUS
 90
10
 70
0
 10
-35.5527965121
 20
-29.4339645019
 10
-35.5611267289
 20
-29.4282768994
 10
-35.5686372795
 20
-29.4213116201
 10
-35.5752661739
 20
-29.413124463
 10
-35.5809629623
 20
-29.4037777384
 10
-35.5856842893
 20
-29.3933425803
 10
-35.5893942233
 20
-29.3818984066
 10
-35.5920645296
 20
-29.3695323145
 10
-35.5936748857
 20
-29.3563384176
 10
-35.5942130363
 20
-29.3424171297
  0
LWPOLYLINE
  5
325
100
AcDbEntity
  8
RACCORDO
100
AcDbPolyline
 62
7
  6
CONTINUOUS
 90
4
 70
0
 10
-35.6882648303
 20
-29.3405264422
 10
-35.6440655865
 20
-29.3744328975
 10
-35.5988756633
 20
-29.4056330117
 10
-35.5527965121
 20
-29.4339645019
  0
LWPOLYLINE
  5
326
100
AcDbEntity
  8
ASSI
100
AcDbPolyline
 62
7
  6
CONTINUOUS
 90
4
 70
0
 10
-35.6882648303
 20
-29.3405264422
 10
-35.6440655865
 20
-29.3744328975
 10
-35.5988756633
 20
-29.4056330117
 10
-35.5527965121
 20
-29.4339645019
  0
LWPOLYLINE
  5
327
100
AcDbEntity
  8
RACCORDO
100
AcDbPolyline
 62
7
  6
CONTINUOUS
 90
5
 70
0
 10
-35.0826959073
 20
64.5823046803
 10
-35.068929206
 20
64.613111579
 10
-35.0648685171
 20
64.621350356
 10
-35.0622857667
 20
64.6254377761
 10
-35.061909749
 20
64.625793472
  0
LWPOLYLINE
  5
328
100
AcDbEntity
  8
ASSI
100
AcDbPolyline
 62
7
  6
CONTINUOUS
 90
5
 70
0
 10
-35.0826959073
 20
64.5823046803
 10
-35.068929206
 20
64.613111579
 10
-35.0648685171
 20
64.621350356
 10
-35.0622857667
 20
64.6254377761
 10
-35.061909749
 20
64.625793472
  0
LWPOLYLINE
  5
329
100
AcDbEntity
  8
RACCORDO
100
AcDbPolyline
 62
7
  6
CONTINUOUS
 90
3
 70
0
 10
16.8599365253
 20
-53.3418229704
 10
16.8173416846
 20
-53.3173869596
 10
15.1406985138
 20
-52.3492980696
  0
LWPOLYLINE
  5
32A
100
AcDbEntity
  8
ASSI
100
AcDbPolyline
 62
7
  6
CONTINUOUS
 90
3
 70
0
 10
16.8599365253
 20
-53.3418229704
 10
16.8173416846
 20
-53.3173869596
 10
15.1406985138
 20
-52.3492980696
  0
LINE
  5
32B
100
AcDbEntity
  8
RACCORDO
100
AcDbLine
 62
253
  6
CONTINUOUS
 10
12.4183374063
 20
-53.2268990616
 11
-32.8364965897
 21
-27.0973250886
  0
LINE
  5
32C
100
AcDbEntity
  8
RACCORDO
100
AcDbLine
 62
7
  6
CONTINUOUS
 10
14.2628762225
 20
-53.8697197176
 11
15.146759699
 21
-54.3800629593
  0
LINE
  5
32D
100
AcDbEntity
  8
ASSI
100
AcDbLine
 62
7
  6
CONTINUOUS
 10
14.2628762225
 20
-53.8697197176
 11
15.146759699
 21
-54.3800629593
  0
LINE
  5
32E
100
AcDbEntity
  8
RACCORDO
100
AcDbLine
 62
253
  6
CONTINUOUS
 10
14.2214596983
 20
-53.7781723454
 11
15.1053431748
 21
-54.2885155871
  0
LINE
  5
32F
100
AcDbEntity
  8
ASSI
100
AcDbLine
 62
253
  6
CONTINUOUS
 10
14.2214596983
 20
-53.7781723454
 11
15.1053431748
 21
-54.2885155871
  0
LINE
  5
330
100
AcDbEntity
  8
RACCORDO
100
AcDbLine
 62
7
  6
CONTINUOUS
 10
12.6254441875
 20
-52.8565504094
 11
-32.4122325209
 21
-26.8523603326
  0
LINE
  5
331
100
AcDbEntity
  8
RACCORDO
100
AcDbLine
 62
7
  6
CONTINUOUS
 10
-36.1598984612
 20
-24.3619168773
 11
-34.9628421864
 21
-25.0530821677
  0
LINE
  5
332
100
AcDbEntity
  8
ASSI
100
AcDbLine
 62
7
  6
CONTINUOUS
 10
-36.1598984612
 20
-24.3619168773
 11
-34.9628421864
 21
-25.0530821677
  0
LINE
  5
333
100
AcDbEntity
  8
RACCORDO
100
AcDbLine
 62
253
  6
CONTINUOUS
 10
14.2214596983
 20
-53.0433490963
 11
15.1053431748
 21
-53.553692338
  0
LINE
  5
334
100
AcDbEntity
  8
ASSI
100
AcDbLine
 62
253
  6
CONTINUOUS
 10
14.2214596983
 20
-53.0433490963
 11
15.1053431748
 21
-53.553692338
  0
LINE
  5
335
100
AcDbEntity
  8
RACCORDO
100
AcDbLine
 62
253
  6
CONTINUOUS
 10
14.3628810545
 20
-52.7984001223
 11
15.246764531
 21
-53.3087433639
  0
LINE
  5
336
100
AcDbEntity
  8
ASSI
100
AcDbLine
 62
253
  6
CONTINUOUS
 10
14.3628810545
 20
-52.7984001223
 11
15.246764531
 21
-53.3087433639
  0
LINE
  5
337
100
AcDbEntity
  8
RACCORDO
100
AcDbLine
 62
7
  6
CONTINUOUS
 10
16.8731101278
 20
-53.3495550413
 11
16.8599365253
 21
-53.3418229704
  0
LINE
  5
338
100
AcDbEntity
  8
ASSI
100
AcDbLine
 62
7
  6
CONTINUOUS
 10
16.8731101278
 20
-53.3495550413
 11
16.8599365253
 21
-53.3418229704
  0
LWPOLYLINE
  5
339
100
AcDbEntity
  8
RACCORDO
100
AcDbPolyline
 62
253
  6
CONTINUOUS
 90
6
 70
0
 10
-32.8364965897
 20
-27.0973250886
 10
-32.8673107743
 20
-27.0779799091
 10
-32.8978904499
 20
-27.0556750427
 10
-32.9280028867
 20
-27.0305802413
 10
-32.9574189122
 20
-27.0028864886
 10
-32.9859146509
 20
-26.9728045505
  0
LWPOLYLINE
  5
33A
100
AcDbEntity
  8
RACCORDO
100
AcDbPolyline
 62
253
  6
CONTINUOUS
 90
19
 70
0
 10
16.3781353809
 20
-53.3087433639
 10
16.3904610643
 20
-53.3164814422
 10
16.4026929417
 20
-53.3254033954
 10
16.4147379213
 20
-53.335441322
 10
16.4265043335
 20
-53.3465188274
 10
16.4379026287
 20
-53.3585516051
 10
16.448846059
 20
-53.3714480784
 10
16.4592513385
 20
-53.3851100973
 10
16.4690392765
 20
-53.3994336856
 10
16.4781353809
 20
-53.4143098321
 10
16.486470425
 20
-53.4296253205
 10
16.493980974
 20
-53.4452635905
 10
16.5006098681
 20
-53.4611056255
 10
16.5063066573
 20
-53.4770308581
 10
16.5110279858
 20
-53.4929180876
 10
16.5147379213
 20
-53.5086464026
 10
16.517408229
 20
-53.5240961011
 10
16.5190185862
 20
-53.5391496017
 10
16.5195567372
 20
-53.553692338
  0
LWPOLYLINE
  5
33B
100
AcDbEntity
  8
ASSI
100
AcDbPolyline
 62
253
  6
CONTINUOUS
 90
19
 70
0
 10
16.3781353809
 20
-53.3087433639
 10
16.3904610643
 20
-53.3164814422
 10
16.4026929417
 20
-53.3254033954
 10
16.4147379213
 20
-53.335441322
 10
16.4265043335
 20
-53.3465188274
 10
16.4379026287
 20
-53.3585516051
 10
16.448846059
 20
-53.3714480784
 10
16.4592513385
 20
-53.3851100973
 10
16.4690392765
 20
-53.3994336856
 10
16.4781353809
 20
-53.4143098321
 10
16.486470425
 20
-53.4296253205
 10
16.493980974
 20
-53.4452635905
 10
16.5006098681
 20
-53.4611056255
 10
16.5063066573
 20
-53.4770308581
 10
16.5110279858
 20
-53.4929180876
 10
16.5147379213
 20
-53.5086464026
 10
16.517408229
 20
-53.5240961011
 10
16.5190185862
 20
-53.5391496017
 10
16.5195567372
 20
-53.553692338
  0
LWPOLYLINE
  5
33C
100
AcDbEntity
  8
RACCORDO
100
AcDbPolyline
 62
253
  6
CONTINUOUS
 90
10
 70
0
 10
12.7718907969
 20
-53.4310758132
 10
12.7424219665
 20
-53.4125072718
 10
12.7158681662
 20
-53.3925264401
 10
12.6924314866
 20
-53.3712853844
 10
12.6722902951
 20
-53.3489457618
 10
12.6555978781
 20
-53.3256775903
 10
12.6424812751
 20
-53.3016579546
 10
12.6330403114
 20
-53.2770696586
 10
12.6273468385
 20
-53.2520998341
 10
12.6254441875
 20
-53.2269385165
  0
LWPOLYLINE
  5
33D
100
AcDbEntity
  8
RACCORDO
100
AcDbPolyline
 62
7
  6
CONTINUOUS
 90
10
 70
0
 10
-36.1598984612
 20
-24.3619168773
 10
-36.1718045516
 20
-24.35438202
 10
-36.1823991265
 20
-24.3464099627
 10
-36.1916821858
 20
-24.3380007053
 10
-36.1997041595
 20
-24.3290839518
 10
-36.2064146176
 20
-24.3197299982
 10
-36.2116622703
 20
-24.3101497332
 10
-36.2154138881
 20
-24.3003380159
 10
-36.2177027004
 20
-24.2902999873
 10
-36.218477105
 20
-24.2802619586
  0
LWPOLYLINE
  5
33E
100
AcDbEntity
  8
ASSI
100
AcDbPolyline
 62
7
  6
CONTINUOUS
 90
10
 70
0
 10
-36.1598984612
 20
-24.3619168773
 10
-36.1718045516
 20
-24.35438202
 10
-36.1823991265
 20
-24.3464099627
 10
-36.1916821858
 20
-24.3380007053
 10
-36.1997041595
 20
-24.3290839518
 10
-36.2064146176
 20
-24.3197299982
 10
-36.2116622703
 20
-24.3101497332
 10
-36.2154138881
 20
-24.3003380159
 10
-36.2177027004
 20
-24.2902999873
 10
-36.218477105
 20
-24.2802619586
  0
LWPOLYLINE
  5
33F
100
AcDbEntity
  8
RACCORDO
100
AcDbPolyline
 62
253
  6
CONTINUOUS
 90
10
 70
0
 10
16.0659985145
 20
-59.2380098148
 10
16.0576683025
 20
-59.2323222161
 10
16.0501577535
 20
-59.2253569398
 10
16.0435288594
 20
-59.2171697855
 10
16.0378320702
 20
-59.2078230624
 10
16.0331107417
 20
-59.1973879047
 10
16.0294008062
 20
-59.1859437302
 10
16.0267304985
 20
-59.173577636
 10
16.0251201413
 20
-59.1603837356
 10
16.0245819903
 20
-59.1464624426
  0
LWPOLYLINE
  5
340
100
AcDbEntity
  8
ASSI
100
AcDbPolyline
 62
253
  6
CONTINUOUS
 90
10
 70
0
 10
16.0659985145
 20
-59.2380098148
 10
16.0576683025
 20
-59.2323222161
 10
16.0501577535
 20
-59.2253569398
 10
16.0435288594
 20
-59.2171697855
 10
16.0378320702
 20
-59.2078230624
 10
16.0331107417
 20
-59.1973879047
 10
16.0294008062
 20
-59.1859437302
 10
16.0267304985
 20
-59.173577636
 10
16.0251201413
 20
-59.1603837356
 10
16.0245819903
 20
-59.1464624426
  0
LWPOLYLINE
  5
341
100
AcDbEntity
  8
RACCORDO
100
AcDbPolyline
 62
7
  6
CONTINUOUS
 90
10
 70
0
 10
-37.1791421088
 20
-25.8006836066
 10
-37.1874427022
 20
-25.794997698
 10
-37.1949909239
 20
-25.7879974841
 10
-37.2016117639
 20
-25.7798435773
 10
-37.2072841559
 20
-25.7705097702
 10
-37.2120291664
 20
-25.7600222701
 10
-37.2157398172
 20
-25.748617522
 10
-37.2183804488
 20
-25.7363743408
 10
-37.2199867208
 20
-25.7232139116
 10
-37.220558633
 20
-25.7091362344
  0
LWPOLYLINE
  5
342
100
AcDbEntity
  8
ASSI
100
AcDbPolyline
 62
7
  6
CONTINUOUS
 90
10
 70
0
 10
-37.1791421088
 20
-25.8006836066
 10
-37.1874427022
 20
-25.794997698
 10
-37.1949909239
 20
-25.7879974841
 10
-37.2016117639
 20
-25.7798435773
 10
-37.2072841559
 20
-25.7705097702
 10
-37.2120291664
 20
-25.7600222701
 10
-37.2157398172
 20
-25.748617522
 10
-37.2183804488
 20
-25.7363743408
 10
-37.2199867208
 20
-25.7232139116
 10
-37.220558633
 20
-25.7091362344
  0
LWPOLYLINE
  5
343
100
AcDbEntity
  8
RACCORDO
100
AcDbPolyline
 62
7
  6
CONTINUOUS
 90
10
 70
0
 10
14.2628762225
 20
-53.8697197176
 10
14.2545756291
 20
-53.864033809
 10
14.2470274075
 20
-53.8570335951
 10
14.2404065674
 20
-53.8488796883
 10
14.2347341754
 20
-53.8395458812
 10
14.2299891649
 20
-53.8290583811
 10
14.2262785142
 20
-53.817653633
 10
14.2236378825
 20
-53.8054104518
 10
14.2220316106
 20
-53.7922500226
 10
14.2214596983
 20
-53.7781723454
  0
LWPOLYLINE
  5
344
100
AcDbEntity
  8
ASSI
100
AcDbPolyline
 62
7
  6
CONTINUOUS
 90
10
 70
0
 10
14.2628762225
 20
-53.8697197176
 10
14.2545756291
 20
-53.864033809
 10
14.2470274075
 20
-53.8570335951
 10
14.2404065674
 20
-53.8488796883
 10
14.2347341754
 20
-53.8395458812
 10
14.2299891649
 20
-53.8290583811
 10
14.2262785142
 20
-53.817653633
 10
14.2236378825
 20
-53.8054104518
 10
14.2220316106
 20
-53.7922500226
 10
14.2214596983
 20
-53.7781723454
  0
LINE
  5
345
100
AcDbEntity
  8
RACCORDO
100
AcDbLine
 62
253
  6
CONTINUOUS
 10
30.403179637
 20
-29.1945952278
 11
30.4193857318
 21
-29.1989229017
  0
LINE
  5
346
100
AcDbEntity
  8
ASSI
100
AcDbLine
 62
253
  6
CONTINUOUS
 10
30.403179637
 20
-29.1945952278
 11
30.4193857318
 21
-29.1989229017
  0
LWPOLYLINE
  5
347
100
AcDbEntity
  8
RACCORDO
100
AcDbPolyline
 62
253
  6
CONTINUOUS
 90
19
 70
0
 10
29.448030193
 20
-30.5211670389
 10
29.4640124456
 20
-30.5258058038
 10
29.4798728904
 20
-30.5316522593
 10
29.4954908315
 20
-30.5386618954
 10
29.5107474234
 20
-30.546781342
 10
29.5255265568
 20
-30.5559488035
 10
29.5397157414
 20
-30.5660945307
 10
29.55320699
 20
-30.5771413081
 10
29.5658976341
 20
-30.589005052
 10
29.5776910861
 20
-30.60159548
 10
29.5884975862
 20
-30.6148167779
 10
29.5982348931
 20
-30.6285683184
 10
29.6068289041
 20
-30.6427454378
 10
29.614214204
 20
-30.6572402522
 10
29.6203345838
 20
-30.6719424482
 10
29.6251434764
 20
-30.6867401123
 10
29.6286042807
 20
-30.7015206266
 10
29.6306906406
 20
-30.7161715256
 10
29.6313866655
 20
-30.730581322
  0
LWPOLYLINE
  5
348
100
AcDbEntity
  8
ASSI
100
AcDbPolyline
 62
253
  6
CONTINUOUS
 90
19
 70
0
 10
29.448030193
 20
-30.5211670389
 10
29.4640124456
 20
-30.5258058038
 10
29.4798728904
 20
-30.5316522593
 10
29.4954908315
 20
-30.5386618954
 10
29.5107474234
 20
-30.546781342
 10
29.5255265568
 20
-30.5559488035
 10
29.5397157414
 20
-30.5660945307
 10
29.55320699
 20
-30.5771413081
 10
29.5658976341
 20
-30.589005052
 10
29.5776910861
 20
-30.60159548
 10
29.5884975862
 20
-30.6148167779
 10
29.5982348931
 20
-30.6285683184
 10
29.6068289041
 20
-30.6427454378
 10
29.614214204
 20
-30.6572402522
 10
29.6203345838
 20
-30.6719424482
 10
29.6251434764
 20
-30.6867401123
 10
29.6286042807
 20
-30.7015206266
 10
29.6306906406
 20
-30.7161715256
 10
29.6313866655
 20
-30.730581322
  0
LINE
  5
349
100
AcDbEntity
  8
0
100
AcDbLine
 62
7
  6
CONTINUOUS
 10
-35.7002790535
 20
-13.9723582508
 11
-35.5438404918
 21
-14.0626839157
  0
LINE
  5
34A
100
AcDbEntity
  8
ASSI
100
AcDbLine
 62
7
  6
CONTINUOUS
 10
-35.7002790535
 20
-13.9723582508
 11
-35.5438404918
 21
-14.0626839157
  0
LINE
  5
34B
100
AcDbEntity
  8
0
100
AcDbLine
 62
7
  6
CONTINUOUS
 10
-36.1952538003
 20
-11.9309852842
 11
-35.5438404918
 21
-12.3071031644
  0
LINE
  5
34C
100
AcDbEntity
  8
ASSI
100
AcDbLine
 62
7
  6
CONTINUOUS
 10
-36.1952538003
 20
-11.9309852842
 11
-35.5438404918
 21
-12.3071031644
  0
LWPOLYLINE
  5
34D
100
AcDbEntity
  8
RACCORDO
100
AcDbPolyline
 62
253
  6
CONTINUOUS
 90
14
 70
0
 10
-32.9859146509
 20
-26.9728045505
 10
-33.0132732288
 20
-26.9405633723
 10
-33.0392864293
 20
-26.9064083304
 10
-33.0637562774
 20
-26.8705993635
 10
-33.0864965431
 20
-26.8334089988
 10
-33.1073341598
 20
-26.7951202755
 10
-33.1261105394
 20
-26.7560245955
 10
-33.1426827801
 20
-26.7164195054
 10
-33.1569247555
 20
-26.6766064302
 10
-33.168728079
 20
-26.6368883652
 10
-33.1780029236
 20
-26.5975675749
 10
-33.1846787008
 20
-26.5589433103
 10
-33.1887046002
 20
-26.5213095308
 10
-33.1900499803
 20
-26.4849526536
  0
LINE
  5
34E
100
AcDbEntity
  8
0
100
AcDbLine
 62
7
  6
CONTINUOUS
 10
4.3573201008
 20
38.4632101544
 11
4.7815841695
 21
38.7081749104
  0
LINE
  5
34F
100
AcDbEntity
  8
ASSI
100
AcDbLine
 62
7
  6
CONTINUOUS
 10
4.3573201008
 20
38.4632101544
 11
4.7815841695
 21
38.7081749104
  0
LINE
  5
350
100
AcDbEntity
  8
DRAFT
100
AcDbLine
 62
7
  6
CONTINUOUS
 10
10.3201131356
 20
39.5111519844
 11
13.8978669204
 21
41.481846514
  0
LINE
  5
351
100
AcDbEntity
  8
ASSI
100
AcDbLine
 62
7
  6
CONTINUOUS
 10
10.3201131356
 20
39.5111519844
 11
13.8978669204
 21
41.481846514
  0
LINE
  5
352
100
AcDbEntity
  8
ASSI
100
AcDbLine
 62
7
  6
CONTINUOUS
 10
19.0940398198
 20
-11.2279478615
 11
19.4207598129
 21
-11.2784948768
  0
LWPOLYLINE
  5
353
100
AcDbEntity
  8
RACCORDO
100
AcDbPolyline
 62
253
  6
CONTINUOUS
 90
8
 70
0
 10
30.4193857318
 20
-29.1989229017
 10
30.4354684847
 20
-29.2044603925
 10
30.4513054976
 20
-29.211165556
 10
30.4667762362
 20
-29.2189873575
 10
30.4817629676
 20
-29.227866271
 10
30.4961516548
 20
-29.2377347364
 10
30.5098327952
 20
-29.2485176568
 10
30.52270226
 20
-29.2601329674
  0
LWPOLYLINE
  5
354
100
AcDbEntity
  8
ASSI
100
AcDbPolyline
 62
253
  6
CONTINUOUS
 90
8
 70
0
 10
30.4193857318
 20
-29.1989229017
 10
30.4354684847
 20
-29.2044603925
 10
30.4513054976
 20
-29.211165556
 10
30.4667762362
 20
-29.2189873575
 10
30.4817629676
 20
-29.227866271
 10
30.4961516548
 20
-29.2377347364
 10
30.5098327952
 20
-29.2485176568
 10
30.52270226
 20
-29.2601329674
  0
LWPOLYLINE
  5
355
100
AcDbEntity
  8
RACCORDO
100
AcDbPolyline
 62
253
  6
CONTINUOUS
 90
10
 70
0
 10
-36.218477105
 20
-28.2809663149
 10
-36.2177160446
 20
-28.2910308416
 10
-36.2154386556
 20
-28.3010187712
 10
-36.2116622703
 20
-28.3108540895
 10
-36.2064156292
 20
-28.3204619437
 10
-36.1997386624
 20
-28.3297692124
 10
-36.1916821858
 20
-28.3387050616
 10
-36.1823075139
 20
-28.347201484
 10
-36.1716859936
 20
-28.3551938169
 10
-36.1598984612
 20
-28.3626212336
  0
LWPOLYLINE
  5
356
100
AcDbEntity
  8
ASSI
100
AcDbPolyline
 62
253
  6
CONTINUOUS
 90
10
 70
0
 10
-36.218477105
 20
-28.2809663149
 10
-36.2177160446
 20
-28.2910308416
 10
-36.2154386556
 20
-28.3010187712
 10
-36.2116622703
 20
-28.3108540895
 10
-36.2064156292
 20
-28.3204619437
 10
-36.1997386624
 20
-28.3297692124
 10
-36.1916821858
 20
-28.3387050616
 10
-36.1823075139
 20
-28.347201484
 10
-36.1716859936
 20
-28.3551938169
 10
-36.1598984612
 20
-28.3626212336
  0
LWPOLYLINE
  5
357
100
AcDbEntity
  8
0
100
AcDbPolyline
 62
7
  6
CONTINUOUS
 90
45
 70
0
 10
-41.0604616444
 20
-16.1155078992
 10
-41.0594094397
 20
-16.1604255823
 10
-41.0510676157
 20
-16.2493345432
 10
-41.0343360506
 20
-16.3378482355
 10
-41.0092877941
 20
-16.4259701012
 10
-40.9761422189
 20
-16.5129283811
 10
-40.9348282025
 20
-16.5987128546
 10
-40.8854168674
 20
-16.6833337424
 10
-40.8283409548
 20
-16.7660499469
 10
-40.7635331431
 20
-16.8468447383
 10
-40.6910607539
 20
-16.9257348464
 10
-40.6115584934
 20
-17.0020293638
 10
-40.5249646151
 20
-17.075705492
 10
-40.4313408656
 20
-17.1467860294
 10
-40.3315071912
 20
-17.2146484642
 10
-40.2254090473
 20
-17.2792645299
 10
-40.1131009786
 20
-17.340662493
 10
-39.9955665653
 20
-17.3983046406
 10
-39.8727599022
 20
-17.4521579833
 10
-39.7447268946
 20
-17.5022555104
 10
-39.6125888386
 20
-17.548158477
 10
-39.4763096779
 20
-17.5898300402
 10
-39.3359254689
 20
-17.6273070428
 10
-39.1926656769
 20
-17.6602612689
 10
-39.0465050446
 20
-17.6886529927
 10
-38.8974688293
 20
-17.7125219399
 10
-38.7468622683
 20
-17.7316590722
 10
-38.5946636372
 20
-17.7460222024
 10
-38.4408946606
 20
-17.7556535177
 10
-38.2869257485
 20
-17.7604705403
 10
-38.132772524
 20
-17.7604309592
 10
-37.9784193641
 20
-17.7555770854
 10
-37.8251898104
 20
-17.7459533741
 10
-37.6730844944
 20
-17.7315189518
 10
-37.5221027844
 20
-17.7123146919
 10
-37.3735663278
 20
-17.6885076702
 10
-37.2274952551
 20
-17.6600569649
 10
-37.0838694358
 20
-17.6270034978
 10
-36.9439501253
 20
-17.58963711
 10
-36.8077703222
 20
-17.5479194761
 10
-36.675297028
 20
-17.5018889215
 10
-36.5476925027
 20
-17.4519502638
 10
-36.4253441663
 20
-17.3982384423
 10
-36.3078645989
 20
-17.3406185178
 10
-36.1952538003
 20
-17.2790904903
  0
LWPOLYLINE
  5
358
100
AcDbEntity
  8
ASSI
100
AcDbPolyline
 62
7
  6
CONTINUOUS
 90
45
 70
0
 10
-41.0604616444
 20
-16.1155078992
 10
-41.0594094397
 20
-16.1604255823
 10
-41.0510676157
 20
-16.2493345432
 10
-41.0343360506
 20
-16.3378482355
 10
-41.0092877941
 20
-16.4259701012
 10
-40.9761422189
 20
-16.5129283811
 10
-40.9348282025
 20
-16.5987128546
 10
-40.8854168674
 20
-16.6833337424
 10
-40.8283409548
 20
-16.7660499469
 10
-40.7635331431
 20
-16.8468447383
 10
-40.6910607539
 20
-16.9257348464
 10
-40.6115584934
 20
-17.0020293638
 10
-40.5249646151
 20
-17.075705492
 10
-40.4313408656
 20
-17.1467860294
 10
-40.3315071912
 20
-17.2146484642
 10
-40.2254090473
 20
-17.2792645299
 10
-40.1131009786
 20
-17.340662493
 10
-39.9955665653
 20
-17.3983046406
 10
-39.8727599022
 20
-17.4521579833
 10
-39.7447268946
 20
-17.5022555104
 10
-39.6125888386
 20
-17.548158477
 10
-39.4763096779
 20
-17.5898300402
 10
-39.3359254689
 20
-17.6273070428
 10
-39.1926656769
 20
-17.6602612689
 10
-39.0465050446
 20
-17.6886529927
 10
-38.8974688293
 20
-17.7125219399
 10
-38.7468622683
 20
-17.7316590722
 10
-38.5946636372
 20
-17.7460222024
 10
-38.4408946606
 20
-17.7556535177
 10
-38.2869257485
 20
-17.7604705403
 10
-38.132772524
 20
-17.7604309592
 10
-37.9784193641
 20
-17.7555770854
 10
-37.8251898104
 20
-17.7459533741
 10
-37.6730844944
 20
-17.7315189518
 10
-37.5221027844
 20
-17.7123146919
 10
-37.3735663278
 20
-17.6885076702
 10
-37.2274952551
 20
-17.6600569649
 10
-37.0838694358
 20
-17.6270034978
 10
-36.9439501253
 20
-17.58963711
 10
-36.8077703222
 20
-17.5479194761
 10
-36.675297028
 20
-17.5018889215
 10
-36.5476925027
 20
-17.4519502638
 10
-36.4253441663
 20
-17.3982384423
 10
-36.3078645989
 20
-17.3406185178
 10
-36.1952538003
 20
-17.2790904903
  0
LWPOLYLINE
  5
359
100
AcDbEntity
  8
0
100
AcDbPolyline
 62
7
  6
CONTINUOUS
 90
45
 70
0
 10
-41.0604616444
 20
50.8350547978
 10
-41.0594094397
 20
50.7901371147
 10
-41.0510676157
 20
50.7012281538
 10
-41.0343360506
 20
50.6127144615
 10
-41.0092877941
 20
50.5245925958
 10
-40.9761422189
 20
50.4376343159
 10
-40.9348282025
 20
50.3518498424
 10
-40.8854168674
 20
50.2672289547
 10
-40.8283409548
 20
50.1845127501
 10
-40.7635331431
 20
50.1037179588
 10
-40.6910607539
 20
50.0248278506
 10
-40.6115584934
 20
49.9485333332
 10
-40.5249646151
 20
49.874857205
 10
-40.4313408656
 20
49.8037766676
 10
-40.3315071912
 20
49.7359142328
 10
-40.2254090473
 20
49.6712981671
 10
-40.1131009786
 20
49.609900204
 10
-39.9955665653
 20
49.5522580564
 10
-39.8727599022
 20
49.4984047137
 10
-39.7447268946
 20
49.4483071866
 10
-39.6125888386
 20
49.40240422
 10
-39.4763096779
 20
49.3607326568
 10
-39.3359254689
 20
49.3232556542
 10
-39.1926656769
 20
49.2903014281
 10
-39.0465050446
 20
49.2619097044
 10
-38.8974688293
 20
49.2380407571
 10
-38.7468622683
 20
49.2189036249
 10
-38.5946636372
 20
49.2045404946
 10
-38.4408946606
 20
49.1949091793
 10
-38.2869257485
 20
49.1900921567
 10
-38.132772524
 20
49.1901317378
 10
-37.9784193641
 20
49.1949856116
 10
-37.8251898104
 20
49.2046093229
 10
-37.6730844944
 20
49.2190437452
 10
-37.5221027844
 20
49.2382480051
 10
-37.3735663278
 20
49.2620550268
 10
-37.2274952551
 20
49.2905057321
 10
-37.0838694358
 20
49.3235591992
 10
-36.9439501253
 20
49.360925587
 10
-36.8077703222
 20
49.4026432209
 10
-36.675297028
 20
49.4486737756
 10
-36.5476925027
 20
49.4986124332
 10
-36.4253441663
 20
49.5523242547
 10
-36.3078645989
 20
49.6099441792
 10
-36.1952538003
 20
49.6714722068
  0
LWPOLYLINE
  5
35A
100
AcDbEntity
  8
ASSI
100
AcDbPolyline
 62
7
  6
CONTINUOUS
 90
45
 70
0
 10
-41.0604616444
 20
50.8350547978
 10
-41.0594094397
 20
50.7901371147
 10
-41.0510676157
 20
50.7012281538
 10
-41.0343360506
 20
50.6127144615
 10
-41.0092877941
 20
50.5245925958
 10
-40.9761422189
 20
50.4376343159
 10
-40.9348282025
 20
50.3518498424
 10
-40.8854168674
 20
50.2672289547
 10
-40.8283409548
 20
50.1845127501
 10
-40.7635331431
 20
50.1037179588
 10
-40.6910607539
 20
50.0248278506
 10
-40.6115584934
 20
49.9485333332
 10
-40.5249646151
 20
49.874857205
 10
-40.4313408656
 20
49.8037766676
 10
-40.3315071912
 20
49.7359142328
 10
-40.2254090473
 20
49.6712981671
 10
-40.1131009786
 20
49.609900204
 10
-39.9955665653
 20
49.5522580564
 10
-39.8727599022
 20
49.4984047137
 10
-39.7447268946
 20
49.4483071866
 10
-39.6125888386
 20
49.40240422
 10
-39.4763096779
 20
49.3607326568
 10
-39.3359254689
 20
49.3232556542
 10
-39.1926656769
 20
49.2903014281
 10
-39.0465050446
 20
49.2619097044
 10
-38.8974688293
 20
49.2380407571
 10
-38.7468622683
 20
49.2189036249
 10
-38.5946636372
 20
49.2045404946
 10
-38.4408946606
 20
49.1949091793
 10
-38.2869257485
 20
49.1900921567
 10
-38.132772524
 20
49.1901317378
 10
-37.9784193641
 20
49.1949856116
 10
-37.8251898104
 20
49.2046093229
 10
-37.6730844944
 20
49.2190437452
 10
-37.5221027844
 20
49.2382480051
 10
-37.3735663278
 20
49.2620550268
 10
-37.2274952551
 20
49.2905057321
 10
-37.0838694358
 20
49.3235591992
 10
-36.9439501253
 20
49.360925587
 10
-36.8077703222
 20
49.4026432209
 10
-36.675297028
 20
49.4486737756
 10
-36.5476925027
 20
49.4986124332
 10
-36.4253441663
 20
49.5523242547
 10
-36.3078645989
 20
49.6099441792
 10
-36.1952538003
 20
49.6714722068
  0
LINE
  5
35B
100
AcDbEntity
  8
0
100
AcDbLine
 62
7
  6
CONTINUOUS
 10
-41.0605081267
 20
53.8559948219
 11
-41.0605081267
 21
50.8350547977
  0
LINE
  5
35C
100
AcDbEntity
  8
ASSI
100
AcDbLine
 62
7
  6
CONTINUOUS
 10
-41.0605081267
 20
53.8559948219
 11
-41.0605081267
 21
50.8350547977
  0
LINE
  5
35D
100
AcDbEntity
  8
0
100
AcDbLine
 62
7
  6
CONTINUOUS
 10
-41.0605081267
 20
-13.0945678751
 11
-41.0605081267
 21
-16.1155078993
  0
LINE
  5
35E
100
AcDbEntity
  8
ASSI
100
AcDbLine
 62
7
  6
CONTINUOUS
 10
-41.0605081267
 20
-13.0945678751
 11
-41.0605081267
 21
-16.1155078993
  0
LWPOLYLINE
  5
35F
100
AcDbEntity
  8
0
100
AcDbPolyline
 62
7
  6
CONTINUOUS
 90
45
 70
0
 10
-41.0604616444
 20
53.8559948219
 10
-41.0594345723
 20
53.9003779265
 10
-41.0511427897
 20
53.9892884563
 10
-41.0344610402
 20
54.0778053007
 10
-41.0094623756
 20
54.1659318874
 10
-40.9763657275
 20
54.2528964147
 10
-40.9350999668
 20
54.338688676
 10
-40.8857362226
 20
54.423318878
 10
-40.8287068128
 20
54.5060458394
 10
-40.7639444058
 20
54.5868528434
 10
-40.6915163332
 20
54.6657566069
 10
-40.612056908
 20
54.7420660996
 10
-40.52550437
 20
54.8157585348
 10
-40.4319204794
 20
54.8868566992
 10
-40.3321248292
 20
54.9547379229
 10
-40.2260628578
 20
55.0193739499
 10
-40.1137891267
 20
55.0807930361
 10
-39.9962869136
 20
55.1384572789
 10
-39.8735102937
 20
55.1923336975
 10
-39.7455051917
 20
55.2424552726
 10
-39.6133926595
 20
55.2883830436
 10
-39.4771366193
 20
55.3300801742
 10
-39.3367731489
 20
55.3675835007
 10
-39.1935315341
 20
55.4005645714
 10
-39.0473864943
 20
55.4289836651
 10
-38.89836331
 20
55.452880503
 10
-38.7477671088
 20
55.4720457974
 10
-38.5955840735
 20
55.4864379888
 10
-38.4418280212
 20
55.4960986367
 10
-38.2878455302
 20
55.5009431323
 10
-38.1336346111
 20
55.5009291727
 10
-37.9791972533
 20
55.4960990608
 10
-37.8258860026
 20
55.4864950963
 10
-37.67371075
 20
55.4720753478
 10
-37.5226616046
 20
55.4528817467
 10
-37.3740614397
 20
55.4290823866
 10
-37.2279317656
 20
55.4006368126
 10
-37.0842510719
 20
55.3675854797
 10
-36.9442777007
 20
55.3302178462
 10
-36.808044215
 20
55.2884959996
 10
-36.6755180518
 20
55.2424578525
 10
-36.5478598635
 20
55.1925066007
 10
-36.4254565342
 20
55.1387766428
 10
-36.3079211798
 20
55.0811335802
 10
-36.1952538003
 20
55.0195774129
  0
LWPOLYLINE
  5
360
100
AcDbEntity
  8
ASSI
100
AcDbPolyline
 62
7
  6
CONTINUOUS
 90
45
 70
0
 10
-41.0604616444
 20
53.8559948219
 10
-41.0594345723
 20
53.9003779265
 10
-41.0511427897
 20
53.9892884563
 10
-41.0344610402
 20
54.0778053007
 10
-41.0094623756
 20
54.1659318874
 10
-40.9763657275
 20
54.2528964147
 10
-40.9350999668
 20
54.338688676
 10
-40.8857362226
 20
54.423318878
 10
-40.8287068128
 20
54.5060458394
 10
-40.7639444058
 20
54.5868528434
 10
-40.6915163332
 20
54.6657566069
 10
-40.612056908
 20
54.7420660996
 10
-40.52550437
 20
54.8157585348
 10
-40.4319204794
 20
54.8868566992
 10
-40.3321248292
 20
54.9547379229
 10
-40.2260628578
 20
55.0193739499
 10
-40.1137891267
 20
55.0807930361
 10
-39.9962869136
 20
55.1384572789
 10
-39.8735102937
 20
55.1923336975
 10
-39.7455051917
 20
55.2424552726
 10
-39.6133926595
 20
55.2883830436
 10
-39.4771366193
 20
55.3300801742
 10
-39.3367731489
 20
55.3675835007
 10
-39.1935315341
 20
55.4005645714
 10
-39.0473864943
 20
55.4289836651
 10
-38.89836331
 20
55.452880503
 10
-38.7477671088
 20
55.4720457974
 10
-38.5955840735
 20
55.4864379888
 10
-38.4418280212
 20
55.4960986367
 10
-38.2878455302
 20
55.5009431323
 10
-38.1336346111
 20
55.5009291727
 10
-37.9791972533
 20
55.4960990608
 10
-37.8258860026
 20
55.4864950963
 10
-37.67371075
 20
55.4720753478
 10
-37.5226616046
 20
55.4528817467
 10
-37.3740614397
 20
55.4290823866
 10
-37.2279317656
 20
55.4006368126
 10
-37.0842510719
 20
55.3675854797
 10
-36.9442777007
 20
55.3302178462
 10
-36.808044215
 20
55.2884959996
 10
-36.6755180518
 20
55.2424578525
 10
-36.5478598635
 20
55.1925066007
 10
-36.4254565342
 20
55.1387766428
 10
-36.3079211798
 20
55.0811335802
 10
-36.1952538003
 20
55.0195774129
  0
LWPOLYLINE
  5
361
100
AcDbEntity
  8
0
100
AcDbPolyline
 62
7
  6
CONTINUOUS
 90
45
 70
0
 10
-41.0604616444
 20
-13.0945678751
 10
-41.0594345723
 20
-13.0501847706
 10
-41.0511427897
 20
-12.9612742407
 10
-41.0344610402
 20
-12.8727573963
 10
-41.0094623756
 20
-12.7846308096
 10
-40.9763657275
 20
-12.6976662823
 10
-40.9350999668
 20
-12.611874021
 10
-40.8857362226
 20
-12.527243819
 10
-40.8287068128
 20
-12.4445168576
 10
-40.7639444058
 20
-12.3637098536
 10
-40.6915163332
 20
-12.2848060901
 10
-40.612056908
 20
-12.2084965974
 10
-40.52550437
 20
-12.1348041622
 10
-40.4319204794
 20
-12.0637059978
 10
-40.3321248292
 20
-11.9958247742
 10
-40.2260628578
 20
-11.9311887471
 10
-40.1137891267
 20
-11.8697696609
 10
-39.9962869136
 20
-11.8121054181
 10
-39.8735102937
 20
-11.7582289995
 10
-39.7455051917
 20
-11.7081074244
 10
-39.6133926595
 20
-11.6621796534
 10
-39.4771366193
 20
-11.6204825228
 10
-39.3367731489
 20
-11.5829791963
 10
-39.1935315341
 20
-11.5499981256
 10
-39.0473864943
 20
-11.5215790319
 10
-38.89836331
 20
-11.497682194
 10
-38.7477671088
 20
-11.4785168996
 10
-38.5955840735
 20
-11.4641247082
 10
-38.4418280212
 20
-11.4544640603
 10
-38.2878455302
 20
-11.4496195648
 10
-38.1336346111
 20
-11.4496335243
 10
-37.9791972533
 20
-11.4544636362
 10
-37.8258860026
 20
-11.4640676007
 10
-37.67371075
 20
-11.4784873492
 10
-37.5226616046
 20
-11.4976809503
 10
-37.3740614397
 20
-11.5214803104
 10
-37.2279317656
 20
-11.5499258844
 10
-37.0842510719
 20
-11.5829772173
 10
-36.9442777007
 20
-11.6203448509
 10
-36.808044215
 20
-11.6620666974
 10
-36.6755180518
 20
-11.7081048445
 10
-36.5478598635
 20
-11.7580560963
 10
-36.4254565342
 20
-11.8117860542
 10
-36.3079211798
 20
-11.8694291168
 10
-36.1952538003
 20
-11.9309852842
  0
LWPOLYLINE
  5
362
100
AcDbEntity
  8
ASSI
100
AcDbPolyline
 62
7
  6
CONTINUOUS
 90
45
 70
0
 10
-41.0604616444
 20
-13.0945678751
 10
-41.0594345723
 20
-13.0501847706
 10
-41.0511427897
 20
-12.9612742407
 10
-41.0344610402
 20
-12.8727573963
 10
-41.0094623756
 20
-12.7846308096
 10
-40.9763657275
 20
-12.6976662823
 10
-40.9350999668
 20
-12.611874021
 10
-40.8857362226
 20
-12.527243819
 10
-40.8287068128
 20
-12.4445168576
 10
-40.7639444058
 20
-12.3637098536
 10
-40.6915163332
 20
-12.2848060901
 10
-40.612056908
 20
-12.2084965974
 10
-40.52550437
 20
-12.1348041622
 10
-40.4319204794
 20
-12.0637059978
 10
-40.3321248292
 20
-11.9958247742
 10
-40.2260628578
 20
-11.9311887471
 10
-40.1137891267
 20
-11.8697696609
 10
-39.9962869136
 20
-11.8121054181
 10
-39.8735102937
 20
-11.7582289995
 10
-39.7455051917
 20
-11.7081074244
 10
-39.6133926595
 20
-11.6621796534
 10
-39.4771366193
 20
-11.6204825228
 10
-39.3367731489
 20
-11.5829791963
 10
-39.1935315341
 20
-11.5499981256
 10
-39.0473864943
 20
-11.5215790319
 10
-38.89836331
 20
-11.497682194
 10
-38.7477671088
 20
-11.4785168996
 10
-38.5955840735
 20
-11.4641247082
 10
-38.4418280212
 20
-11.4544640603
 10
-38.2878455302
 20
-11.4496195648
 10
-38.1336346111
 20
-11.4496335243
 10
-37.9791972533
 20
-11.4544636362
 10
-37.8258860026
 20
-11.4640676007
 10
-37.67371075
 20
-11.4784873492
 10
-37.5226616046
 20
-11.4976809503
 10
-37.3740614397
 20
-11.5214803104
 10
-37.2279317656
 20
-11.5499258844
 10
-37.0842510719
 20
-11.5829772173
 10
-36.9442777007
 20
-11.6203448509
 10
-36.808044215
 20
-11.6620666974
 10
-36.6755180518
 20
-11.7081048445
 10
-36.5478598635
 20
-11.7580560963
 10
-36.4254565342
 20
-11.8117860542
 10
-36.3079211798
 20
-11.8694291168
 10
-36.1952538003
 20
-11.9309852842
  0
LWPOLYLINE
  5
363
100
AcDbEntity
  8
RACCORDO
100
AcDbPolyline
 62
7
  6
CONTINUOUS
 90
19
 70
0
 10
-37.220558633
 20
41.9762497117
 10
-37.2199867208
 20
41.9909878189
 10
-37.2183804488
 20
42.0060031307
 10
-37.2157398172
 20
42.0212956471
 10
-37.2120291664
 20
42.0369853617
 10
-37.2072841559
 20
42.0529522809
 10
-37.2016117639
 20
42.0688364241
 10
-37.1949909239
 20
42.0846359111
 10
-37.1874427022
 20
42.1003526221
 10
-37.1791372768
 20
42.1156322175
 10
-37.1700574467
 20
42.1304647679
 10
-37.1602204128
 20
42.1448602028
 10
-37.1498479549
 20
42.1584939713
 10
-37.1389279103
 20
42.1713487713
 10
-37.1274724416
 20
42.1834419049
 10
-37.1157398172
 20
42.1945007277
 10
-37.1038161262
 20
42.2044343579
 10
-37.0916152794
 20
42.2133336773
 10
-37.0791372768
 20
42.2211986857
  0
LWPOLYLINE
  5
364
100
AcDbEntity
  8
ASSI
100
AcDbPolyline
 62
7
  6
CONTINUOUS
 90
19
 70
0
 10
-37.220558633
 20
41.9762497117
 10
-37.2199867208
 20
41.9909878189
 10
-37.2183804488
 20
42.0060031307
 10
-37.2157398172
 20
42.0212956471
 10
-37.2120291664
 20
42.0369853617
 10
-37.2072841559
 20
42.0529522809
 10
-37.2016117639
 20
42.0688364241
 10
-37.1949909239
 20
42.0846359111
 10
-37.1874427022
 20
42.1003526221
 10
-37.1791372768
 20
42.1156322175
 10
-37.1700574467
 20
42.1304647679
 10
-37.1602204128
 20
42.1448602028
 10
-37.1498479549
 20
42.1584939713
 10
-37.1389279103
 20
42.1713487713
 10
-37.1274724416
 20
42.1834419049
 10
-37.1157398172
 20
42.1945007277
 10
-37.1038161262
 20
42.2044343579
 10
-37.0916152794
 20
42.2133336773
 10
-37.0791372768
 20
42.2211986857
  0
LWPOLYLINE
  5
365
100
AcDbEntity
  8
0
100
AcDbPolyline
 62
7
  6
CONTINUOUS
 90
13
 70
0
 10
-39.5605081267
 20
53.8559948219
 10
-39.5575889982
 20
53.9069004798
 10
-39.5489054538
 20
53.9578061377
 10
-39.5345682552
 20
54.0080624762
 10
-39.5145049801
 20
54.0576611776
 10
-39.4887880508
 20
54.1066105596
 10
-39.4577454956
 20
54.1542862558
 10
-39.4213090942
 20
54.2006719504
 10
-39.3795470671
 20
54.2457839593
 10
-39.3329921033
 20
54.2890468629
 10
-39.2818217659
 20
54.3302688548
 10
-39.2258584919
 20
54.3696417414
 10
-39.1651022813
 20
54.4071655229
  0
LWPOLYLINE
  5
366
100
AcDbEntity
  8
ASSI
100
AcDbPolyline
 62
7
  6
CONTINUOUS
 90
13
 70
0
 10
-39.5605081267
 20
53.8559948219
 10
-39.5575889982
 20
53.9069004798
 10
-39.5489054538
 20
53.9578061377
 10
-39.5345682552
 20
54.0080624762
 10
-39.5145049801
 20
54.0576611776
 10
-39.4887880508
 20
54.1066105596
 10
-39.4577454956
 20
54.1542862558
 10
-39.4213090942
 20
54.2006719504
 10
-39.3795470671
 20
54.2457839593
 10
-39.3329921033
 20
54.2890468629
 10
-39.2818217659
 20
54.3302688548
 10
-39.2258584919
 20
54.3696417414
 10
-39.1651022813
 20
54.4071655229
  0
LWPOLYLINE
  5
367
100
AcDbEntity
  8
0
100
AcDbPolyline
 62
7
  6
CONTINUOUS
 90
13
 70
0
 10
-36.8605081267
 20
53.8559948219
 10
-36.8634272552
 20
53.805089164
 10
-36.8721107995
 20
53.7541835061
 10
-36.8864479981
 20
53.7039271676
 10
-36.9065112732
 20
53.6543284662
 10
-36.9322282026
 20
53.6053790842
 10
-36.9632707578
 20
53.557703388
 10
-36.9997071591
 20
53.5113176933
 10
-37.0414691863
 20
53.4662056845
 10
-37.0880241501
 20
53.4229427809
 10
-37.1391944874
 20
53.381720789
 10
-37.1951577614
 20
53.3423479023
 10
-37.2559139721
 20
53.3048241209
  0
LWPOLYLINE
  5
368
100
AcDbEntity
  8
ASSI
100
AcDbPolyline
 62
7
  6
CONTINUOUS
 90
13
 70
0
 10
-36.8605081267
 20
53.8559948219
 10
-36.8634272552
 20
53.805089164
 10
-36.8721107995
 20
53.7541835061
 10
-36.8864479981
 20
53.7039271676
 10
-36.9065112732
 20
53.6543284662
 10
-36.9322282026
 20
53.6053790842
 10
-36.9632707578
 20
53.557703388
 10
-36.9997071591
 20
53.5113176933
 10
-37.0414691863
 20
53.4662056845
 10
-37.0880241501
 20
53.4229427809
 10
-37.1391944874
 20
53.381720789
 10
-37.1951577614
 20
53.3423479023
 10
-37.2559139721
 20
53.3048241209
  0
LWPOLYLINE
  5
369
100
AcDbEntity
  8
0
100
AcDbPolyline
 62
7
  6
CONTINUOUS
 90
13
 70
0
 10
-39.5605081267
 20
-13.0945678751
 10
-39.5575889982
 20
-13.0436622172
 10
-39.5489054538
 20
-12.9927565593
 10
-39.5345682552
 20
-12.9425002209
 10
-39.5145049801
 20
-12.8929015194
 10
-39.4887880508
 20
-12.8439521374
 10
-39.4577454956
 20
-12.7962764413
 10
-39.4213090942
 20
-12.7498907466
 10
-39.3795470671
 20
-12.7047787378
 10
-39.3329921033
 20
-12.6615158342
 10
-39.2818217659
 20
-12.6202938423
 10
-39.2258584919
 20
-12.5809209556
 10
-39.1651022813
 20
-12.5433971741
  0
LWPOLYLINE
  5
36A
100
AcDbEntity
  8
ASSI
100
AcDbPolyline
 62
7
  6
CONTINUOUS
 90
13
 70
0
 10
-39.5605081267
 20
-13.0945678751
 10
-39.5575889982
 20
-13.0436622172
 10
-39.5489054538
 20
-12.9927565593
 10
-39.5345682552
 20
-12.9425002209
 10
-39.5145049801
 20
-12.8929015194
 10
-39.4887880508
 20
-12.8439521374
 10
-39.4577454956
 20
-12.7962764413
 10
-39.4213090942
 20
-12.7498907466
 10
-39.3795470671
 20
-12.7047787378
 10
-39.3329921033
 20
-12.6615158342
 10
-39.2818217659
 20
-12.6202938423
 10
-39.2258584919
 20
-12.5809209556
 10
-39.1651022813
 20
-12.5433971741
  0
LINE
  5
36B
100
AcDbEntity
  8
DRAFT
100
AcDbLine
 62
7
  6
CONTINUOUS
 10
11.0784581951
 20
39.0732930513
 11
14.6157631543
 21
41.0673422259
  0
LINE
  5
36C
100
AcDbEntity
  8
ASSI
100
AcDbLine
 62
7
  6
CONTINUOUS
 10
11.0784581951
 20
39.0732930513
 11
14.6157631543
 21
41.0673422259
  0
LWPOLYLINE
  5
36D
100
AcDbEntity
  8
RACCORDO
100
AcDbPolyline
 62
253
  6
CONTINUOUS
 90
10
 70
0
 10
30.5031844691
 20
-29.1846869923
 10
30.4939729335
 20
-29.180268822
 10
30.4841608613
 20
-29.1772602823
 10
30.4737359908
 20
-29.1756313986
 10
30.462777735
 20
-29.1753924962
 10
30.451371275
 20
-29.1765434524
 10
30.4396157829
 20
-29.1790702082
 10
30.427605906
 20
-29.1829459528
 10
30.4154297133
 20
-29.1881359563
 10
30.403179637
 20
-29.1945952278
  0
LWPOLYLINE
  5
36E
100
AcDbEntity
  8
ASSI
100
AcDbPolyline
 62
253
  6
CONTINUOUS
 90
10
 70
0
 10
30.5031844691
 20
-29.1846869923
 10
30.4939729335
 20
-29.180268822
 10
30.4841608613
 20
-29.1772602823
 10
30.4737359908
 20
-29.1756313986
 10
30.462777735
 20
-29.1753924962
 10
30.451371275
 20
-29.1765434524
 10
30.4396157829
 20
-29.1790702082
 10
30.427605906
 20
-29.1829459528
 10
30.4154297133
 20
-29.1881359563
 10
30.403179637
 20
-29.1945952278
  0
LINE
  5
36F
100
AcDbEntity
  8
RACCORDO
100
AcDbLine
 62
7
  6
CONTINUOUS
 10
-36.1598984612
 20
-2.27639589
 11
-35.5438404918
 21
-2.6321000406
  0
LINE
  5
370
100
AcDbEntity
  8
ASSI
100
AcDbLine
 62
7
  6
CONTINUOUS
 10
-36.1598984612
 20
-2.27639589
 11
-35.5438404918
 21
-2.6321000406
  0
LWPOLYLINE
  5
371
100
AcDbEntity
  8
RACCORDO
100
AcDbPolyline
 62
7
  6
CONTINUOUS
 90
10
 70
0
 10
-36.1598984612
 20
-2.27639589
 10
-36.1718045516
 20
-2.2688610327
 10
-36.1823991265
 20
-2.2608889754
 10
-36.1916821858
 20
-2.2524797181
 10
-36.1997041595
 20
-2.2435629645
 10
-36.2064146176
 20
-2.2342090109
 10
-36.2116622703
 20
-2.2246287459
 10
-36.2154138881
 20
-2.2148170287
 10
-36.2177027004
 20
-2.204779
 10
-36.218477105
 20
-2.1947409714
  0
LWPOLYLINE
  5
372
100
AcDbEntity
  8
ASSI
100
AcDbPolyline
 62
7
  6
CONTINUOUS
 90
10
 70
0
 10
-36.1598984612
 20
-2.27639589
 10
-36.1718045516
 20
-2.2688610327
 10
-36.1823991265
 20
-2.2608889754
 10
-36.1916821858
 20
-2.2524797181
 10
-36.1997041595
 20
-2.2435629645
 10
-36.2064146176
 20
-2.2342090109
 10
-36.2116622703
 20
-2.2246287459
 10
-36.2154138881
 20
-2.2148170287
 10
-36.2177027004
 20
-2.204779
 10
-36.218477105
 20
-2.1947409714
  0
LWPOLYLINE
  5
373
100
AcDbEntity
  8
RACCORDO
100
AcDbPolyline
 62
253
  6
CONTINUOUS
 90
4
 70
0
 10
23.3266732556
 20
-47.9321634899
 10
23.3056438097
 20
-47.9155238102
 10
23.2838749036
 20
-47.9004974334
 10
23.2677233088
 20
-47.8908847056
  0
LWPOLYLINE
  5
374
100
AcDbEntity
  8
ASSI
100
AcDbPolyline
 62
253
  6
CONTINUOUS
 90
4
 70
0
 10
23.3266732556
 20
-47.9321634899
 10
23.3056438097
 20
-47.9155238102
 10
23.2838749036
 20
-47.9004974334
 10
23.2677233088
 20
-47.8908847056
  0
LWPOLYLINE
  5
375
100
AcDbEntity
  8
RACCORDO
100
AcDbPolyline
 62
253
  6
CONTINUOUS
 90
8
 70
0
 10
-33.8244242457
 20
-26.8875775711
 10
-33.8435113528
 20
-26.8278745535
 10
-33.8597732533
 20
-26.7683666867
 10
-33.8732399609
 20
-26.709118167
 10
-33.88372983
 20
-26.6510594575
 10
-33.8911823122
 20
-26.5945007126
 10
-33.895657956
 20
-26.539131778
 10
-33.8971567614
 20
-26.4849526536
  0
LWPOLYLINE
  5
376
100
AcDbEntity
  8
RACCORDO
100
AcDbPolyline
 62
7
  6
CONTINUOUS
 90
19
 70
0
 10
-36.2051312386
 20
-28.4460484158
 10
-36.1949727701
 20
-28.5020686881
 10
-36.1820978652
 20
-28.5583009843
 10
-36.1666313773
 20
-28.614436803
 10
-36.1487008405
 20
-28.6702354877
 10
-36.1283899949
 20
-28.7256041406
 10
-36.1057799165
 20
-28.7804277245
 10
-36.0809708664
 20
-28.8345355298
 10
-36.0540603551
 20
-28.8877679785
 10
-36.0251201902
 20
-28.9400126684
 10
-35.9942464226
 20
-28.9911067129
 10
-35.9615385549
 20
-29.0408860123
 10
-35.9270654228
 20
-29.0892322301
 10
-35.8909186237
 20
-29.1359893532
 10
-35.8532012939
 20
-29.1809891003
 10
-35.8139861137
 20
-29.2240998251
 10
-35.773341922
 20
-29.2651864545
 10
-35.731390337
 20
-29.304058979
 10
-35.6882648303
 20
-29.3405264422
  0
LWPOLYLINE
  5
377
100
AcDbEntity
  8
ASSI
100
AcDbPolyline
 62
7
  6
CONTINUOUS
 90
19
 70
0
 10
-36.2051312386
 20
-28.4460484158
 10
-36.1949727701
 20
-28.5020686881
 10
-36.1820978652
 20
-28.5583009843
 10
-36.1666313773
 20
-28.614436803
 10
-36.1487008405
 20
-28.6702354877
 10
-36.1283899949
 20
-28.7256041406
 10
-36.1057799165
 20
-28.7804277245
 10
-36.0809708664
 20
-28.8345355298
 10
-36.0540603551
 20
-28.8877679785
 10
-36.0251201902
 20
-28.9400126684
 10
-35.9942464226
 20
-28.9911067129
 10
-35.9615385549
 20
-29.0408860123
 10
-35.9270654228
 20
-29.0892322301
 10
-35.8909186237
 20
-29.1359893532
 10
-35.8532012939
 20
-29.1809891003
 10
-35.8139861137
 20
-29.2240998251
 10
-35.773341922
 20
-29.2651864545
 10
-35.731390337
 20
-29.304058979
 10
-35.6882648303
 20
-29.3405264422
  0
LINE
  5
378
100
AcDbEntity
  8
RACCORDO
100
AcDbLine
 62
7
  6
CONTINUOUS
 10
-36.2124871701
 20
-28.3904381157
 11
-36.2051312386
 21
-28.4460484158
  0
LINE
  5
379
100
AcDbEntity
  8
ASSI
100
AcDbLine
 62
7
  6
CONTINUOUS
 10
-36.2124871701
 20
-28.3904381157
 11
-36.2051312386
 21
-28.4460484158
  0
LWPOLYLINE
  5
37A
100
AcDbEntity
  8
RACCORDO
100
AcDbPolyline
 62
7
  6
CONTINUOUS
 90
10
 70
0
 10
-35.6295683753
 20
-26.6277540694
 10
-35.6289964631
 20
-26.6418317466
 10
-35.6273901911
 20
-26.6549921758
 10
-35.6247495595
 20
-26.667235357
 10
-35.6210389087
 20
-26.6786401051
 10
-35.6162938983
 20
-26.6891276052
 10
-35.6106215062
 20
-26.6984614123
 10
-35.6040006662
 20
-26.7066153191
 10
-35.5964524446
 20
-26.713615533
 10
-35.5881518511
 20
-26.7193014416
  0
LWPOLYLINE
  5
37B
100
AcDbEntity
  8
ASSI
100
AcDbPolyline
 62
7
  6
CONTINUOUS
 90
10
 70
0
 10
-35.6295683753
 20
-26.6277540694
 10
-35.6289964631
 20
-26.6418317466
 10
-35.6273901911
 20
-26.6549921758
 10
-35.6247495595
 20
-26.667235357
 10
-35.6210389087
 20
-26.6786401051
 10
-35.6162938983
 20
-26.6891276052
 10
-35.6106215062
 20
-26.6984614123
 10
-35.6040006662
 20
-26.7066153191
 10
-35.5964524446
 20
-26.713615533
 10
-35.5881518511
 20
-26.7193014416
  0
LWPOLYLINE
  5
37C
100
AcDbEntity
  8
RACCORDO
100
AcDbPolyline
 62
7
  6
CONTINUOUS
 90
10
 70
0
 10
-35.6295683753
 20
40.3228086276
 10
-35.6289964631
 20
40.3087309504
 10
-35.6273901911
 20
40.2955705212
 10
-35.6247495595
 20
40.28332734
 10
-35.6210389087
 20
40.2719225919
 10
-35.6162938983
 20
40.2614350918
 10
-35.6106215062
 20
40.2521012847
 10
-35.6040006662
 20
40.2439473779
 10
-35.5964524446
 20
40.236947164
 10
-35.5881518511
 20
40.2312612554
  0
LWPOLYLINE
  5
37D
100
AcDbEntity
  8
ASSI
100
AcDbPolyline
 62
7
  6
CONTINUOUS
 90
10
 70
0
 10
-35.6295683753
 20
40.3228086276
 10
-35.6289964631
 20
40.3087309504
 10
-35.6273901911
 20
40.2955705212
 10
-35.6247495595
 20
40.28332734
 10
-35.6210389087
 20
40.2719225919
 10
-35.6162938983
 20
40.2614350918
 10
-35.6106215062
 20
40.2521012847
 10
-35.6040006662
 20
40.2439473779
 10
-35.5964524446
 20
40.236947164
 10
-35.5881518511
 20
40.2312612554
  0
LWPOLYLINE
  5
37E
100
AcDbEntity
  8
RACCORDO
100
AcDbPolyline
 62
253
  6
CONTINUOUS
 90
10
 70
0
 10
-34.816395577
 20
-27.8320773189
 10
-34.8150456978
 20
-27.8669373168
 10
-34.8110062602
 20
-27.8999729567
 10
-34.8043079503
 20
-27.9309318488
 10
-34.7950016866
 20
-27.9595776356
 10
-34.7831584262
 20
-27.9856911702
 10
-34.7688688058
 20
-28.0090723804
 10
-34.7522407327
 20
-28.0295440317
 10
-34.733402143
 20
-28.0469480377
 10
-34.7128542665
 20
-28.0609457494
  0
LWPOLYLINE
  5
37F
100
AcDbEntity
  8
RACCORDO
100
AcDbPolyline
 62
7
  6
CONTINUOUS
 90
19
 70
0
 10
-32.7657859115
 20
-26.2399878976
 10
-32.7643561309
 20
-26.2768331655
 10
-32.760340451
 20
-26.3143714449
 10
-32.7537388719
 20
-26.352602736
 10
-32.744462245
 20
-26.3918270225
 10
-32.7325997188
 20
-26.4317443205
 10
-32.7184187388
 20
-26.4714546787
 10
-32.7018666386
 20
-26.510953396
 10
-32.6829960846
 20
-26.5502451735
 10
-32.6622325209
 20
-26.5884441622
 10
-32.6395329458
 20
-26.6255255381
 10
-32.614940361
 20
-26.6615141253
 10
-32.5890092162
 20
-26.6955985465
 10
-32.5617091046
 20
-26.7277355465
 10
-32.5330704331
 20
-26.7579683806
 10
-32.5037388719
 20
-26.7856154374
 10
-32.4739296445
 20
-26.8104495131
 10
-32.4434275275
 20
-26.8326978115
 10
-32.4122325209
 20
-26.8523603326
  0
LWPOLYLINE
  5
380
100
AcDbEntity
  8
RACCORDO
100
AcDbPolyline
 62
253
  6
CONTINUOUS
 90
10
 70
0
 10
-33.1900499803
 20
57.6114464012
 10
-33.1887046029
 20
57.5766431685
 10
-33.1846787098
 20
57.5436584175
 10
-33.1780029406
 20
57.5127431821
 10
-33.1687281018
 20
57.4841327459
 10
-33.1569247807
 20
57.4580448516
 10
-33.1426828075
 20
57.4346780438
 10
-33.1261105723
 20
57.4142101581
 10
-33.1073341999
 20
57.3967969673
 10
-33.0865086697
 20
57.3825779706
  0
LWPOLYLINE
  5
381
100
AcDbEntity
  8
RACCORDO
100
AcDbPolyline
 62
7
  6
CONTINUOUS
 90
3
 70
0
 10
-36.218477105
 20
-28.2809663149
 10
-36.2169649148
 20
-28.3353537927
 10
-36.2124871701
 20
-28.3904381157
  0
LWPOLYLINE
  5
382
100
AcDbEntity
  8
ASSI
100
AcDbPolyline
 62
7
  6
CONTINUOUS
 90
3
 70
0
 10
-36.218477105
 20
-28.2809663149
 10
-36.2169649148
 20
-28.3353537927
 10
-36.2124871701
 20
-28.3904381157
  0
LINE
  5
383
100
AcDbEntity
  8
RACCORDO
100
AcDbLine
 62
7
  6
CONTINUOUS
 10
-37.220558633
 20
41.9762497117
 11
-37.220558633
 21
41.2414264626
  0
LINE
  5
384
100
AcDbEntity
  8
ASSI
100
AcDbLine
 62
7
  6
CONTINUOUS
 10
-37.220558633
 20
41.9762497117
 11
-37.220558633
 21
41.2414264626
  0
LINE
  5
385
100
AcDbEntity
  8
RACCORDO
100
AcDbLine
 62
7
  6
CONTINUOUS
 10
-37.220558633
 20
-24.9743129853
 11
-37.220558633
 21
-25.7091362344
  0
LINE
  5
386
100
AcDbEntity
  8
ASSI
100
AcDbLine
 62
7
  6
CONTINUOUS
 10
-37.220558633
 20
-24.9743129853
 11
-37.220558633
 21
-25.7091362344
  0
LINE
  5
387
100
AcDbEntity
  8
RACCORDO
100
AcDbLine
 62
7
  6
CONTINUOUS
 10
-36.218477105
 20
-28.2809663149
 11
-36.218477105
 21
-26.3553595399
  0
LINE
  5
388
100
AcDbEntity
  8
ASSI
100
AcDbLine
 62
7
  6
CONTINUOUS
 10
-36.218477105
 20
-28.2809663149
 11
-36.218477105
 21
-26.3553595399
  0
LINE
  5
389
100
AcDbEntity
  8
RACCORDO
100
AcDbLine
 62
7
  6
CONTINUOUS
 10
-36.218477105
 20
-24.2802619586
 11
-36.218477105
 21
-17.2917791857
  0
LINE
  5
38A
100
AcDbEntity
  8
ASSI
100
AcDbLine
 62
7
  6
CONTINUOUS
 10
-36.218477105
 20
-24.2802619586
 11
-36.218477105
 21
-17.2917791857
  0
LINE
  5
38B
100
AcDbEntity
  8
RACCORDO
100
AcDbLine
 62
7
  6
CONTINUOUS
 10
-36.218477105
 20
-2.1947409714
 11
-36.218477105
 21
40.5952031571
  0
LINE
  5
38C
100
AcDbEntity
  8
ASSI
100
AcDbLine
 62
7
  6
CONTINUOUS
 10
-36.218477105
 20
-2.1947409714
 11
-36.218477105
 21
40.5952031571
  0
LINE
  5
38D
100
AcDbEntity
  8
RACCORDO
100
AcDbLine
 62
7
  6
CONTINUOUS
 10
-36.218477105
 20
42.6703007384
 11
-36.218477105
 21
49.6587835113
  0
LINE
  5
38E
100
AcDbEntity
  8
ASSI
100
AcDbLine
 62
7
  6
CONTINUOUS
 10
-36.218477105
 20
42.6703007384
 11
-36.218477105
 21
49.6587835113
  0
LINE
  5
38F
100
AcDbEntity
  8
0
100
AcDbLine
 62
253
  6
CONTINUOUS
 10
-36.1952538003
 20
52.6924122309
 11
-36.1952538003
 21
49.6714722068
  0
LINE
  5
390
100
AcDbEntity
  8
ASSI
100
AcDbLine
 62
253
  6
CONTINUOUS
 10
-36.1952538003
 20
52.6924122309
 11
-36.1952538003
 21
49.6714722068
  0
LINE
  5
391
100
AcDbEntity
  8
0
100
AcDbLine
 62
253
  6
CONTINUOUS
 10
-36.1952538003
 20
-14.2581504661
 11
-36.1952538003
 21
-17.2790904903
  0
LINE
  5
392
100
AcDbEntity
  8
ASSI
100
AcDbLine
 62
253
  6
CONTINUOUS
 10
-36.1952538003
 20
-14.2581504661
 11
-36.1952538003
 21
-17.2790904903
  0
LINE
  5
393
100
AcDbEntity
  8
RACCORDO
100
AcDbLine
 62
253
  6
CONTINUOUS
 10
-36.1598984612
 20
-28.3626212336
 11
-36.1598984612
 21
-26.3891821146
  0
LINE
  5
394
100
AcDbEntity
  8
ASSI
100
AcDbLine
 62
253
  6
CONTINUOUS
 10
-36.1598984612
 20
-28.3626212336
 11
-36.1598984612
 21
-26.3891821146
  0
LINE
  5
395
100
AcDbEntity
  8
RACCORDO
100
AcDbLine
 62
253
  6
CONTINUOUS
 10
-36.1598984612
 20
-24.3619168773
 11
-36.1598984612
 21
-17.2586767606
  0
LINE
  5
396
100
AcDbEntity
  8
ASSI
100
AcDbLine
 62
253
  6
CONTINUOUS
 10
-36.1598984612
 20
-24.3619168773
 11
-36.1598984612
 21
-17.2586767606
  0
LINE
  5
397
100
AcDbEntity
  8
RACCORDO
100
AcDbLine
 62
253
  6
CONTINUOUS
 10
-36.1598984612
 20
-2.27639589
 11
-36.1598984612
 21
40.5613805824
  0
LINE
  5
398
100
AcDbEntity
  8
ASSI
100
AcDbLine
 62
253
  6
CONTINUOUS
 10
-36.1598984612
 20
-2.27639589
 11
-36.1598984612
 21
40.5613805824
  0
LINE
  5
399
100
AcDbEntity
  8
RACCORDO
100
AcDbLine
 62
253
  6
CONTINUOUS
 10
-36.1598984612
 20
42.5886458197
 11
-36.1598984612
 21
49.6918859364
  0
LINE
  5
39A
100
AcDbEntity
  8
ASSI
100
AcDbLine
 62
253
  6
CONTINUOUS
 10
-36.1598984612
 20
42.5886458197
 11
-36.1598984612
 21
49.6918859364
  0
LINE
  5
39B
100
AcDbEntity
  8
0
100
AcDbLine
 62
7
  6
CONTINUOUS
 10
-35.7002790535
 20
-16.9932982749
 11
-35.7002790535
 21
-13.9723582508
  0
LINE
  5
39C
100
AcDbEntity
  8
ASSI
100
AcDbLine
 62
7
  6
CONTINUOUS
 10
-35.7002790535
 20
-16.9932982749
 11
-35.7002790535
 21
-13.9723582508
  0
LINE
  5
39D
100
AcDbEntity
  8
ASSI
100
AcDbLine
 62
7
  6
CONTINUOUS
 10
-35.7002790535
 20
49.9572644221
 11
-35.7002790535
 21
52.9782044462
  0
LINE
  5
39E
100
AcDbEntity
  8
RACCORDO
100
AcDbLine
 62
7
  6
CONTINUOUS
 10
-35.6295683753
 20
-26.6277540694
 11
-35.6295683753
 21
-25.8929308203
  0
LINE
  5
39F
100
AcDbEntity
  8
ASSI
100
AcDbLine
 62
7
  6
CONTINUOUS
 10
-35.6295683753
 20
-26.6277540694
 11
-35.6295683753
 21
-25.8929308203
  0
LINE
  5
3A0
100
AcDbEntity
  8
RACCORDO
100
AcDbLine
 62
7
  6
CONTINUOUS
 10
-35.6295683753
 20
40.3228086276
 11
-35.6295683753
 21
41.0576318767
  0
LINE
  5
3A1
100
AcDbEntity
  8
ASSI
100
AcDbLine
 62
7
  6
CONTINUOUS
 10
-35.6295683753
 20
40.3228086276
 11
-35.6295683753
 21
41.0576318767
  0
LINE
  5
3A2
100
AcDbEntity
  8
RACCORDO
100
AcDbLine
 62
7
  6
CONTINUOUS
 10
-35.5438404918
 20
63.7877569765
 11
-35.5438404918
 21
52.8878787813
  0
LINE
  5
3A3
100
AcDbEntity
  8
ASSI
100
AcDbLine
 62
7
  6
CONTINUOUS
 10
-35.5438404918
 20
63.7877569765
 11
-35.5438404918
 21
52.8878787813
  0
LINE
  5
3A4
100
AcDbEntity
  8
0
100
AcDbLine
 62
7
  6
CONTINUOUS
 10
-35.5438404918
 20
-2.6321000406
 11
-35.5438404918
 21
-14.0626839157
  0
LINE
  5
3A5
100
AcDbEntity
  8
ASSI
100
AcDbLine
 62
7
  6
CONTINUOUS
 10
-35.5438404918
 20
-2.6321000406
 11
-35.5438404918
 21
-14.0626839157
  0
LINE
  5
3A6
100
AcDbEntity
  8
RACCORDO
100
AcDbLine
 62
7
  6
CONTINUOUS
 10
-34.9628421864
 20
59.8160266223
 11
-34.9628421864
 21
-27.6279400222
  0
LINE
  5
3A7
100
AcDbEntity
  8
RACCORDO
100
AcDbLine
 62
253
  6
CONTINUOUS
 10
-34.816395577
 20
59.6118893256
 11
-34.816395577
 21
-27.8320773189
  0
LINE
  5
3A8
100
AcDbEntity
  8
0
100
AcDbLine
 62
7
  6
CONTINUOUS
 10
-34.6042635426
 20
60.9591402467
 11
-34.6042635426
 21
60.3117312725
  0
LINE
  5
3A9
100
AcDbEntity
  8
ASSI
100
AcDbLine
 62
7
  6
CONTINUOUS
 10
-34.6042635426
 20
60.9591402467
 11
-34.6042635426
 21
60.3117312725
  0
LINE
  5
3AA
100
AcDbEntity
  8
0
100
AcDbLine
 62
7
  6
CONTINUOUS
 10
-34.3214208301
 20
60.7958304094
 11
-34.3214208301
 21
60.4750411099
  0
LINE
  5
3AB
100
AcDbEntity
  8
ASSI
100
AcDbLine
 62
7
  6
CONTINUOUS
 10
-34.3214208301
 20
60.7958304094
 11
-34.3214208301
 21
60.4750411099
  0
LINE
  5
3AC
100
AcDbEntity
  8
RACCORDO
100
AcDbLine
 62
253
  6
CONTINUOUS
 10
-33.8971567614
 20
-26.4849526536
 11
-33.8971567614
 21
57.2032507177
  0
LINE
  5
3AD
100
AcDbEntity
  8
RACCORDO
100
AcDbLine
 62
253
  6
CONTINUOUS
 10
-33.1900499803
 20
-26.4849526536
 11
-33.1900499803
 21
57.2032507177
  0
LINE
  5
3AE
100
AcDbEntity
  8
RACCORDO
100
AcDbLine
 62
7
  6
CONTINUOUS
 10
-32.7657859115
 20
-26.2399878976
 11
-32.7657859115
 21
57.1973966696
  0
LWPOLYLINE
  5
3AF
100
AcDbEntity
  8
RACCORDO
100
AcDbPolyline
 62
7
  6
CONTINUOUS
 90
22
 70
0
 10
-35.5438404918
 20
63.7877569765
 10
-35.5435465156
 20
63.8000039918
 10
-35.5426789876
 20
63.8126177869
 10
-35.5412393267
 20
63.825598876
 10
-35.5392257303
 20
63.8390054429
 10
-35.5366456825
 20
63.8527813525
 10
-35.5335158549
 20
63.8667561113
 10
-35.5298355957
 20
63.8809434536
 10
-35.5256166627
 20
63.895333581
 10
-35.5208952558
 20
63.9097210001
 10
-35.515639734
 20
63.9241708695
 10
-35.5098977976
 20
63.938623558
 10
-35.5038230009
 20
63.9526857561
 10
-35.4974330439
 20
63.9662924155
 10
-35.4907245639
 20
63.9795132645
 10
-35.4838152692
 20
63.9921556321
 10
-35.4767129737
 20
64.0042078489
 10
-35.4694215789
 20
64.0156851269
 10
-35.4620483745
 20
64.0264335417
 10
-35.4546305464
 20
64.0364020858
 10
-35.4471379741
 20
64.0456435877
 10
-35.439574603
 20
64.0541590518
  0
LWPOLYLINE
  5
3B0
100
AcDbEntity
  8
ASSI
100
AcDbPolyline
 62
7
  6
CONTINUOUS
 90
22
 70
0
 10
-35.5438404918
 20
63.7877569765
 10
-35.5435465156
 20
63.8000039918
 10
-35.5426789876
 20
63.8126177869
 10
-35.5412393267
 20
63.825598876
 10
-35.5392257303
 20
63.8390054429
 10
-35.5366456825
 20
63.8527813525
 10
-35.5335158549
 20
63.8667561113
 10
-35.5298355957
 20
63.8809434536
 10
-35.5256166627
 20
63.895333581
 10
-35.5208952558
 20
63.9097210001
 10
-35.515639734
 20
63.9241708695
 10
-35.5098977976
 20
63.938623558
 10
-35.5038230009
 20
63.9526857561
 10
-35.4974330439
 20
63.9662924155
 10
-35.4907245639
 20
63.9795132645
 10
-35.4838152692
 20
63.9921556321
 10
-35.4767129737
 20
64.0042078489
 10
-35.4694215789
 20
64.0156851269
 10
-35.4620483745
 20
64.0264335417
 10
-35.4546305464
 20
64.0364020858
 10
-35.4471379741
 20
64.0456435877
 10
-35.439574603
 20
64.0541590518
  0
LWPOLYLINE
  5
3B1
100
AcDbEntity
  8
RACCORDO
100
AcDbPolyline
 62
253
  6
CONTINUOUS
 90
25
 70
0
 10
-33.8971567614
 20
57.2032507177
 10
-33.895656325
 20
57.2557078768
 10
-33.8911796565
 20
57.3059138429
 10
-33.8837267559
 20
57.3538686159
 10
-33.8732371918
 20
57.399810973
 10
-33.8597713957
 20
57.4435021371
 10
-33.8435106611
 20
57.4842257768
 10
-33.8244252175
 20
57.5218844396
 10
-33.8025448354
 20
57.5565755779
 10
-33.7781401212
 20
57.587875218
 10
-33.7511741191
 20
57.6157490363
 10
-33.7216837848
 20
57.6402313562
 10
-33.690050592
 20
57.6610011741
 10
-33.6562461807
 20
57.6780078807
 10
-33.6202989109
 20
57.6913020852
 10
-33.5826753354
 20
57.7007146116
 10
-33.5433632445
 20
57.7061967928
 10
-33.5023748479
 20
57.707797296
 10
-33.4602133282
 20
57.7054929457
 10
-33.4168080796
 20
57.6992083195
 10
-33.3722297079
 20
57.6890188398
 10
-33.3271932121
 20
57.675127599
 10
-33.2819369255
 20
57.6576022943
 10
-33.2362225149
 20
57.6363752283
 10
-33.1900499803
 20
57.6114464012
  0
LWPOLYLINE
  5
3B2
100
AcDbEntity
  8
RACCORDO
100
AcDbPolyline
 62
253
  6
CONTINUOUS
 90
19
 70
0
 10
-33.1900499803
 20
-27.7096975237
 10
-33.1887046029
 20
-27.6733406837
 10
-33.18467871
 20
-27.635706933
 10
-33.178002941
 20
-27.5970826872
 10
-33.1687281025
 20
-27.5577619002
 10
-33.1569247816
 20
-27.5180438268
 10
-33.1426828086
 20
-27.4782307453
 10
-33.1261105733
 20
-27.4386256572
 10
-33.1073342005
 20
-27.3995299813
 10
-33.0864965899
 20
-27.3612412595
 10
-33.0637563282
 20
-27.3240508923
 10
-33.0392864826
 20
-27.2882419208
 10
-33.0132732836
 20
-27.2540868731
 10
-32.9859147075
 20
-27.22184569
 10
-32.9574189696
 20
-27.191763746
 10
-32.9280029394
 20
-27.1640699828
 10
-32.8978904908
 20
-27.1389751665
 10
-32.8673107975
 20
-27.116670284
 10
-32.8364965896
 20
-27.0973250886
  0
LWPOLYLINE
  5
3B3
100
AcDbEntity
  8
RACCORDO
100
AcDbPolyline
 62
253
  6
CONTINUOUS
 90
19
 70
0
 10
-34.816395577
 20
59.6118893256
 10
-34.8150456976
 20
59.6483081322
 10
-34.8110062599
 20
59.6860084133
 10
-34.8043079503
 20
59.7247023435
 10
-34.7950016887
 20
59.7640947627
 10
-34.7831584321
 20
59.8038845875
 10
-34.7688688141
 20
59.8437670899
 10
-34.7522407372
 20
59.8834404347
 10
-34.7334021389
 20
59.9225987896
 10
-34.7125019884
 20
59.9609342966
 10
-34.6897047827
 20
59.998149472
 10
-34.6651827373
 20
60.0339670687
 10
-34.6391181744
 20
60.0681222411
 10
-34.6116823883
 20
60.1003852751
 10
-34.583109928
 20
60.1304753608
 10
-34.5537006215
 20
60.1580906631
 10
-34.5237122196
 20
60.1830203472
 10
-34.4933492105
 20
60.2051248055
 10
-34.4628421867
 20
60.2242617609
  0
LWPOLYLINE
  5
3B4
100
AcDbEntity
  8
RACCORDO
100
AcDbPolyline
 62
7
  6
CONTINUOUS
 90
19
 70
0
 10
-37.220558633
 20
-24.9743129853
 10
-37.2199867208
 20
-24.9595748781
 10
-37.2183804488
 20
-24.9445595664
 10
-37.2157398172
 20
-24.9292670499
 10
-37.2120291664
 20
-24.9135773353
 10
-37.2072841559
 20
-24.8976104161
 10
-37.2016117639
 20
-24.8817262729
 10
-37.1949909239
 20
-24.8659267859
 10
-37.1874427022
 20
-24.8502100749
 10
-37.1791372768
 20
-24.8349304795
 10
-37.1700574467
 20
-24.8200979291
 10
-37.1602204128
 20
-24.8057024942
 10
-37.1498479549
 20
-24.7920687257
 10
-37.1389279103
 20
-24.7792139257
 10
-37.1274724416
 20
-24.7671207921
 10
-37.1157398172
 20
-24.7560619694
 10
-37.1038161262
 20
-24.7461283391
 10
-37.0916152794
 20
-24.7372290197
 10
-37.0791372768
 20
-24.7293640113
  0
LWPOLYLINE
  5
3B5
100
AcDbEntity
  8
ASSI
100
AcDbPolyline
 62
7
  6
CONTINUOUS
 90
19
 70
0
 10
-37.220558633
 20
-24.9743129853
 10
-37.2199867208
 20
-24.9595748781
 10
-37.2183804488
 20
-24.9445595664
 10
-37.2157398172
 20
-24.9292670499
 10
-37.2120291664
 20
-24.9135773353
 10
-37.2072841559
 20
-24.8976104161
 10
-37.2016117639
 20
-24.8817262729
 10
-37.1949909239
 20
-24.8659267859
 10
-37.1874427022
 20
-24.8502100749
 10
-37.1791372768
 20
-24.8349304795
 10
-37.1700574467
 20
-24.8200979291
 10
-37.1602204128
 20
-24.8057024942
 10
-37.1498479549
 20
-24.7920687257
 10
-37.1389279103
 20
-24.7792139257
 10
-37.1274724416
 20
-24.7671207921
 10
-37.1157398172
 20
-24.7560619694
 10
-37.1038161262
 20
-24.7461283391
 10
-37.0916152794
 20
-24.7372290197
 10
-37.0791372768
 20
-24.7293640113
  0
LWPOLYLINE
  5
3B6
100
AcDbEntity
  8
RACCORDO
100
AcDbPolyline
 62
253
  6
CONTINUOUS
 90
9
 70
0
 10
-33.1900499803
 20
57.2032507177
 10
-33.1887046049
 20
57.2380539242
 10
-33.1846787172
 20
57.2710386573
 10
-33.1780029551
 20
57.3019538827
 10
-33.1687281233
 20
57.3305643173
 10
-33.1569248078
 20
57.3566522157
 10
-33.1426828399
 20
57.3800190289
 10
-33.1261106103
 20
57.4004869201
 10
-33.124709044
 20
57.4017867322
  0
LWPOLYLINE
  5
3B7
100
AcDbEntity
  8
0
100
AcDbPolyline
 62
7
  6
CONTINUOUS
 90
13
 70
0
 10
-36.8605081267
 20
-13.0945678751
 10
-36.8634272552
 20
-13.145473533
 10
-36.8721107995
 20
-13.1963791909
 10
-36.8864479981
 20
-13.2466355294
 10
-36.9065112732
 20
-13.2962342308
 10
-36.9322282026
 20
-13.3451836129
 10
-36.9632707578
 20
-13.392859309
 10
-36.9997071591
 20
-13.4392450037
 10
-37.0414691863
 20
-13.4843570125
 10
-37.0880241501
 20
-13.5276199161
 10
-37.1391944874
 20
-13.568841908
 10
-37.1951577614
 20
-13.6082147947
 10
-37.2559139721
 20
-13.6457385761
  0
LWPOLYLINE
  5
3B8
100
AcDbEntity
  8
ASSI
100
AcDbPolyline
 62
7
  6
CONTINUOUS
 90
13
 70
0
 10
-36.8605081267
 20
-13.0945678751
 10
-36.8634272552
 20
-13.145473533
 10
-36.8721107995
 20
-13.1963791909
 10
-36.8864479981
 20
-13.2466355294
 10
-36.9065112732
 20
-13.2962342308
 10
-36.9322282026
 20
-13.3451836129
 10
-36.9632707578
 20
-13.392859309
 10
-36.9997071591
 20
-13.4392450037
 10
-37.0414691863
 20
-13.4843570125
 10
-37.0880241501
 20
-13.5276199161
 10
-37.1391944874
 20
-13.568841908
 10
-37.1951577614
 20
-13.6082147947
 10
-37.2559139721
 20
-13.6457385761
  0
LWPOLYLINE
  5
3B9
100
AcDbEntity
  8
RACCORDO
100
AcDbPolyline
 62
253
  6
CONTINUOUS
 90
8
 70
0
 10
18.1428675195
 20
34.8868936271
 10
18.2300886899
 20
34.9451919357
 10
19.0605842127
 20
35.5215366753
 10
19.8717540676
 20
36.1062247335
 10
20.6642959518
 20
36.699770233
 10
21.4384424308
 20
37.302344548
 10
22.1939609391
 20
37.9137763043
 10
22.9308514766
 20
38.5340655018
  0
LWPOLYLINE
  5
3BA
100
AcDbEntity
  8
ASSI
100
AcDbPolyline
 62
253
  6
CONTINUOUS
 90
8
 70
0
 10
18.1428675195
 20
34.8868936271
 10
18.2300886899
 20
34.9451919357
 10
19.0605842127
 20
35.5215366753
 10
19.8717540676
 20
36.1062247335
 10
20.6642959518
 20
36.699770233
 10
21.4384424308
 20
37.302344548
 10
22.1939609391
 20
37.9137763043
 10
22.9308514766
 20
38.5340655018
  0
LINE
  5
3BB
100
AcDbEntity
  8
RACCORDO
100
AcDbLine
 62
253
  6
CONTINUOUS
 10
16.1660033466
 20
34.2577451135
 11
17.7923489433
 21
35.1967766782
  0
LINE
  5
3BC
100
AcDbEntity
  8
ASSI
100
AcDbLine
 62
253
  6
CONTINUOUS
 10
16.1660033466
 20
34.2577451135
 11
17.7923489433
 21
35.1967766782
  0
LINE
  5
3BD
100
AcDbEntity
  8
RACCORDO
100
AcDbLine
 62
253
  6
CONTINUOUS
 10
14.044683003
 20
32.2166246584
 11
14.6103547613
 21
32.5432364421
  0
LINE
  5
3BE
100
AcDbEntity
  8
RACCORDO
100
AcDbLine
 62
253
  6
CONTINUOUS
 10
14.3982363936
 20
31.6042522234
 11
15.0346324967
 21
31.9716993574
  0
LINE
  5
3BF
100
AcDbEntity
  8
RACCORDO
100
AcDbLine
 62
253
  6
CONTINUOUS
 10
16.8731101278
 20
33.0330002434
 11
18.4994557245
 21
33.972031808
  0
LINE
  5
3C0
100
AcDbEntity
  8
ASSI
100
AcDbLine
 62
253
  6
CONTINUOUS
 10
16.8731101278
 20
33.0330002434
 11
18.4994557245
 21
33.972031808
  0
LINE
  5
3C1
100
AcDbEntity
  8
RACCORDO
100
AcDbLine
 62
7
  6
CONTINUOUS
 10
15.1406985138
 20
29.2977296097
 11
14.3628810545
 21
28.848627557
  0
LINE
  5
3C2
100
AcDbEntity
  8
ASSI
100
AcDbLine
 62
7
  6
CONTINUOUS
 10
15.1406985138
 20
29.2977296097
 11
14.3628810545
 21
28.848627557
  0
LINE
  5
3C3
100
AcDbEntity
  8
RACCORDO
100
AcDbLine
 62
253
  6
CONTINUOUS
 10
16.3781353809
 20
28.3382843153
 11
16.5902674153
 21
28.4607666933
  0
LINE
  5
3C4
100
AcDbEntity
  8
ASSI
100
AcDbLine
 62
253
  6
CONTINUOUS
 10
16.3781353809
 20
28.3382843153
 11
16.5902674153
 21
28.4607666933
  0
LWPOLYLINE
  5
3C5
100
AcDbEntity
  8
RACCORDO
100
AcDbPolyline
 62
253
  6
CONTINUOUS
 90
4
 70
0
 10
16.3860264079
 20
27.2938185679
 10
16.4326854582
 20
27.3138749167
 10
16.4772458273
 20
27.3354637748
 10
16.5195567372
 20
27.3585120922
  0
LWPOLYLINE
  5
3C6
100
AcDbEntity
  8
ASSI
100
AcDbPolyline
 62
253
  6
CONTINUOUS
 90
4
 70
0
 10
16.3860264079
 20
27.2938185679
 10
16.4326854582
 20
27.3138749167
 10
16.4772458273
 20
27.3354637748
 10
16.5195567372
 20
27.3585120922
  0
LINE
  5
3C7
100
AcDbEntity
  8
RACCORDO
100
AcDbLine
 62
253
  6
CONTINUOUS
 10
29.4176272791
 20
-30.5036127775
 11
29.4480301625
 21
-30.5211670214
  0
LINE
  5
3C8
100
AcDbEntity
  8
ASSI
100
AcDbLine
 62
253
  6
CONTINUOUS
 10
29.4176272791
 20
-30.5036127775
 11
29.4480301625
 21
-30.5211670214
  0
LINE
  5
3C9
100
AcDbEntity
  8
RACCORDO
100
AcDbLine
 62
253
  6
CONTINUOUS
 10
29.4176272791
 20
-28.6255496482
 11
30.403179637
 21
-29.1945952278
  0
LINE
  5
3CA
100
AcDbEntity
  8
ASSI
100
AcDbLine
 62
253
  6
CONTINUOUS
 10
29.4176272791
 20
-28.6255496482
 11
30.403179637
 21
-29.1945952278
  0
LINE
  5
3CB
100
AcDbEntity
  8
RACCORDO
100
AcDbLine
 62
7
  6
CONTINUOUS
 10
29.4176272791
 20
-28.557899876
 11
30.5031844691
 21
-29.1846869923
  0
LINE
  5
3CC
100
AcDbEntity
  8
ASSI
100
AcDbLine
 62
7
  6
CONTINUOUS
 10
29.4176272791
 20
-28.557899876
 11
30.5031844691
 21
-29.1846869923
  0
LINE
  5
3CD
100
AcDbEntity
  8
0
100
AcDbLine
 62
7
  6
CONTINUOUS
 10
-28.1695918338
 20
58.876782001
 11
-28.1695918338
 21
57.2438414474
  0
LINE
  5
3CE
100
AcDbEntity
  8
ASSI
100
AcDbLine
 62
7
  6
CONTINUOUS
 10
-28.1695918338
 20
58.876782001
 11
-28.1695918338
 21
57.2438414474
  0
LINE
  5
3CF
100
AcDbEntity
  8
0
100
AcDbLine
 62
7
  6
CONTINUOUS
 10
-28.1695918338
 20
-31.8389434717
 11
-28.1695918338
 21
-32.9761241382
  0
LINE
  5
3D0
100
AcDbEntity
  8
ASSI
100
AcDbLine
 62
7
  6
CONTINUOUS
 10
-28.1695918338
 20
-31.8389434717
 11
-28.1695918338
 21
-32.9761241382
  0
LINE
  5
3D1
100
AcDbEntity
  8
0
100
AcDbLine
 62
7
  6
CONTINUOUS
 10
-27.7453277651
 20
58.631817245
 11
-27.7453277651
 21
57.4888062034
  0
LINE
  5
3D2
100
AcDbEntity
  8
ASSI
100
AcDbLine
 62
7
  6
CONTINUOUS
 10
-27.7453277651
 20
58.631817245
 11
-27.7453277651
 21
57.4888062034
  0
LINE
  5
3D3
100
AcDbEntity
  8
0
100
AcDbLine
 62
7
  6
CONTINUOUS
 10
-27.7453277651
 20
-32.0839082277
 11
-27.7453277651
 21
-32.7311593822
  0
LINE
  5
3D4
100
AcDbEntity
  8
ASSI
100
AcDbLine
 62
7
  6
CONTINUOUS
 10
-27.7453277651
 20
-32.0839082277
 11
-27.7453277651
 21
-32.7311593822
  0
LWPOLYLINE
  5
3D5
100
AcDbEntity
  8
RACCORDO
100
AcDbPolyline
 62
253
  6
CONTINUOUS
 90
10
 70
0
 10
18.4994557245
 20
33.4253500594
 10
18.9826638199
 20
33.7499145024
 10
19.6156317862
 20
34.1872074221
 10
20.2383443528
 20
34.6297591975
 10
20.851212627
 20
35.0779024039
 10
21.4535318782
 20
35.5311631875
 10
22.0452878591
 20
35.9895673825
 10
22.6263797518
 20
36.4530741739
 10
23.1966277816
 20
36.9215728489
 10
23.7558946645
 20
37.3949853353
  0
LWPOLYLINE
  5
3D6
100
AcDbEntity
  8
ASSI
100
AcDbPolyline
 62
253
  6
CONTINUOUS
 90
10
 70
0
 10
18.4994557245
 20
33.4253500594
 10
18.9826638199
 20
33.7499145024
 10
19.6156317862
 20
34.1872074221
 10
20.2383443528
 20
34.6297591975
 10
20.851212627
 20
35.0779024039
 10
21.4535318782
 20
35.5311631875
 10
22.0452878591
 20
35.9895673825
 10
22.6263797518
 20
36.4530741739
 10
23.1966277816
 20
36.9215728489
 10
23.7558946645
 20
37.3949853353
  0
LWPOLYLINE
  5
3D7
100
AcDbEntity
  8
RACCORDO
100
AcDbPolyline
 62
253
  6
CONTINUOUS
 90
19
 70
0
 10
15.246764531
 20
28.3382843153
 10
15.2344388477
 20
28.3305462371
 10
15.2222069703
 20
28.3216242839
 10
15.2101619907
 20
28.3115863573
 10
15.1983955786
 20
28.3005088519
 10
15.1869972834
 20
28.2884760742
 10
15.176053853
 20
28.275579601
 10
15.1656485736
 20
28.2619175821
 10
15.1558606356
 20
28.2475939938
 10
15.1467645311
 20
28.2327178473
 10
15.138429487
 20
28.2174023589
 10
15.130918938
 20
28.2017640889
 10
15.1242900439
 20
28.1859220539
 10
15.1185932547
 20
28.1699968213
 10
15.1138719262
 20
28.1541095917
 10
15.1101619907
 20
28.1383812767
 10
15.1074916829
 20
28.1229315782
 10
15.1058813257
 20
28.1078780777
 10
15.1053431747
 20
28.0933353414
  0
LWPOLYLINE
  5
3D8
100
AcDbEntity
  8
ASSI
100
AcDbPolyline
 62
253
  6
CONTINUOUS
 90
19
 70
0
 10
15.246764531
 20
28.3382843153
 10
15.2344388477
 20
28.3305462371
 10
15.2222069703
 20
28.3216242839
 10
15.2101619907
 20
28.3115863573
 10
15.1983955786
 20
28.3005088519
 10
15.1869972834
 20
28.2884760742
 10
15.176053853
 20
28.275579601
 10
15.1656485736
 20
28.2619175821
 10
15.1558606356
 20
28.2475939938
 10
15.1467645311
 20
28.2327178473
 10
15.138429487
 20
28.2174023589
 10
15.130918938
 20
28.2017640889
 10
15.1242900439
 20
28.1859220539
 10
15.1185932547
 20
28.1699968213
 10
15.1138719262
 20
28.1541095917
 10
15.1101619907
 20
28.1383812767
 10
15.1074916829
 20
28.1229315782
 10
15.1058813257
 20
28.1078780777
 10
15.1053431747
 20
28.0933353414
  0
LWPOLYLINE
  5
3D9
100
AcDbEntity
  8
RACCORDO
100
AcDbPolyline
 62
7
  6
CONTINUOUS
 90
11
 70
0
 10
16.7316888511
 20
27.4133771357
 10
16.7424320825
 20
27.4198963651
 10
16.7575426032
 20
27.4302233668
 10
16.772696207
 20
27.4419669183
 10
16.7878080846
 20
27.4550379204
 10
16.8026994175
 20
27.4693910315
 10
16.8173415241
 20
27.48508771
 10
16.8318423813
 20
27.5022254501
 10
16.8461213819
 20
27.5208675776
 10
16.8599365369
 20
27.5410058439
 10
16.8731101278
 20
27.5626493889
  0
LWPOLYLINE
  5
3DA
100
AcDbEntity
  8
ASSI
100
AcDbPolyline
 62
7
  6
CONTINUOUS
 90
11
 70
0
 10
16.7316888511
 20
27.4133771357
 10
16.7424320825
 20
27.4198963651
 10
16.7575426032
 20
27.4302233668
 10
16.772696207
 20
27.4419669183
 10
16.7878080846
 20
27.4550379204
 10
16.8026994175
 20
27.4693910315
 10
16.8173415241
 20
27.48508771
 10
16.8318423813
 20
27.5022254501
 10
16.8461213819
 20
27.5208675776
 10
16.8599365369
 20
27.5410058439
 10
16.8731101278
 20
27.5626493889
  0
LINE
  5
3DB
100
AcDbEntity
  8
RACCORDO
100
AcDbLine
 62
253
  6
CONTINUOUS
 10
16.8731101278
 20
28.297472638
 11
16.5195567372
 21
28.0933353413
  0
LINE
  5
3DC
100
AcDbEntity
  8
ASSI
100
AcDbLine
 62
253
  6
CONTINUOUS
 10
16.8731101278
 20
28.297472638
 11
16.5195567372
 21
28.0933353413
  0
LINE
  5
3DD
100
AcDbEntity
  8
RACCORDO
100
AcDbLine
 62
253
  6
CONTINUOUS
 10
16.5195567372
 20
27.3585120922
 11
16.8731101278
 21
27.5626493889
  0
LINE
  5
3DE
100
AcDbEntity
  8
ASSI
100
AcDbLine
 62
253
  6
CONTINUOUS
 10
16.5195567372
 20
27.3585120922
 11
16.8731101278
 21
27.5626493889
  0
LINE
  5
3DF
100
AcDbEntity
  8
RACCORDO
100
AcDbLine
 62
7
  6
CONTINUOUS
 10
16.478140213
 20
27.26696472
 11
16.7316984358
 21
27.41336606
  0
LINE
  5
3E0
100
AcDbEntity
  8
ASSI
100
AcDbLine
 62
7
  6
CONTINUOUS
 10
16.478140213
 20
27.26696472
 11
16.7316984358
 21
27.41336606
  0
LINE
  5
3E1
100
AcDbEntity
  8
RACCORDO
100
AcDbLine
 62
7
  6
CONTINUOUS
 10
16.5902674153
 20
-15.751098795
 11
17.5802169089
 21
-16.3226832257
  0
LINE
  5
3E2
100
AcDbEntity
  8
ASSI
100
AcDbLine
 62
7
  6
CONTINUOUS
 10
16.5902674153
 20
-15.751098795
 11
17.5802169089
 21
-16.3226832257
  0
LINE
  5
3E3
100
AcDbEntity
  8
RACCORDO
100
AcDbLine
 62
7
  6
CONTINUOUS
 10
17.5802169089
 20
-10.6073912881
 11
16.5902674153
 21
-10.0358068574
  0
LINE
  5
3E4
100
AcDbEntity
  8
ASSI
100
AcDbLine
 62
7
  6
CONTINUOUS
 10
17.5802169089
 20
-10.6073912881
 11
16.5902674153
 21
-10.0358068574
  0
LINE
  5
3E5
100
AcDbEntity
  8
0
100
AcDbLine
 62
7
  6
CONTINUOUS
 10
-23.9269511467
 20
-35.4257716981
 11
-23.9269511467
 21
-34.2885910317
  0
LINE
  5
3E6
100
AcDbEntity
  8
ASSI
100
AcDbLine
 62
7
  6
CONTINUOUS
 10
-23.9269511467
 20
-35.4257716981
 11
-23.9269511467
 21
-34.2885910317
  0
LINE
  5
3E7
100
AcDbEntity
  8
0
100
AcDbLine
 62
7
  6
CONTINUOUS
 10
-23.9269511467
 20
54.7941938875
 11
-23.9269511467
 21
56.4271344411
  0
LINE
  5
3E8
100
AcDbEntity
  8
ASSI
100
AcDbLine
 62
7
  6
CONTINUOUS
 10
-23.9269511467
 20
54.7941938875
 11
-23.9269511467
 21
56.4271344411
  0
LWPOLYLINE
  5
3E9
100
AcDbEntity
  8
RACCORDO
100
AcDbPolyline
 62
253
  6
CONTINUOUS
 90
10
 70
0
 10
23.7558946645
 20
37.3949853353
 10
24.4498806934
 20
38.0029716171
 10
25.1239329433
 20
38.61699415
 10
25.7779327748
 20
39.2368324244
 10
26.4073906193
 20
39.8578486071
 10
27.0168525168
 20
40.4841530811
 10
27.6185420917
 20
41.1290332422
 10
28.2150707717
 20
41.7971823413
 10
28.8007958726
 20
42.4842691757
 10
29.3742812675
 20
43.1904008574
  0
LWPOLYLINE
  5
3EA
100
AcDbEntity
  8
ASSI
100
AcDbPolyline
 62
253
  6
CONTINUOUS
 90
10
 70
0
 10
23.7558946645
 20
37.3949853353
 10
24.4498806934
 20
38.0029716171
 10
25.1239329433
 20
38.61699415
 10
25.7779327748
 20
39.2368324244
 10
26.4073906193
 20
39.8578486071
 10
27.0168525168
 20
40.4841530811
 10
27.6185420917
 20
41.1290332422
 10
28.2150707717
 20
41.7971823413
 10
28.8007958726
 20
42.4842691757
 10
29.3742812675
 20
43.1904008574
  0
LWPOLYLINE
  5
3EB
100
AcDbEntity
  8
RACCORDO
100
AcDbPolyline
 62
253
  6
CONTINUOUS
 90
13
 70
0
 10
22.9308514766
 20
38.5340655018
 10
23.45436521
 20
38.990610457
 10
23.965696443
 20
39.4497065614
 10
24.4648451755
 20
39.9113538152
 10
24.9504482261
 20
40.3741208356
 10
25.4238687762
 20
40.8394390054
 10
25.8891963706
 20
41.3116024725
 10
26.3467579818
 20
41.7903432128
 10
26.7962266373
 20
42.2759292506
 10
27.2407109639
 20
42.7734588068
 10
27.6812471707
 20
43.2846312886
 10
28.1167990487
 20
43.807747289
 10
28.5473665979
 20
44.3428068078
  0
LWPOLYLINE
  5
3EC
100
AcDbEntity
  8
ASSI
100
AcDbPolyline
 62
253
  6
CONTINUOUS
 90
13
 70
0
 10
22.9308514766
 20
38.5340655018
 10
23.45436521
 20
38.990610457
 10
23.965696443
 20
39.4497065614
 10
24.4648451755
 20
39.9113538152
 10
24.9504482261
 20
40.3741208356
 10
25.4238687762
 20
40.8394390054
 10
25.8891963706
 20
41.3116024725
 10
26.3467579818
 20
41.7903432128
 10
26.7962266373
 20
42.2759292506
 10
27.2407109639
 20
42.7734588068
 10
27.6812471707
 20
43.2846312886
 10
28.1167990487
 20
43.807747289
 10
28.5473665979
 20
44.3428068078
  0
LINE
  5
3ED
100
AcDbEntity
  8
0
100
AcDbLine
 62
7
  6
CONTINUOUS
 10
-35.7002790535
 20
-13.9723582508
 11
-36.1952538003
 21
-14.2581504661
  0
LINE
  5
3EE
100
AcDbEntity
  8
ASSI
100
AcDbLine
 62
7
  6
CONTINUOUS
 10
-35.7002790535
 20
-13.9723582508
 11
-36.1952538003
 21
-14.2581504661
  0
LWPOLYLINE
  5
3EF
100
AcDbEntity
  8
0
100
AcDbPolyline
 62
7
  6
CONTINUOUS
 90
45
 70
0
 10
-36.1952538003
 20
-14.2581504661
 10
-36.3078645989
 20
-14.3196784937
 10
-36.4253441663
 20
-14.3772984182
 10
-36.5476925027
 20
-14.4310102397
 10
-36.675297028
 20
-14.4809488973
 10
-36.8077703222
 20
-14.5269794519
 10
-36.9439501253
 20
-14.5686970859
 10
-37.0838694358
 20
-14.6060634737
 10
-37.2274952551
 20
-14.6391169408
 10
-37.3735663278
 20
-14.6675676461
 10
-37.5221027844
 20
-14.6913746677
 10
-37.6730844944
 20
-14.7105789276
 10
-37.8251898104
 20
-14.72501335
 10
-37.9784193641
 20
-14.7346370613
 10
-38.132772524
 20
-14.7394909351
 10
-38.2869257485
 20
-14.7395305161
 10
-38.4408946606
 20
-14.7347134936
 10
-38.5946636372
 20
-14.7250821783
 10
-38.7468622683
 20
-14.710719048
 10
-38.8974688293
 20
-14.6915819158
 10
-39.0465050446
 20
-14.6677129685
 10
-39.1926656769
 20
-14.6393212448
 10
-39.3359254689
 20
-14.6063670186
 10
-39.4763096779
 20
-14.568890016
 10
-39.6125888386
 20
-14.5272184529
 10
-39.7447268946
 20
-14.4813154863
 10
-39.8727599022
 20
-14.4312179592
 10
-39.9955665653
 20
-14.3773646165
 10
-40.1131009786
 20
-14.3197224689
 10
-40.2254090473
 20
-14.2583245058
 10
-40.3315071912
 20
-14.19370844
 10
-40.4313408656
 20
-14.1258460053
 10
-40.5249646151
 20
-14.0547654678
 10
-40.6115584934
 20
-13.9810893397
 10
-40.6910607539
 20
-13.9047948223
 10
-40.7635331431
 20
-13.8259047141
 10
-40.8283409548
 20
-13.7451099228
 10
-40.8854168674
 20
-13.6623937182
 10
-40.9348282025
 20
-13.5777728305
 10
-40.9761422189
 20
-13.4919883569
 10
-41.0092877941
 20
-13.4050300771
 10
-41.0343360506
 20
-13.3169082114
 10
-41.0510676157
 20
-13.228394519
 10
-41.0594094397
 20
-13.1394855582
 10
-41.0604616444
 20
-13.0945678751
  0
LWPOLYLINE
  5
3F0
100
AcDbEntity
  8
ASSI
100
AcDbPolyline
 62
7
  6
CONTINUOUS
 90
45
 70
0
 10
-36.1952538003
 20
-14.2581504661
 10
-36.3078645989
 20
-14.3196784937
 10
-36.4253441663
 20
-14.3772984182
 10
-36.5476925027
 20
-14.4310102397
 10
-36.675297028
 20
-14.4809488973
 10
-36.8077703222
 20
-14.5269794519
 10
-36.9439501253
 20
-14.5686970859
 10
-37.0838694358
 20
-14.6060634737
 10
-37.2274952551
 20
-14.6391169408
 10
-37.3735663278
 20
-14.6675676461
 10
-37.5221027844
 20
-14.6913746677
 10
-37.6730844944
 20
-14.7105789276
 10
-37.8251898104
 20
-14.72501335
 10
-37.9784193641
 20
-14.7346370613
 10
-38.132772524
 20
-14.7394909351
 10
-38.2869257485
 20
-14.7395305161
 10
-38.4408946606
 20
-14.7347134936
 10
-38.5946636372
 20
-14.7250821783
 10
-38.7468622683
 20
-14.710719048
 10
-38.8974688293
 20
-14.6915819158
 10
-39.0465050446
 20
-14.6677129685
 10
-39.1926656769
 20
-14.6393212448
 10
-39.3359254689
 20
-14.6063670186
 10
-39.4763096779
 20
-14.568890016
 10
-39.6125888386
 20
-14.5272184529
 10
-39.7447268946
 20
-14.4813154863
 10
-39.8727599022
 20
-14.4312179592
 10
-39.9955665653
 20
-14.3773646165
 10
-40.1131009786
 20
-14.3197224689
 10
-40.2254090473
 20
-14.2583245058
 10
-40.3315071912
 20
-14.19370844
 10
-40.4313408656
 20
-14.1258460053
 10
-40.5249646151
 20
-14.0547654678
 10
-40.6115584934
 20
-13.9810893397
 10
-40.6910607539
 20
-13.9047948223
 10
-40.7635331431
 20
-13.8259047141
 10
-40.8283409548
 20
-13.7451099228
 10
-40.8854168674
 20
-13.6623937182
 10
-40.9348282025
 20
-13.5777728305
 10
-40.9761422189
 20
-13.4919883569
 10
-41.0092877941
 20
-13.4050300771
 10
-41.0343360506
 20
-13.3169082114
 10
-41.0510676157
 20
-13.228394519
 10
-41.0594094397
 20
-13.1394855582
 10
-41.0604616444
 20
-13.0945678751
  0
LWPOLYLINE
  5
3F1
100
AcDbEntity
  8
0
100
AcDbPolyline
 62
7
  6
CONTINUOUS
 90
37
 70
0
 10
-39.1651022813
 20
-12.5433971741
 10
-39.1001133725
 20
-12.5083172996
 10
-39.0319219258
 20
-12.4760048066
 10
-38.9605279413
 20
-12.4464596951
 10
-38.8855992217
 20
-12.4195794424
 10
-38.8074679643
 20
-12.3954665714
 10
-38.7271307604
 20
-12.3744286499
 10
-38.6445593523
 20
-12.3565050676
 10
-38.5597819977
 20
-12.3416564349
 10
-38.4738800614
 20
-12.3300721513
 10
-38.3868391377
 20
-12.3217940325
 10
-38.2986736322
 20
-12.3167802628
 10
-38.2105081267
 20
-12.3150947946
 10
-38.1223426212
 20
-12.3167802628
 10
-38.0341771157
 20
-12.3217940325
 10
-37.947136192
 20
-12.3300721513
 10
-37.8612342556
 20
-12.3416564349
 10
-37.7764569011
 20
-12.3565050676
 10
-37.693885493
 20
-12.3744286499
 10
-37.6135482891
 20
-12.3954665714
 10
-37.5354170317
 20
-12.4195794424
 10
-37.4604883121
 20
-12.4464596951
 10
-37.3888031543
 20
-12.4761427789
 10
-37.3203205344
 20
-12.5085932442
 10
-37.2559139721
 20
-12.5433971741
 10
-37.1956356808
 20
-12.580584716
 10
-37.1394334471
 20
-12.6201257225
 10
-37.0880241501
 20
-12.6615158342
 10
-37.0414691863
 20
-12.7047787378
 10
-36.9997071591
 20
-12.7498907466
 10
-36.9632707578
 20
-12.7962764413
 10
-36.9322282026
 20
-12.8439521374
 10
-36.9065112732
 20
-12.8929015194
 10
-36.8864479981
 20
-12.9425002209
 10
-36.8721107995
 20
-12.9927565593
 10
-36.8634272552
 20
-13.0436622172
 10
-36.8605081267
 20
-13.0945678751
  0
LWPOLYLINE
  5
3F2
100
AcDbEntity
  8
ASSI
100
AcDbPolyline
 62
7
  6
CONTINUOUS
 90
37
 70
0
 10
-39.1651022813
 20
-12.5433971741
 10
-39.1001133725
 20
-12.5083172996
 10
-39.0319219258
 20
-12.4760048066
 10
-38.9605279413
 20
-12.4464596951
 10
-38.8855992217
 20
-12.4195794424
 10
-38.8074679643
 20
-12.3954665714
 10
-38.7271307604
 20
-12.3744286499
 10
-38.6445593523
 20
-12.3565050676
 10
-38.5597819977
 20
-12.3416564349
 10
-38.4738800614
 20
-12.3300721513
 10
-38.3868391377
 20
-12.3217940325
 10
-38.2986736322
 20
-12.3167802628
 10
-38.2105081267
 20
-12.3150947946
 10
-38.1223426212
 20
-12.3167802628
 10
-38.0341771157
 20
-12.3217940325
 10
-37.947136192
 20
-12.3300721513
 10
-37.8612342556
 20
-12.3416564349
 10
-37.7764569011
 20
-12.3565050676
 10
-37.693885493
 20
-12.3744286499
 10
-37.6135482891
 20
-12.3954665714
 10
-37.5354170317
 20
-12.4195794424
 10
-37.4604883121
 20
-12.4464596951
 10
-37.3888031543
 20
-12.4761427789
 10
-37.3203205344
 20
-12.5085932442
 10
-37.2559139721
 20
-12.5433971741
 10
-37.1956356808
 20
-12.580584716
 10
-37.1394334471
 20
-12.6201257225
 10
-37.0880241501
 20
-12.6615158342
 10
-37.0414691863
 20
-12.7047787378
 10
-36.9997071591
 20
-12.7498907466
 10
-36.9632707578
 20
-12.7962764413
 10
-36.9322282026
 20
-12.8439521374
 10
-36.9065112732
 20
-12.8929015194
 10
-36.8864479981
 20
-12.9425002209
 10
-36.8721107995
 20
-12.9927565593
 10
-36.8634272552
 20
-13.0436622172
 10
-36.8605081267
 20
-13.0945678751
  0
LWPOLYLINE
  5
3F3
100
AcDbEntity
  8
0
100
AcDbPolyline
 62
7
  6
CONTINUOUS
 90
37
 70
0
 10
-37.2559139721
 20
-13.6457385761
 10
-37.3209028809
 20
-13.6808184507
 10
-37.3890943276
 20
-13.7131309437
 10
-37.4604883121
 20
-13.7426760552
 10
-37.5354170317
 20
-13.7695563078
 10
-37.6135482891
 20
-13.7936691789
 10
-37.693885493
 20
-13.8147071004
 10
-37.7764569011
 20
-13.8326306827
 10
-37.8612342556
 20
-13.8474793154
 10
-37.947136192
 20
-13.859063599
 10
-38.0341771157
 20
-13.8673417178
 10
-38.1223426212
 20
-13.8723554875
 10
-38.2105081267
 20
-13.8740409557
 10
-38.2986736322
 20
-13.8723554875
 10
-38.3868391377
 20
-13.8673417178
 10
-38.4738800614
 20
-13.859063599
 10
-38.5597819977
 20
-13.8474793154
 10
-38.6445593523
 20
-13.8326306827
 10
-38.7271307604
 20
-13.8147071004
 10
-38.8074679643
 20
-13.7936691789
 10
-38.8855992217
 20
-13.7695563078
 10
-38.9605279413
 20
-13.7426760552
 10
-39.032213099
 20
-13.7129929714
 10
-39.1006957189
 20
-13.680542506
 10
-39.1651022813
 20
-13.6457385761
 10
-39.2253805725
 20
-13.6085510342
 10
-39.2815828062
 20
-13.5690100278
 10
-39.3329921033
 20
-13.5276199161
 10
-39.3795470671
 20
-13.4843570125
 10
-39.4213090942
 20
-13.4392450037
 10
-39.4577454956
 20
-13.392859309
 10
-39.4887880508
 20
-13.3451836129
 10
-39.5145049801
 20
-13.2962342308
 10
-39.5345682552
 20
-13.2466355294
 10
-39.5489054538
 20
-13.1963791909
 10
-39.5575889982
 20
-13.145473533
 10
-39.5605081267
 20
-13.0945678751
  0
LWPOLYLINE
  5
3F4
100
AcDbEntity
  8
ASSI
100
AcDbPolyline
 62
7
  6
CONTINUOUS
 90
37
 70
0
 10
-37.2559139721
 20
-13.6457385761
 10
-37.3209028809
 20
-13.6808184507
 10
-37.3890943276
 20
-13.7131309437
 10
-37.4604883121
 20
-13.7426760552
 10
-37.5354170317
 20
-13.7695563078
 10
-37.6135482891
 20
-13.7936691789
 10
-37.693885493
 20
-13.8147071004
 10
-37.7764569011
 20
-13.8326306827
 10
-37.8612342556
 20
-13.8474793154
 10
-37.947136192
 20
-13.859063599
 10
-38.0341771157
 20
-13.8673417178
 10
-38.1223426212
 20
-13.8723554875
 10
-38.2105081267
 20
-13.8740409557
 10
-38.2986736322
 20
-13.8723554875
 10
-38.3868391377
 20
-13.8673417178
 10
-38.4738800614
 20
-13.859063599
 10
-38.5597819977
 20
-13.8474793154
 10
-38.6445593523
 20
-13.8326306827
 10
-38.7271307604
 20
-13.8147071004
 10
-38.8074679643
 20
-13.7936691789
 10
-38.8855992217
 20
-13.7695563078
 10
-38.9605279413
 20
-13.7426760552
 10
-39.032213099
 20
-13.7129929714
 10
-39.1006957189
 20
-13.680542506
 10
-39.1651022813
 20
-13.6457385761
 10
-39.2253805725
 20
-13.6085510342
 10
-39.2815828062
 20
-13.5690100278
 10
-39.3329921033
 20
-13.5276199161
 10
-39.3795470671
 20
-13.4843570125
 10
-39.4213090942
 20
-13.4392450037
 10
-39.4577454956
 20
-13.392859309
 10
-39.4887880508
 20
-13.3451836129
 10
-39.5145049801
 20
-13.2962342308
 10
-39.5345682552
 20
-13.2466355294
 10
-39.5489054538
 20
-13.1963791909
 10
-39.5575889982
 20
-13.145473533
 10
-39.5605081267
 20
-13.0945678751
  0
LINE
  5
3F5
100
AcDbEntity
  8
0
100
AcDbLine
 62
7
  6
CONTINUOUS
 10
-35.7002790535
 20
-16.9932982749
 11
-36.1952538003
 21
-17.2790904903
  0
LINE
  5
3F6
100
AcDbEntity
  8
ASSI
100
AcDbLine
 62
7
  6
CONTINUOUS
 10
-35.7002790535
 20
-16.9932982749
 11
-36.1952538003
 21
-17.2790904903
  0
LINE
  5
3F7
100
AcDbEntity
  8
RACCORDO
100
AcDbLine
 62
7
  6
CONTINUOUS
 10
-37.0791372768
 20
-24.7293640113
 11
-36.218477105
 21
-24.2324296147
  0
LINE
  5
3F8
100
AcDbEntity
  8
ASSI
100
AcDbLine
 62
7
  6
CONTINUOUS
 10
-37.0791372768
 20
-24.7293640113
 11
-36.218477105
 21
-24.2324296147
  0
LWPOLYLINE
  5
3F9
100
AcDbEntity
  8
DRAFT
100
AcDbPolyline
 62
7
  6
CONTINUOUS
 90
22
 70
0
 10
13.8978669204
 20
41.481846514
 10
13.9279655819
 20
41.4890223659
 10
13.9590996874
 20
41.4932867003
 10
13.9912692368
 20
41.4946395173
 10
14.0246352141
 20
41.4930563293
 10
14.0590366354
 20
41.4885616238
 10
14.0939905486
 20
41.4812288633
 10
14.1294250316
 20
41.4710517193
 10
14.1654120066
 20
41.4580365203
 10
14.2016842881
 20
41.4422757148
 10
14.2383430188
 20
41.4236902972
 10
14.275287056
 20
41.4023592732
 10
14.3119457866
 20
41.3786121075
 10
14.3482180681
 20
41.3524865915
 10
14.3842050431
 20
41.3239449338
 10
14.4196395261
 20
41.293203225
 10
14.4545934393
 20
41.2601720826
 10
14.4889948606
 20
41.2249408892
 10
14.5223608379
 20
41.1879938829
 10
14.5545303873
 20
41.1494924767
 10
14.5856644928
 20
41.1092752577
 10
14.6157631543
 20
41.0673422259
  0
LWPOLYLINE
  5
3FA
100
AcDbEntity
  8
ASSI
100
AcDbPolyline
 62
7
  6
CONTINUOUS
 90
22
 70
0
 10
13.8978669204
 20
41.481846514
 10
13.9279655819
 20
41.4890223659
 10
13.9590996874
 20
41.4932867003
 10
13.9912692368
 20
41.4946395173
 10
14.0246352141
 20
41.4930563293
 10
14.0590366354
 20
41.4885616238
 10
14.0939905486
 20
41.4812288633
 10
14.1294250316
 20
41.4710517193
 10
14.1654120066
 20
41.4580365203
 10
14.2016842881
 20
41.4422757148
 10
14.2383430188
 20
41.4236902972
 10
14.275287056
 20
41.4023592732
 10
14.3119457866
 20
41.3786121075
 10
14.3482180681
 20
41.3524865915
 10
14.3842050431
 20
41.3239449338
 10
14.4196395261
 20
41.293203225
 10
14.4545934393
 20
41.2601720826
 10
14.4889948606
 20
41.2249408892
 10
14.5223608379
 20
41.1879938829
 10
14.5545303873
 20
41.1494924767
 10
14.5856644928
 20
41.1092752577
 10
14.6157631543
 20
41.0673422259
  0
LINE
  5
3FB
100
AcDbEntity
  8
RACCORDO
100
AcDbLine
 62
253
  6
CONTINUOUS
 10
30.52270226
 20
-29.2601329674
 11
30.5346621054
 21
-29.2724922748
  0
LINE
  5
3FC
100
AcDbEntity
  8
ASSI
100
AcDbLine
 62
253
  6
CONTINUOUS
 10
30.52270226
 20
-29.2601329674
 11
30.5346621054
 21
-29.2724922748
  0
LWPOLYLINE
  5
3FD
100
AcDbEntity
  8
RACCORDO
100
AcDbPolyline
 62
7
  6
CONTINUOUS
 90
19
 70
0
 10
-35.4881470191
 20
-25.6479818463
 10
-35.5006250217
 20
-25.6558468547
 10
-35.5128258685
 20
-25.6647461741
 10
-35.5247495595
 20
-25.6746798043
 10
-35.536482184
 20
-25.6857386271
 10
-35.5479376526
 20
-25.6978317607
 10
-35.5588576972
 20
-25.7106865607
 10
-35.5692301551
 20
-25.7243203292
 10
-35.579067189
 20
-25.7387157641
 10
-35.5881470191
 20
-25.7535483145
 10
-35.5964524446
 20
-25.7688279099
 10
-35.6040006662
 20
-25.7845446209
 10
-35.6106215062
 20
-25.8003441078
 10
-35.6162938983
 20
-25.8162282511
 10
-35.6210389087
 20
-25.8321951703
 10
-35.6247495595
 20
-25.8478848849
 10
-35.6273901911
 20
-25.8631774013
 10
-35.6289964631
 20
-25.8781927131
 10
-35.6295683753
 20
-25.8929308203
  0
LWPOLYLINE
  5
3FE
100
AcDbEntity
  8
ASSI
100
AcDbPolyline
 62
7
  6
CONTINUOUS
 90
19
 70
0
 10
-35.4881470191
 20
-25.6479818463
 10
-35.5006250217
 20
-25.6558468547
 10
-35.5128258685
 20
-25.6647461741
 10
-35.5247495595
 20
-25.6746798043
 10
-35.536482184
 20
-25.6857386271
 10
-35.5479376526
 20
-25.6978317607
 10
-35.5588576972
 20
-25.7106865607
 10
-35.5692301551
 20
-25.7243203292
 10
-35.579067189
 20
-25.7387157641
 10
-35.5881470191
 20
-25.7535483145
 10
-35.5964524446
 20
-25.7688279099
 10
-35.6040006662
 20
-25.7845446209
 10
-35.6106215062
 20
-25.8003441078
 10
-35.6162938983
 20
-25.8162282511
 10
-35.6210389087
 20
-25.8321951703
 10
-35.6247495595
 20
-25.8478848849
 10
-35.6273901911
 20
-25.8631774013
 10
-35.6289964631
 20
-25.8781927131
 10
-35.6295683753
 20
-25.8929308203
  0
LINE
  5
3FF
100
AcDbEntity
  8
RACCORDO
100
AcDbLine
 62
7
  6
CONTINUOUS
 10
-34.9628421864
 20
-25.3446774195
 11
-35.4881470191
 21
-25.6479818463
  0
LINE
  5
400
100
AcDbEntity
  8
ASSI
100
AcDbLine
 62
7
  6
CONTINUOUS
 10
-34.9628421864
 20
-25.3446774195
 11
-35.4881470191
 21
-25.6479818463
  0
LINE
  5
401
100
AcDbEntity
  8
RACCORDO
100
AcDbLine
 62
7
  6
CONTINUOUS
 10
-34.9628421864
 20
-26.4060887793
 11
-35.4881470191
 21
-26.7093932061
  0
LINE
  5
402
100
AcDbEntity
  8
ASSI
100
AcDbLine
 62
7
  6
CONTINUOUS
 10
-34.9628421864
 20
-26.4060887793
 11
-35.4881470191
 21
-26.7093932061
  0
LINE
  5
403
100
AcDbEntity
  8
RACCORDO
100
AcDbLine
 62
253
  6
CONTINUOUS
 10
-32.7657859115
 20
-26.2399878976
 11
-33.1900499803
 21
-26.4849526536
  0
LINE
  5
404
100
AcDbEntity
  8
RACCORDO
100
AcDbLine
 62
253
  6
CONTINUOUS
 10
-32.4122325209
 20
-26.8523603326
 11
-32.8364965897
 21
-27.0973250886
  0
LWPOLYLINE
  5
405
100
AcDbEntity
  8
RACCORDO
100
AcDbPolyline
 62
7
  6
CONTINUOUS
 90
10
 70
0
 10
-35.5881518511
 20
40.2312612554
 10
-35.579067189
 20
40.2269110755
 10
-35.5692301551
 20
40.2238752008
 10
-35.5588576972
 20
40.2222192867
 10
-35.5479376526
 20
40.2219746805
 10
-35.536482184
 20
40.2231100349
 10
-35.5247495595
 20
40.2255997528
 10
-35.5128258685
 20
40.229435302
 10
-35.5006250217
 20
40.2346252147
 10
-35.4881470191
 20
40.2411694909
  0
LWPOLYLINE
  5
406
100
AcDbEntity
  8
ASSI
100
AcDbPolyline
 62
7
  6
CONTINUOUS
 90
10
 70
0
 10
-35.5881518511
 20
40.2312612554
 10
-35.579067189
 20
40.2269110755
 10
-35.5692301551
 20
40.2238752008
 10
-35.5588576972
 20
40.2222192867
 10
-35.5479376526
 20
40.2219746805
 10
-35.536482184
 20
40.2231100349
 10
-35.5247495595
 20
40.2255997528
 10
-35.5128258685
 20
40.229435302
 10
-35.5006250217
 20
40.2346252147
 10
-35.4881470191
 20
40.2411694909
  0
LINE
  5
407
100
AcDbEntity
  8
RACCORDO
100
AcDbLine
 62
7
  6
CONTINUOUS
 10
29.2711806696
 20
-1.556847838
 11
28.9613352271
 21
-1.3779469628
  0
LINE
  5
408
100
AcDbEntity
  8
ASSI
100
AcDbLine
 62
7
  6
CONTINUOUS
 10
29.2711806696
 20
-1.556847838
 11
28.9613352271
 21
-1.3779469628
  0
LINE
  5
409
100
AcDbEntity
  8
RACCORDO
100
AcDbLine
 62
7
  6
CONTINUOUS
 10
-37.1791421088
 20
41.1498790904
 11
-35.5881518511
 21
40.2312612554
  0
LINE
  5
40A
100
AcDbEntity
  8
ASSI
100
AcDbLine
 62
7
  6
CONTINUOUS
 10
-37.1791421088
 20
41.1498790904
 11
-35.5881518511
 21
40.2312612554
  0
LINE
  5
40B
100
AcDbEntity
  8
RACCORDO
100
AcDbLine
 62
253
  6
CONTINUOUS
 10
-37.220558633
 20
41.2414264626
 11
-35.6295683753
 21
40.3228086276
  0
LINE
  5
40C
100
AcDbEntity
  8
ASSI
100
AcDbLine
 62
253
  6
CONTINUOUS
 10
-37.220558633
 20
41.2414264626
 11
-35.6295683753
 21
40.3228086276
  0
LINE
  5
40D
100
AcDbEntity
  8
RACCORDO
100
AcDbLine
 62
253
  6
CONTINUOUS
 10
-35.6295683753
 20
41.0576318767
 11
-37.220558633
 21
41.9762497117
  0
LINE
  5
40E
100
AcDbEntity
  8
ASSI
100
AcDbLine
 62
253
  6
CONTINUOUS
 10
-35.6295683753
 20
41.0576318767
 11
-37.220558633
 21
41.9762497117
  0
LINE
  5
40F
100
AcDbEntity
  8
RACCORDO
100
AcDbLine
 62
253
  6
CONTINUOUS
 10
-35.4881470191
 20
41.3025808507
 11
-37.0791372768
 21
42.2211986857
  0
LINE
  5
410
100
AcDbEntity
  8
ASSI
100
AcDbLine
 62
253
  6
CONTINUOUS
 10
-35.4881470191
 20
41.3025808507
 11
-37.0791372768
 21
42.2211986857
  0
LINE
  5
411
100
AcDbEntity
  8
RACCORDO
100
AcDbLine
 62
7
  6
CONTINUOUS
 10
-36.1598984612
 20
42.5886458197
 11
-34.9628421864
 21
41.8974805293
  0
LINE
  5
412
100
AcDbEntity
  8
ASSI
100
AcDbLine
 62
7
  6
CONTINUOUS
 10
-36.1598984612
 20
42.5886458197
 11
-34.9628421864
 21
41.8974805293
  0
LWPOLYLINE
  5
413
100
AcDbEntity
  8
RACCORDO
100
AcDbPolyline
 62
7
  6
CONTINUOUS
 90
10
 70
0
 10
-36.1598984612
 20
42.5886458197
 10
-36.1718045516
 20
42.596180677
 10
-36.1823991265
 20
42.6041527344
 10
-36.1916821858
 20
42.6125619917
 10
-36.1997041595
 20
42.6214787453
 10
-36.2064146176
 20
42.6308326988
 10
-36.2116622703
 20
42.6404129638
 10
-36.2154138881
 20
42.6502246811
 10
-36.2177027004
 20
42.6602627097
 10
-36.218477105
 20
42.6703007384
  0
LWPOLYLINE
  5
414
100
AcDbEntity
  8
ASSI
100
AcDbPolyline
 62
7
  6
CONTINUOUS
 90
10
 70
0
 10
-36.1598984612
 20
42.5886458197
 10
-36.1718045516
 20
42.596180677
 10
-36.1823991265
 20
42.6041527344
 10
-36.1916821858
 20
42.6125619917
 10
-36.1997041595
 20
42.6214787453
 10
-36.2064146176
 20
42.6308326988
 10
-36.2116622703
 20
42.6404129638
 10
-36.2154138881
 20
42.6502246811
 10
-36.2177027004
 20
42.6602627097
 10
-36.218477105
 20
42.6703007384
  0
LWPOLYLINE
  5
415
100
AcDbEntity
  8
RACCORDO
100
AcDbPolyline
 62
7
  6
CONTINUOUS
 90
10
 70
0
 10
-37.1791421088
 20
41.1498790904
 10
-37.1874427022
 20
41.155564999
 10
-37.1949909239
 20
41.1625652129
 10
-37.2016117639
 20
41.1707191197
 10
-37.2072841559
 20
41.1800529268
 10
-37.2120291664
 20
41.1905404269
 10
-37.2157398172
 20
41.201945175
 10
-37.2183804488
 20
41.2141883562
 10
-37.2199867208
 20
41.2273487854
 10
-37.220558633
 20
41.2414264626
  0
LWPOLYLINE
  5
416
100
AcDbEntity
  8
ASSI
100
AcDbPolyline
 62
7
  6
CONTINUOUS
 90
10
 70
0
 10
-37.1791421088
 20
41.1498790904
 10
-37.1874427022
 20
41.155564999
 10
-37.1949909239
 20
41.1625652129
 10
-37.2016117639
 20
41.1707191197
 10
-37.2072841559
 20
41.1800529268
 10
-37.2120291664
 20
41.1905404269
 10
-37.2157398172
 20
41.201945175
 10
-37.2183804488
 20
41.2141883562
 10
-37.2199867208
 20
41.2273487854
 10
-37.220558633
 20
41.2414264626
  0
LWPOLYLINE
  5
417
100
AcDbEntity
  8
RACCORDO
100
AcDbPolyline
 62
253
  6
CONTINUOUS
 90
9
 70
0
 10
30.5346621054
 20
-29.2724922748
 10
30.5456213066
 20
-29.2855015205
 10
30.5554964531
 20
-29.2990616983
 10
30.5642123859
 20
-29.3130696109
 10
30.5717027684
 20
-29.3274186561
 10
30.5779105851
 20
-29.3419996243
 10
30.5827885808
 20
-29.3567015317
 10
30.5862996274
 20
-29.3714124821
 10
30.5884170029
 20
-29.3860205193
  0
LWPOLYLINE
  5
418
100
AcDbEntity
  8
ASSI
100
AcDbPolyline
 62
253
  6
CONTINUOUS
 90
9
 70
0
 10
30.5346621054
 20
-29.2724922748
 10
30.5456213066
 20
-29.2855015205
 10
30.5554964531
 20
-29.2990616983
 10
30.5642123859
 20
-29.3130696109
 10
30.5717027684
 20
-29.3274186561
 10
30.5779105851
 20
-29.3419996243
 10
30.5827885808
 20
-29.3567015317
 10
30.5862996274
 20
-29.3714124821
 10
30.5884170029
 20
-29.3860205193
  0
LWPOLYLINE
  5
419
100
AcDbEntity
  8
RACCORDO
100
AcDbPolyline
 62
7
  6
CONTINUOUS
 90
9
 70
0
 10
23.2773841961
 20
-48.0370699578
 10
23.2785350021
 20
-48.0392667342
 10
23.2793142948
 20
-48.0408582952
 10
23.2793859854
 20
-48.0410082479
 10
23.2788214867
 20
-48.0396518405
 10
23.2777402413
 20
-48.0368819147
 10
23.2761714834
 20
-48.0326093263
 10
23.2741452379
 20
-48.0267620955
 10
23.2737513892
 20
-48.0255884213
  0
LWPOLYLINE
  5
41A
100
AcDbEntity
  8
ASSI
100
AcDbPolyline
 62
7
  6
CONTINUOUS
 90
9
 70
0
 10
23.2773841961
 20
-48.0370699578
 10
23.2785350021
 20
-48.0392667342
 10
23.2793142948
 20
-48.0408582952
 10
23.2793859854
 20
-48.0410082479
 10
23.2788214867
 20
-48.0396518405
 10
23.2777402413
 20
-48.0368819147
 10
23.2761714834
 20
-48.0326093263
 10
23.2741452379
 20
-48.0267620955
 10
23.2737513892
 20
-48.0255884213
  0
LINE
  5
41B
100
AcDbEntity
  8
0
100
AcDbLine
 62
7
  6
CONTINUOUS
 10
-28.1695918338
 20
-32.9761241382
 11
-27.7453277651
 21
-32.7311593822
  0
LINE
  5
41C
100
AcDbEntity
  8
ASSI
100
AcDbLine
 62
7
  6
CONTINUOUS
 10
-28.1695918338
 20
-32.9761241382
 11
-27.7453277651
 21
-32.7311593822
  0
LWPOLYLINE
  5
41D
100
AcDbEntity
  8
RACCORDO
100
AcDbPolyline
 62
7
  6
CONTINUOUS
 90
19
 70
0
 10
16.8731101278
 20
-10.0358068574
 10
16.8600602129
 20
-10.0426812848
 10
16.8462530941
 20
-10.0487984596
 10
16.8316887715
 20
-10.0541583816
 10
16.8162454963
 20
-10.0587901687
 10
16.8000450172
 20
-10.0626647032
 10
16.7834525805
 20
-10.065694632
 10
16.7664592826
 20
-10.0678607691
 10
16.749074027
 20
-10.0691823007
 10
16.7316887715
 20
-10.0696294322
 10
16.714303516
 20
-10.0691823007
 10
16.6969182605
 20
-10.0678607691
 10
16.6799249625
 20
-10.065694632
 10
16.6633325258
 20
-10.0626647032
 10
16.6471320468
 20
-10.0587901687
 10
16.6316887715
 20
-10.0541583816
 10
16.6171244489
 20
-10.0487984596
 10
16.6033173302
 20
-10.0426812848
 10
16.5902674153
 20
-10.0358068574
  0
LWPOLYLINE
  5
41E
100
AcDbEntity
  8
ASSI
100
AcDbPolyline
 62
7
  6
CONTINUOUS
 90
19
 70
0
 10
16.8731101278
 20
-10.0358068574
 10
16.8600602129
 20
-10.0426812848
 10
16.8462530941
 20
-10.0487984596
 10
16.8316887715
 20
-10.0541583816
 10
16.8162454963
 20
-10.0587901687
 10
16.8000450172
 20
-10.0626647032
 10
16.7834525805
 20
-10.065694632
 10
16.7664592826
 20
-10.0678607691
 10
16.749074027
 20
-10.0691823007
 10
16.7316887715
 20
-10.0696294322
 10
16.714303516
 20
-10.0691823007
 10
16.6969182605
 20
-10.0678607691
 10
16.6799249625
 20
-10.065694632
 10
16.6633325258
 20
-10.0626647032
 10
16.6471320468
 20
-10.0587901687
 10
16.6316887715
 20
-10.0541583816
 10
16.6171244489
 20
-10.0487984596
 10
16.6033173302
 20
-10.0426812848
 10
16.5902674153
 20
-10.0358068574
  0
LWPOLYLINE
  5
41F
100
AcDbEntity
  8
RACCORDO
100
AcDbPolyline
 62
253
  6
CONTINUOUS
 90
22
 70
0
 10
15.2388735061
 20
27.293818567
 10
15.2874733584
 20
27.275362592
 10
15.3378495661
 20
27.2585694401
 10
15.3898316741
 20
27.2434959334
 10
15.4432437943
 20
27.2301930758
 10
15.4979051948
 20
27.2187058809
 10
15.5536309123
 20
27.2090732191
 10
15.6102323846
 20
27.2013276844
 10
15.6675180938
 20
27.1954954843
 10
15.7252942086
 20
27.1915963523
 10
15.7833652361
 20
27.1896434822
 10
15.8415346792
 20
27.1896434823
 10
15.8996057066
 20
27.1915963525
 10
15.9573818212
 20
27.1954954845
 10
16.0146675302
 20
27.2013276848
 10
16.0712690024
 20
27.2090732195
 10
16.1269947202
 20
27.2187058815
 10
16.1816561212
 20
27.2301930766
 10
16.2350682416
 20
27.2434959344
 10
16.2870503493
 20
27.2585694411
 10
16.3374265564
 20
27.275362593
 10
16.3860264079
 20
27.2938185679
  0
LWPOLYLINE
  5
420
100
AcDbEntity
  8
ASSI
100
AcDbPolyline
 62
253
  6
CONTINUOUS
 90
22
 70
0
 10
15.2388735061
 20
27.293818567
 10
15.2874733584
 20
27.275362592
 10
15.3378495661
 20
27.2585694401
 10
15.3898316741
 20
27.2434959334
 10
15.4432437943
 20
27.2301930758
 10
15.4979051948
 20
27.2187058809
 10
15.5536309123
 20
27.2090732191
 10
15.6102323846
 20
27.2013276844
 10
15.6675180938
 20
27.1954954843
 10
15.7252942086
 20
27.1915963523
 10
15.7833652361
 20
27.1896434822
 10
15.8415346792
 20
27.1896434823
 10
15.8996057066
 20
27.1915963525
 10
15.9573818212
 20
27.1954954845
 10
16.0146675302
 20
27.2013276848
 10
16.0712690024
 20
27.2090732195
 10
16.1269947202
 20
27.2187058815
 10
16.1816561212
 20
27.2301930766
 10
16.2350682416
 20
27.2434959344
 10
16.2870503493
 20
27.2585694411
 10
16.3374265564
 20
27.275362593
 10
16.3860264079
 20
27.2938185679
  0
LINE
  5
421
100
AcDbEntity
  8
0
100
AcDbLine
 62
7
  6
CONTINUOUS
 10
4.3573201008
 20
40.0961507079
 11
4.3573201008
 21
38.4632101544
  0
LINE
  5
422
100
AcDbEntity
  8
ASSI
100
AcDbLine
 62
7
  6
CONTINUOUS
 10
4.3573201008
 20
40.0961507079
 11
4.3573201008
 21
38.4632101544
  0
LINE
  5
423
100
AcDbEntity
  8
0
100
AcDbLine
 62
7
  6
CONTINUOUS
 10
4.3573201008
 20
-50.6195747648
 11
4.3573201008
 21
-51.7567554312
  0
LINE
  5
424
100
AcDbEntity
  8
ASSI
100
AcDbLine
 62
7
  6
CONTINUOUS
 10
4.3573201008
 20
-50.6195747648
 11
4.3573201008
 21
-51.7567554312
  0
LINE
  5
425
100
AcDbEntity
  8
0
100
AcDbLine
 62
7
  6
CONTINUOUS
 10
4.7815841695
 20
39.851185952
 11
4.7815841695
 21
38.7081749104
  0
LINE
  5
426
100
AcDbEntity
  8
ASSI
100
AcDbLine
 62
7
  6
CONTINUOUS
 10
4.7815841695
 20
39.851185952
 11
4.7815841695
 21
38.7081749104
  0
LINE
  5
427
100
AcDbEntity
  8
0
100
AcDbLine
 62
7
  6
CONTINUOUS
 10
4.7815841695
 20
-50.8645395208
 11
4.7815841695
 21
-51.5117906752
  0
LINE
  5
428
100
AcDbEntity
  8
ASSI
100
AcDbLine
 62
7
  6
CONTINUOUS
 10
4.7815841695
 20
-50.8645395208
 11
4.7815841695
 21
-51.5117906752
  0
LINE
  5
429
100
AcDbEntity
  8
0
100
AcDbLine
 62
7
  6
CONTINUOUS
 10
8.5999607879
 20
-54.2064029912
 11
8.5999607879
 21
-53.0692223247
  0
LINE
  5
42A
100
AcDbEntity
  8
ASSI
100
AcDbLine
 62
7
  6
CONTINUOUS
 10
8.5999607879
 20
-54.2064029912
 11
8.5999607879
 21
-53.0692223247
  0
LINE
  5
42B
100
AcDbEntity
  8
0
100
AcDbLine
 62
7
  6
CONTINUOUS
 10
8.5999607879
 20
36.0135625944
 11
8.5999607879
 21
37.646503148
  0
LINE
  5
42C
100
AcDbEntity
  8
ASSI
100
AcDbLine
 62
7
  6
CONTINUOUS
 10
8.5999607879
 20
36.0135625944
 11
8.5999607879
 21
37.646503148
  0
LINE
  5
42D
100
AcDbEntity
  8
ASSI
100
AcDbLine
 62
7
  6
CONTINUOUS
 10
19.4207598129
 20
-5.9714380777
 11
19.0372465442
 21
-6.2440646222
  0
LINE
  5
42E
100
AcDbEntity
  8
ASSI
100
AcDbLine
 62
7
  6
CONTINUOUS
 10
19.2294850801
 20
-11.4150379716
 11
18.8440442051
 21
-11.686745226
  0
LWPOLYLINE
  5
42F
100
AcDbEntity
  8
ASSI
100
AcDbPolyline
 62
7
  6
CONTINUOUS
 90
3
 70
0
 10
19.0372465442
 20
-6.2440646222
 10
18.6498780629
 20
-6.5148525863
 10
18.4994557245
 20
-6.6186939933
  0
LINE
  5
430
100
AcDbEntity
  8
ASSI
100
AcDbLine
 62
7
  6
CONTINUOUS
 10
18.8440442051
 20
-11.686745226
 11
18.4994557245
 21
-11.9257507924
  0
LINE
  5
431
100
AcDbEntity
  8
RACCORDO
100
AcDbLine
 62
7
  6
CONTINUOUS
 10
16.8731101278
 20
-10.0358068574
 11
17.8630596214
 21
-9.4642224268
  0
LINE
  5
432
100
AcDbEntity
  8
ASSI
100
AcDbLine
 62
7
  6
CONTINUOUS
 10
16.8731101278
 20
-10.0358068574
 11
17.8630596214
 21
-9.4642224268
  0
LINE
  5
433
100
AcDbEntity
  8
0
100
AcDbLine
 62
7
  6
CONTINUOUS
 10
18.2216898103
 20
-10.2370128744
 11
17.5802169089
 21
-10.6073912881
  0
LINE
  5
434
100
AcDbEntity
  8
ASSI
100
AcDbLine
 62
7
  6
CONTINUOUS
 10
18.2216898103
 20
-10.2370128744
 11
17.5802169089
 21
-10.6073912881
  0
LINE
  5
435
100
AcDbEntity
  8
0
100
AcDbLine
 62
7
  6
CONTINUOUS
 10
18.2216898103
 20
-15.952304812
 11
17.5802169089
 21
-16.3226832257
  0
LINE
  5
436
100
AcDbEntity
  8
ASSI
100
AcDbLine
 62
7
  6
CONTINUOUS
 10
18.2216898103
 20
-15.952304812
 11
17.5802169089
 21
-16.3226832257
  0
LWPOLYLINE
  5
437
100
AcDbEntity
  8
RACCORDO
100
AcDbPolyline
 62
253
  6
CONTINUOUS
 90
25
 70
0
 10
15.246764531
 20
28.3382843153
 10
15.2850078929
 20
28.3176055078
 10
15.3252337923
 20
28.2985283552
 10
15.3674422291
 20
28.2810528576
 10
15.4118615412
 20
28.2651027272
 10
15.4582633907
 20
28.2507542518
 10
15.5059627644
 20
28.2382362941
 10
15.554938353
 20
28.2275893319
 10
15.6052114657
 20
28.2187728875
 10
15.6561610168
 20
28.2118943907
 10
15.7078054505
 20
28.2069763697
 10
15.7601263226
 20
28.2039962964
 10
15.8124472148
 20
28.2029940164
 10
15.8647681297
 20
28.2039960909
 10
15.9170890646
 20
28.2069759586
 10
15.9687335934
 20
28.2118937809
 10
16.019683306
 20
28.2187721001
 10
16.0699566124
 20
28.2275883738
 10
16.1189323167
 20
28.2382351373
 10
16.166631469
 20
28.2507527449
 10
16.2130330193
 20
28.2651008423
 10
16.2574526203
 20
28.2810509009
 10
16.2996621564
 20
28.2985267445
 10
16.3398897432
 20
28.3176045493
 10
16.3781353809
 20
28.3382843153
  0
LWPOLYLINE
  5
438
100
AcDbEntity
  8
ASSI
100
AcDbPolyline
 62
253
  6
CONTINUOUS
 90
25
 70
0
 10
15.246764531
 20
28.3382843153
 10
15.2850078929
 20
28.3176055078
 10
15.3252337923
 20
28.2985283552
 10
15.3674422291
 20
28.2810528576
 10
15.4118615412
 20
28.2651027272
 10
15.4582633907
 20
28.2507542518
 10
15.5059627644
 20
28.2382362941
 10
15.554938353
 20
28.2275893319
 10
15.6052114657
 20
28.2187728875
 10
15.6561610168
 20
28.2118943907
 10
15.7078054505
 20
28.2069763697
 10
15.7601263226
 20
28.2039962964
 10
15.8124472148
 20
28.2029940164
 10
15.8647681297
 20
28.2039960909
 10
15.9170890646
 20
28.2069759586
 10
15.9687335934
 20
28.2118937809
 10
16.019683306
 20
28.2187721001
 10
16.0699566124
 20
28.2275883738
 10
16.1189323167
 20
28.2382351373
 10
16.166631469
 20
28.2507527449
 10
16.2130330193
 20
28.2651008423
 10
16.2574526203
 20
28.2810509009
 10
16.2996621564
 20
28.2985267445
 10
16.3398897432
 20
28.3176045493
 10
16.3781353809
 20
28.3382843153
  0
LWPOLYLINE
  5
439
100
AcDbEntity
  8
RACCORDO
100
AcDbPolyline
 62
7
  6
CONTINUOUS
 90
25
 70
0
 10
15.146759699
 20
27.26696472
 10
15.1946175155
 20
27.2410784232
 10
15.2445616524
 20
27.2174120166
 10
15.2964004561
 20
27.1959753001
 10
15.3499956459
 20
27.1767607862
 10
15.4051327336
 20
27.1597929138
 10
15.4614821048
 20
27.1451178374
 10
15.5187715891
 20
27.1327454545
 10
15.5768788505
 20
27.1226497111
 10
15.6356636772
 20
27.1148179323
 10
15.6949280922
 20
27.1092486546
 10
15.7544851391
 20
27.1059372294
 10
15.8142015319
 20
27.1048776794
 10
15.8738881786
 20
27.1060682708
 10
15.9333532039
 20
27.1095048867
 10
15.9924596604
 20
27.1151870823
 10
16.0510266397
 20
27.1231135398
 10
16.1088568254
 20
27.1332790809
 10
16.1657998049
 20
27.1456865726
 10
16.221704195
 20
27.1603439337
 10
16.2763446165
 20
27.1772408339
 10
16.3294888613
 20
27.196357114
 10
16.380951758
 20
27.2176839489
 10
16.4305659596
 20
27.2412220645
 10
16.478140213
 20
27.26696472
  0
LWPOLYLINE
  5
43A
100
AcDbEntity
  8
ASSI
100
AcDbPolyline
 62
7
  6
CONTINUOUS
 90
25
 70
0
 10
15.146759699
 20
27.26696472
 10
15.1946175155
 20
27.2410784232
 10
15.2445616524
 20
27.2174120166
 10
15.2964004561
 20
27.1959753001
 10
15.3499956459
 20
27.1767607862
 10
15.4051327336
 20
27.1597929138
 10
15.4614821048
 20
27.1451178374
 10
15.5187715891
 20
27.1327454545
 10
15.5768788505
 20
27.1226497111
 10
15.6356636772
 20
27.1148179323
 10
15.6949280922
 20
27.1092486546
 10
15.7544851391
 20
27.1059372294
 10
15.8142015319
 20
27.1048776794
 10
15.8738881786
 20
27.1060682708
 10
15.9333532039
 20
27.1095048867
 10
15.9924596604
 20
27.1151870823
 10
16.0510266397
 20
27.1231135398
 10
16.1088568254
 20
27.1332790809
 10
16.1657998049
 20
27.1456865726
 10
16.221704195
 20
27.1603439337
 10
16.2763446165
 20
27.1772408339
 10
16.3294888613
 20
27.196357114
 10
16.380951758
 20
27.2176839489
 10
16.4305659596
 20
27.2412220645
 10
16.478140213
 20
27.26696472
  0
LWPOLYLINE
  5
43B
100
AcDbEntity
  8
RACCORDO
100
AcDbPolyline
 62
253
  6
CONTINUOUS
 90
4
 70
0
 10
15.1053431748
 20
27.3585120922
 10
15.1476540854
 20
27.3354637744
 10
15.1922144551
 20
27.313874916
 10
15.2388735061
 20
27.293818567
  0
LWPOLYLINE
  5
43C
100
AcDbEntity
  8
ASSI
100
AcDbPolyline
 62
253
  6
CONTINUOUS
 90
4
 70
0
 10
15.1053431748
 20
27.3585120922
 10
15.1476540854
 20
27.3354637744
 10
15.1922144551
 20
27.313874916
 10
15.2388735061
 20
27.293818567
  0
LWPOLYLINE
  5
43D
100
AcDbEntity
  8
RACCORDO
100
AcDbPolyline
 62
253
  6
CONTINUOUS
 90
28
 70
0
 10
15.1053431748
 20
28.0933353413
 10
15.14765409
 20
28.0702870211
 10
15.1922144639
 20
28.0486981611
 10
15.2388735184
 20
28.0286418111
 10
15.2874733726
 20
28.0101858361
 10
15.3378495812
 20
27.9933926844
 10
15.3898316918
 20
27.9783191778
 10
15.4432438183
 20
27.9650163194
 10
15.4979052269
 20
27.9535291239
 10
15.5536309507
 20
27.9438964623
 10
15.6102324251
 20
27.9361509287
 10
15.6675181343
 20
27.93031873
 10
15.7252942492
 20
27.9264195994
 10
15.7833652797
 20
27.9244667306
 10
15.841534726
 20
27.9244667322
 10
15.8996057515
 20
27.9264196039
 10
15.9573818488
 20
27.930318736
 10
16.0146675358
 20
27.9361509346
 10
16.0712690064
 20
27.9438964693
 10
16.1269947647
 20
27.9535291391
 10
16.1816562234
 20
27.9650163492
 10
16.235068376
 20
27.9783192197
 10
16.2870504707
 20
27.993392728
 10
16.3374266438
 20
28.0101858733
 10
16.3860264642
 20
28.0286418397
 10
16.4326854932
 20
28.0486981817
 10
16.4772458435
 20
28.0702870322
 10
16.5195567372
 20
28.0933353413
  0
LWPOLYLINE
  5
43E
100
AcDbEntity
  8
ASSI
100
AcDbPolyline
 62
253
  6
CONTINUOUS
 90
28
 70
0
 10
15.1053431748
 20
28.0933353413
 10
15.14765409
 20
28.0702870211
 10
15.1922144639
 20
28.0486981611
 10
15.2388735184
 20
28.0286418111
 10
15.2874733726
 20
28.0101858361
 10
15.3378495812
 20
27.9933926844
 10
15.3898316918
 20
27.9783191778
 10
15.4432438183
 20
27.9650163194
 10
15.4979052269
 20
27.9535291239
 10
15.5536309507
 20
27.9438964623
 10
15.6102324251
 20
27.9361509287
 10
15.6675181343
 20
27.93031873
 10
15.7252942492
 20
27.9264195994
 10
15.7833652797
 20
27.9244667306
 10
15.841534726
 20
27.9244667322
 10
15.8996057515
 20
27.9264196039
 10
15.9573818488
 20
27.930318736
 10
16.0146675358
 20
27.9361509346
 10
16.0712690064
 20
27.9438964693
 10
16.1269947647
 20
27.9535291391
 10
16.1816562234
 20
27.9650163492
 10
16.235068376
 20
27.9783192197
 10
16.2870504707
 20
27.993392728
 10
16.3374266438
 20
28.0101858733
 10
16.3860264642
 20
28.0286418397
 10
16.4326854932
 20
28.0486981817
 10
16.4772458435
 20
28.0702870322
 10
16.5195567372
 20
28.0933353413
  0
LINE
  5
43F
100
AcDbEntity
  8
ASSI
100
AcDbLine
 62
7
  6
CONTINUOUS
 10
-35.7002790535
 20
52.9782044462
 11
-35.5438404918
 21
52.8878787813
  0
LINE
  5
440
100
AcDbEntity
  8
0
100
AcDbLine
 62
7
  6
CONTINUOUS
 10
-36.1952538003
 20
55.0195774129
 11
-35.5438404918
 21
54.6434595327
  0
LINE
  5
441
100
AcDbEntity
  8
ASSI
100
AcDbLine
 62
7
  6
CONTINUOUS
 10
-36.1952538003
 20
55.0195774129
 11
-35.5438404918
 21
54.6434595327
  0
LINE
  5
442
100
AcDbEntity
  8
RACCORDO
100
AcDbLine
 62
7
  6
CONTINUOUS
 10
14.2628762225
 20
27.7773079616
 11
15.146759699
 21
27.26696472
  0
LINE
  5
443
100
AcDbEntity
  8
ASSI
100
AcDbLine
 62
7
  6
CONTINUOUS
 10
14.2628762225
 20
27.7773079616
 11
15.146759699
 21
27.26696472
  0
LINE
  5
444
100
AcDbEntity
  8
RACCORDO
100
AcDbLine
 62
253
  6
CONTINUOUS
 10
14.2214596983
 20
27.8688553339
 11
15.1053431748
 21
27.3585120922
  0
LINE
  5
445
100
AcDbEntity
  8
ASSI
100
AcDbLine
 62
253
  6
CONTINUOUS
 10
14.2214596983
 20
27.8688553339
 11
15.1053431748
 21
27.3585120922
  0
LINE
  5
446
100
AcDbEntity
  8
RACCORDO
100
AcDbLine
 62
253
  6
CONTINUOUS
 10
14.2214596983
 20
28.603678583
 11
15.1053431748
 21
28.0933353413
  0
LINE
  5
447
100
AcDbEntity
  8
ASSI
100
AcDbLine
 62
253
  6
CONTINUOUS
 10
14.2214596983
 20
28.603678583
 11
15.1053431748
 21
28.0933353413
  0
LINE
  5
448
100
AcDbEntity
  8
RACCORDO
100
AcDbLine
 62
253
  6
CONTINUOUS
 10
14.3628810545
 20
28.848627557
 11
15.246764531
 21
28.3382843153
  0
LINE
  5
449
100
AcDbEntity
  8
ASSI
100
AcDbLine
 62
253
  6
CONTINUOUS
 10
14.3628810545
 20
28.848627557
 11
15.246764531
 21
28.3382843153
  0
LINE
  5
44A
100
AcDbEntity
  8
0
100
AcDbLine
 62
7
  6
CONTINUOUS
 10
17.8630596214
 20
-9.4642224268
 11
18.2216898103
 21
-10.2370128744
  0
LINE
  5
44B
100
AcDbEntity
  8
ASSI
100
AcDbLine
 62
7
  6
CONTINUOUS
 10
17.8630596214
 20
-9.4642224268
 11
18.2216898103
 21
-10.2370128744
  0
LWPOLYLINE
  5
44C
100
AcDbEntity
  8
RACCORDO
100
AcDbPolyline
 62
7
  6
CONTINUOUS
 90
8
 70
0
 10
23.2737721494
 20
-48.0256394467
 10
23.2734633974
 20
-48.0246554671
 10
23.2726725826
 20
-48.021707975
 10
23.2716494093
 20
-48.017046974
 10
23.2705289732
 20
-48.0106041544
 10
23.2694458521
 20
-48.0023283789
 10
23.2685348244
 20
-47.9922242627
 10
23.2679187885
 20
-47.9802088252
  0
LWPOLYLINE
  5
44D
100
AcDbEntity
  8
ASSI
100
AcDbPolyline
 62
7
  6
CONTINUOUS
 90
8
 70
0
 10
23.2737721494
 20
-48.0256394467
 10
23.2734633974
 20
-48.0246554671
 10
23.2726725826
 20
-48.021707975
 10
23.2716494093
 20
-48.017046974
 10
23.2705289732
 20
-48.0106041544
 10
23.2694458521
 20
-48.0023283789
 10
23.2685348244
 20
-47.9922242627
 10
23.2679187885
 20
-47.9802088252
  0
LWPOLYLINE
  5
44E
100
AcDbEntity
  8
RACCORDO
100
AcDbPolyline
 62
253
  6
CONTINUOUS
 90
7
 70
0
 10
23.2383017867
 20
-48.2170742927
 10
23.2317497229
 20
-48.1950116296
 10
23.2263811149
 20
-48.1716035266
 10
23.2221966521
 20
-48.1468502505
 10
23.2191968715
 20
-48.1207520097
 10
23.2173821581
 20
-48.0933089532
 10
23.2167527448
 20
-48.0645211716
  0
LWPOLYLINE
  5
44F
100
AcDbEntity
  8
ASSI
100
AcDbPolyline
 62
253
  6
CONTINUOUS
 90
7
 70
0
 10
23.2383017867
 20
-48.2170742927
 10
23.2317497229
 20
-48.1950116296
 10
23.2263811149
 20
-48.1716035266
 10
23.2221966521
 20
-48.1468502505
 10
23.2191968715
 20
-48.1207520097
 10
23.2173821581
 20
-48.0933089532
 10
23.2167527448
 20
-48.0645211716
  0
LINE
  5
450
100
AcDbEntity
  8
RACCORDO
100
AcDbLine
 62
253
  6
CONTINUOUS
 10
23.2784788393
 20
-48.0423615494
 11
23.2737721494
 21
-48.0256394467
  0
LINE
  5
451
100
AcDbEntity
  8
ASSI
100
AcDbLine
 62
253
  6
CONTINUOUS
 10
23.2784788393
 20
-48.0423615494
 11
23.2737721494
 21
-48.0256394467
  0
LWPOLYLINE
  5
452
100
AcDbEntity
  8
RACCORDO
100
AcDbPolyline
 62
253
  6
CONTINUOUS
 90
10
 70
0
 10
13.6911296124
 20
-55.8397144212
 10
13.6924794918
 20
-55.8745744209
 10
13.6965189295
 20
-55.9076100606
 10
13.703217239
 20
-55.9385689508
 10
13.7125235007
 20
-55.9672147323
 10
13.7243667573
 20
-55.9933282612
 10
13.7386563753
 20
-56.0167094709
 10
13.7552844522
 20
-56.0371811293
 10
13.7741230505
 20
-56.0545851432
 10
13.7946709229
 20
-56.0685828517
  0
LWPOLYLINE
  5
453
100
AcDbEntity
  8
RACCORDO
100
AcDbPolyline
 62
253
  6
CONTINUOUS
 90
10
 70
0
 10
15.1053431748
 20
-54.2885155871
 10
15.1058813257
 20
-54.3024368802
 10
15.107491683
 20
-54.3156307805
 10
15.1101619907
 20
-54.3279968747
 10
15.1138719262
 20
-54.3394410492
 10
15.1185932546
 20
-54.3498762069
 10
15.1242900439
 20
-54.3592229301
 10
15.130918938
 20
-54.3674100844
 10
15.138429487
 20
-54.3743753607
 10
15.146759699
 20
-54.3800629593
  0
LWPOLYLINE
  5
454
100
AcDbEntity
  8
ASSI
100
AcDbPolyline
 62
253
  6
CONTINUOUS
 90
10
 70
0
 10
15.1053431748
 20
-54.2885155871
 10
15.1058813257
 20
-54.3024368802
 10
15.107491683
 20
-54.3156307805
 10
15.1101619907
 20
-54.3279968747
 10
15.1138719262
 20
-54.3394410492
 10
15.1185932546
 20
-54.3498762069
 10
15.1242900439
 20
-54.3592229301
 10
15.130918938
 20
-54.3674100844
 10
15.138429487
 20
-54.3743753607
 10
15.146759699
 20
-54.3800629593
  0
LWPOLYLINE
  5
455
100
AcDbEntity
  8
RACCORDO
100
AcDbPolyline
 62
253
  6
CONTINUOUS
 90
10
 70
0
 10
12.0647840157
 20
31.4818724282
 10
12.066129393
 20
31.4470691962
 10
12.0701552859
 20
31.4140844457
 10
12.0768310549
 20
31.3831692106
 10
12.0861058935
 20
31.3545587747
 10
12.0979092144
 20
31.3284708804
 10
12.1121511874
 20
31.3051040724
 10
12.1287234226
 20
31.2846361861
 10
12.1474997954
 20
31.2672229948
 10
12.1683253262
 20
31.2530039976
  0
LWPOLYLINE
  5
456
100
AcDbEntity
  8
RACCORDO
100
AcDbPolyline
 62
253
  6
CONTINUOUS
 90
19
 70
0
 10
14.3982363936
 20
31.6042522234
 10
14.3968910162
 20
31.6406090641
 10
14.3928651232
 20
31.6782428154
 10
14.386189354
 20
31.7168670617
 10
14.3769145152
 20
31.7561878492
 10
14.3651111941
 20
31.7959059229
 10
14.3508692209
 20
31.8357190043
 10
14.3342969857
 20
31.8753240919
 10
14.3155206133
 20
31.914419767
 10
14.2946830031
 20
31.9527084878
 10
14.2719427419
 20
31.9898988542
 10
14.2474728969
 20
32.0257078249
 10
14.2214596984
 20
32.0598628722
 10
14.1941011225
 20
32.0921040553
 10
14.1656053844
 20
32.1221859996
 10
14.136189354
 20
32.1498797632
 10
14.106076905
 20
32.1749745798
 10
14.0754972114
 20
32.1972794627
 10
14.044683003
 20
32.2166246584
  0
LWPOLYLINE
  5
457
100
AcDbEntity
  8
RACCORDO
100
AcDbPolyline
 62
7
  6
CONTINUOUS
 90
28
 70
0
 10
12.6254441875
 20
30.4612648547
 10
12.6249332892
 20
30.4831346197
 10
12.6232752206
 20
30.5075244051
 10
12.6202939486
 20
30.5343268213
 10
12.6158258342
 20
30.5634369393
 10
12.609736647
 20
30.5946543592
 10
12.6019343888
 20
30.6276967265
 10
12.5923287067
 20
30.6623814538
 10
12.580863631
 20
30.6984602461
 10
12.5675599476
 20
30.7355366162
 10
12.5524166537
 20
30.77336865
 10
12.5354658502
 20
30.8116786796
 10
12.51685076
 20
30.8500129539
 10
12.4966642617
 20
30.8881052315
 10
12.4750206398
 20
30.9256894114
 10
12.452165205
 20
30.9623324846
 10
12.4282624447
 20
30.9978015963
 10
12.4034960432
 20
31.0318699862
 10
12.3781978384
 20
31.0641613803
 10
12.3525878861
 20
31.0945066608
 10
12.3268833806
 20
31.122770277
 10
12.3014509199
 20
31.1486970402
 10
12.2765389571
 20
31.1722083947
 10
12.2523555335
 20
31.1932899616
 10
12.2292241741
 20
31.2118577544
 10
12.2073967576
 20
31.2279288732
 10
12.1870369567
 20
31.24160864
 10
12.1683253262
 20
31.2530039976
  0
LINE
  5
458
100
AcDbEntity
  8
RACCORDO
100
AcDbLine
 62
7
  6
CONTINUOUS
 10
12.6254441875
 20
30.4612648547
 11
12.6254441875
 21
-53.2269385165
  0
LINE
  5
459
100
AcDbEntity
  8
RACCORDO
100
AcDbLine
 62
253
  6
CONTINUOUS
 10
12.7718907969
 20
30.2571275581
 11
12.7718907969
 21
-53.4310758132
  0
LINE
  5
45A
100
AcDbEntity
  8
RACCORDO
100
AcDbLine
 62
253
  6
CONTINUOUS
 10
13.6911296124
 20
-55.8397144212
 11
13.6911296124
 21
31.6042522234
  0
LINE
  5
45B
100
AcDbEntity
  8
RACCORDO
100
AcDbLine
 62
7
  6
CONTINUOUS
 10
14.2214596983
 20
28.603678583
 11
14.2214596983
 21
27.8688553339
  0
LINE
  5
45C
100
AcDbEntity
  8
ASSI
100
AcDbLine
 62
7
  6
CONTINUOUS
 10
14.2214596983
 20
28.603678583
 11
14.2214596983
 21
27.8688553339
  0
LINE
  5
45D
100
AcDbEntity
  8
RACCORDO
100
AcDbLine
 62
7
  6
CONTINUOUS
 10
14.2214596983
 20
-53.0433490963
 11
14.2214596983
 21
-53.7781723454
  0
LINE
  5
45E
100
AcDbEntity
  8
ASSI
100
AcDbLine
 62
7
  6
CONTINUOUS
 10
14.2214596983
 20
-53.0433490963
 11
14.2214596983
 21
-53.7781723454
  0
LINE
  5
45F
100
AcDbEntity
  8
RACCORDO
100
AcDbLine
 62
253
  6
CONTINUOUS
 10
14.3982363936
 20
-55.8397144212
 11
14.3982363936
 21
-53.947874984
  0
LINE
  5
460
100
AcDbEntity
  8
RACCORDO
100
AcDbLine
 62
253
  6
CONTINUOUS
 10
14.3982363936
 20
-52.7779863926
 11
14.3982363936
 21
27.6991526953
  0
LINE
  5
461
100
AcDbEntity
  8
RACCORDO
100
AcDbLine
 62
253
  6
CONTINUOUS
 10
14.3982363936
 20
28.8690412867
 11
14.3982363936
 21
31.6042522234
  0
LINE
  5
462
100
AcDbEntity
  8
0
100
AcDbLine
 62
7
  6
CONTINUOUS
 10
15.0346324967
 20
-56.2887612369
 11
15.0346324967
 21
-54.315322118
  0
LINE
  5
463
100
AcDbEntity
  8
ASSI
100
AcDbLine
 62
7
  6
CONTINUOUS
 10
15.0346324967
 20
-56.2887612369
 11
15.0346324967
 21
-54.315322118
  0
LINE
  5
464
100
AcDbEntity
  8
0
100
AcDbLine
 62
7
  6
CONTINUOUS
 10
15.0346324967
 20
-52.4105392586
 11
15.0346324967
 21
27.3317055613
  0
LINE
  5
465
100
AcDbEntity
  8
ASSI
100
AcDbLine
 62
7
  6
CONTINUOUS
 10
15.0346324967
 20
-52.4105392586
 11
15.0346324967
 21
27.3317055613
  0
LINE
  5
466
100
AcDbEntity
  8
0
100
AcDbLine
 62
7
  6
CONTINUOUS
 10
15.0346324967
 20
29.2364884207
 11
15.0346324967
 21
32.2982637951
  0
LINE
  5
467
100
AcDbEntity
  8
ASSI
100
AcDbLine
 62
7
  6
CONTINUOUS
 10
15.0346324967
 20
29.2364884207
 11
15.0346324967
 21
32.2982637951
  0
LINE
  5
468
100
AcDbEntity
  8
RACCORDO
100
AcDbLine
 62
253
  6
CONTINUOUS
 10
15.1053431748
 20
-54.2885155871
 11
15.1053431748
 21
-53.553692338
  0
LINE
  5
469
100
AcDbEntity
  8
ASSI
100
AcDbLine
 62
253
  6
CONTINUOUS
 10
15.1053431748
 20
-54.2885155871
 11
15.1053431748
 21
-53.553692338
  0
LINE
  5
46A
100
AcDbEntity
  8
RACCORDO
100
AcDbLine
 62
253
  6
CONTINUOUS
 10
15.1053431748
 20
27.3585120922
 11
15.1053431748
 21
28.0933353413
  0
LINE
  5
46B
100
AcDbEntity
  8
ASSI
100
AcDbLine
 62
253
  6
CONTINUOUS
 10
15.1053431748
 20
27.3585120922
 11
15.1053431748
 21
28.0933353413
  0
LWPOLYLINE
  5
46C
100
AcDbEntity
  8
RACCORDO
100
AcDbPolyline
 62
253
  6
CONTINUOUS
 90
25
 70
0
 10
12.7718907969
 20
-53.4310758132
 10
12.7703903605
 20
-53.4835329723
 10
12.7659136919
 20
-53.5337389384
 10
12.7584607913
 20
-53.5816937114
 10
12.7479712273
 20
-53.6276360685
 10
12.7345054311
 20
-53.6713272326
 10
12.7182446966
 20
-53.7120508723
 10
12.6991592529
 20
-53.7497095351
 10
12.6772788709
 20
-53.7844006734
 10
12.6528741567
 20
-53.8157003135
 10
12.6259081546
 20
-53.8435741318
 10
12.5964178203
 20
-53.8680564517
 10
12.5647846274
 20
-53.8888262696
 10
12.5309802162
 20
-53.9058329762
 10
12.4950329463
 20
-53.9191271807
 10
12.4574093709
 20
-53.9285397071
 10
12.4180972799
 20
-53.9340218884
 10
12.3771088834
 20
-53.9356223915
 10
12.3349473636
 20
-53.9333180412
 10
12.2915421151
 20
-53.927033415
 10
12.2469637433
 20
-53.9168439353
 10
12.2019272476
 20
-53.9029526945
 10
12.1566709609
 20
-53.8854273898
 10
12.1109565503
 20
-53.8642003238
 10
12.0647840157
 20
-53.8392714967
  0
LWPOLYLINE
  5
46D
100
AcDbEntity
  8
RACCORDO
100
AcDbPolyline
 62
253
  6
CONTINUOUS
 90
19
 70
0
 10
12.0647840157
 20
-53.8392714967
 10
12.0661293931
 20
-53.8029146559
 10
12.0701552861
 20
-53.7652809045
 10
12.0768310553
 20
-53.7266566582
 10
12.0861058941
 20
-53.6873358707
 10
12.0979092153
 20
-53.647617797
 10
12.1121511885
 20
-53.6078047155
 10
12.1287234236
 20
-53.568199628
 10
12.1474997961
 20
-53.5291039529
 10
12.1683374063
 20
-53.4908152321
 10
12.1910776675
 20
-53.4536248657
 10
12.2155475125
 20
-53.417815895
 10
12.241560711
 20
-53.3836608478
 10
12.2689192869
 20
-53.3514196646
 10
12.297415025
 20
-53.3213377204
 10
12.3268310553
 20
-53.2936439568
 10
12.3569435043
 20
-53.2685491402
 10
12.3875231979
 20
-53.2462442573
 10
12.4183374063
 20
-53.2268990616
  0
LWPOLYLINE
  5
46E
100
AcDbEntity
  8
RACCORDO
100
AcDbPolyline
 62
253
  6
CONTINUOUS
 90
19
 70
0
 10
16.0245819903
 20
34.0127961395
 10
16.0251201413
 20
34.0273388758
 10
16.0267304985
 20
34.0423923763
 10
16.0294008062
 20
34.0578420748
 10
16.0331107417
 20
34.0735703898
 10
16.0378320702
 20
34.0894576193
 10
16.0435288594
 20
34.1053828519
 10
16.0501577535
 20
34.1212248869
 10
16.0576683025
 20
34.136863157
 10
16.0660033466
 20
34.1521786453
 10
16.075099451
 20
34.1670547919
 10
16.084887389
 20
34.1813783801
 10
16.0952926685
 20
34.195040399
 10
16.1062360988
 20
34.2079368723
 10
16.117634394
 20
34.21996965
 10
16.1294008062
 20
34.2310471554
 10
16.1414457858
 20
34.2410850821
 10
16.1536776632
 20
34.2500070352
 10
16.1660033466
 20
34.2577451135
  0
LWPOLYLINE
  5
46F
100
AcDbEntity
  8
ASSI
100
AcDbPolyline
 62
253
  6
CONTINUOUS
 90
19
 70
0
 10
16.0245819903
 20
34.0127961395
 10
16.0251201413
 20
34.0273388758
 10
16.0267304985
 20
34.0423923763
 10
16.0294008062
 20
34.0578420748
 10
16.0331107417
 20
34.0735703898
 10
16.0378320702
 20
34.0894576193
 10
16.0435288594
 20
34.1053828519
 10
16.0501577535
 20
34.1212248869
 10
16.0576683025
 20
34.136863157
 10
16.0660033466
 20
34.1521786453
 10
16.075099451
 20
34.1670547919
 10
16.084887389
 20
34.1813783801
 10
16.0952926685
 20
34.195040399
 10
16.1062360988
 20
34.2079368723
 10
16.117634394
 20
34.21996965
 10
16.1294008062
 20
34.2310471554
 10
16.1414457858
 20
34.2410850821
 10
16.1536776632
 20
34.2500070352
 10
16.1660033466
 20
34.2577451135
  0
LWPOLYLINE
  5
470
100
AcDbEntity
  8
RACCORDO
100
AcDbPolyline
 62
253
  6
CONTINUOUS
 90
19
 70
0
 10
13.6911296124
 20
31.6042522234
 10
13.6924794916
 20
31.640671028
 10
13.6965189292
 20
31.6783713092
 10
13.7032172391
 20
31.7170652417
 10
13.7125235028
 20
31.7564576685
 10
13.7243667632
 20
31.7962475033
 10
13.7386563836
 20
31.836130009
 10
13.7552844567
 20
31.8758033423
 10
13.7741230464
 20
31.9149616795
 10
13.795023191
 20
31.953297177
 10
13.8178204004
 20
31.9905123599
 10
13.8423424551
 20
32.0263299706
 10
13.8684070242
 20
32.0604851502
 10
13.8958428064
 20
32.0927481787
 10
13.9244152577
 20
32.1228382549
 10
13.953824558
 20
32.1504535521
 10
13.9838129597
 20
32.1753832369
 10
14.0141759722
 20
32.1974876984
 10
14.044683003
 20
32.2166246584
  0
LWPOLYLINE
  5
471
100
AcDbEntity
  8
RACCORDO
100
AcDbPolyline
 62
7
  6
CONTINUOUS
 90
19
 70
0
 10
14.2214596983
 20
28.603678583
 10
14.2220316106
 20
28.6184166901
 10
14.2236378825
 20
28.6334320019
 10
14.2262785142
 20
28.6487245183
 10
14.2299891649
 20
28.6644142329
 10
14.2347341754
 20
28.6803811522
 10
14.2404065674
 20
28.6962652954
 10
14.2470274075
 20
28.7120647824
 10
14.2545756291
 20
28.7277814933
 10
14.2628810545
 20
28.7430610888
 10
14.2719608846
 20
28.7578936392
 10
14.2817979185
 20
28.772289074
 10
14.2921703764
 20
28.7859228425
 10
14.3030904211
 20
28.7987776426
 10
14.3145458897
 20
28.8108707762
 10
14.3262785142
 20
28.8219295989
 10
14.3382022051
 20
28.8318632292
 10
14.3504030519
 20
28.8407625486
 10
14.3628810545
 20
28.848627557
  0
LWPOLYLINE
  5
472
100
AcDbEntity
  8
ASSI
100
AcDbPolyline
 62
7
  6
CONTINUOUS
 90
19
 70
0
 10
14.2214596983
 20
28.603678583
 10
14.2220316106
 20
28.6184166901
 10
14.2236378825
 20
28.6334320019
 10
14.2262785142
 20
28.6487245183
 10
14.2299891649
 20
28.6644142329
 10
14.2347341754
 20
28.6803811522
 10
14.2404065674
 20
28.6962652954
 10
14.2470274075
 20
28.7120647824
 10
14.2545756291
 20
28.7277814933
 10
14.2628810545
 20
28.7430610888
 10
14.2719608846
 20
28.7578936392
 10
14.2817979185
 20
28.772289074
 10
14.2921703764
 20
28.7859228425
 10
14.3030904211
 20
28.7987776426
 10
14.3145458897
 20
28.8108707762
 10
14.3262785142
 20
28.8219295989
 10
14.3382022051
 20
28.8318632292
 10
14.3504030519
 20
28.8407625486
 10
14.3628810545
 20
28.848627557
  0
LINE
  5
473
100
AcDbEntity
  8
ASSI
100
AcDbLine
 62
7
  6
CONTINUOUS
 10
19.4207598129
 20
-11.2784948768
 11
19.2294850801
 21
-11.4150379716
  0
LWPOLYLINE
  5
474
100
AcDbEntity
  8
DRAFT
100
AcDbPolyline
 62
7
  6
CONTINUOUS
 90
22
 70
0
 10
-17.921938233
 20
59.8542032138
 10
-17.8918395714
 20
59.8613790657
 10
-17.860705466
 20
59.8656434001
 10
-17.8285359166
 20
59.866996217
 10
-17.7951699393
 20
59.865413029
 10
-17.760768518
 20
59.8609183235
 10
-17.7258146048
 20
59.853585563
 10
-17.6903801218
 20
59.843408419
 10
-17.6543931468
 20
59.83039322
 10
-17.6181208653
 20
59.8146324145
 10
-17.5814621346
 20
59.796046997
 10
-17.5445180974
 20
59.7747159729
 10
-17.5078593668
 20
59.7509688072
 10
-17.4715870853
 20
59.7248432912
 10
-17.4356001103
 20
59.6963016335
 10
-17.4001656273
 20
59.6655599248
 10
-17.365211714
 20
59.6325287824
 10
-17.3308102928
 20
59.5972975889
 10
-17.2974443155
 20
59.5603505827
 10
-17.2652747661
 20
59.5218491765
 10
-17.2341406606
 20
59.4816319574
 10
-17.2040419991
 20
59.4396989257
  0
LWPOLYLINE
  5
475
100
AcDbEntity
  8
ASSI
100
AcDbPolyline
 62
7
  6
CONTINUOUS
 90
22
 70
0
 10
-17.921938233
 20
59.8542032138
 10
-17.8918395714
 20
59.8613790657
 10
-17.860705466
 20
59.8656434001
 10
-17.8285359166
 20
59.866996217
 10
-17.7951699393
 20
59.865413029
 10
-17.760768518
 20
59.8609183235
 10
-17.7258146048
 20
59.853585563
 10
-17.6903801218
 20
59.843408419
 10
-17.6543931468
 20
59.83039322
 10
-17.6181208653
 20
59.8146324145
 10
-17.5814621346
 20
59.796046997
 10
-17.5445180974
 20
59.7747159729
 10
-17.5078593668
 20
59.7509688072
 10
-17.4715870853
 20
59.7248432912
 10
-17.4356001103
 20
59.6963016335
 10
-17.4001656273
 20
59.6655599248
 10
-17.365211714
 20
59.6325287824
 10
-17.3308102928
 20
59.5972975889
 10
-17.2974443155
 20
59.5603505827
 10
-17.2652747661
 20
59.5218491765
 10
-17.2341406606
 20
59.4816319574
 10
-17.2040419991
 20
59.4396989257
  0
LWPOLYLINE
  5
476
100
AcDbEntity
  8
RACCORDO
100
AcDbPolyline
 62
253
  6
CONTINUOUS
 90
10
 70
0
 10
-34.4628421864
 20
60.2242617607
 10
-34.4936563947
 20
60.2405000404
 10
-34.5242360883
 20
60.2535078212
 10
-34.5543485373
 20
60.2631861059
 10
-34.5837645676
 20
60.2694612369
 10
-34.6122603057
 20
60.2722854566
 10
-34.6396188816
 20
60.2716372712
 10
-34.6656320801
 20
60.2675216136
 10
-34.6901019251
 20
60.2599698066
 10
-34.7128542665
 20
60.2490323495
  0
LWPOLYLINE
  5
477
100
AcDbEntity
  8
RACCORDO
100
AcDbPolyline
 62
253
  6
CONTINUOUS
 90
19
 70
0
 10
13.6911296124
 20
31.6042522234
 10
13.7233451147
 20
31.587210203
 10
13.7580150914
 20
31.5718568344
 10
13.7948749285
 20
31.5583094663
 10
13.8336435445
 20
31.546671591
 10
13.8740247097
 20
31.5370323082
 10
13.9157092012
 20
31.529465498
 10
13.9583816674
 20
31.5240286372
 10
14.0017132789
 20
31.5207638488
 10
14.0453629366
 20
31.5196960534
 10
14.0889907635
 20
31.5208315347
 10
14.1322705492
 20
31.5241597723
 10
14.174881771
 20
31.5296552907
 10
14.2165398454
 20
31.5372845987
 10
14.2568843131
 20
31.5469849697
 10
14.295503869
 20
31.5586476521
 10
14.332087056
 20
31.5721548334
 10
14.3664107324
 20
31.5873992148
 10
14.3982363936
 20
31.6042522237
  0
LWPOLYLINE
  5
478
100
AcDbEntity
  8
RACCORDO
100
AcDbPolyline
 62
253
  6
CONTINUOUS
 90
19
 70
0
 10
-33.8971567614
 20
57.2032507177
 10
-33.8649971763
 20
57.1862357843
 10
-33.8303915903
 20
57.1709039529
 10
-33.7936033727
 20
57.1573719078
 10
-33.7549125041
 20
57.1457426362
 10
-33.7146134453
 20
57.1361046439
 10
-33.6730128963
 20
57.1285312817
 10
-33.6304274621
 20
57.1230801876
 10
-33.5871812437
 20
57.1197928477
 10
-33.5436033713
 20
57.1186942808
 10
-33.500025499
 20
57.1197928477
 10
-33.4567792805
 20
57.1230801875
 10
-33.4141938462
 20
57.1285312816
 10
-33.372593297
 20
57.1361046437
 10
-33.3322942381
 20
57.1457426361
 10
-33.2936033694
 20
57.1573719077
 10
-33.2568151516
 20
57.1709039528
 10
-33.2222095655
 20
57.1862357843
 10
-33.1900499803
 20
57.2032507177
  0
LWPOLYLINE
  5
479
100
AcDbEntity
  8
RACCORDO
100
AcDbPolyline
 62
253
  6
CONTINUOUS
 90
19
 70
0
 10
16.5902674153
 20
33.0330002434
 10
16.6031312496
 20
33.0261942699
 10
16.6169734842
 20
33.0200615373
 10
16.6316887715
 20
33.0146487192
 10
16.6471651191
 20
33.0099970106
 10
16.6632847428
 20
33.0061418136
 10
16.6799249624
 20
33.0031124688
 10
16.6969591358
 20
33.0009320312
 10
16.7142576228
 20
32.9996170954
 10
16.7316887714
 20
32.9991776686
 10
16.7491199199
 20
32.9996170954
 10
16.7664184069
 20
33.0009320312
 10
16.7834525804
 20
33.0031124688
 10
16.8000928001
 20
33.0061418136
 10
16.8162124238
 20
33.0099970105
 10
16.8316887715
 20
33.0146487192
 10
16.8464040588
 20
33.0200615373
 10
16.8602462934
 20
33.02619427
 10
16.8731101278
 20
33.0330002436
  0
LWPOLYLINE
  5
47A
100
AcDbEntity
  8
ASSI
100
AcDbPolyline
 62
253
  6
CONTINUOUS
 90
19
 70
0
 10
16.5902674153
 20
33.0330002434
 10
16.6031312496
 20
33.0261942699
 10
16.6169734842
 20
33.0200615373
 10
16.6316887715
 20
33.0146487192
 10
16.6471651191
 20
33.0099970106
 10
16.6632847428
 20
33.0061418136
 10
16.6799249624
 20
33.0031124688
 10
16.6969591358
 20
33.0009320312
 10
16.7142576228
 20
32.9996170954
 10
16.7316887714
 20
32.9991776686
 10
16.7491199199
 20
32.9996170954
 10
16.7664184069
 20
33.0009320312
 10
16.7834525804
 20
33.0031124688
 10
16.8000928001
 20
33.0061418136
 10
16.8162124238
 20
33.0099970105
 10
16.8316887715
 20
33.0146487192
 10
16.8464040588
 20
33.0200615373
 10
16.8602462934
 20
33.02619427
 10
16.8731101278
 20
33.0330002436
  0
LWPOLYLINE
  5
47B
100
AcDbEntity
  8
RACCORDO
100
AcDbPolyline
 62
7
  6
CONTINUOUS
 90
9
 70
0
 10
-33.0865086697
 20
57.3825779706
 10
-33.102632529
 20
57.3914218333
 10
-33.1169308309
 20
57.3984284275
 10
-33.1292391684
 20
57.4037426492
 10
-33.1394305833
 20
57.4075472894
 10
-33.1473952538
 20
57.4100497919
 10
-33.152936049
 20
57.411458136
 10
-33.1559230226
 20
57.4120382971
 10
-33.1564282429
 20
57.4121123562
  0
LWPOLYLINE
  5
47C
100
AcDbEntity
  8
RACCORDO
100
AcDbPolyline
 62
7
  6
CONTINUOUS
 90
3
 70
0
 10
16.8599365253
 20
28.3052047089
 10
16.8173416846
 20
28.3296407197
 10
15.1406985138
 20
29.2977296097
  0
LWPOLYLINE
  5
47D
100
AcDbEntity
  8
ASSI
100
AcDbPolyline
 62
7
  6
CONTINUOUS
 90
3
 70
0
 10
16.8599365253
 20
28.3052047089
 10
16.8173416846
 20
28.3296407197
 10
15.1406985138
 20
29.2977296097
  0
LINE
  5
47E
100
AcDbEntity
  8
RACCORDO
100
AcDbLine
 62
7
  6
CONTINUOUS
 10
-33.0865086697
 20
57.3825779706
 11
12.1683253262
 21
31.2530039976
  0
LINE
  5
47F
100
AcDbEntity
  8
RACCORDO
100
AcDbLine
 62
253
  6
CONTINUOUS
 10
-33.1900499803
 20
57.6114464012
 11
12.0647840157
 21
31.4818724282
  0
LINE
  5
480
100
AcDbEntity
  8
RACCORDO
100
AcDbLine
 62
253
  6
CONTINUOUS
 10
13.6911296124
 20
31.6042522234
 11
-34.816395577
 21
59.6118893256
  0
LINE
  5
481
100
AcDbEntity
  8
RACCORDO
100
AcDbLine
 62
253
  6
CONTINUOUS
 10
14.044683003
 20
32.2166246584
 11
-34.4628421864
 21
60.2242617607
  0
LINE
  5
482
100
AcDbEntity
  8
0
100
AcDbLine
 62
7
  6
CONTINUOUS
 10
15.0346324967
 20
32.2982637951
 11
8.5999607879
 21
36.0135625944
  0
LINE
  5
483
100
AcDbEntity
  8
ASSI
100
AcDbLine
 62
7
  6
CONTINUOUS
 10
15.0346324967
 20
32.2982637951
 11
8.5999607879
 21
36.0135625944
  0
LINE
  5
484
100
AcDbEntity
  8
0
100
AcDbLine
 62
7
  6
CONTINUOUS
 10
4.3573201008
 20
38.4632101544
 11
-23.9269511467
 21
54.7941938875
  0
LINE
  5
485
100
AcDbEntity
  8
ASSI
100
AcDbLine
 62
7
  6
CONTINUOUS
 10
4.3573201008
 20
38.4632101544
 11
-23.9269511467
 21
54.7941938875
  0
LINE
  5
486
100
AcDbEntity
  8
0
100
AcDbLine
 62
7
  6
CONTINUOUS
 10
-28.1695918338
 20
57.2438414474
 11
-34.6042635426
 21
60.9591402467
  0
LINE
  5
487
100
AcDbEntity
  8
ASSI
100
AcDbLine
 62
7
  6
CONTINUOUS
 10
-28.1695918338
 20
57.2438414474
 11
-34.6042635426
 21
60.9591402467
  0
LINE
  5
488
100
AcDbEntity
  8
RACCORDO
100
AcDbLine
 62
7
  6
CONTINUOUS
 10
-28.0281568109
 20
57.3255042571
 11
-23.9269511467
 21
54.9575195068
  0
LINE
  5
489
100
AcDbEntity
  8
RACCORDO
100
AcDbLine
 62
7
  6
CONTINUOUS
 10
4.4987551237
 20
38.544872964
 11
8.5999607879
 21
36.1768882137
  0
LINE
  5
48A
100
AcDbEntity
  8
0
100
AcDbLine
 62
7
  6
CONTINUOUS
 10
-27.8867491214
 20
57.4071512848
 11
-23.9269511467
 21
55.1208135621
  0
LINE
  5
48B
100
AcDbEntity
  8
ASSI
100
AcDbLine
 62
7
  6
CONTINUOUS
 10
-27.8867491214
 20
57.4071512848
 11
-23.9269511467
 21
55.1208135621
  0
LINE
  5
48C
100
AcDbEntity
  8
0
100
AcDbLine
 62
7
  6
CONTINUOUS
 10
4.6401628132
 20
38.6265199917
 11
8.5999607879
 21
36.3401822691
  0
LINE
  5
48D
100
AcDbEntity
  8
ASSI
100
AcDbLine
 62
7
  6
CONTINUOUS
 10
4.6401628132
 20
38.6265199917
 11
8.5999607879
 21
36.3401822691
  0
LINE
  5
48E
100
AcDbEntity
  8
0
100
AcDbLine
 62
7
  6
CONTINUOUS
 10
-27.7453277651
 20
57.4888062034
 11
-23.9269511467
 21
55.2841233995
  0
LINE
  5
48F
100
AcDbEntity
  8
ASSI
100
AcDbLine
 62
7
  6
CONTINUOUS
 10
-27.7453277651
 20
57.4888062034
 11
-23.9269511467
 21
55.2841233995
  0
LINE
  5
490
100
AcDbEntity
  8
0
100
AcDbLine
 62
7
  6
CONTINUOUS
 10
4.7815841695
 20
38.7081749104
 11
8.5999607879
 21
36.5034921064
  0
LINE
  5
491
100
AcDbEntity
  8
ASSI
100
AcDbLine
 62
7
  6
CONTINUOUS
 10
4.7815841695
 20
38.7081749104
 11
8.5999607879
 21
36.5034921064
  0
LINE
  5
492
100
AcDbEntity
  8
0
100
AcDbLine
 62
7
  6
CONTINUOUS
 10
8.5999607879
 20
37.646503148
 11
4.3573201008
 21
40.0961507079
  0
LINE
  5
493
100
AcDbEntity
  8
ASSI
100
AcDbLine
 62
7
  6
CONTINUOUS
 10
8.5999607879
 20
37.646503148
 11
4.3573201008
 21
40.0961507079
  0
LINE
  5
494
100
AcDbEntity
  8
0
100
AcDbLine
 62
7
  6
CONTINUOUS
 10
-23.9269511467
 20
56.4271344411
 11
-28.1695918338
 21
58.876782001
  0
LINE
  5
495
100
AcDbEntity
  8
ASSI
100
AcDbLine
 62
7
  6
CONTINUOUS
 10
-23.9269511467
 20
56.4271344411
 11
-28.1695918338
 21
58.876782001
  0
LINE
  5
496
100
AcDbEntity
  8
RACCORDO
100
AcDbLine
 62
253
  6
CONTINUOUS
 10
16.0245819903
 20
34.0127961395
 11
-35.5438404918
 21
63.7877569765
  0
LINE
  5
497
100
AcDbEntity
  8
ASSI
100
AcDbLine
 62
253
  6
CONTINUOUS
 10
16.0245819903
 20
34.0127961395
 11
-35.5438404918
 21
63.7877569765
  0
LINE
  5
498
100
AcDbEntity
  8
RACCORDO
100
AcDbLine
 62
253
  6
CONTINUOUS
 10
16.1660033466
 20
34.2577451135
 11
-35.439574603
 21
64.0541590518
  0
LINE
  5
499
100
AcDbEntity
  8
ASSI
100
AcDbLine
 62
253
  6
CONTINUOUS
 10
16.1660033466
 20
34.2577451135
 11
-35.439574603
 21
64.0541590518
  0
LINE
  5
49A
100
AcDbEntity
  8
RACCORDO
100
AcDbLine
 62
7
  6
CONTINUOUS
 10
16.8731101278
 20
28.297472638
 11
16.8599365253
 21
28.3052047089
  0
LINE
  5
49B
100
AcDbEntity
  8
ASSI
100
AcDbLine
 62
7
  6
CONTINUOUS
 10
16.8731101278
 20
28.297472638
 11
16.8599365253
 21
28.3052047089
  0
LWPOLYLINE
  5
49C
100
AcDbEntity
  8
RACCORDO
100
AcDbPolyline
 62
253
  6
CONTINUOUS
 90
25
 70
0
 10
12.0647840157
 20
31.4818724282
 10
12.1109650024
 20
31.4534756064
 10
12.1566845958
 20
31.4219086411
 10
12.2019427959
 20
31.3871715324
 10
12.246976615
 20
31.3490576546
 10
12.2915490408
 20
31.3077736334
 10
12.3349490366
 20
31.2639393458
 10
12.3771070901
 20
31.217560552
 10
12.4180927134
 20
31.1686314917
 10
12.4574034065
 20
31.1177547614
 10
12.4950279231
 20
31.0648941831
 10
12.5309775095
 20
31.0100859346
 10
12.564783404
 20
30.9540411468
 10
12.5964159576
 20
30.8967441924
 10
12.6259048193
 20
30.8382106986
 10
12.6528701747
 20
30.7791986771
 10
12.6772759811
 20
30.7197148402
 10
12.6991582812
 20
30.6597524756
 10
12.7182453883
 20
30.600049458
 10
12.7345072887
 20
30.5405415912
 10
12.7479739963
 20
30.4812930715
 10
12.7584638654
 20
30.423234362
 10
12.7659163477
 20
30.3666756171
 10
12.7703919915
 20
30.3113066825
 10
12.7718907969
 20
30.2571275581
  0
LWPOLYLINE
  5
49D
100
AcDbEntity
  8
RACCORDO
100
AcDbPolyline
 62
253
  6
CONTINUOUS
 90
19
 70
0
 10
16.3781353809
 20
28.3382843153
 10
16.3904610643
 20
28.3305462371
 10
16.4026929417
 20
28.3216242839
 10
16.4147379213
 20
28.3115863573
 10
16.4265043335
 20
28.3005088518
 10
16.4379026287
 20
28.2884760741
 10
16.448846059
 20
28.2755796009
 10
16.4592513385
 20
28.261917582
 10
16.4690392765
 20
28.2475939937
 10
16.4781353809
 20
28.2327178471
 10
16.486470425
 20
28.2174023588
 10
16.493980974
 20
28.2017640888
 10
16.5006098681
 20
28.1859220538
 10
16.5063066573
 20
28.1699968212
 10
16.5110279858
 20
28.1541095917
 10
16.5147379213
 20
28.1383812767
 10
16.517408229
 20
28.1229315781
 10
16.5190185862
 20
28.1078780776
 10
16.5195567372
 20
28.0933353413
  0
LWPOLYLINE
  5
49E
100
AcDbEntity
  8
ASSI
100
AcDbPolyline
 62
253
  6
CONTINUOUS
 90
19
 70
0
 10
16.3781353809
 20
28.3382843153
 10
16.3904610643
 20
28.3305462371
 10
16.4026929417
 20
28.3216242839
 10
16.4147379213
 20
28.3115863573
 10
16.4265043335
 20
28.3005088518
 10
16.4379026287
 20
28.2884760741
 10
16.448846059
 20
28.2755796009
 10
16.4592513385
 20
28.261917582
 10
16.4690392765
 20
28.2475939937
 10
16.4781353809
 20
28.2327178471
 10
16.486470425
 20
28.2174023588
 10
16.493980974
 20
28.2017640888
 10
16.5006098681
 20
28.1859220538
 10
16.5063066573
 20
28.1699968212
 10
16.5110279858
 20
28.1541095917
 10
16.5147379213
 20
28.1383812767
 10
16.517408229
 20
28.1229315781
 10
16.5190185862
 20
28.1078780776
 10
16.5195567372
 20
28.0933353413
  0
LWPOLYLINE
  5
49F
100
AcDbEntity
  8
RACCORDO
100
AcDbPolyline
 62
253
  6
CONTINUOUS
 90
10
 70
0
 10
-34.816395577
 20
59.6118893256
 10
-34.845911319
 20
59.6304901518
 10
-34.8725024205
 20
59.6505081619
 10
-34.8959656401
 20
59.6717905712
 10
-34.9161217363
 20
59.6941750885
 10
-34.9328163913
 20
59.7174906733
 10
-34.945921646
 20
59.7415587786
 10
-34.9553379542
 20
59.766197319
 10
-34.9609923666
 20
59.7912164371
 10
-34.9628421864
 20
59.8160266223
  0
LWPOLYLINE
  5
4A0
100
AcDbEntity
  8
RACCORDO
100
AcDbPolyline
 62
253
  6
CONTINUOUS
 90
10
 70
0
 10
12.7718907969
 20
30.2571275581
 10
12.7424219659
 20
30.2756960998
 10
12.7158681653
 20
30.2956769319
 10
12.6924314855
 20
30.316917988
 10
12.6722902939
 20
30.3392576109
 10
12.6555978771
 20
30.3625257826
 10
12.6424812743
 20
30.3865454183
 10
12.633040311
 20
30.411133714
 10
12.6273468384
 20
30.436103538
 10
12.6254441875
 20
30.4612648547
  0
LWPOLYLINE
  5
4A1
100
AcDbEntity
  8
RACCORDO
100
AcDbPolyline
 62
7
  6
CONTINUOUS
 90
10
 70
0
 10
14.2628762225
 20
27.7773079616
 10
14.2545756291
 20
27.7829938703
 10
14.2470274075
 20
27.7899940841
 10
14.2404065674
 20
27.7981479909
 10
14.2347341754
 20
27.8074817981
 10
14.2299891649
 20
27.8179692982
 10
14.2262785142
 20
27.8293740463
 10
14.2236378825
 20
27.8416172274
 10
14.2220316106
 20
27.8547776566
 10
14.2214596983
 20
27.8688553339
  0
LWPOLYLINE
  5
4A2
100
AcDbEntity
  8
ASSI
100
AcDbPolyline
 62
7
  6
CONTINUOUS
 90
10
 70
0
 10
14.2628762225
 20
27.7773079616
 10
14.2545756291
 20
27.7829938703
 10
14.2470274075
 20
27.7899940841
 10
14.2404065674
 20
27.7981479909
 10
14.2347341754
 20
27.8074817981
 10
14.2299891649
 20
27.8179692982
 10
14.2262785142
 20
27.8293740463
 10
14.2236378825
 20
27.8416172274
 10
14.2220316106
 20
27.8547776566
 10
14.2214596983
 20
27.8688553339
  0
LWPOLYLINE
  5
4A3
100
AcDbEntity
  8
RACCORDO
100
AcDbPolyline
 62
253
  6
CONTINUOUS
 90
4
 70
0
 10
23.2586684623
 20
-48.3069845278
 10
23.2485245222
 20
-48.2639159498
 10
23.2433888054
 20
-48.2409648943
 10
23.2382996532
 20
-48.2170735251
  0
LWPOLYLINE
  5
4A4
100
AcDbEntity
  8
ASSI
100
AcDbPolyline
 62
253
  6
CONTINUOUS
 90
4
 70
0
 10
23.2586684623
 20
-48.3069845278
 10
23.2485245222
 20
-48.2639159498
 10
23.2433888054
 20
-48.2409648943
 10
23.2382996532
 20
-48.2170735251
  0
LWPOLYLINE
  5
4A5
100
AcDbEntity
  8
RACCORDO
100
AcDbPolyline
 62
253
  6
CONTINUOUS
 90
10
 70
0
 10
15.1053431748
 20
27.3585120922
 10
15.1058813257
 20
27.3445907991
 10
15.107491683
 20
27.3313968987
 10
15.1101619907
 20
27.3190308046
 10
15.1138719262
 20
27.3075866301
 10
15.1185932546
 20
27.2971514723
 10
15.1242900439
 20
27.2878047492
 10
15.130918938
 20
27.2796175949
 10
15.138429487
 20
27.2726523186
 10
15.146759699
 20
27.26696472
  0
LWPOLYLINE
  5
4A6
100
AcDbEntity
  8
ASSI
100
AcDbPolyline
 62
253
  6
CONTINUOUS
 90
10
 70
0
 10
15.1053431748
 20
27.3585120922
 10
15.1058813257
 20
27.3445907991
 10
15.107491683
 20
27.3313968987
 10
15.1101619907
 20
27.3190308046
 10
15.1138719262
 20
27.3075866301
 10
15.1185932546
 20
27.2971514723
 10
15.1242900439
 20
27.2878047492
 10
15.130918938
 20
27.2796175949
 10
15.138429487
 20
27.2726523186
 10
15.146759699
 20
27.26696472
  0
LWPOLYLINE
  5
4A7
100
AcDbEntity
  8
RACCORDO
100
AcDbPolyline
 62
253
  6
CONTINUOUS
 90
25
 70
0
 10
16.5902674153
 20
33.0330002434
 10
16.5890526431
 20
33.0764598383
 10
16.5854596471
 20
33.1208350204
 10
16.5794884273
 20
33.1661257898
 10
16.5710908923
 20
33.212567779
 10
16.5603151335
 20
33.2599253554
 10
16.5473054251
 20
33.3074916215
 10
16.5320373464
 20
33.3552281762
 10
16.514535318
 20
33.4031734205
 10
16.4950168767
 20
33.4507356599
 10
16.4734532966
 20
33.4979195689
 10
16.4498733035
 20
33.544720473
 10
16.4245806121
 20
33.5905326539
 10
16.3975522223
 20
33.6353428308
 10
16.3688111341
 20
33.6791642845
 10
16.3387300613
 20
33.7214311389
 10
16.3072987171
 20
33.7621161594
 10
16.2745273884
 20
33.8012465808
 10
16.2408196491
 20
33.8383382313
 10
16.2061297925
 20
33.8733893301
 10
16.1705035253
 20
33.9064016581
 10
16.134481542
 20
33.936896386
 10
16.0982440742
 20
33.9647139039
 10
16.0616108903
 20
33.9900138218
 10
16.0245819903
 20
34.0127961395
  0
LWPOLYLINE
  5
4A8
100
AcDbEntity
  8
ASSI
100
AcDbPolyline
 62
253
  6
CONTINUOUS
 90
25
 70
0
 10
16.5902674153
 20
33.0330002434
 10
16.5890526431
 20
33.0764598383
 10
16.5854596471
 20
33.1208350204
 10
16.5794884273
 20
33.1661257898
 10
16.5710908923
 20
33.212567779
 10
16.5603151335
 20
33.2599253554
 10
16.5473054251
 20
33.3074916215
 10
16.5320373464
 20
33.3552281762
 10
16.514535318
 20
33.4031734205
 10
16.4950168767
 20
33.4507356599
 10
16.4734532966
 20
33.4979195689
 10
16.4498733035
 20
33.544720473
 10
16.4245806121
 20
33.5905326539
 10
16.3975522223
 20
33.6353428308
 10
16.3688111341
 20
33.6791642845
 10
16.3387300613
 20
33.7214311389
 10
16.3072987171
 20
33.7621161594
 10
16.2745273884
 20
33.8012465808
 10
16.2408196491
 20
33.8383382313
 10
16.2061297925
 20
33.8733893301
 10
16.1705035253
 20
33.9064016581
 10
16.134481542
 20
33.936896386
 10
16.0982440742
 20
33.9647139039
 10
16.0616108903
 20
33.9900138218
 10
16.0245819903
 20
34.0127961395
  0
LWPOLYLINE
  5
4A9
100
AcDbEntity
  8
RACCORDO
100
AcDbPolyline
 62
253
  6
CONTINUOUS
 90
28
 70
0
 10
16.8731101278
 20
33.0330002434
 10
16.8719138162
 20
33.0811644793
 10
16.8683289295
 20
33.1305472136
 10
16.8623675977
 20
33.1809813508
 10
16.8540499935
 20
33.2322962295
 10
16.8434042604
 20
33.2843182248
 10
16.8304664132
 20
33.3368713368
 10
16.8152802185
 20
33.3897777675
 10
16.797897064
 20
33.4428584742
 10
16.7783757842
 20
33.4959338005
 10
16.7567824466
 20
33.5488241307
 10
16.7331901098
 20
33.6013505266
 10
16.707678591
 20
33.6533352838
 10
16.6803342059
 20
33.7046025142
 10
16.6512494841
 20
33.7549787332
 10
16.6205228438
 20
33.804293475
 10
16.5882582578
 20
33.8523798698
 10
16.5545648963
 20
33.8990752134
 10
16.5195567624
 20
33.9442215098
 10
16.4833523083
 20
33.9876660023
 10
16.4460740418
 20
34.029261683
 10
16.4078481074
 20
34.0688677978
 10
16.3688038534
 20
34.1063503293
 10
16.3290733902
 20
34.1415824528
 10
16.2887911495
 20
34.1744449571
 10
16.2480934327
 20
34.2048266468
 10
16.207117949
 20
34.2326247189
 10
16.1660033466
 20
34.2577451135
  0
LWPOLYLINE
  5
4AA
100
AcDbEntity
  8
ASSI
100
AcDbPolyline
 62
253
  6
CONTINUOUS
 90
28
 70
0
 10
16.8731101278
 20
33.0330002434
 10
16.8719138162
 20
33.0811644793
 10
16.8683289295
 20
33.1305472136
 10
16.8623675977
 20
33.1809813508
 10
16.8540499935
 20
33.2322962295
 10
16.8434042604
 20
33.2843182248
 10
16.8304664132
 20
33.3368713368
 10
16.8152802185
 20
33.3897777675
 10
16.797897064
 20
33.4428584742
 10
16.7783757842
 20
33.4959338005
 10
16.7567824466
 20
33.5488241307
 10
16.7331901098
 20
33.6013505266
 10
16.707678591
 20
33.6533352838
 10
16.6803342059
 20
33.7046025142
 10
16.6512494841
 20
33.7549787332
 10
16.6205228438
 20
33.804293475
 10
16.5882582578
 20
33.8523798698
 10
16.5545648963
 20
33.8990752134
 10
16.5195567624
 20
33.9442215098
 10
16.4833523083
 20
33.9876660023
 10
16.4460740418
 20
34.029261683
 10
16.4078481074
 20
34.0688677978
 10
16.3688038534
 20
34.1063503293
 10
16.3290733902
 20
34.1415824528
 10
16.2887911495
 20
34.1744449571
 10
16.2480934327
 20
34.2048266468
 10
16.207117949
 20
34.2326247189
 10
16.1660033466
 20
34.2577451135
  0
LINE
  5
4AB
100
AcDbEntity
  8
RACCORDO
100
AcDbLine
 62
253
  6
CONTINUOUS
 10
16.5195567372
 20
-54.2885155871
 11
16.5195567372
 21
-53.553692338
  0
LINE
  5
4AC
100
AcDbEntity
  8
ASSI
100
AcDbLine
 62
253
  6
CONTINUOUS
 10
16.5195567372
 20
-54.2885155871
 11
16.5195567372
 21
-53.553692338
  0
LINE
  5
4AD
100
AcDbEntity
  8
RACCORDO
100
AcDbLine
 62
253
  6
CONTINUOUS
 10
16.5195567372
 20
27.3585120922
 11
16.5195567372
 21
28.0933353413
  0
LINE
  5
4AE
100
AcDbEntity
  8
ASSI
100
AcDbLine
 62
253
  6
CONTINUOUS
 10
16.5195567372
 20
27.3585120922
 11
16.5195567372
 21
28.0933353413
  0
LINE
  5
4AF
100
AcDbEntity
  8
RACCORDO
100
AcDbLine
 62
253
  6
CONTINUOUS
 10
16.5902674153
 20
-53.1862609859
 11
16.5902674153
 21
-15.751098795
  0
LINE
  5
4B0
100
AcDbEntity
  8
ASSI
100
AcDbLine
 62
253
  6
CONTINUOUS
 10
16.5902674153
 20
-53.1862609859
 11
16.5902674153
 21
-15.751098795
  0
LINE
  5
4B1
100
AcDbEntity
  8
RACCORDO
100
AcDbLine
 62
253
  6
CONTINUOUS
 10
16.5902674153
 20
-54.315322118
 11
16.5902674153
 21
-58.8199058958
  0
LINE
  5
4B2
100
AcDbEntity
  8
ASSI
100
AcDbLine
 62
253
  6
CONTINUOUS
 10
16.5902674153
 20
-54.315322118
 11
16.5902674153
 21
-58.8199058958
  0
LINE
  5
4B3
100
AcDbEntity
  8
RACCORDO
100
AcDbLine
 62
253
  6
CONTINUOUS
 10
16.5902674153
 20
-10.0358068574
 11
16.5902674153
 21
27.3317055613
  0
LINE
  5
4B4
100
AcDbEntity
  8
ASSI
100
AcDbLine
 62
253
  6
CONTINUOUS
 10
16.5902674153
 20
-10.0358068574
 11
16.5902674153
 21
27.3317055613
  0
LINE
  5
4B5
100
AcDbEntity
  8
RACCORDO
100
AcDbLine
 62
253
  6
CONTINUOUS
 10
16.5902674153
 20
28.4607666933
 11
16.5902674153
 21
33.0330002434
  0
LINE
  5
4B6
100
AcDbEntity
  8
ASSI
100
AcDbLine
 62
253
  6
CONTINUOUS
 10
16.5902674153
 20
28.4607666933
 11
16.5902674153
 21
33.0330002434
  0
LINE
  5
4B7
100
AcDbEntity
  8
RACCORDO
100
AcDbLine
 62
253
  6
CONTINUOUS
 10
16.8731101278
 20
-53.3495550413
 11
16.8731101278
 21
-15.9144086323
  0
LINE
  5
4B8
100
AcDbEntity
  8
ASSI
100
AcDbLine
 62
253
  6
CONTINUOUS
 10
16.8731101278
 20
-53.3495550413
 11
16.8731101278
 21
-15.9144086323
  0
LINE
  5
4B9
100
AcDbEntity
  8
RACCORDO
100
AcDbLine
 62
253
  6
CONTINUOUS
 10
16.8731101278
 20
-54.0843782904
 11
16.8731101278
 21
-58.8199058958
  0
LINE
  5
4BA
100
AcDbEntity
  8
ASSI
100
AcDbLine
 62
253
  6
CONTINUOUS
 10
16.8731101278
 20
-54.0843782904
 11
16.8731101278
 21
-58.8199058958
  0
LINE
  5
4BB
100
AcDbEntity
  8
RACCORDO
100
AcDbLine
 62
253
  6
CONTINUOUS
 10
16.8731101278
 20
-10.0358068574
 11
16.8731101278
 21
27.5626493889
  0
LINE
  5
4BC
100
AcDbEntity
  8
ASSI
100
AcDbLine
 62
253
  6
CONTINUOUS
 10
16.8731101278
 20
-10.0358068574
 11
16.8731101278
 21
27.5626493889
  0
LINE
  5
4BD
100
AcDbEntity
  8
RACCORDO
100
AcDbLine
 62
253
  6
CONTINUOUS
 10
16.8731101278
 20
28.297472638
 11
16.8731101278
 21
33.0330002434
  0
LINE
  5
4BE
100
AcDbEntity
  8
ASSI
100
AcDbLine
 62
253
  6
CONTINUOUS
 10
16.8731101278
 20
28.297472638
 11
16.8731101278
 21
33.0330002434
  0
LINE
  5
4BF
100
AcDbEntity
  8
0
100
AcDbLine
 62
7
  6
CONTINUOUS
 10
17.5802169089
 20
-10.6073912881
 11
17.5802169089
 21
-16.3226832257
  0
LINE
  5
4C0
100
AcDbEntity
  8
ASSI
100
AcDbLine
 62
7
  6
CONTINUOUS
 10
17.5802169089
 20
-10.6073912881
 11
17.5802169089
 21
-16.3226832257
  0
LINE
  5
4C1
100
AcDbEntity
  8
0
100
AcDbLine
 62
7
  6
CONTINUOUS
 10
18.2216898103
 20
-10.2370128744
 11
18.2216898103
 21
-15.952304812
  0
LINE
  5
4C2
100
AcDbEntity
  8
ASSI
100
AcDbLine
 62
7
  6
CONTINUOUS
 10
18.2216898103
 20
-10.2370128744
 11
18.2216898103
 21
-15.952304812
  0
LINE
  5
4C3
100
AcDbEntity
  8
RACCORDO
100
AcDbLine
 62
7
  6
CONTINUOUS
 10
18.4994557245
 20
-57.8808743312
 11
18.4994557245
 21
33.972031808
  0
LINE
  5
4C4
100
AcDbEntity
  8
ASSI
100
AcDbLine
 62
7
  6
CONTINUOUS
 10
18.4994557245
 20
-57.8808743312
 11
18.4994557245
 21
33.972031808
  0
LINE
  5
4C5
100
AcDbEntity
  8
ASSI
100
AcDbLine
 62
253
  6
CONTINUOUS
 10
18.73448632
 20
-6.4559545528
 11
18.73448632
 21
-11.3360184581
  0
LINE
  5
4C6
100
AcDbEntity
  8
ASSI
100
AcDbLine
 62
253
  6
CONTINUOUS
 10
19.0940398198
 20
-6.2038613152
 11
19.0940398198
 21
-11.2279478615
  0
LINE
  5
4C7
100
AcDbEntity
  8
ASSI
100
AcDbLine
 62
7
  6
CONTINUOUS
 10
19.4207598129
 20
-5.9714380777
 11
19.4207598129
 21
-11.2784948768
  0
LWPOLYLINE
  5
4C8
100
AcDbEntity
  8
RACCORDO
100
AcDbPolyline
 62
253
  6
CONTINUOUS
 90
15
 70
0
 10
16.8731101278
 20
-58.8199058958
 10
16.8719138153
 20
-58.8666886791
 10
16.8683289257
 20
-58.9119316935
 10
16.8623675889
 20
-58.9554818509
 10
16.8540499763
 20
-58.9971917909
 10
16.8434042317
 20
-59.0369203806
 10
16.8304663763
 20
-59.0745331922
 10
16.8152801867
 20
-59.1099029573
 10
16.7978970481
 20
-59.1429099933
 10
16.7783757818
 20
-59.1734426112
 10
16.7567824433
 20
-59.2013974968
 10
16.7331900967
 20
-59.2266800623
 10
16.7076785691
 20
-59.2492047619
 10
16.6803341815
 20
-59.2688953799
 10
16.6660275067
 20
-59.277642757
  0
LWPOLYLINE
  5
4C9
100
AcDbEntity
  8
ASSI
100
AcDbPolyline
 62
253
  6
CONTINUOUS
 90
15
 70
0
 10
16.8731101278
 20
-58.8199058958
 10
16.8719138153
 20
-58.8666886791
 10
16.8683289257
 20
-58.9119316935
 10
16.8623675889
 20
-58.9554818509
 10
16.8540499763
 20
-58.9971917909
 10
16.8434042317
 20
-59.0369203806
 10
16.8304663763
 20
-59.0745331922
 10
16.8152801867
 20
-59.1099029573
 10
16.7978970481
 20
-59.1429099933
 10
16.7783757818
 20
-59.1734426112
 10
16.7567824433
 20
-59.2013974968
 10
16.7331900967
 20
-59.2266800623
 10
16.7076785691
 20
-59.2492047619
 10
16.6803341815
 20
-59.2688953799
 10
16.6660275067
 20
-59.277642757
  0
LWPOLYLINE
  5
4CA
100
AcDbEntity
  8
RACCORDO
100
AcDbPolyline
 62
7
  6
CONTINUOUS
 90
15
 70
0
 10
18.4994557245
 20
-57.8808743312
 10
18.4982258414
 20
-57.9279023896
 10
18.4946449945
 20
-57.9730943787
 10
18.4887131836
 20
-58.0164502984
 10
18.4803945088
 20
-58.0581041234
 10
18.4697248701
 20
-58.0979218791
 10
18.4568119677
 20
-58.1355016415
 10
18.4416330815
 20
-58.170820744
 10
18.4242109317
 20
-58.2039018533
 10
18.404721379
 20
-58.2344110458
 10
18.3831434843
 20
-58.2623222727
 10
18.3594981866
 20
-58.2876615828
 10
18.3340241637
 20
-58.3101731989
 10
18.3067028939
 20
-58.3298284817
 10
18.2923622565
 20
-58.338592406
  0
LWPOLYLINE
  5
4CB
100
AcDbEntity
  8
ASSI
100
AcDbPolyline
 62
7
  6
CONTINUOUS
 90
15
 70
0
 10
18.4994557245
 20
-57.8808743312
 10
18.4982258414
 20
-57.9279023896
 10
18.4946449945
 20
-57.9730943787
 10
18.4887131836
 20
-58.0164502984
 10
18.4803945088
 20
-58.0581041234
 10
18.4697248701
 20
-58.0979218791
 10
18.4568119677
 20
-58.1355016415
 10
18.4416330815
 20
-58.170820744
 10
18.4242109317
 20
-58.2039018533
 10
18.404721379
 20
-58.2344110458
 10
18.3831434843
 20
-58.2623222727
 10
18.3594981866
 20
-58.2876615828
 10
18.3340241637
 20
-58.3101731989
 10
18.3067028939
 20
-58.3298284817
 10
18.2923622565
 20
-58.338592406
  0
LWPOLYLINE
  5
4CC
100
AcDbEntity
  8
RACCORDO
100
AcDbPolyline
 62
253
  6
CONTINUOUS
 90
22
 70
0
 10
16.5902674153
 20
-58.8199058958
 10
16.5890425141
 20
-58.8620236545
 10
16.5854419028
 20
-58.9022897102
 10
16.5794655814
 20
-58.9407040631
 10
16.5710663327
 20
-58.9774381239
 10
16.5602913739
 20
-59.0123204818
 10
16.5472823564
 20
-59.0448369045
 10
16.532012961
 20
-59.0749313772
 10
16.514509507
 20
-59.1026599148
 10
16.4949926037
 20
-59.1276763295
 10
16.4734350608
 20
-59.1499492166
 10
16.4498640686
 20
-59.1695099809
 10
16.4245818078
 20
-59.1861066488
 10
16.3975659312
 20
-59.1997004296
 10
16.3688387859
 20
-59.2103301141
 10
16.338769594
 20
-59.2178601008
 10
16.3073446892
 20
-59.2222511625
 10
16.2745777379
 20
-59.2235425266
 10
16.2408789613
 20
-59.2217162734
 10
16.2062131156
 20
-59.2167216339
 10
16.1706154446
 20
-59.2086093772
 10
16.1346019013
 20
-59.197513891
  0
LWPOLYLINE
  5
4CD
100
AcDbEntity
  8
ASSI
100
AcDbPolyline
 62
253
  6
CONTINUOUS
 90
22
 70
0
 10
16.5902674153
 20
-58.8199058958
 10
16.5890425141
 20
-58.8620236545
 10
16.5854419028
 20
-58.9022897102
 10
16.5794655814
 20
-58.9407040631
 10
16.5710663327
 20
-58.9774381239
 10
16.5602913739
 20
-59.0123204818
 10
16.5472823564
 20
-59.0448369045
 10
16.532012961
 20
-59.0749313772
 10
16.514509507
 20
-59.1026599148
 10
16.4949926037
 20
-59.1276763295
 10
16.4734350608
 20
-59.1499492166
 10
16.4498640686
 20
-59.1695099809
 10
16.4245818078
 20
-59.1861066488
 10
16.3975659312
 20
-59.1997004296
 10
16.3688387859
 20
-59.2103301141
 10
16.338769594
 20
-59.2178601008
 10
16.3073446892
 20
-59.2222511625
 10
16.2745777379
 20
-59.2235425266
 10
16.2408789613
 20
-59.2217162734
 10
16.2062131156
 20
-59.2167216339
 10
16.1706154446
 20
-59.2086093772
 10
16.1346019013
 20
-59.197513891
  0
LWPOLYLINE
  5
4CE
100
AcDbEntity
  8
RACCORDO
100
AcDbPolyline
 62
253
  6
CONTINUOUS
 90
10
 70
0
 10
16.5195567372
 20
27.3585120922
 10
16.5190185862
 20
27.3445907991
 10
16.517408229
 20
27.3313968988
 10
16.5147379213
 20
27.3190308046
 10
16.5110279858
 20
27.3075866301
 10
16.5063066573
 20
27.2971514724
 10
16.5006098681
 20
27.2878047493
 10
16.493980974
 20
27.279617595
 10
16.486470425
 20
27.2726523187
 10
16.478140213
 20
27.26696472
  0
LWPOLYLINE
  5
4CF
100
AcDbEntity
  8
ASSI
100
AcDbPolyline
 62
253
  6
CONTINUOUS
 90
10
 70
0
 10
16.5195567372
 20
27.3585120922
 10
16.5190185862
 20
27.3445907991
 10
16.517408229
 20
27.3313968988
 10
16.5147379213
 20
27.3190308046
 10
16.5110279858
 20
27.3075866301
 10
16.5063066573
 20
27.2971514724
 10
16.5006098681
 20
27.2878047493
 10
16.493980974
 20
27.279617595
 10
16.486470425
 20
27.2726523187
 10
16.478140213
 20
27.26696472
  0
LWPOLYLINE
  5
4D0
100
AcDbEntity
  8
RACCORDO
100
AcDbPolyline
 62
7
  6
CONTINUOUS
 90
18
 70
0
 10
14.2214596983
 20
-53.0433490963
 10
14.2220316106
 20
-53.0286109892
 10
14.2236378825
 20
-53.0135956774
 10
14.2262785142
 20
-52.9983031609
 10
14.2299891649
 20
-52.9826134464
 10
14.2347341754
 20
-52.9666465271
 10
14.2404065674
 20
-52.9507623839
 10
14.2470274075
 20
-52.9349628969
 10
14.2545756291
 20
-52.9192461859
 10
14.2628810545
 20
-52.9039665905
 10
14.2719608846
 20
-52.8891340401
 10
14.2817979185
 20
-52.8747386052
 10
14.2921703764
 20
-52.8611048367
 10
14.3030904211
 20
-52.8482500367
 10
14.3145458897
 20
-52.8361569031
 10
14.3262785142
 20
-52.8250980804
 10
14.3382022051
 20
-52.8151644501
 10
14.3504030519
 20
-52.8062651307
  0
LWPOLYLINE
  5
4D1
100
AcDbEntity
  8
ASSI
100
AcDbPolyline
 62
7
  6
CONTINUOUS
 90
18
 70
0
 10
14.2214596983
 20
-53.0433490963
 10
14.2220316106
 20
-53.0286109892
 10
14.2236378825
 20
-53.0135956774
 10
14.2262785142
 20
-52.9983031609
 10
14.2299891649
 20
-52.9826134464
 10
14.2347341754
 20
-52.9666465271
 10
14.2404065674
 20
-52.9507623839
 10
14.2470274075
 20
-52.9349628969
 10
14.2545756291
 20
-52.9192461859
 10
14.2628810545
 20
-52.9039665905
 10
14.2719608846
 20
-52.8891340401
 10
14.2817979185
 20
-52.8747386052
 10
14.2921703764
 20
-52.8611048367
 10
14.3030904211
 20
-52.8482500367
 10
14.3145458897
 20
-52.8361569031
 10
14.3262785142
 20
-52.8250980804
 10
14.3382022051
 20
-52.8151644501
 10
14.3504030519
 20
-52.8062651307
  0
LWPOLYLINE
  5
4D2
100
AcDbEntity
  8
RACCORDO
100
AcDbPolyline
 62
253
  6
CONTINUOUS
 90
10
 70
0
 10
16.5195567372
 20
-54.2885155871
 10
16.5190185862
 20
-54.3024368801
 10
16.517408229
 20
-54.3156307805
 10
16.5147379213
 20
-54.3279968747
 10
16.5110279858
 20
-54.3394410492
 10
16.5063066573
 20
-54.3498762069
 10
16.5006098681
 20
-54.35922293
 10
16.493980974
 20
-54.3674100843
 10
16.486470425
 20
-54.3743753606
 10
16.478140213
 20
-54.3800629593
  0
LWPOLYLINE
  5
4D3
100
AcDbEntity
  8
ASSI
100
AcDbPolyline
 62
253
  6
CONTINUOUS
 90
10
 70
0
 10
16.5195567372
 20
-54.2885155871
 10
16.5190185862
 20
-54.3024368801
 10
16.517408229
 20
-54.3156307805
 10
16.5147379213
 20
-54.3279968747
 10
16.5110279858
 20
-54.3394410492
 10
16.5063066573
 20
-54.3498762069
 10
16.5006098681
 20
-54.35922293
 10
16.493980974
 20
-54.3674100843
 10
16.486470425
 20
-54.3743753606
 10
16.478140213
 20
-54.3800629593
  0
LINE
  5
4D4
100
AcDbEntity
  8
ASSI
100
AcDbLine
 62
7
  6
CONTINUOUS
 10
18.4994557245
 20
-11.7088613653
 11
18.73448632
 21
-11.3360184581
  0
LWPOLYLINE
  5
4D5
100
AcDbEntity
  8
RACCORDO
100
AcDbPolyline
 62
7
  6
CONTINUOUS
 90
8
 70
0
 10
29.3742812614
 20
-1.8785613283
 10
29.3869412912
 20
-1.860522836
 10
29.3974217379
 20
-1.842204707
 10
29.4057226016
 20
-1.8236069411
 10
29.4118614838
 20
-1.8046439929
 10
29.4158207829
 20
-1.7854014079
 10
29.4175476942
 20
-1.7661358225
 10
29.4176252739
 20
-1.7609851351
  0
LWPOLYLINE
  5
4D6
100
AcDbEntity
  8
ASSI
100
AcDbPolyline
 62
7
  6
CONTINUOUS
 90
8
 70
0
 10
29.3742812614
 20
-1.8785613283
 10
29.3869412912
 20
-1.860522836
 10
29.3974217379
 20
-1.842204707
 10
29.4057226016
 20
-1.8236069411
 10
29.4118614838
 20
-1.8046439929
 10
29.4158207829
 20
-1.7854014079
 10
29.4175476942
 20
-1.7661358225
 10
29.4176252739
 20
-1.7609851351
  0
LWPOLYLINE
  5
4D7
100
AcDbEntity
  8
ASSI
100
AcDbPolyline
 62
7
  6
CONTINUOUS
 90
16
 70
0
 10
18.73448632
 20
-11.3360184581
 10
18.7462655929
 20
-11.3200060112
 10
18.760371304
 20
-11.3050057804
 10
18.7768034533
 20
-11.2910177659
 10
18.7957667775
 20
-11.2779258005
 10
18.8170565401
 20
-11.2658460513
 10
18.8400585306
 20
-11.2551270195
 10
18.8648226266
 20
-11.2458083428
 10
18.8912989506
 20
-11.2378503835
 10
18.9187236599
 20
-11.2314827288
 10
18.9471243812
 20
-11.2267517046
 10
18.9764734878
 20
-11.223610985
 10
19.0059242573
 20
-11.2221511799
 10
19.0351944486
 20
-11.2224024927
 10
19.0645663028
 20
-11.2243347199
 10
19.0940398198
 20
-11.2279478615
  0
LINE
  5
4D8
100
AcDbEntity
  8
RACCORDO
100
AcDbLine
 62
7
  6
CONTINUOUS
 10
29.3742812614
 20
3.4284954709
 11
29.2245134118
 21
3.235857267
  0
LINE
  5
4D9
100
AcDbEntity
  8
ASSI
100
AcDbLine
 62
7
  6
CONTINUOUS
 10
29.3742812614
 20
3.4284954709
 11
29.2245134118
 21
3.235857267
  0
LINE
  5
4DA
100
AcDbEntity
  8
RACCORDO
100
AcDbLine
 62
7
  6
CONTINUOUS
 10
29.3742812614
 20
-1.8785613283
 11
29.2245134118
 21
-2.0711995322
  0
LINE
  5
4DB
100
AcDbEntity
  8
ASSI
100
AcDbLine
 62
7
  6
CONTINUOUS
 10
29.3742812614
 20
-1.8785613283
 11
29.2245134118
 21
-2.0711995322
  0
LINE
  5
4DC
100
AcDbEntity
  8
RACCORDO
100
AcDbLine
 62
7
  6
CONTINUOUS
 10
29.2245134118
 20
3.235857267
 11
29.0730989221
 21
3.0436492474
  0
LINE
  5
4DD
100
AcDbEntity
  8
ASSI
100
AcDbLine
 62
7
  6
CONTINUOUS
 10
29.2245134118
 20
3.235857267
 11
29.0730989221
 21
3.0436492474
  0
LINE
  5
4DE
100
AcDbEntity
  8
RACCORDO
100
AcDbLine
 62
7
  6
CONTINUOUS
 10
29.2245134118
 20
-2.0711995322
 11
29.0730989221
 21
-2.2634075518
  0
LINE
  5
4DF
100
AcDbEntity
  8
ASSI
100
AcDbLine
 62
7
  6
CONTINUOUS
 10
29.2245134118
 20
-2.0711995322
 11
29.0730989221
 21
-2.2634075518
  0
LINE
  5
4E0
100
AcDbEntity
  8
RACCORDO
100
AcDbLine
 62
7
  6
CONTINUOUS
 10
29.0730989221
 20
3.0436492474
 11
28.9200394858
 21
2.8518735927
  0
LINE
  5
4E1
100
AcDbEntity
  8
ASSI
100
AcDbLine
 62
7
  6
CONTINUOUS
 10
29.0730989221
 20
3.0436492474
 11
28.9200394858
 21
2.8518735927
  0
LINE
  5
4E2
100
AcDbEntity
  8
RACCORDO
100
AcDbLine
 62
7
  6
CONTINUOUS
 10
29.0730989221
 20
-2.2634075518
 11
28.9200394858
 21
-2.4551832065
  0
LINE
  5
4E3
100
AcDbEntity
  8
ASSI
100
AcDbLine
 62
7
  6
CONTINUOUS
 10
29.0730989221
 20
-2.2634075518
 11
28.9200394858
 21
-2.4551832065
  0
LINE
  5
4E4
100
AcDbEntity
  8
RACCORDO
100
AcDbLine
 62
7
  6
CONTINUOUS
 10
17.7923489433
 20
35.1967766782
 11
-33.8264460833
 21
65.0008219911
  0
LINE
  5
4E5
100
AcDbEntity
  8
ASSI
100
AcDbLine
 62
7
  6
CONTINUOUS
 10
17.7923489433
 20
35.1967766782
 11
-33.8264460833
 21
65.0008219911
  0
LWPOLYLINE
  5
4E6
100
AcDbEntity
  8
RACCORDO
100
AcDbPolyline
 62
7
  6
CONTINUOUS
 90
28
 70
0
 10
17.7923489433
 20
35.1967766782
 10
17.8336927497
 20
35.1714851816
 10
17.8746220176
 20
35.1437184626
 10
17.9151367473
 20
35.1134765209
 10
17.9553709195
 20
35.0806405453
 10
17.9951905533
 20
35.0453293471
 10
18.0341937059
 20
35.0078993606
 10
18.0723721079
 20
34.9683291264
 10
18.1097340287
 20
34.926640104
 10
18.1459023339
 20
34.8832531058
 10
18.1808649343
 20
34.8381509346
 10
18.214633919
 20
34.7913507878
 10
18.246868421
 20
34.7433250699
 10
18.2775528988
 20
34.6940613684
 10
18.3067028939
 20
34.6435720959
 10
18.3340241637
 20
34.5923668955
 10
18.3594981866
 20
34.5404385162
 10
18.3831434843
 20
34.487794209
 10
18.404721379
 20
34.4349653702
 10
18.4242109317
 20
34.3819501307
 10
18.4416330815
 20
34.3287503596
 10
18.4568119677
 20
34.2759030598
 10
18.4697248701
 20
34.2234118014
 10
18.4803945088
 20
34.1712730144
 10
18.4887131836
 20
34.1200129922
 10
18.4946449945
 20
34.069807166
 10
18.4982258414
 20
34.0204801046
 10
18.4994557245
 20
33.972031808
  0
LWPOLYLINE
  5
4E7
100
AcDbEntity
  8
ASSI
100
AcDbPolyline
 62
7
  6
CONTINUOUS
 90
28
 70
0
 10
17.7923489433
 20
35.1967766782
 10
17.8336927497
 20
35.1714851816
 10
17.8746220176
 20
35.1437184626
 10
17.9151367473
 20
35.1134765209
 10
17.9553709195
 20
35.0806405453
 10
17.9951905533
 20
35.0453293471
 10
18.0341937059
 20
35.0078993606
 10
18.0723721079
 20
34.9683291264
 10
18.1097340287
 20
34.926640104
 10
18.1459023339
 20
34.8832531058
 10
18.1808649343
 20
34.8381509346
 10
18.214633919
 20
34.7913507878
 10
18.246868421
 20
34.7433250699
 10
18.2775528988
 20
34.6940613684
 10
18.3067028939
 20
34.6435720959
 10
18.3340241637
 20
34.5923668955
 10
18.3594981866
 20
34.5404385162
 10
18.3831434843
 20
34.487794209
 10
18.404721379
 20
34.4349653702
 10
18.4242109317
 20
34.3819501307
 10
18.4416330815
 20
34.3287503596
 10
18.4568119677
 20
34.2759030598
 10
18.4697248701
 20
34.2234118014
 10
18.4803945088
 20
34.1712730144
 10
18.4887131836
 20
34.1200129922
 10
18.4946449945
 20
34.069807166
 10
18.4982258414
 20
34.0204801046
 10
18.4994557245
 20
33.972031808
  0
LWPOLYLINE
  5
4E8
100
AcDbEntity
  8
RACCORDO
100
AcDbPolyline
 62
7
  6
CONTINUOUS
 90
10
 70
0
 10
30.5953822834
 20
-29.3025888481
 10
30.5897804302
 20
-29.2859160661
 10
30.5827074297
 20
-29.2697429749
 10
30.5742024097
 20
-29.2542012394
 10
30.5643257036
 20
-29.2394327718
 10
30.5531265895
 20
-29.2255415916
 10
30.5406767421
 20
-29.2126496674
 10
30.5270709862
 20
-29.2008831287
 10
30.5124043335
 20
-29.1903483458
 10
30.5031955256
 20
-29.1846933776
  0
LWPOLYLINE
  5
4E9
100
AcDbEntity
  8
ASSI
100
AcDbPolyline
 62
7
  6
CONTINUOUS
 90
10
 70
0
 10
30.5953822834
 20
-29.3025888481
 10
30.5897804302
 20
-29.2859160661
 10
30.5827074297
 20
-29.2697429749
 10
30.5742024097
 20
-29.2542012394
 10
30.5643257036
 20
-29.2394327718
 10
30.5531265895
 20
-29.2255415916
 10
30.5406767421
 20
-29.2126496674
 10
30.5270709862
 20
-29.2008831287
 10
30.5124043335
 20
-29.1903483458
 10
30.5031955256
 20
-29.1846933776
  0
LINE
  5
4EA
100
AcDbEntity
  8
RACCORDO
100
AcDbLine
 62
7
  6
CONTINUOUS
 10
23.2679187885
 20
-47.9802088252
 11
23.2677229707
 21
-47.9679351565
  0
LINE
  5
4EB
100
AcDbEntity
  8
ASSI
100
AcDbLine
 62
7
  6
CONTINUOUS
 10
23.2679187885
 20
-47.9802088252
 11
23.2677229707
 21
-47.9679351565
  0
LINE
  5
4EC
100
AcDbEntity
  8
RACCORDO
100
AcDbLine
 62
253
  6
CONTINUOUS
 10
23.2167527448
 20
-48.0645211716
 11
23.2167527448
 21
-38.4709954192
  0
LINE
  5
4ED
100
AcDbEntity
  8
ASSI
100
AcDbLine
 62
253
  6
CONTINUOUS
 10
23.2167527448
 20
-48.0645211716
 11
23.2167527448
 21
-38.4709954192
  0
LINE
  5
4EE
100
AcDbEntity
  8
RACCORDO
100
AcDbLine
 62
7
  6
CONTINUOUS
 10
23.2677233088
 20
-47.9679327904
 11
23.2677233088
 21
-38.3744070378
  0
LINE
  5
4EF
100
AcDbEntity
  8
ASSI
100
AcDbLine
 62
7
  6
CONTINUOUS
 10
23.2677233088
 20
-47.9679327904
 11
23.2677233088
 21
-38.3744070378
  0
LWPOLYLINE
  5
4F0
100
AcDbEntity
  8
RACCORDO
100
AcDbPolyline
 62
7
  6
CONTINUOUS
 90
28
 70
0
 10
23.2677229873
 20
-38.3744153365
 10
23.2677547978
 20
-38.3692809524
 10
23.2682883149
 20
-38.3522356751
 10
23.2695645772
 20
-38.3333379628
 10
23.2716830339
 20
-38.3126731862
 10
23.2747381152
 20
-38.2903207298
 10
23.2787976174
 20
-38.2664680679
 10
23.283929692
 20
-38.2412038419
 10
23.2901755412
 20
-38.2147230313
 10
23.2975144827
 20
-38.1873920573
 10
23.3059583991
 20
-38.1593502942
 10
23.3154768248
 20
-38.1308499684
 10
23.3259095343
 20
-38.1024403639
 10
23.3371579212
 20
-38.0743731047
 10
23.3491532086
 20
-38.0467926168
 10
23.3617149372
 20
-38.0200668333
 10
23.3747075296
 20
-37.9943961426
 10
23.3880338946
 20
-37.9698799936
 10
23.4015408554
 20
-37.9467076418
 10
23.415105701
 20
-37.924983007
 10
23.4286017842
 20
-37.9047972604
 10
23.4418481583
 20
-37.886301861
 10
23.4547383934
 20
-37.8695162857
 10
23.4671197918
 20
-37.8545044242
 10
23.4787169749
 20
-37.8414409339
 10
23.4894034673
 20
-37.8302873147
 10
23.4990559119
 20
-37.8209868593
 10
23.5044276812
 20
-37.8161550621
  0
LWPOLYLINE
  5
4F1
100
AcDbEntity
  8
ASSI
100
AcDbPolyline
 62
7
  6
CONTINUOUS
 90
28
 70
0
 10
23.2677229873
 20
-38.3744153365
 10
23.2677547978
 20
-38.3692809524
 10
23.2682883149
 20
-38.3522356751
 10
23.2695645772
 20
-38.3333379628
 10
23.2716830339
 20
-38.3126731862
 10
23.2747381152
 20
-38.2903207298
 10
23.2787976174
 20
-38.2664680679
 10
23.283929692
 20
-38.2412038419
 10
23.2901755412
 20
-38.2147230313
 10
23.2975144827
 20
-38.1873920573
 10
23.3059583991
 20
-38.1593502942
 10
23.3154768248
 20
-38.1308499684
 10
23.3259095343
 20
-38.1024403639
 10
23.3371579212
 20
-38.0743731047
 10
23.3491532086
 20
-38.0467926168
 10
23.3617149372
 20
-38.0200668333
 10
23.3747075296
 20
-37.9943961426
 10
23.3880338946
 20
-37.9698799936
 10
23.4015408554
 20
-37.9467076418
 10
23.415105701
 20
-37.924983007
 10
23.4286017842
 20
-37.9047972604
 10
23.4418481583
 20
-37.886301861
 10
23.4547383934
 20
-37.8695162857
 10
23.4671197918
 20
-37.8545044242
 10
23.4787169749
 20
-37.8414409339
 10
23.4894034673
 20
-37.8302873147
 10
23.4990559119
 20
-37.8209868593
 10
23.5044276812
 20
-37.8161550621
  0
LWPOLYLINE
  5
4F2
100
AcDbEntity
  8
RACCORDO
100
AcDbPolyline
 62
253
  6
CONTINUOUS
 90
5
 70
0
 10
23.2167527448
 20
-38.4709954192
 10
23.2174969169
 20
-38.4384618981
 10
23.2196395675
 20
-38.4051290502
 10
23.2231803723
 20
-38.3709967498
 10
23.2281400868
 20
-38.3359340526
  0
LWPOLYLINE
  5
4F3
100
AcDbEntity
  8
ASSI
100
AcDbPolyline
 62
253
  6
CONTINUOUS
 90
5
 70
0
 10
23.2167527448
 20
-38.4709954192
 10
23.2174969169
 20
-38.4384618981
 10
23.2196395675
 20
-38.4051290502
 10
23.2231803723
 20
-38.3709967498
 10
23.2281400868
 20
-38.3359340526
  0
LINE
  5
4F4
100
AcDbEntity
  8
RACCORDO
100
AcDbLine
 62
253
  6
CONTINUOUS
 10
23.267474279
 20
-47.9749891143
 11
23.2677233088
 21
-47.9679351566
  0
LINE
  5
4F5
100
AcDbEntity
  8
ASSI
100
AcDbLine
 62
253
  6
CONTINUOUS
 10
23.267474279
 20
-47.9749891143
 11
23.2677233088
 21
-47.9679351566
  0
LWPOLYLINE
  5
4F6
100
AcDbEntity
  8
RACCORDO
100
AcDbPolyline
 62
253
  6
CONTINUOUS
 90
9
 70
0
 10
23.5572613005
 20
-37.685794828
 10
23.5563084152
 20
-37.7067798586
 10
23.5534570115
 20
-37.7268791962
 10
23.5487287903
 20
-37.7459398726
 10
23.5421597362
 20
-37.7638168246
 10
23.5337998436
 20
-37.7803739978
 10
23.5237127365
 20
-37.795485382
 10
23.5119751838
 20
-37.8090359706
 10
23.5044276128
 20
-37.8161549842
  0
LWPOLYLINE
  5
4F7
100
AcDbEntity
  8
ASSI
100
AcDbPolyline
 62
253
  6
CONTINUOUS
 90
9
 70
0
 10
23.5572613005
 20
-37.685794828
 10
23.5563084152
 20
-37.7067798586
 10
23.5534570115
 20
-37.7268791962
 10
23.5487287903
 20
-37.7459398726
 10
23.5421597362
 20
-37.7638168246
 10
23.5337998436
 20
-37.7803739978
 10
23.5237127365
 20
-37.795485382
 10
23.5119751838
 20
-37.8090359706
 10
23.5044276128
 20
-37.8161549842
  0
LINE
  5
4F8
100
AcDbEntity
  8
RACCORDO
100
AcDbLine
 62
7
  6
CONTINUOUS
 10
29.2115484662
 20
-31.945950128
 11
29.2115886013
 21
-31.9459261314
  0
LINE
  5
4F9
100
AcDbEntity
  8
ASSI
100
AcDbLine
 62
7
  6
CONTINUOUS
 10
29.2115484662
 20
-31.945950128
 11
29.2115886013
 21
-31.9459261314
  0
LINE
  5
4FA
100
AcDbEntity
  8
RACCORDO
100
AcDbLine
 62
253
  6
CONTINUOUS
 10
28.90600017
 20
-32.2288173043
 11
29.4764948314
 21
-31.8877172769
  0
LINE
  5
4FB
100
AcDbEntity
  8
ASSI
100
AcDbLine
 62
253
  6
CONTINUOUS
 10
28.90600017
 20
-32.2288173043
 11
29.4764948314
 21
-31.8877172769
  0
LWPOLYLINE
  5
4FC
100
AcDbEntity
  8
RACCORDO
100
AcDbPolyline
 62
253
  6
CONTINUOUS
 90
32
 70
0
 10
29.2115886013
 20
-31.9459261314
 10
29.2275467746
 20
-31.9364912593
 10
29.2434480657
 20
-31.927313304
 10
29.2587709012
 20
-31.9186993011
 10
29.2735584044
 20
-31.9106209319
 10
29.2878184197
 20
-31.9030704496
 10
29.3015446397
 20
-31.8960481309
 10
29.31476039
 20
-31.8895399957
 10
29.3274763353
 20
-31.8835384856
 10
29.3396842955
 20
-31.878045527
 10
29.3513801383
 20
-31.8730625631
 10
29.3625626529
 20
-31.8685874012
 10
29.3732352476
 20
-31.8646164982
 10
29.3834013939
 20
-31.8611501293
 10
29.3930584087
 20
-31.8581849352
 10
29.4022116951
 20
-31.8557192685
 10
29.4108792642
 20
-31.8537585753
 10
29.4190814298
 20
-31.8522947129
 10
29.4268046458
 20
-31.8513346924
 10
29.434019206
 20
-31.850909634
 10
29.440744814
 20
-31.8510204742
 10
29.4469713001
 20
-31.8516666836
 10
29.4526236774
 20
-31.8528765635
 10
29.4576940505
 20
-31.854662678
 10
29.4621962127
 20
-31.857008618
 10
29.4660821044
 20
-31.8598945439
 10
29.4693227877
 20
-31.8633263182
 10
29.4719441163
 20
-31.8672872575
 10
29.4739735934
 20
-31.8717189822
 10
29.4754163861
 20
-31.8765967931
 10
29.4762582403
 20
-31.881931666
 10
29.4764948314
 20
-31.8877172769
  0
LWPOLYLINE
  5
4FD
100
AcDbEntity
  8
ASSI
100
AcDbPolyline
 62
253
  6
CONTINUOUS
 90
32
 70
0
 10
29.2115886013
 20
-31.9459261314
 10
29.2275467746
 20
-31.9364912593
 10
29.2434480657
 20
-31.927313304
 10
29.2587709012
 20
-31.9186993011
 10
29.2735584044
 20
-31.9106209319
 10
29.2878184197
 20
-31.9030704496
 10
29.3015446397
 20
-31.8960481309
 10
29.31476039
 20
-31.8895399957
 10
29.3274763353
 20
-31.8835384856
 10
29.3396842955
 20
-31.878045527
 10
29.3513801383
 20
-31.8730625631
 10
29.3625626529
 20
-31.8685874012
 10
29.3732352476
 20
-31.8646164982
 10
29.3834013939
 20
-31.8611501293
 10
29.3930584087
 20
-31.8581849352
 10
29.4022116951
 20
-31.8557192685
 10
29.4108792642
 20
-31.8537585753
 10
29.4190814298
 20
-31.8522947129
 10
29.4268046458
 20
-31.8513346924
 10
29.434019206
 20
-31.850909634
 10
29.440744814
 20
-31.8510204742
 10
29.4469713001
 20
-31.8516666836
 10
29.4526236774
 20
-31.8528765635
 10
29.4576940505
 20
-31.854662678
 10
29.4621962127
 20
-31.857008618
 10
29.4660821044
 20
-31.8598945439
 10
29.4693227877
 20
-31.8633263182
 10
29.4719441163
 20
-31.8672872575
 10
29.4739735934
 20
-31.8717189822
 10
29.4754163861
 20
-31.8765967931
 10
29.4762582403
 20
-31.881931666
 10
29.4764948314
 20
-31.8877172769
  0
LWPOLYLINE
  5
4FE
100
AcDbEntity
  8
RACCORDO
100
AcDbPolyline
 62
253
  6
CONTINUOUS
 90
4
 70
0
 10
28.5473666128
 20
44.3428067993
 10
28.5963021301
 20
44.3215483278
 10
28.6450363416
 20
44.2976011415
 10
28.69338737
 20
44.2710328288
  0
LWPOLYLINE
  5
4FF
100
AcDbEntity
  8
ASSI
100
AcDbPolyline
 62
253
  6
CONTINUOUS
 90
4
 70
0
 10
28.5473666128
 20
44.3428067993
 10
28.5963021301
 20
44.3215483278
 10
28.6450363416
 20
44.2976011415
 10
28.69338737
 20
44.2710328288
  0
LWPOLYLINE
  5
500
100
AcDbEntity
  8
RACCORDO
100
AcDbPolyline
 62
253
  6
CONTINUOUS
 90
12
 70
0
 10
28.7910784016
 20
44.3641518214
 10
28.784033245
 20
44.3679884179
 10
28.7643792835
 20
44.3765507004
 10
28.7435047545
 20
44.3826767085
 10
28.7215238178
 20
44.3863329381
 10
28.6985566853
 20
44.3874993917
 10
28.6747289612
 20
44.3861696888
 10
28.6501709565
 20
44.3823511
 10
28.6250169779
 20
44.3760645081
 10
28.5994045903
 20
44.3673442932
 10
28.5734738644
 20
44.3562381444
 10
28.5473666127
 20
44.3428067993
  0
LWPOLYLINE
  5
501
100
AcDbEntity
  8
ASSI
100
AcDbPolyline
 62
253
  6
CONTINUOUS
 90
12
 70
0
 10
28.7910784016
 20
44.3641518214
 10
28.784033245
 20
44.3679884179
 10
28.7643792835
 20
44.3765507004
 10
28.7435047545
 20
44.3826767085
 10
28.7215238178
 20
44.3863329381
 10
28.6985566853
 20
44.3874993917
 10
28.6747289612
 20
44.3861696888
 10
28.6501709565
 20
44.3823511
 10
28.6250169779
 20
44.3760645081
 10
28.5994045903
 20
44.3673442932
 10
28.5734738644
 20
44.3562381444
 10
28.5473666127
 20
44.3428067993
  0
LINE
  5
502
100
AcDbEntity
  8
RACCORDO
100
AcDbLine
 62
253
  6
CONTINUOUS
 10
30.5884170029
 20
-29.3860205193
 11
30.5891245903
 21
-29.4004144653
  0
LINE
  5
503
100
AcDbEntity
  8
ASSI
100
AcDbLine
 62
253
  6
CONTINUOUS
 10
30.5884170029
 20
-29.3860205193
 11
30.5891245903
 21
-29.4004144653
  0
LWPOLYLINE
  5
504
100
AcDbEntity
  8
RACCORDO
100
AcDbPolyline
 62
7
  6
CONTINUOUS
 90
13
 70
0
 10
29.4176252739
 20
-1.7609851351
 10
29.4170123116
 20
-1.7468469287
 10
29.4142445411
 20
-1.7275350346
 10
29.4092812963
 20
-1.708457701
 10
29.4020931655
 20
-1.6896180702
 10
29.3927095603
 20
-1.671013
 10
29.3812556291
 20
-1.6528906243
 10
29.3677036366
 20
-1.6352574096
 10
29.3520813181
 20
-1.6181068895
 10
29.3345970268
 20
-1.6016677988
 10
29.3153202138
 20
-1.5860163825
 10
29.2941814281
 20
-1.5710763955
 10
29.2711806696
 20
-1.556847838
  0
LWPOLYLINE
  5
505
100
AcDbEntity
  8
ASSI
100
AcDbPolyline
 62
7
  6
CONTINUOUS
 90
13
 70
0
 10
29.4176252739
 20
-1.7609851351
 10
29.4170123116
 20
-1.7468469287
 10
29.4142445411
 20
-1.7275350346
 10
29.4092812963
 20
-1.708457701
 10
29.4020931655
 20
-1.6896180702
 10
29.3927095603
 20
-1.671013
 10
29.3812556291
 20
-1.6528906243
 10
29.3677036366
 20
-1.6352574096
 10
29.3520813181
 20
-1.6181068895
 10
29.3345970268
 20
-1.6016677988
 10
29.3153202138
 20
-1.5860163825
 10
29.2941814281
 20
-1.5710763955
 10
29.2711806696
 20
-1.556847838
  0
LWPOLYLINE
  5
506
100
AcDbEntity
  8
RACCORDO
100
AcDbPolyline
 62
7
  6
CONTINUOUS
 90
23
 70
0
 10
29.4176219804
 20
43.3079525134
 10
29.4169522118
 20
43.3437233639
 10
29.4131909354
 20
43.4004026373
 10
29.4061789996
 20
43.4574074306
 10
29.3959842235
 20
43.514599631
 10
29.3827122539
 20
43.5716666963
 10
29.3664416327
 20
43.6285421185
 10
29.3472213516
 20
43.6851494061
 10
29.3252152582
 20
43.7411240616
 10
29.3004940493
 20
43.7963858231
 10
29.2731083715
 20
43.8508519667
 10
29.2432785516
 20
43.9041309899
 10
29.2110881725
 20
43.9561075473
 10
29.1765726198
 20
44.0067305643
 10
29.1399319297
 20
44.0556886866
 10
29.101219191
 20
44.1028929819
 10
29.0604550879
 20
44.1482619654
 10
29.0177932057
 20
44.1915523897
 10
28.9732392922
 20
44.2326757733
 10
28.9267923432
 20
44.2715102516
 10
28.8785441932
 20
44.3078398782
 10
28.8284849525
 20
44.3415125355
 10
28.7910774937
 20
44.3641502474
  0
LWPOLYLINE
  5
507
100
AcDbEntity
  8
ASSI
100
AcDbPolyline
 62
7
  6
CONTINUOUS
 90
23
 70
0
 10
29.4176219804
 20
43.3079525134
 10
29.4169522118
 20
43.3437233639
 10
29.4131909354
 20
43.4004026373
 10
29.4061789996
 20
43.4574074306
 10
29.3959842235
 20
43.514599631
 10
29.3827122539
 20
43.5716666963
 10
29.3664416327
 20
43.6285421185
 10
29.3472213516
 20
43.6851494061
 10
29.3252152582
 20
43.7411240616
 10
29.3004940493
 20
43.7963858231
 10
29.2731083715
 20
43.8508519667
 10
29.2432785516
 20
43.9041309899
 10
29.2110881725
 20
43.9561075473
 10
29.1765726198
 20
44.0067305643
 10
29.1399319297
 20
44.0556886866
 10
29.101219191
 20
44.1028929819
 10
29.0604550879
 20
44.1482619654
 10
29.0177932057
 20
44.1915523897
 10
28.9732392922
 20
44.2326757733
 10
28.9267923432
 20
44.2715102516
 10
28.8785441932
 20
44.3078398782
 10
28.8284849525
 20
44.3415125355
 10
28.7910774937
 20
44.3641502474
  0
LWPOLYLINE
  5
508
100
AcDbEntity
  8
RACCORDO
100
AcDbPolyline
 62
7
  6
CONTINUOUS
 90
5
 70
0
 10
30.6031794958
 20
-29.3580265406
 10
30.6031515014
 20
-29.3545413297
 10
30.6020907476
 20
-29.337048398
 10
30.5994947951
 20
-29.319674643
 10
30.5953822834
 20
-29.3025888481
  0
LWPOLYLINE
  5
509
100
AcDbEntity
  8
ASSI
100
AcDbPolyline
 62
7
  6
CONTINUOUS
 90
5
 70
0
 10
30.6031794958
 20
-29.3580265406
 10
30.6031515014
 20
-29.3545413297
 10
30.6020907476
 20
-29.337048398
 10
30.5994947951
 20
-29.319674643
 10
30.5953822834
 20
-29.3025888481
  0
LINE
  5
50A
100
AcDbEntity
  8
ASSI
100
AcDbLine
 62
7
  6
CONTINUOUS
 10
28.9200394858
 20
2.8518735927
 11
28.9200394858
 21
-2.4551832065
  0
LINE
  5
50B
100
AcDbEntity
  8
ASSI
100
AcDbLine
 62
7
  6
CONTINUOUS
 10
28.9613352271
 20
2.9033916061
 11
28.9613352271
 21
-2.073919646
  0
LINE
  5
50C
100
AcDbEntity
  8
RACCORDO
100
AcDbLine
 62
253
  6
CONTINUOUS
 10
29.3742812675
 20
43.1904008574
 11
29.3742812614
 21
3.4284954709
  0
LINE
  5
50D
100
AcDbEntity
  8
ASSI
100
AcDbLine
 62
253
  6
CONTINUOUS
 10
29.3742812675
 20
43.1904008574
 11
29.3742812614
 21
3.4284954709
  0
LINE
  5
50E
100
AcDbEntity
  8
RACCORDO
100
AcDbLine
 62
253
  6
CONTINUOUS
 10
29.3742813141
 20
-30.7407855306
 11
29.3742812614
 21
-1.8785613283
  0
LINE
  5
50F
100
AcDbEntity
  8
ASSI
100
AcDbLine
 62
253
  6
CONTINUOUS
 10
29.3742813141
 20
-30.7407855306
 11
29.3742812614
 21
-1.8785613283
  0
LINE
  5
510
100
AcDbEntity
  8
RACCORDO
100
AcDbLine
 62
7
  6
CONTINUOUS
 10
29.4176272791
 20
43.3079770423
 11
29.4176272791
 21
3.5460716645
  0
LINE
  5
511
100
AcDbEntity
  8
ASSI
100
AcDbLine
 62
7
  6
CONTINUOUS
 10
29.4176272791
 20
43.3079770423
 11
29.4176272791
 21
3.5460716645
  0
LINE
  5
512
100
AcDbEntity
  8
RACCORDO
100
AcDbLine
 62
7
  6
CONTINUOUS
 10
29.4176272791
 20
-1.7609851347
 11
29.4176272791
 21
-30.6220221376
  0
LINE
  5
513
100
AcDbEntity
  8
ASSI
100
AcDbLine
 62
7
  6
CONTINUOUS
 10
29.4176272791
 20
-1.7609851347
 11
29.4176272791
 21
-30.6220221376
  0
LINE
  5
514
100
AcDbEntity
  8
RACCORDO
100
AcDbLine
 62
253
  6
CONTINUOUS
 10
29.4764948314
 20
-31.8877172769
 11
29.4764916431
 21
-41.4812449355
  0
LINE
  5
515
100
AcDbEntity
  8
ASSI
100
AcDbLine
 62
253
  6
CONTINUOUS
 10
29.4764948314
 20
-31.8877172769
 11
29.4764916431
 21
-41.4812449355
  0
LINE
  5
516
100
AcDbEntity
  8
RACCORDO
100
AcDbLine
 62
253
  6
CONTINUOUS
 10
29.5353382143
 20
-31.8370853168
 11
29.5353365236
 21
-41.4251985728
  0
LINE
  5
517
100
AcDbEntity
  8
ASSI
100
AcDbLine
 62
253
  6
CONTINUOUS
 10
29.5353382143
 20
-31.8370853168
 11
29.5353365236
 21
-41.4251985728
  0
LINE
  5
518
100
AcDbEntity
  8
RACCORDO
100
AcDbLine
 62
253
  6
CONTINUOUS
 10
30.5891245903
 20
-29.4004144653
 11
30.5891245778
 21
-39.9327295759
  0
LINE
  5
519
100
AcDbEntity
  8
ASSI
100
AcDbLine
 62
253
  6
CONTINUOUS
 10
30.5891245903
 20
-29.4004144653
 11
30.5891245778
 21
-39.9327295759
  0
LINE
  5
51A
100
AcDbEntity
  8
RACCORDO
100
AcDbLine
 62
7
  6
CONTINUOUS
 10
30.603179637
 20
-29.3578892832
 11
30.603179637
 21
-39.8902043848
  0
LINE
  5
51B
100
AcDbEntity
  8
ASSI
100
AcDbLine
 62
7
  6
CONTINUOUS
 10
30.603179637
 20
-29.3578892832
 11
30.603179637
 21
-39.8902043848
  0
LINE
  5
51C
100
AcDbEntity
  8
RACCORDO
100
AcDbLine
 62
253
  6
CONTINUOUS
 10
30.603179637
 20
-29.3578892832
 11
30.6031794958
 21
-29.3580265406
  0
LINE
  5
51D
100
AcDbEntity
  8
ASSI
100
AcDbLine
 62
253
  6
CONTINUOUS
 10
30.603179637
 20
-29.3578892832
 11
30.6031794958
 21
-29.3580265406
  0
LWPOLYLINE
  5
51E
100
AcDbEntity
  8
RACCORDO
100
AcDbPolyline
 62
253
  6
CONTINUOUS
 90
41
 70
0
 10
29.5352909524
 20
-41.4252552714
 10
29.5351869796
 20
-41.436350014
 10
29.5346115585
 20
-41.447747676
 10
29.5335675488
 20
-41.4594470377
 10
29.5320583691
 20
-41.4714304169
 10
29.5300868237
 20
-41.4837133938
 10
29.5276525064
 20
-41.4963440127
 10
29.524749615
 20
-41.5093532079
 10
29.5213841239
 20
-41.5227062693
 10
29.5175725361
 20
-41.5363526065
 10
29.5133124373
 20
-41.5502976503
 10
29.508610414
 20
-41.5645336808
 10
29.50349967
 20
-41.5789916031
 10
29.4979880139
 20
-41.5936573493
 10
29.492075351
 20
-41.6085444265
 10
29.485784687
 20
-41.6236258537
 10
29.4791206395
 20
-41.6388995515
 10
29.4720859153
 20
-41.6543673741
 10
29.4647005967
 20
-41.6700083346
 10
29.4569722228
 20
-41.6858149153
 10
29.4489003039
 20
-41.7017947565
 10
29.4404922164
 20
-41.7179494014
 10
29.4317616588
 20
-41.7342601865
 10
29.4227008333
 20
-41.750745761
 10
29.4132827294
 20
-41.7674626339
 10
29.4035093524
 20
-41.7844102176
 10
29.3933810646
 20
-41.8015875081
 10
29.3828656395
 20
-41.819048954
 10
29.371960914
 20
-41.8367975303
 10
29.3606690213
 20
-41.8548273993
 10
29.3489623327
 20
-41.8731787404
 10
29.336848566
 20
-41.8918375913
 10
29.324318892
 20
-41.9108143541
 10
29.3113190283
 20
-41.9301846119
 10
29.2978665256
 20
-41.949918363
 10
29.2839405709
 20
-41.9700405316
 10
29.2694258333
 20
-41.9907067601
 10
29.2543201313
 20
-42.0119106109
 10
29.2386173506
 20
-42.0336496769
 10
29.2221919404
 20
-42.0560825871
 10
29.206662103
 20
-42.0770138503
  0
LWPOLYLINE
  5
51F
100
AcDbEntity
  8
ASSI
100
AcDbPolyline
 62
253
  6
CONTINUOUS
 90
41
 70
0
 10
29.5352909524
 20
-41.4252552714
 10
29.5351869796
 20
-41.436350014
 10
29.5346115585
 20
-41.447747676
 10
29.5335675488
 20
-41.4594470377
 10
29.5320583691
 20
-41.4714304169
 10
29.5300868237
 20
-41.4837133938
 10
29.5276525064
 20
-41.4963440127
 10
29.524749615
 20
-41.5093532079
 10
29.5213841239
 20
-41.5227062693
 10
29.5175725361
 20
-41.5363526065
 10
29.5133124373
 20
-41.5502976503
 10
29.508610414
 20
-41.5645336808
 10
29.50349967
 20
-41.5789916031
 10
29.4979880139
 20
-41.5936573493
 10
29.492075351
 20
-41.6085444265
 10
29.485784687
 20
-41.6236258537
 10
29.4791206395
 20
-41.6388995515
 10
29.4720859153
 20
-41.6543673741
 10
29.4647005967
 20
-41.6700083346
 10
29.4569722228
 20
-41.6858149153
 10
29.4489003039
 20
-41.7017947565
 10
29.4404922164
 20
-41.7179494014
 10
29.4317616588
 20
-41.7342601865
 10
29.4227008333
 20
-41.750745761
 10
29.4132827294
 20
-41.7674626339
 10
29.4035093524
 20
-41.7844102176
 10
29.3933810646
 20
-41.8015875081
 10
29.3828656395
 20
-41.819048954
 10
29.371960914
 20
-41.8367975303
 10
29.3606690213
 20
-41.8548273993
 10
29.3489623327
 20
-41.8731787404
 10
29.336848566
 20
-41.8918375913
 10
29.324318892
 20
-41.9108143541
 10
29.3113190283
 20
-41.9301846119
 10
29.2978665256
 20
-41.949918363
 10
29.2839405709
 20
-41.9700405316
 10
29.2694258333
 20
-41.9907067601
 10
29.2543201313
 20
-42.0119106109
 10
29.2386173506
 20
-42.0336496769
 10
29.2221919404
 20
-42.0560825871
 10
29.206662103
 20
-42.0770138503
  0
LINE
  5
520
100
AcDbEntity
  8
RACCORDO
100
AcDbLine
 62
7
  6
CONTINUOUS
 10
30.6029265813
 20
-39.9113243393
 11
30.6031785145
 21
-39.8901866299
  0
LINE
  5
521
100
AcDbEntity
  8
ASSI
100
AcDbLine
 62
7
  6
CONTINUOUS
 10
30.6029265813
 20
-39.9113243393
 11
30.6031785145
 21
-39.8901866299
  0
LWPOLYLINE
  5
522
100
AcDbEntity
  8
RACCORDO
100
AcDbPolyline
 62
7
  6
CONTINUOUS
 90
8
 70
0
 10
29.4176252739
 20
3.546071664
 10
29.4175476943
 20
3.5409209795
 10
29.4158207833
 20
3.5216553936
 10
29.4118614843
 20
3.5024128081
 10
29.4057226021
 20
3.4834498594
 10
29.3974217384
 20
3.4648520931
 10
29.3869412915
 20
3.4465339636
 10
29.3742812614
 20
3.4284954709
  0
LWPOLYLINE
  5
523
100
AcDbEntity
  8
ASSI
100
AcDbPolyline
 62
7
  6
CONTINUOUS
 90
8
 70
0
 10
29.4176252739
 20
3.546071664
 10
29.4175476943
 20
3.5409209795
 10
29.4158207833
 20
3.5216553936
 10
29.4118614843
 20
3.5024128081
 10
29.4057226021
 20
3.4834498594
 10
29.3974217384
 20
3.4648520931
 10
29.3869412915
 20
3.4465339636
 10
29.3742812614
 20
3.4284954709
  0
LWPOLYLINE
  5
524
100
AcDbEntity
  8
RACCORDO
100
AcDbPolyline
 62
253
  6
CONTINUOUS
 90
7
 70
0
 10
29.4176272772
 20
43.307952509
 10
29.4175476988
 20
43.3028265041
 10
29.4152200757
 20
43.2796826486
 10
29.4096837254
 20
43.2567212494
 10
29.4009743491
 20
43.234090373
 10
29.3891481093
 20
43.2119359547
 10
29.3742812675
 20
43.1904008573
  0
LWPOLYLINE
  5
525
100
AcDbEntity
  8
ASSI
100
AcDbPolyline
 62
253
  6
CONTINUOUS
 90
7
 70
0
 10
29.4176272772
 20
43.307952509
 10
29.4175476988
 20
43.3028265041
 10
29.4152200757
 20
43.2796826486
 10
29.4096837254
 20
43.2567212494
 10
29.4009743491
 20
43.234090373
 10
29.3891481093
 20
43.2119359547
 10
29.3742812675
 20
43.1904008573
  0
LWPOLYLINE
  5
526
100
AcDbEntity
  8
RACCORDO
100
AcDbPolyline
 62
253
  6
CONTINUOUS
 90
8
 70
0
 10
29.4176272791
 20
-30.6232099947
 10
29.4175477818
 20
-30.6283578151
 10
29.4158318605
 20
-30.6476531508
 10
29.4118844662
 20
-30.6668391012
 10
29.4057232582
 20
-30.6858297137
 10
29.3973758161
 20
-30.7045399205
 10
29.3868795038
 20
-30.7228859189
 10
29.3742813141
 20
-30.7407855306
  0
LWPOLYLINE
  5
527
100
AcDbEntity
  8
ASSI
100
AcDbPolyline
 62
253
  6
CONTINUOUS
 90
8
 70
0
 10
29.4176272791
 20
-30.6232099947
 10
29.4175477818
 20
-30.6283578151
 10
29.4158318605
 20
-30.6476531508
 10
29.4118844662
 20
-30.6668391012
 10
29.4057232582
 20
-30.6858297137
 10
29.3973758161
 20
-30.7045399205
 10
29.3868795038
 20
-30.7228859189
 10
29.3742813141
 20
-30.7407855306
  0
LINE
  5
528
100
AcDbEntity
  8
RACCORDO
100
AcDbLine
 62
253
  6
CONTINUOUS
 10
30.5891245076
 20
-39.9327295892
 11
30.5885706405
 21
-39.9630032922
  0
LINE
  5
529
100
AcDbEntity
  8
ASSI
100
AcDbLine
 62
253
  6
CONTINUOUS
 10
30.5891245076
 20
-39.9327295892
 11
30.5885706405
 21
-39.9630032922
  0
LWPOLYLINE
  5
52A
100
AcDbEntity
  8
RACCORDO
100
AcDbPolyline
 62
253
  6
CONTINUOUS
 90
8
 70
0
 10
28.7920479789
 20
-32.2923572023
 10
28.7910143403
 20
-32.3134254051
 10
28.7879212902
 20
-32.3337736963
 10
28.7827923673
 20
-32.353247213
 10
28.7756666044
 20
-32.3716977498
 10
28.7665982315
 20
-32.3889848864
 10
28.7556562635
 20
-32.4049770565
 10
28.7533247363
 20
-32.4079173521
  0
LWPOLYLINE
  5
52B
100
AcDbEntity
  8
ASSI
100
AcDbPolyline
 62
253
  6
CONTINUOUS
 90
8
 70
0
 10
28.7920479789
 20
-32.2923572023
 10
28.7910143403
 20
-32.3134254051
 10
28.7879212902
 20
-32.3337736963
 10
28.7827923673
 20
-32.353247213
 10
28.7756666044
 20
-32.3716977498
 10
28.7665982315
 20
-32.3889848864
 10
28.7556562635
 20
-32.4049770565
 10
28.7533247363
 20
-32.4079173521
  0
LWPOLYLINE
  5
52C
100
AcDbEntity
  8
RACCORDO
100
AcDbPolyline
 62
253
  6
CONTINUOUS
 90
8
 70
0
 10
30.5885706405
 20
-39.9630032922
 10
30.5868516603
 20
-39.9937132833
 10
30.5838170361
 20
-40.024770289
 10
30.5792843876
 20
-40.0561615803
 10
30.5731222822
 20
-40.0876840428
 10
30.5652827367
 20
-40.1189558182
 10
30.5556409225
 20
-40.1498613942
 10
30.5440722333
 20
-40.1802547001
  0
LWPOLYLINE
  5
52D
100
AcDbEntity
  8
ASSI
100
AcDbPolyline
 62
253
  6
CONTINUOUS
 90
8
 70
0
 10
30.5885706405
 20
-39.9630032922
 10
30.5868516603
 20
-39.9937132833
 10
30.5838170361
 20
-40.024770289
 10
30.5792843876
 20
-40.0561615803
 10
30.5731222822
 20
-40.0876840428
 10
30.5652827367
 20
-40.1189558182
 10
30.5556409225
 20
-40.1498613942
 10
30.5440722332
 20
-40.1802547001
  0
LWPOLYLINE
  5
52E
100
AcDbEntity
  8
RACCORDO
100
AcDbPolyline
 62
253
  6
CONTINUOUS
 90
6
 70
0
 10
30.6031794958
 20
-29.3580265406
 10
30.6026967288
 20
-29.3659091535
 10
30.6010292913
 20
-29.374777391
 10
30.5981926853
 20
-29.3835158635
 10
30.5942133375
 20
-29.3920778636
 10
30.5891245903
 20
-29.4004144653
  0
LWPOLYLINE
  5
52F
100
AcDbEntity
  8
ASSI
100
AcDbPolyline
 62
253
  6
CONTINUOUS
 90
6
 70
0
 10
30.6031794958
 20
-29.3580265406
 10
30.6026967288
 20
-29.3659091535
 10
30.6010292913
 20
-29.374777391
 10
30.5981926853
 20
-29.3835158635
 10
30.5942133375
 20
-29.3920778636
 10
30.5891245903
 20
-29.4004144653
  0
LWPOLYLINE
  5
530
100
AcDbEntity
  8
RACCORDO
100
AcDbPolyline
 62
253
  6
CONTINUOUS
 90
5
 70
0
 10
30.603179637
 20
-39.8902043848
 10
30.602431903
 20
-39.9001805716
 10
30.5998263618
 20
-39.91126174
 10
30.5953766725
 20
-39.922145439
 10
30.5891245607
 20
-39.9327296014
  0
LWPOLYLINE
  5
531
100
AcDbEntity
  8
ASSI
100
AcDbPolyline
 62
253
  6
CONTINUOUS
 90
5
 70
0
 10
30.603179637
 20
-39.8902043848
 10
30.602431903
 20
-39.9001805716
 10
30.5998263618
 20
-39.91126174
 10
30.5953766725
 20
-39.922145439
 10
30.5891245607
 20
-39.9327296014
  0
LWPOLYLINE
  5
532
100
AcDbEntity
  8
RACCORDO
100
AcDbPolyline
 62
253
  6
CONTINUOUS
 90
33
 70
0
 10
29.4764255308
 20
-41.4812844641
 10
29.4760012893
 20
-41.4853984354
 10
29.4751183264
 20
-41.4898346534
 10
29.4737761421
 20
-41.4945919245
 10
29.4719730409
 20
-41.4996652486
 10
29.4697095705
 20
-41.5050572174
 10
29.4669890998
 20
-41.5107782918
 10
29.463804837
 20
-41.5168410626
 10
29.4601637486
 20
-41.5232312024
 10
29.4560898195
 20
-41.5299188095
 10
29.4515770702
 20
-41.5369050247
 10
29.4466302887
 20
-41.544186425
 10
29.4412886578
 20
-41.5517259063
 10
29.4355541384
 20
-41.5595160171
 10
29.4294226403
 20
-41.5675617296
 10
29.4229238837
 20
-41.5758444772
 10
29.416058099
 20
-41.5843620246
 10
29.4088230797
 20
-41.5931143638
 10
29.4012449877
 20
-41.6020863412
 10
29.3933285634
 20
-41.6112714318
 10
29.3850671905
 20
-41.6206741131
 10
29.3764703122
 20
-41.6302958456
 10
29.3675494924
 20
-41.6401246646
 10
29.3582917571
 20
-41.6501707211
 10
29.3486705468
 20
-41.6604688126
 10
29.3386880056
 20
-41.6710184434
 10
29.3283417598
 20
-41.6818185222
 10
29.317599433
 20
-41.6929030742
 10
29.3064614794
 20
-41.704272765
 10
29.2949279773
 20
-41.7159253449
 10
29.2829666727
 20
-41.7278904883
 10
29.2705896715
 20
-41.7401574382
 10
29.2577858152
 20
-41.7527352287
  0
LWPOLYLINE
  5
533
100
AcDbEntity
  8
ASSI
100
AcDbPolyline
 62
253
  6
CONTINUOUS
 90
33
 70
0
 10
29.4764255308
 20
-41.4812844641
 10
29.4760012893
 20
-41.4853984354
 10
29.4751183264
 20
-41.4898346534
 10
29.4737761421
 20
-41.4945919245
 10
29.4719730409
 20
-41.4996652486
 10
29.4697095705
 20
-41.5050572174
 10
29.4669890998
 20
-41.5107782918
 10
29.463804837
 20
-41.5168410626
 10
29.4601637486
 20
-41.5232312024
 10
29.4560898195
 20
-41.5299188095
 10
29.4515770702
 20
-41.5369050247
 10
29.4466302887
 20
-41.544186425
 10
29.4412886578
 20
-41.5517259063
 10
29.4355541384
 20
-41.5595160171
 10
29.4294226403
 20
-41.5675617296
 10
29.4229238837
 20
-41.5758444772
 10
29.416058099
 20
-41.5843620246
 10
29.4088230797
 20
-41.5931143638
 10
29.4012449877
 20
-41.6020863412
 10
29.3933285634
 20
-41.6112714318
 10
29.3850671905
 20
-41.6206741131
 10
29.3764703122
 20
-41.6302958456
 10
29.3675494924
 20
-41.6401246646
 10
29.3582917571
 20
-41.6501707211
 10
29.3486705468
 20
-41.6604688126
 10
29.3386880056
 20
-41.6710184434
 10
29.3283417598
 20
-41.6818185222
 10
29.317599433
 20
-41.6929030742
 10
29.3064614794
 20
-41.704272765
 10
29.2949279773
 20
-41.7159253449
 10
29.2829666727
 20
-41.7278904883
 10
29.2705896715
 20
-41.7401574382
 10
29.2577858152
 20
-41.7527352287
  0
LWPOLYLINE
  5
534
100
AcDbEntity
  8
RACCORDO
100
AcDbPolyline
 62
7
  6
CONTINUOUS
 90
3
 70
0
 10
30.5958078596
 20
-40.0013551583
 10
30.6005894564
 20
-39.9569692089
 10
30.6029265813
 20
-39.9113243393
  0
LWPOLYLINE
  5
535
100
AcDbEntity
  8
ASSI
100
AcDbPolyline
 62
7
  6
CONTINUOUS
 90
3
 70
0
 10
30.5958078596
 20
-40.0013551583
 10
30.6005894564
 20
-39.9569692089
 10
30.6029265813
 20
-39.9113243393
  0
LINE
  5
536
100
AcDbEntity
  8
RACCORDO
100
AcDbLine
 62
253
  6
CONTINUOUS
 10
23.2281400868
 20
-38.3359340526
 11
23.2344966617
 21
-38.3000714014
  0
LINE
  5
537
100
AcDbEntity
  8
ASSI
100
AcDbLine
 62
253
  6
CONTINUOUS
 10
23.2281400868
 20
-38.3359340526
 11
23.2344966617
 21
-38.3000714014
  0
LWPOLYLINE
  5
538
100
AcDbEntity
  8
ASSI
100
AcDbPolyline
 62
7
  6
CONTINUOUS
 90
4
 70
0
 10
28.9200394858
 20
-2.4551832065
 10
28.9437450759
 20
-2.3226990761
 10
28.9574858782
 20
-2.1902452127
 10
28.9613349161
 20
-2.073919646
  0
LWPOLYLINE
  5
539
100
AcDbEntity
  8
RACCORDO
100
AcDbPolyline
 62
253
  6
CONTINUOUS
 90
13
 70
0
 10
23.2344966617
 20
-38.3000714014
 10
23.2421852913
 20
-38.2638006454
 10
23.2512185747
 20
-38.2271063265
 10
23.261581485
 20
-38.1900029633
 10
23.27316765
 20
-38.1529273212
 10
23.2859941439
 20
-38.1158650786
 10
23.3000406152
 20
-38.0788292926
 10
23.3151446702
 20
-38.0422978426
 10
23.3313185774
 20
-38.0062754423
 10
23.3485464117
 20
-37.9707559728
 10
23.3666239284
 20
-37.9362012362
 10
23.3855671871
 20
-37.9026126761
 10
23.4053566025
 20
-37.8699875016
  0
LWPOLYLINE
  5
53A
100
AcDbEntity
  8
ASSI
100
AcDbPolyline
 62
253
  6
CONTINUOUS
 90
13
 70
0
 10
23.2344966617
 20
-38.3000714014
 10
23.2421852913
 20
-38.2638006454
 10
23.2512185747
 20
-38.2271063265
 10
23.261581485
 20
-38.1900029633
 10
23.27316765
 20
-38.1529273212
 10
23.2859941439
 20
-38.1158650786
 10
23.3000406152
 20
-38.0788292926
 10
23.3151446702
 20
-38.0422978426
 10
23.3313185774
 20
-38.0062754423
 10
23.3485464117
 20
-37.9707559728
 10
23.3666239284
 20
-37.9362012362
 10
23.3855671871
 20
-37.9026126761
 10
23.4053566025
 20
-37.8699875016
  0
LWPOLYLINE
  5
53B
100
AcDbEntity
  8
RACCORDO
100
AcDbPolyline
 62
253
  6
CONTINUOUS
 90
45
 70
0
 10
29.1183042496
 20
-31.9311813531
 10
29.1380861177
 20
-31.9124264954
 10
29.1572652509
 20
-31.8946653775
 10
29.1758561493
 20
-31.8778832087
 10
29.1938489448
 20
-31.8620960173
 10
29.2112709985
 20
-31.8472270366
 10
29.2281249063
 20
-31.8332742931
 10
29.2444121394
 20
-31.8202408392
 10
29.2601580945
 20
-31.8080573721
 10
29.2753587088
 20
-31.7967259342
 10
29.29002159
 20
-31.7862454175
 10
29.3041893371
 20
-31.7765417118
 10
29.3178647971
 20
-31.7676102181
 10
29.33104806
 20
-31.7594563055
 10
29.3437772739
 20
-31.7520207334
 10
29.3560550829
 20
-31.7452985685
 10
29.3678812867
 20
-31.7392953816
 10
29.37928951
 20
-31.7339676207
 10
29.3902855674
 20
-31.7293090635
 10
29.4008656734
 20
-31.7253264592
 10
29.4110488685
 20
-31.7219956644
 10
29.4208429605
 20
-31.7193125341
 10
29.4302418723
 20
-31.7172816609
 10
29.4392437284
 20
-31.7158919848
 10
29.4478471844
 20
-31.7151421586
 10
29.4560551369
 20
-31.7150339291
 10
29.46387202
 20
-31.7155608636
 10
29.4712940577
 20
-31.7167140162
 10
29.4783263628
 20
-31.7185026758
 10
29.4849866176
 20
-31.7209477388
 10
29.4912869914
 20
-31.7240415258
 10
29.4972163881
 20
-31.7277919909
 10
29.5027575434
 20
-31.732243468
 10
29.5079228541
 20
-31.7374100243
 10
29.5127008545
 20
-31.7432778302
 10
29.5170385183
 20
-31.7498493831
 10
29.5209307481
 20
-31.7571559763
 10
29.5243834697
 20
-31.7651665272
 10
29.5273602132
 20
-31.773789974
 10
29.5298426542
 20
-31.7830381469
 10
29.5318497186
 20
-31.7928993685
 10
29.5334007559
 20
-31.8032473006
 10
29.5345023043
 20
-31.8140398531
 10
29.5351481013
 20
-31.8253191861
 10
29.5353382143
 20
-31.8370853168
  0
LWPOLYLINE
  5
53C
100
AcDbEntity
  8
ASSI
100
AcDbPolyline
 62
253
  6
CONTINUOUS
 90
45
 70
0
 10
29.1183042496
 20
-31.9311813531
 10
29.1380861177
 20
-31.9124264954
 10
29.1572652509
 20
-31.8946653775
 10
29.1758561493
 20
-31.8778832087
 10
29.1938489448
 20
-31.8620960173
 10
29.2112709985
 20
-31.8472270366
 10
29.2281249063
 20
-31.8332742931
 10
29.2444121394
 20
-31.8202408392
 10
29.2601580945
 20
-31.8080573721
 10
29.2753587088
 20
-31.7967259342
 10
29.29002159
 20
-31.7862454175
 10
29.3041893371
 20
-31.7765417118
 10
29.3178647971
 20
-31.7676102181
 10
29.33104806
 20
-31.7594563055
 10
29.3437772739
 20
-31.7520207334
 10
29.3560550829
 20
-31.7452985685
 10
29.3678812867
 20
-31.7392953816
 10
29.37928951
 20
-31.7339676207
 10
29.3902855674
 20
-31.7293090635
 10
29.4008656734
 20
-31.7253264592
 10
29.4110488685
 20
-31.7219956644
 10
29.4208429605
 20
-31.7193125341
 10
29.4302418723
 20
-31.7172816609
 10
29.4392437284
 20
-31.7158919848
 10
29.4478471844
 20
-31.7151421586
 10
29.4560551369
 20
-31.7150339291
 10
29.46387202
 20
-31.7155608636
 10
29.4712940577
 20
-31.7167140162
 10
29.4783263628
 20
-31.7185026758
 10
29.4849866176
 20
-31.7209477388
 10
29.4912869914
 20
-31.7240415258
 10
29.4972163881
 20
-31.7277919909
 10
29.5027575434
 20
-31.732243468
 10
29.5079228541
 20
-31.7374100243
 10
29.5127008545
 20
-31.7432778302
 10
29.5170385183
 20
-31.7498493831
 10
29.5209307481
 20
-31.7571559763
 10
29.5243834697
 20
-31.7651665272
 10
29.5273602132
 20
-31.773789974
 10
29.5298426542
 20
-31.7830381469
 10
29.5318497186
 20
-31.7928993685
 10
29.5334007559
 20
-31.8032473006
 10
29.5345023043
 20
-31.8140398531
 10
29.5351481013
 20
-31.8253191861
 10
29.5353382143
 20
-31.8370853168
  0
LWPOLYLINE
  5
53D
100
AcDbEntity
  8
RACCORDO
100
AcDbPolyline
 62
253
  6
CONTINUOUS
 90
9
 70
0
 10
23.5572613005
 20
-37.685794828
 10
24.2050201816
 20
-37.1088691461
 10
24.8366167618
 20
-36.525999887
 10
25.4518874912
 20
-35.9373379827
 10
26.0506730474
 20
-35.3430358654
 10
26.6328183768
 20
-34.7432474278
 10
27.1981727347
 20
-34.1381279831
 10
27.7465897245
 20
-33.527834225
 10
28.2779273353
 20
-32.9125241873
  0
LWPOLYLINE
  5
53E
100
AcDbEntity
  8
ASSI
100
AcDbPolyline
 62
253
  6
CONTINUOUS
 90
9
 70
0
 10
23.5572613005
 20
-37.685794828
 10
24.2050201816
 20
-37.1088691461
 10
24.8366167618
 20
-36.525999887
 10
25.4518874912
 20
-35.9373379827
 10
26.0506730474
 20
-35.3430358654
 10
26.6328183768
 20
-34.7432474278
 10
27.1981727347
 20
-34.1381279831
 10
27.7465897245
 20
-33.527834225
 10
28.2779273353
 20
-32.9125241873
  0
LINE
  5
53F
100
AcDbEntity
  8
RACCORDO
100
AcDbLine
 62
7
  6
CONTINUOUS
 10
24.1537960532
 20
-37.2377902748
 11
23.5044208526
 21
-37.8161609007
  0
LINE
  5
540
100
AcDbEntity
  8
ASSI
100
AcDbLine
 62
7
  6
CONTINUOUS
 10
24.1537960532
 20
-37.2377902748
 11
23.5044208526
 21
-37.8161609007
  0
LINE
  5
541
100
AcDbEntity
  8
0
100
AcDbLine
 62
7
  6
CONTINUOUS
 10
4.3573201008
 20
-51.7567554312
 11
4.7815841695
 21
-51.5117906752
  0
LINE
  5
542
100
AcDbEntity
  8
ASSI
100
AcDbLine
 62
7
  6
CONTINUOUS
 10
4.3573201008
 20
-51.7567554312
 11
4.7815841695
 21
-51.5117906752
  0
LWPOLYLINE
  5
543
100
AcDbEntity
  8
RACCORDO
100
AcDbPolyline
 62
253
  6
CONTINUOUS
 90
3
 70
0
 10
12.6229863995
 20
-53.2695851681
 10
12.6211273471
 20
-53.2701589037
 10
12.5951141491
 20
-53.2742745679
  0
LWPOLYLINE
  5
544
100
AcDbEntity
  8
RACCORDO
100
AcDbPolyline
 62
7
  6
CONTINUOUS
 90
12
 70
0
 10
-15.0387461816
 20
69.6401440092
 10
-15.0922946107
 20
69.6532017427
 10
-15.1457013237
 20
69.6623296056
 10
-15.1987241089
 20
69.6675574499
 10
-15.2511904391
 20
69.6689367094
 10
-15.3027653897
 20
69.6665431222
 10
-15.3531923605
 20
69.6605010282
 10
-15.4022632
 20
69.650953504
 10
-15.4496800614
 20
69.6380905158
 10
-15.4952121542
 20
69.6221355963
 10
-15.5387127779
 20
69.6033152321
 10
-15.5684471731
 20
69.5882585404
  0
LWPOLYLINE
  5
545
100
AcDbEntity
  8
ASSI
100
AcDbPolyline
 62
7
  6
CONTINUOUS
 90
12
 70
0
 10
-15.0387461816
 20
69.6401440092
 10
-15.0922946107
 20
69.6532017427
 10
-15.1457013237
 20
69.6623296056
 10
-15.1987241089
 20
69.6675574499
 10
-15.2511904391
 20
69.6689367094
 10
-15.3027653897
 20
69.6665431222
 10
-15.3531923605
 20
69.6605010282
 10
-15.4022632
 20
69.650953504
 10
-15.4496800614
 20
69.6380905158
 10
-15.4952121542
 20
69.6221355963
 10
-15.5387127779
 20
69.6033152321
 10
-15.5684471731
 20
69.5882585404
  0
LWPOLYLINE
  5
546
100
AcDbEntity
  8
RACCORDO
100
AcDbPolyline
 62
253
  6
CONTINUOUS
 90
11
 70
0
 10
-14.8431762825
 20
69.5577686148
 10
-14.862662408
 20
69.5662577377
 10
-14.8835369346
 20
69.5723837077
 10
-14.9055178598
 20
69.5760399022
 10
-14.9284849728
 20
69.5772063259
 10
-14.9523126692
 20
69.5758765998
 10
-14.9768706382
 20
69.572057996
 10
-15.0020245754
 20
69.5657713979
 10
-15.027636917
 20
69.5570511863
 10
-15.0535675922
 20
69.5459450508
 10
-15.0796747893
 20
69.5325137296
  0
LWPOLYLINE
  5
547
100
AcDbEntity
  8
ASSI
100
AcDbPolyline
 62
253
  6
CONTINUOUS
 90
11
 70
0
 10
-14.8431762825
 20
69.5577686148
 10
-14.862662408
 20
69.5662577377
 10
-14.8835369346
 20
69.5723837077
 10
-14.9055178598
 20
69.5760399022
 10
-14.9284849728
 20
69.5772063259
 10
-14.9523126692
 20
69.5758765998
 10
-14.9768706382
 20
69.572057996
 10
-15.0020245754
 20
69.5657713979
 10
-15.027636917
 20
69.5570511863
 10
-15.0535675922
 20
69.5459450508
 10
-15.0796747893
 20
69.5325137296
  0
LWPOLYLINE
  5
548
100
AcDbEntity
  8
RACCORDO
100
AcDbPolyline
 62
7
  6
CONTINUOUS
 90
5
 70
0
 10
-14.8358635296
 20
69.5537979141
 10
-14.8799045979
 20
69.5777114664
 10
-14.9324301903
 20
69.6023878584
 10
-14.9853999403
 20
69.6231946305
 10
-15.0387461816
 20
69.6401440092
  0
LWPOLYLINE
  5
549
100
AcDbEntity
  8
ASSI
100
AcDbPolyline
 62
7
  6
CONTINUOUS
 90
5
 70
0
 10
-14.8358635296
 20
69.5537979141
 10
-14.8799045979
 20
69.5777114664
 10
-14.9324301903
 20
69.6023878584
 10
-14.9853999403
 20
69.6231946305
 10
-15.0387461816
 20
69.6401440092
  0
LINE
  5
54A
100
AcDbEntity
  8
RACCORDO
100
AcDbLine
 62
253
  6
CONTINUOUS
 10
-15.0796747893
 20
69.5325137296
 11
28.5473665979
 21
44.3428068078
  0
LINE
  5
54B
100
AcDbEntity
  8
ASSI
100
AcDbLine
 62
253
  6
CONTINUOUS
 10
-15.0796747893
 20
69.5325137296
 11
28.5473665979
 21
44.3428068078
  0
LINE
  5
54C
100
AcDbEntity
  8
RACCORDO
100
AcDbLine
 62
7
  6
CONTINUOUS
 10
-14.8358330667
 20
69.5537838075
 11
28.7912083456
 21
44.3640768713
  0
LINE
  5
54D
100
AcDbEntity
  8
ASSI
100
AcDbLine
 62
7
  6
CONTINUOUS
 10
-14.8358330667
 20
69.5537838075
 11
28.7912083456
 21
44.3640768713
  0
LWPOLYLINE
  5
54E
100
AcDbEntity
  8
RACCORDO
100
AcDbPolyline
 62
253
  6
CONTINUOUS
 90
21
 70
0
 10
28.69338737
 20
44.2710328288
 10
28.7411643497
 20
44.2418996217
 10
28.7882011513
 20
44.2103070748
 10
28.8343577428
 20
44.1764116351
 10
28.8794676842
 20
44.1403178565
 10
28.9233639669
 20
44.1021359523
 10
28.9659146458
 20
44.0620458991
 10
29.006966603
 20
44.0201802446
 10
29.0463757747
 20
43.9766664456
 10
29.08403512
 20
43.9316882142
 10
29.1198136131
 20
43.8853947494
 10
29.1535885074
 20
43.8379287158
 10
29.1852763239
 20
43.7894705101
 10
29.214770571
 20
43.7401791805
 10
29.2419712618
 20
43.6902081794
 10
29.2668150095
 20
43.6397327125
 10
29.2892253992
 20
43.5889074483
 10
29.3091210918
 20
43.5379015857
 10
29.326446212
 20
43.4869141109
 10
29.341147087
 20
43.4361273149
 10
29.353185063
 20
43.3856865131
  0
LWPOLYLINE
  5
54F
100
AcDbEntity
  8
ASSI
100
AcDbPolyline
 62
253
  6
CONTINUOUS
 90
21
 70
0
 10
28.69338737
 20
44.2710328288
 10
28.7411643497
 20
44.2418996217
 10
28.7882011513
 20
44.2103070748
 10
28.8343577428
 20
44.1764116351
 10
28.8794676842
 20
44.1403178565
 10
28.9233639669
 20
44.1021359523
 10
28.9659146458
 20
44.0620458991
 10
29.006966603
 20
44.0201802446
 10
29.0463757747
 20
43.9766664456
 10
29.08403512
 20
43.9316882142
 10
29.1198136131
 20
43.8853947494
 10
29.1535885074
 20
43.8379287158
 10
29.1852763239
 20
43.7894705101
 10
29.214770571
 20
43.7401791805
 10
29.2419712618
 20
43.6902081794
 10
29.2668150095
 20
43.6397327125
 10
29.2892253992
 20
43.5889074483
 10
29.3091210918
 20
43.5379015857
 10
29.326446212
 20
43.4869141109
 10
29.341147087
 20
43.4361273149
 10
29.353185063
 20
43.3856865131
  0
LWPOLYLINE
  5
550
100
AcDbEntity
  8
RACCORDO
100
AcDbPolyline
 62
253
  6
CONTINUOUS
 90
5
 70
0
 10
29.353185063
 20
43.3856865131
 10
29.362539334
 20
43.3357349262
 10
29.369185655
 20
43.2864275243
 10
29.3731018426
 20
43.2379303892
 10
29.3742798904
 20
43.1904010564
  0
LWPOLYLINE
  5
551
100
AcDbEntity
  8
ASSI
100
AcDbPolyline
 62
253
  6
CONTINUOUS
 90
5
 70
0
 10
29.353185063
 20
43.3856865131
 10
29.362539334
 20
43.3357349262
 10
29.369185655
 20
43.2864275243
 10
29.3731018426
 20
43.2379303892
 10
29.3742798904
 20
43.1904010564
  0
LWPOLYLINE
  5
552
100
AcDbEntity
  8
RACCORDO
100
AcDbPolyline
 62
253
  6
CONTINUOUS
 90
15
 70
0
 10
29.4480301928
 20
-30.5211670388
 10
29.4470419412
 20
-30.5246238372
 10
29.445789547
 20
-30.5278529571
 10
29.4442753375
 20
-30.5308508313
 10
29.4424717511
 20
-30.5336070191
 10
29.440411363
 20
-30.5361241915
 10
29.4381865887
 20
-30.5384212973
 10
29.4358094285
 20
-30.5404992381
 10
29.4332725318
 20
-30.5423561801
 10
29.4306387307
 20
-30.5440116026
 10
29.4279170813
 20
-30.5454685099
 10
29.4251023054
 20
-30.5467267291
 10
29.4222351661
 20
-30.54780361
 10
29.4193223471
 20
-30.5487028992
 10
29.4176272791
 20
-30.5491165343
  0
LWPOLYLINE
  5
553
100
AcDbEntity
  8
ASSI
100
AcDbPolyline
 62
253
  6
CONTINUOUS
 90
15
 70
0
 10
29.4480301928
 20
-30.5211670388
 10
29.4470419412
 20
-30.5246238372
 10
29.445789547
 20
-30.5278529571
 10
29.4442753375
 20
-30.5308508313
 10
29.4424717511
 20
-30.5336070191
 10
29.440411363
 20
-30.5361241915
 10
29.4381865887
 20
-30.5384212973
 10
29.4358094285
 20
-30.5404992381
 10
29.4332725318
 20
-30.5423561801
 10
29.4306387307
 20
-30.5440116026
 10
29.4279170813
 20
-30.5454685099
 10
29.4251023054
 20
-30.5467267291
 10
29.4222351661
 20
-30.54780361
 10
29.4193223471
 20
-30.5487028992
 10
29.4176272791
 20
-30.5491165343
  0
LWPOLYLINE
  5
554
100
AcDbEntity
  8
RACCORDO
100
AcDbPolyline
 62
7
  6
CONTINUOUS
 90
11
 70
0
 10
12.6202869329
 20
-53.2949449912
 10
12.6173134678
 20
-53.2997963995
 10
12.6161389286
 20
-53.3020647883
 10
12.6162829159
 20
-53.3016726966
 10
12.6173046615
 20
-53.2986816019
 10
12.6188741317
 20
-53.2930567114
 10
12.6206922335
 20
-53.28479833
 10
12.6224760228
 20
-53.2740284709
 10
12.62399899
 20
-53.260769628
 10
12.6250531741
 20
-53.2450444658
 10
12.6254441875
 20
-53.2269385165
  0
LWPOLYLINE
  5
555
100
AcDbEntity
  8
RACCORDO
100
AcDbPolyline
 62
253
  6
CONTINUOUS
 90
8
 70
0
 10
23.4053566025
 20
-37.8699875016
 10
23.4257352749
 20
-37.8387814764
 10
23.4467111344
 20
-37.8090144416
 10
23.4682734737
 20
-37.7806655042
 10
23.4901386021
 20
-37.7541297747
 10
23.5122117321
 20
-37.7295388768
 10
23.5345862322
 20
-37.7067606604
 10
23.5572613005
 20
-37.685794828
  0
LWPOLYLINE
  5
556
100
AcDbEntity
  8
ASSI
100
AcDbPolyline
 62
253
  6
CONTINUOUS
 90
8
 70
0
 10
23.4053566025
 20
-37.8699875016
 10
23.4257352749
 20
-37.8387814764
 10
23.4467111344
 20
-37.8090144416
 10
23.4682734737
 20
-37.7806655042
 10
23.4901386021
 20
-37.7541297747
 10
23.5122117321
 20
-37.7295388768
 10
23.5345862322
 20
-37.7067606604
 10
23.5572613005
 20
-37.685794828
  0
LWPOLYLINE
  5
557
100
AcDbEntity
  8
RACCORDO
100
AcDbPolyline
 62
253
  6
CONTINUOUS
 90
72
 70
0
 10
29.6143883341
 20
-30.7541968171
 10
29.5973165961
 20
-30.7786543592
 10
29.5930474674
 20
-30.7846754455
 10
29.5887798394
 20
-30.7906171338
 10
29.5845134978
 20
-30.7964866728
 10
29.5802508521
 20
-30.8022441819
 10
29.5759926675
 20
-30.8078843382
 10
29.5717381895
 20
-30.8134124669
 10
29.5674875499
 20
-30.8188046598
 10
29.5632411624
 20
-30.824058048
 10
29.5589986242
 20
-30.8291755028
 10
29.5547588411
 20
-30.8341417259
 10
29.5505302552
 20
-30.8389477939
 10
29.5463044383
 20
-30.8436026335
 10
29.5420549643
 20
-30.8481177149
 10
29.5377750867
 20
-30.8525024214
 10
29.5334715041
 20
-30.8567473575
 10
29.5291379264
 20
-30.8608358166
 10
29.5247590511
 20
-30.8647794899
 10
29.5203501136
 20
-30.868566669
 10
29.515950664
 20
-30.8721455567
 10
29.5115659749
 20
-30.8755067712
 10
29.5071907995
 20
-30.8786597006
 10
29.5028489723
 20
-30.8815807188
 10
29.4985427233
 20
-30.8842648824
 10
29.4942698927
 20
-30.8867171523
 10
29.4900477709
 20
-30.8889287696
 10
29.485880273
 20
-30.8908959502
 10
29.4817635859
 20
-30.8926225038
 10
29.4777034282
 20
-30.8941110674
 10
29.4737023461
 20
-30.8953609622
 10
29.469757901
 20
-30.8963728941
 10
29.4658683364
 20
-30.8971515781
 10
29.4620325628
 20
-30.8976980077
 10
29.4582517674
 20
-30.8980112142
 10
29.4545276082
 20
-30.8980929681
 10
29.4508573534
 20
-30.8979427583
 10
29.4472438299
 20
-30.8975611201
 10
29.4436970429
 20
-30.8969513959
 10
29.4402196772
 20
-30.8961136521
 10
29.4368091569
 20
-30.8950478501
 10
29.4334676033
 20
-30.8937571768
 10
29.4301955227
 20
-30.8922429299
 10
29.4269925133
 20
-30.8905038384
 10
29.4238593349
 20
-30.8885392365
 10
29.4207952883
 20
-30.8863502751
 10
29.4178011709
 20
-30.8839358284
 10
29.4148799879
 20
-30.8812918161
 10
29.4120311096
 20
-30.878419552
 10
29.4092552608
 20
-30.8753177467
 10
29.4065574826
 20
-30.8719784164
 10
29.4039367543
 20
-30.8684025727
 10
29.4013941899
 20
-30.8645892279
 10
29.3989380381
 20
-30.8605274012
 10
29.3965674655
 20
-30.8562187671
 10
29.3942833992
 20
-30.851661675
 10
29.3920967363
 20
-30.8468401579
 10
29.3900057742
 20
-30.8417537276
 10
29.3880123085
 20
-30.8364028962
 10
29.3861324932
 20
-30.8307731992
 10
29.3843652869
 20
-30.8248638904
 10
29.3827118237
 20
-30.8186757399
 10
29.3811915302
 20
-30.8121965593
 10
29.3798039507
 20
-30.80542386
 10
29.3785496274
 20
-30.798360153
 10
29.3774494912
 20
-30.7910007512
 10
29.3765049472
 20
-30.7833381176
 10
29.375714661
 20
-30.7753798074
 10
29.3750954545
 20
-30.7671437727
 10
29.3746529501
 20
-30.7586360013
 10
29.3743815665
 20
-30.7498505158
 10
29.3742813141
 20
-30.7407873191
  0
LWPOLYLINE
  5
558
100
AcDbEntity
  8
ASSI
100
AcDbPolyline
 62
253
  6
CONTINUOUS
 90
72
 70
0
 10
29.6143883341
 20
-30.7541968171
 10
29.5973165961
 20
-30.7786543592
 10
29.5930474674
 20
-30.7846754455
 10
29.5887798394
 20
-30.7906171338
 10
29.5845134978
 20
-30.7964866728
 10
29.5802508521
 20
-30.8022441819
 10
29.5759926675
 20
-30.8078843382
 10
29.5717381895
 20
-30.8134124669
 10
29.5674875499
 20
-30.8188046598
 10
29.5632411624
 20
-30.824058048
 10
29.5589986242
 20
-30.8291755028
 10
29.5547588411
 20
-30.8341417259
 10
29.5505302552
 20
-30.8389477939
 10
29.5463044383
 20
-30.8436026335
 10
29.5420549643
 20
-30.8481177149
 10
29.5377750867
 20
-30.8525024214
 10
29.5334715041
 20
-30.8567473575
 10
29.5291379264
 20
-30.8608358166
 10
29.5247590511
 20
-30.8647794899
 10
29.5203501136
 20
-30.868566669
 10
29.515950664
 20
-30.8721455567
 10
29.5115659749
 20
-30.8755067712
 10
29.5071907995
 20
-30.8786597006
 10
29.5028489723
 20
-30.8815807188
 10
29.4985427233
 20
-30.8842648824
 10
29.4942698927
 20
-30.8867171523
 10
29.4900477709
 20
-30.8889287696
 10
29.485880273
 20
-30.8908959502
 10
29.4817635859
 20
-30.8926225038
 10
29.4777034282
 20
-30.8941110674
 10
29.4737023461
 20
-30.8953609622
 10
29.469757901
 20
-30.8963728941
 10
29.4658683364
 20
-30.8971515781
 10
29.4620325628
 20
-30.8976980077
 10
29.4582517674
 20
-30.8980112142
 10
29.4545276082
 20
-30.8980929681
 10
29.4508573534
 20
-30.8979427583
 10
29.4472438299
 20
-30.8975611201
 10
29.4436970429
 20
-30.8969513959
 10
29.4402196772
 20
-30.8961136521
 10
29.4368091569
 20
-30.8950478501
 10
29.4334676033
 20
-30.8937571768
 10
29.4301955227
 20
-30.8922429299
 10
29.4269925133
 20
-30.8905038384
 10
29.4238593349
 20
-30.8885392365
 10
29.4207952883
 20
-30.8863502751
 10
29.4178011709
 20
-30.8839358284
 10
29.4148799879
 20
-30.8812918161
 10
29.4120311096
 20
-30.878419552
 10
29.4092552608
 20
-30.8753177467
 10
29.4065574826
 20
-30.8719784164
 10
29.4039367543
 20
-30.8684025727
 10
29.4013941899
 20
-30.8645892279
 10
29.3989380381
 20
-30.8605274012
 10
29.3965674655
 20
-30.8562187671
 10
29.3942833992
 20
-30.851661675
 10
29.3920967363
 20
-30.8468401579
 10
29.3900057742
 20
-30.8417537276
 10
29.3880123085
 20
-30.8364028962
 10
29.3861324932
 20
-30.8307731992
 10
29.3843652869
 20
-30.8248638904
 10
29.3827118237
 20
-30.8186757399
 10
29.3811915302
 20
-30.8121965593
 10
29.3798039507
 20
-30.80542386
 10
29.3785496274
 20
-30.798360153
 10
29.3774494912
 20
-30.7910007512
 10
29.3765049472
 20
-30.7833381176
 10
29.375714661
 20
-30.7753798074
 10
29.3750954545
 20
-30.7671437727
 10
29.3746529501
 20
-30.7586360013
 10
29.3743815665
 20
-30.7498505158
 10
29.3742813141
 20
-30.7407873191
  0
LWPOLYLINE
  5
559
100
AcDbEntity
  8
RACCORDO
100
AcDbPolyline
 62
253
  6
CONTINUOUS
 90
5
 70
0
 10
29.6313866702
 20
-30.7305813158
 10
29.6271463244
 20
-30.7363524468
 10
29.6229000541
 20
-30.7422068636
 10
29.6186478551
 20
-30.7481445646
 10
29.6143883341
 20
-30.7541968171
  0
LWPOLYLINE
  5
55A
100
AcDbEntity
  8
ASSI
100
AcDbPolyline
 62
253
  6
CONTINUOUS
 90
5
 70
0
 10
29.6313866702
 20
-30.7305813158
 10
29.6271463244
 20
-30.7363524468
 10
29.6229000541
 20
-30.7422068636
 10
29.6186478551
 20
-30.7481445646
 10
29.6143883341
 20
-30.7541968171
  0
LWPOLYLINE
  5
55B
100
AcDbEntity
  8
RACCORDO
100
AcDbPolyline
 62
253
  6
CONTINUOUS
 90
10
 70
0
 10
29.6313866702
 20
-30.7305813158
 10
29.7338190493
 20
-30.5941720701
 10
29.8372252769
 20
-30.4551305101
 10
29.9415594229
 20
-30.3134473145
 10
30.0465897543
 20
-30.1693681037
 10
30.1524567138
 20
-30.0226294041
 10
30.2596564612
 20
-29.8724546998
 10
30.3683039467
 20
-29.7185749412
 10
30.4781493582
 20
-29.5612325182
 10
30.5891245903
 20
-29.4004144653
  0
LWPOLYLINE
  5
55C
100
AcDbEntity
  8
ASSI
100
AcDbPolyline
 62
253
  6
CONTINUOUS
 90
10
 70
0
 10
29.6313866702
 20
-30.7305813158
 10
29.7338190493
 20
-30.5941720701
 10
29.8372252769
 20
-30.4551305101
 10
29.9415594229
 20
-30.3134473145
 10
30.0465897543
 20
-30.1693681037
 10
30.1524567138
 20
-30.0226294041
 10
30.2596564612
 20
-29.8724546998
 10
30.3683039467
 20
-29.7185749412
 10
30.4781493582
 20
-29.5612325182
 10
30.5891245903
 20
-29.4004144653
  0
LWPOLYLINE
  5
55D
100
AcDbEntity
  8
RACCORDO
100
AcDbPolyline
 62
253
  6
CONTINUOUS
 90
10
 70
0
 10
29.4480301625
 20
-30.5211670214
 10
29.5498414624
 20
-30.3857182252
 10
29.6527026309
 20
-30.2473909903
 10
29.7566136681
 20
-30.1061853167
 10
29.8615355922
 20
-29.9622459761
 10
29.967507385
 20
-29.8154281967
 10
30.0746459914
 20
-29.6652976637
 10
30.182990393
 20
-29.5117096054
 10
30.2925016082
 20
-29.3548087934
 10
30.403179637
 20
-29.1945952278
  0
LWPOLYLINE
  5
55E
100
AcDbEntity
  8
ASSI
100
AcDbPolyline
 62
253
  6
CONTINUOUS
 90
10
 70
0
 10
29.4480301625
 20
-30.5211670214
 10
29.5498414624
 20
-30.3857182252
 10
29.6527026309
 20
-30.2473909903
 10
29.7566136681
 20
-30.1061853167
 10
29.8615355922
 20
-29.9622459761
 10
29.967507385
 20
-29.8154281967
 10
30.0746459914
 20
-29.6652976637
 10
30.182990393
 20
-29.5117096054
 10
30.2925016082
 20
-29.3548087934
 10
30.403179637
 20
-29.1945952278
  0
LWPOLYLINE
  5
55F
100
AcDbEntity
  8
RACCORDO
100
AcDbPolyline
 62
253
  6
CONTINUOUS
 90
10
 70
0
 10
29.5353382143
 20
-31.8370853168
 10
29.530381304
 20
-31.8432647125
 10
29.5250075423
 20
-31.8493268321
 10
29.5192252354
 20
-31.8552623056
 10
29.5130433207
 20
-31.8610619586
 10
29.5064713537
 20
-31.8667168268
 10
29.4995194923
 20
-31.8722181695
 10
29.4921984821
 20
-31.8775574835
 10
29.4845196387
 20
-31.8827265158
 10
29.4764948314
 20
-31.8877172769
  0
LWPOLYLINE
  5
560
100
AcDbEntity
  8
ASSI
100
AcDbPolyline
 62
253
  6
CONTINUOUS
 90
10
 70
0
 10
29.5353382143
 20
-31.8370853168
 10
29.530381304
 20
-31.8432647125
 10
29.5250075423
 20
-31.8493268321
 10
29.5192252354
 20
-31.8552623056
 10
29.5130433207
 20
-31.8610619586
 10
29.5064713537
 20
-31.8667168268
 10
29.4995194923
 20
-31.8722181695
 10
29.4921984821
 20
-31.8775574835
 10
29.4845196387
 20
-31.8827265158
 10
29.4764948314
 20
-31.8877172769
  0
LWPOLYLINE
  5
561
100
AcDbEntity
  8
RACCORDO
100
AcDbPolyline
 62
7
  6
CONTINUOUS
 90
5
 70
0
 10
28.7533248038
 20
-32.4079174069
 10
28.7832803097
 20
-32.3713518816
 10
28.8125390595
 20
-32.3362805691
 10
28.8404340889
 20
-32.3034524207
 10
28.8670551891
 20
-32.2726956817
  0
LWPOLYLINE
  5
562
100
AcDbEntity
  8
ASSI
100
AcDbPolyline
 62
7
  6
CONTINUOUS
 90
5
 70
0
 10
28.7533248038
 20
-32.4079174069
 10
28.7832803097
 20
-32.3713518816
 10
28.8125390595
 20
-32.3362805691
 10
28.8404340889
 20
-32.3034524207
 10
28.8670551891
 20
-32.2726956817
  0
LWPOLYLINE
  5
563
100
AcDbEntity
  8
RACCORDO
100
AcDbPolyline
 62
253
  6
CONTINUOUS
 90
14
 70
0
 10
28.7920479789
 20
-32.2923572023
 10
28.8224502442
 20
-32.2553149814
 10
28.8518948443
 20
-32.2199526324
 10
28.8803871626
 20
-32.1862716464
 10
28.9079028828
 20
-32.1543507624
 10
28.9344767167
 20
-32.1241141029
 10
28.9602018606
 20
-32.0953310288
 10
28.9850851066
 20
-32.0679884023
 10
29.0091280799
 20
-32.0421016589
 10
29.0324151344
 20
-32.0174827208
 10
29.0549521127
 20
-31.9941212746
 10
29.0767400686
 20
-31.9720295015
 10
29.0978552674
 20
-31.9510528201
 10
29.1183042496
 20
-31.9311813531
  0
LWPOLYLINE
  5
564
100
AcDbEntity
  8
ASSI
100
AcDbPolyline
 62
253
  6
CONTINUOUS
 90
14
 70
0
 10
28.7920479789
 20
-32.2923572023
 10
28.8224502442
 20
-32.2553149814
 10
28.8518948443
 20
-32.2199526324
 10
28.8803871626
 20
-32.1862716464
 10
28.9079028828
 20
-32.1543507624
 10
28.9344767167
 20
-32.1241141029
 10
28.9602018606
 20
-32.0953310288
 10
28.9850851066
 20
-32.0679884023
 10
29.0091280799
 20
-32.0421016589
 10
29.0324151344
 20
-32.0174827208
 10
29.0549521127
 20
-31.9941212746
 10
29.0767400686
 20
-31.9720295015
 10
29.0978552674
 20
-31.9510528201
 10
29.1183042496
 20
-31.9311813531
  0
LINE
  5
565
100
AcDbEntity
  8
RACCORDO
100
AcDbLine
 62
253
  6
CONTINUOUS
 10
28.2779273353
 20
-32.9125241873
 11
28.7920479789
 21
-32.2923572023
  0
LINE
  5
566
100
AcDbEntity
  8
ASSI
100
AcDbLine
 62
253
  6
CONTINUOUS
 10
28.2779273353
 20
-32.9125241873
 11
28.7920479789
 21
-32.2923572023
  0
LWPOLYLINE
  5
567
100
AcDbEntity
  8
RACCORDO
100
AcDbPolyline
 62
7
  6
CONTINUOUS
 90
9
 70
0
 10
28.7533138959
 20
-32.4079307048
 10
28.2376926323
 20
-33.0299156818
 10
27.7048387112
 20
-33.6470016444
 10
27.1548872717
 20
-34.2590306184
 10
26.587971459
 20
-34.8658524808
 10
26.0042406617
 20
-35.4673053013
 10
25.4038624276
 20
-36.0632158164
 10
24.7869971437
 20
-36.6534255268
 10
24.1537960532
 20
-37.2377902748
  0
LWPOLYLINE
  5
568
100
AcDbEntity
  8
ASSI
100
AcDbPolyline
 62
7
  6
CONTINUOUS
 90
9
 70
0
 10
28.7533138959
 20
-32.4079307048
 10
28.2376926323
 20
-33.0299156818
 10
27.7048387112
 20
-33.6470016444
 10
27.1548872717
 20
-34.2590306184
 10
26.587971459
 20
-34.8658524808
 10
26.0042406617
 20
-35.4673053013
 10
25.4038624276
 20
-36.0632158164
 10
24.7869971437
 20
-36.6534255268
 10
24.1537960532
 20
-37.2377902748
  0
LWPOLYLINE
  5
569
100
AcDbEntity
  8
RACCORDO
100
AcDbPolyline
 62
7
  6
CONTINUOUS
 90
20
 70
0
 10
28.8670551891
 20
-32.2726956817
 10
28.8926556318
 20
-32.2436648613
 10
28.9172579024
 20
-32.2162915935
 10
28.9408427565
 20
-32.1905559164
 10
28.9635918266
 20
-32.1662240905
 10
28.9855251236
 20
-32.1432462209
 10
29.0066192166
 20
-32.1216188472
 10
29.0269814705
 20
-32.1012069498
 10
29.0466183723
 20
-32.0819835113
 10
29.0655120148
 20
-32.0639454645
 10
29.0837215146
 20
-32.047017871
 10
29.1012550905
 20
-32.0311780103
 10
29.1180795879
 20
-32.0164403315
 10
29.1341732744
 20
-32.0028079717
 10
29.1495582479
 20
-31.9902476167
 10
29.1641595654
 20
-31.9788056337
 10
29.1777722928
 20
-31.9686176973
 10
29.1904994986
 20
-31.9595784348
 10
29.2021149518
 20
-31.9518205784
 10
29.211590669
 20
-31.9459245688
  0
LWPOLYLINE
  5
56A
100
AcDbEntity
  8
ASSI
100
AcDbPolyline
 62
7
  6
CONTINUOUS
 90
20
 70
0
 10
28.8670551891
 20
-32.2726956817
 10
28.8926556318
 20
-32.2436648613
 10
28.9172579024
 20
-32.2162915935
 10
28.9408427565
 20
-32.1905559164
 10
28.9635918266
 20
-32.1662240905
 10
28.9855251236
 20
-32.1432462209
 10
29.0066192166
 20
-32.1216188472
 10
29.0269814705
 20
-32.1012069498
 10
29.0466183723
 20
-32.0819835113
 10
29.0655120148
 20
-32.0639454645
 10
29.0837215146
 20
-32.047017871
 10
29.1012550905
 20
-32.0311780103
 10
29.1180795879
 20
-32.0164403315
 10
29.1341732744
 20
-32.0028079717
 10
29.1495582479
 20
-31.9902476167
 10
29.1641595654
 20
-31.9788056337
 10
29.1777722928
 20
-31.9686176973
 10
29.1904994986
 20
-31.9595784348
 10
29.2021149518
 20
-31.9518205784
 10
29.211590669
 20
-31.9459245688
  0
LWPOLYLINE
  5
56B
100
AcDbEntity
  8
RACCORDO
100
AcDbPolyline
 62
253
  6
CONTINUOUS
 90
8
 70
0
 10
23.2167527448
 20
-38.4709954192
 10
23.2310385612
 20
-38.4574085256
 10
23.2431071887
 20
-38.4431227419
 10
23.2528570084
 20
-38.4282583588
 10
23.2602059268
 20
-38.4129405391
 10
23.2650920665
 20
-38.3972982628
 10
23.2674742875
 20
-38.3814632415
 10
23.2677233085
 20
-38.3744153366
  0
LWPOLYLINE
  5
56C
100
AcDbEntity
  8
ASSI
100
AcDbPolyline
 62
253
  6
CONTINUOUS
 90
8
 70
0
 10
23.2167527448
 20
-38.4709954192
 10
23.2310385612
 20
-38.4574085256
 10
23.2431071887
 20
-38.4431227419
 10
23.2528570084
 20
-38.4282583588
 10
23.2602059268
 20
-38.4129405391
 10
23.2650920665
 20
-38.3972982628
 10
23.2674742875
 20
-38.3814632415
 10
23.2677233085
 20
-38.3744153366
  0
LINE
  5
56D
100
AcDbEntity
  8
RACCORDO
100
AcDbLine
 62
253
  6
CONTINUOUS
 10
28.9895449513
 20
-42.0000281927
 11
28.9410075049
 21
-42.0427111419
  0
LINE
  5
56E
100
AcDbEntity
  8
ASSI
100
AcDbLine
 62
253
  6
CONTINUOUS
 10
28.9895449513
 20
-42.0000281927
 11
28.9410075049
 21
-42.0427111419
  0
LINE
  5
56F
100
AcDbEntity
  8
RACCORDO
100
AcDbLine
 62
253
  6
CONTINUOUS
 10
28.9410075049
 20
-42.0427111419
 11
28.8893238866
 21
-42.0877168774
  0
LINE
  5
570
100
AcDbEntity
  8
ASSI
100
AcDbLine
 62
253
  6
CONTINUOUS
 10
28.9410075049
 20
-42.0427111419
 11
28.8893238866
 21
-42.0877168774
  0
LINE
  5
571
100
AcDbEntity
  8
RACCORDO
100
AcDbLine
 62
253
  6
CONTINUOUS
 10
28.8893238866
 20
-42.0877168774
 11
28.8047891614
 21
-42.1605033237
  0
LINE
  5
572
100
AcDbEntity
  8
ASSI
100
AcDbLine
 62
253
  6
CONTINUOUS
 10
28.8893238866
 20
-42.0877168774
 11
28.8047891614
 21
-42.1605033237
  0
LINE
  5
573
100
AcDbEntity
  8
RACCORDO
100
AcDbLine
 62
253
  6
CONTINUOUS
 10
27.9713918537
 20
-42.8568921847
 11
27.8981812808
 21
-42.919215867
  0
LINE
  5
574
100
AcDbEntity
  8
ASSI
100
AcDbLine
 62
253
  6
CONTINUOUS
 10
27.9713918537
 20
-42.8568921847
 11
27.8981812808
 21
-42.919215867
  0
LINE
  5
575
100
AcDbEntity
  8
RACCORDO
100
AcDbLine
 62
253
  6
CONTINUOUS
 10
28.8047891614
 20
-42.1605033237
 11
28.7107462911
 21
-42.2404985978
  0
LINE
  5
576
100
AcDbEntity
  8
ASSI
100
AcDbLine
 62
253
  6
CONTINUOUS
 10
28.8047891614
 20
-42.1605033237
 11
28.7107462911
 21
-42.2404985978
  0
LINE
  5
577
100
AcDbEntity
  8
RACCORDO
100
AcDbLine
 62
253
  6
CONTINUOUS
 10
28.0441702024
 20
-42.7956270129
 11
27.9713918537
 21
-42.8568921847
  0
LINE
  5
578
100
AcDbEntity
  8
ASSI
100
AcDbLine
 62
253
  6
CONTINUOUS
 10
28.0441702024
 20
-42.7956270129
 11
27.9713918537
 21
-42.8568921847
  0
LINE
  5
579
100
AcDbEntity
  8
RACCORDO
100
AcDbLine
 62
253
  6
CONTINUOUS
 10
28.7107462911
 20
-42.2404985978
 11
28.5791169078
 21
-42.3511706761
  0
LINE
  5
57A
100
AcDbEntity
  8
ASSI
100
AcDbLine
 62
253
  6
CONTINUOUS
 10
28.7107462911
 20
-42.2404985978
 11
28.5791169078
 21
-42.3511706761
  0
LINE
  5
57B
100
AcDbEntity
  8
RACCORDO
100
AcDbLine
 62
253
  6
CONTINUOUS
 10
28.1912489502
 20
-42.6730887374
 11
28.0441702024
 21
-42.7956270129
  0
LINE
  5
57C
100
AcDbEntity
  8
ASSI
100
AcDbLine
 62
253
  6
CONTINUOUS
 10
28.1912489502
 20
-42.6730887374
 11
28.0441702024
 21
-42.7956270129
  0
LINE
  5
57D
100
AcDbEntity
  8
RACCORDO
100
AcDbLine
 62
253
  6
CONTINUOUS
 10
28.5791169078
 20
-42.3511706761
 11
28.1912489502
 21
-42.6730887374
  0
LINE
  5
57E
100
AcDbEntity
  8
ASSI
100
AcDbLine
 62
253
  6
CONTINUOUS
 10
28.5791169078
 20
-42.3511706761
 11
28.1912489502
 21
-42.6730887374
  0
LWPOLYLINE
  5
57F
100
AcDbEntity
  8
RACCORDO
100
AcDbPolyline
 62
7
  6
CONTINUOUS
 90
6
 70
0
 10
18.4994557245
 20
-52.2760572797
 10
19.0686735822
 20
-51.8667304503
 10
20.0168380925
 20
-51.1560830349
 10
20.940419418
 20
-50.4343195228
 10
21.839057864
 20
-49.7017225529
 10
22.7123944228
 20
-48.9585866417
  0
LWPOLYLINE
  5
580
100
AcDbEntity
  8
ASSI
100
AcDbPolyline
 62
7
  6
CONTINUOUS
 90
6
 70
0
 10
18.4994557245
 20
-52.2760572797
 10
19.0686735822
 20
-51.8667304503
 10
20.0168380925
 20
-51.1560830349
 10
20.940419418
 20
-50.4343195228
 10
21.839057864
 20
-49.7017225529
 10
22.7123944228
 20
-48.9585866417
  0
LWPOLYLINE
  5
581
100
AcDbEntity
  8
RACCORDO
100
AcDbPolyline
 62
253
  6
CONTINUOUS
 90
8
 70
0
 10
18.4994557245
 20
-51.9665457346
 10
18.8078348999
 20
-51.7482937856
 10
19.6047958895
 20
-51.1646185465
 10
20.3849799301
 20
-50.5731405573
 10
21.138874963
 20
-49.9814503789
 10
21.8638638677
 20
-49.3924877719
 10
22.5635292283
 20
-48.8042271428
 10
23.2383017867
 20
-48.2170742927
  0
LWPOLYLINE
  5
582
100
AcDbEntity
  8
ASSI
100
AcDbPolyline
 62
253
  6
CONTINUOUS
 90
8
 70
0
 10
18.4994557245
 20
-51.9665457346
 10
18.8078348979
 20
-51.7482937871
 10
19.6047958866
 20
-51.1646185487
 10
20.3849799264
 20
-50.5731405601
 10
21.1388749592
 20
-49.981450382
 10
21.8638638646
 20
-49.3924877745
 10
22.5635292265
 20
-48.8042271444
 10
23.2383017867
 20
-48.2170742927
  0
LINE
  5
583
100
AcDbEntity
  8
RACCORDO
100
AcDbLine
 62
7
  6
CONTINUOUS
 10
14.3504030519
 20
-52.8062651307
 11
14.3628810545
 21
-52.7984001223
  0
LINE
  5
584
100
AcDbEntity
  8
ASSI
100
AcDbLine
 62
7
  6
CONTINUOUS
 10
14.3504030519
 20
-52.8062651307
 11
14.3628810545
 21
-52.7984001223
  0
LWPOLYLINE
  5
585
100
AcDbEntity
  8
RACCORDO
100
AcDbPolyline
 62
253
  6
CONTINUOUS
 90
19
 70
0
 10
15.246764531
 20
-53.3087433639
 10
15.2344388477
 20
-53.3164814422
 10
15.2222069703
 20
-53.3254033954
 10
15.2101619907
 20
-53.335441322
 10
15.1983955786
 20
-53.3465188274
 10
15.1869972834
 20
-53.3585516051
 10
15.176053853
 20
-53.3714480783
 10
15.1656485736
 20
-53.3851100972
 10
15.1558606356
 20
-53.3994336855
 10
15.1467645311
 20
-53.414309832
 10
15.138429487
 20
-53.4296253203
 10
15.130918938
 20
-53.4452635904
 10
15.1242900439
 20
-53.4611056254
 10
15.1185932547
 20
-53.477030858
 10
15.1138719262
 20
-53.4929180875
 10
15.1101619907
 20
-53.5086464026
 10
15.1074916829
 20
-53.5240961011
 10
15.1058813257
 20
-53.5391496016
 10
15.1053431747
 20
-53.5536923379
  0
LWPOLYLINE
  5
586
100
AcDbEntity
  8
ASSI
100
AcDbPolyline
 62
253
  6
CONTINUOUS
 90
19
 70
0
 10
15.246764531
 20
-53.3087433639
 10
15.2344388477
 20
-53.3164814422
 10
15.2222069703
 20
-53.3254033954
 10
15.2101619907
 20
-53.335441322
 10
15.1983955786
 20
-53.3465188274
 10
15.1869972834
 20
-53.3585516051
 10
15.176053853
 20
-53.3714480783
 10
15.1656485736
 20
-53.3851100972
 10
15.1558606356
 20
-53.3994336855
 10
15.1467645311
 20
-53.414309832
 10
15.138429487
 20
-53.4296253203
 10
15.130918938
 20
-53.4452635904
 10
15.1242900439
 20
-53.4611056254
 10
15.1185932547
 20
-53.477030858
 10
15.1138719262
 20
-53.4929180875
 10
15.1101619907
 20
-53.5086464026
 10
15.1074916829
 20
-53.5240961011
 10
15.1058813257
 20
-53.5391496016
 10
15.1053431747
 20
-53.5536923379
  0
LWPOLYLINE
  5
587
100
AcDbEntity
  8
RACCORDO
100
AcDbPolyline
 62
7
  6
CONTINUOUS
 90
11
 70
0
 10
16.7316898384
 20
-54.2336516855
 10
16.7421931317
 20
-54.2272839454
 10
16.7573244373
 20
-54.2169613778
 10
16.7725152745
 20
-54.2052079782
 10
16.7876694493
 20
-54.1921165342
 10
16.8026102933
 20
-54.1777264128
 10
16.8173045031
 20
-54.1619805158
 10
16.831840503
 20
-54.1448045684
 10
16.8461329605
 20
-54.1261454695
 10
16.859947925
 20
-54.1060058016
 10
16.8731101278
 20
-54.0843782904
  0
LWPOLYLINE
  5
588
100
AcDbEntity
  8
ASSI
100
AcDbPolyline
 62
7
  6
CONTINUOUS
 90
11
 70
0
 10
16.7316898384
 20
-54.2336516855
 10
16.7421931317
 20
-54.2272839454
 10
16.7573244373
 20
-54.2169613778
 10
16.7725152745
 20
-54.2052079782
 10
16.7876694493
 20
-54.1921165342
 10
16.8026102933
 20
-54.1777264128
 10
16.8173045031
 20
-54.1619805158
 10
16.831840503
 20
-54.1448045684
 10
16.8461329605
 20
-54.1261454695
 10
16.859947925
 20
-54.1060058016
 10
16.8731101278
 20
-54.0843782904
  0
LINE
  5
589
100
AcDbEntity
  8
RACCORDO
100
AcDbLine
 62
253
  6
CONTINUOUS
 10
29.4764916431
 20
-41.4812449355
 11
23.2677233088
 21
-45.1934813367
  0
LINE
  5
58A
100
AcDbEntity
  8
ASSI
100
AcDbLine
 62
253
  6
CONTINUOUS
 10
29.4764916431
 20
-41.4812449355
 11
23.2677233088
 21
-45.1934813367
  0
LINE
  5
58B
100
AcDbEntity
  8
RACCORDO
100
AcDbLine
 62
253
  6
CONTINUOUS
 10
27.8981812808
 20
-42.919215867
 11
23.2677233088
 21
-45.6877769909
  0
LINE
  5
58C
100
AcDbEntity
  8
ASSI
100
AcDbLine
 62
253
  6
CONTINUOUS
 10
27.8981812808
 20
-42.919215867
 11
23.2677233088
 21
-45.6877769909
  0
LINE
  5
58D
100
AcDbEntity
  8
RACCORDO
100
AcDbLine
 62
253
  6
CONTINUOUS
 10
12.6254441875
 20
-53.1073182018
 11
12.4183374063
 21
-53.2268990616
  0
LINE
  5
58E
100
AcDbEntity
  8
RACCORDO
100
AcDbLine
 62
7
  6
CONTINUOUS
 10
15.1406985138
 20
-52.3492980696
 11
14.3628810545
 21
-52.7984001223
  0
LINE
  5
58F
100
AcDbEntity
  8
ASSI
100
AcDbLine
 62
7
  6
CONTINUOUS
 10
15.1406985138
 20
-52.3492980696
 11
14.3628810545
 21
-52.7984001223
  0
LINE
  5
590
100
AcDbEntity
  8
RACCORDO
100
AcDbLine
 62
253
  6
CONTINUOUS
 10
16.3781353809
 20
-53.3087433639
 11
16.5902674153
 21
-53.1862609859
  0
LINE
  5
591
100
AcDbEntity
  8
ASSI
100
AcDbLine
 62
253
  6
CONTINUOUS
 10
16.3781353809
 20
-53.3087433639
 11
16.5902674153
 21
-53.1862609859
  0
LINE
  5
592
100
AcDbEntity
  8
RACCORDO
100
AcDbLine
 62
253
  6
CONTINUOUS
 10
16.8731101278
 20
-53.3495550413
 11
16.5195567372
 21
-53.553692338
  0
LINE
  5
593
100
AcDbEntity
  8
ASSI
100
AcDbLine
 62
253
  6
CONTINUOUS
 10
16.8731101278
 20
-53.3495550413
 11
16.5195567372
 21
-53.553692338
  0
LINE
  5
594
100
AcDbEntity
  8
RACCORDO
100
AcDbLine
 62
253
  6
CONTINUOUS
 10
16.5195567372
 20
-54.2885155871
 11
16.8731101278
 21
-54.0843782904
  0
LINE
  5
595
100
AcDbEntity
  8
ASSI
100
AcDbLine
 62
253
  6
CONTINUOUS
 10
16.5195567372
 20
-54.2885155871
 11
16.8731101278
 21
-54.0843782904
  0
LINE
  5
596
100
AcDbEntity
  8
RACCORDO
100
AcDbLine
 62
7
  6
CONTINUOUS
 10
16.478140213
 20
-54.3800629593
 11
16.7316984358
 21
-54.2336616193
  0
LINE
  5
597
100
AcDbEntity
  8
ASSI
100
AcDbLine
 62
7
  6
CONTINUOUS
 10
16.478140213
 20
-54.3800629593
 11
16.7316984358
 21
-54.2336616193
  0
LINE
  5
598
100
AcDbEntity
  8
RACCORDO
100
AcDbLine
 62
253
  6
CONTINUOUS
 10
14.3982363936
 20
-55.8397144212
 11
15.0346324967
 21
-55.4722672872
  0
LINE
  5
599
100
AcDbEntity
  8
RACCORDO
100
AcDbLine
 62
7
  6
CONTINUOUS
 10
14.2946950831
 20
-56.0685828517
 11
15.0018018643
 21
-55.6603082584
  0
LWPOLYLINE
  5
59A
100
AcDbEntity
  8
RACCORDO
100
AcDbPolyline
 62
7
  6
CONTINUOUS
 90
13
 70
0
 10
14.2946950831
 20
-56.0685828517
 10
14.2571266539
 20
-56.0882001074
 10
14.2176184908
 20
-56.1047180754
 10
14.1764827887
 20
-56.1178932205
 10
14.1340870288
 20
-56.1275191089
 10
14.0907915296
 20
-56.1334465811
 10
14.0469182781
 20
-56.135572128
 10
14.0027762401
 20
-56.133817844
 10
13.9588555683
 20
-56.1281556951
 10
13.9156840313
 20
-56.1186498574
 10
13.8735726295
 20
-56.1053869069
 10
13.8328586296
 20
-56.0884903985
 10
13.794673704
 20
-56.0685844574
  0
LWPOLYLINE
  5
59B
100
AcDbEntity
  8
RACCORDO
100
AcDbPolyline
 62
253
  6
CONTINUOUS
 90
4
 70
0
 10
16.3860264079
 20
-54.3532091114
 10
16.4326854582
 20
-54.3331527626
 10
16.4772458273
 20
-54.3115639045
 10
16.5195567372
 20
-54.2885155871
  0
LWPOLYLINE
  5
59C
100
AcDbEntity
  8
ASSI
100
AcDbPolyline
 62
253
  6
CONTINUOUS
 90
4
 70
0
 10
16.3860264079
 20
-54.3532091114
 10
16.4326854582
 20
-54.3331527626
 10
16.4772458273
 20
-54.3115639045
 10
16.5195567372
 20
-54.2885155871
  0
LINE
  5
59D
100
AcDbEntity
  8
RACCORDO
100
AcDbLine
 62
253
  6
CONTINUOUS
 10
30.5355617086
 20
-40.20137858
 11
30.5306026659
 21
-40.2097243971
  0
LINE
  5
59E
100
AcDbEntity
  8
ASSI
100
AcDbLine
 62
253
  6
CONTINUOUS
 10
30.5355617086
 20
-40.20137858
 11
30.5306026659
 21
-40.2097243971
  0
LINE
  5
59F
100
AcDbEntity
  8
RACCORDO
100
AcDbLine
 62
253
  6
CONTINUOUS
 10
30.5164307059
 20
-40.2362450207
 11
30.5151732355
 21
-40.238120224
  0
LINE
  5
5A0
100
AcDbEntity
  8
ASSI
100
AcDbLine
 62
253
  6
CONTINUOUS
 10
30.5164307059
 20
-40.2362450207
 11
30.5151732355
 21
-40.238120224
  0
LWPOLYLINE
  5
5A1
100
AcDbEntity
  8
RACCORDO
100
AcDbPolyline
 62
7
  6
CONTINUOUS
 90
8
 70
0
 10
30.50221792
 20
-40.2587131431
 10
30.5164307059
 20
-40.2362450207
 10
30.5355617086
 20
-40.20137858
 10
30.5523881635
 20
-40.1646452438
 10
30.5668631846
 20
-40.1261353863
 10
30.5789376902
 20
-40.0860142214
 10
30.5885894872
 20
-40.044398468
 10
30.5958078596
 20
-40.0013551583
  0
LWPOLYLINE
  5
5A2
100
AcDbEntity
  8
ASSI
100
AcDbPolyline
 62
7
  6
CONTINUOUS
 90
8
 70
0
 10
30.50221792
 20
-40.2587131431
 10
30.5164307059
 20
-40.2362450207
 10
30.5355617086
 20
-40.20137858
 10
30.5523881635
 20
-40.1646452438
 10
30.5668631846
 20
-40.1261353863
 10
30.5789376902
 20
-40.0860142214
 10
30.5885894872
 20
-40.044398468
 10
30.5958078596
 20
-40.0013551583
  0
LWPOLYLINE
  5
5A3
100
AcDbEntity
  8
RACCORDO
100
AcDbPolyline
 62
253
  6
CONTINUOUS
 90
9
 70
0
 10
23.2383013103
 20
-48.2170741077
 10
23.251681171
 20
-48.1961877977
 10
23.2628125217
 20
-48.1746536746
 10
23.2716000126
 20
-48.1526561972
 10
23.2779683711
 20
-48.1303837934
 10
23.2818630466
 20
-48.108027246
 10
23.2832506778
 20
-48.085778059
 10
23.2821193786
 20
-48.0638268162
 10
23.2784788393
 20
-48.0423615494
  0
LWPOLYLINE
  5
5A4
100
AcDbEntity
  8
ASSI
100
AcDbPolyline
 62
253
  6
CONTINUOUS
 90
9
 70
0
 10
23.2383013103
 20
-48.2170741077
 10
23.251681171
 20
-48.1961877977
 10
23.2628125217
 20
-48.1746536746
 10
23.2716000126
 20
-48.1526561972
 10
23.2779683711
 20
-48.1303837934
 10
23.2818630466
 20
-48.108027246
 10
23.2832506778
 20
-48.085778059
 10
23.2821193786
 20
-48.0638268162
 10
23.2784788393
 20
-48.0423615494
  0
LINE
  5
5A5
100
AcDbEntity
  8
RACCORDO
100
AcDbLine
 62
253
  6
CONTINUOUS
 10
30.4202016354
 20
-40.1826578263
 11
30.5891245778
 21
-39.9327295759
  0
LINE
  5
5A6
100
AcDbEntity
  8
ASSI
100
AcDbLine
 62
253
  6
CONTINUOUS
 10
30.4202016354
 20
-40.1826578263
 11
30.5891245778
 21
-39.9327295759
  0
LWPOLYLINE
  5
5A7
100
AcDbEntity
  8
RACCORDO
100
AcDbPolyline
 62
253
  6
CONTINUOUS
 90
10
 70
0
 10
29.5353365236
 20
-41.4251985701
 10
29.5303787683
 20
-41.4324802436
 10
29.5250036854
 20
-41.4395207697
 10
29.5192195049
 20
-41.4463107487
 10
29.513036159
 20
-41.4528409933
 10
29.506462197
 20
-41.4591025324
 10
29.4995041258
 20
-41.4650863754
 10
29.492170824
 20
-41.4707836309
 10
29.484474173
 20
-41.4761857704
 10
29.476425519
 20
-41.4812844574
  0
LWPOLYLINE
  5
5A8
100
AcDbEntity
  8
ASSI
100
AcDbPolyline
 62
253
  6
CONTINUOUS
 90
10
 70
0
 10
29.5353365236
 20
-41.4251985701
 10
29.5303787683
 20
-41.4324802436
 10
29.5250036854
 20
-41.4395207697
 10
29.5192195049
 20
-41.4463107487
 10
29.513036159
 20
-41.4528409933
 10
29.506462197
 20
-41.4591025324
 10
29.4995041258
 20
-41.4650863754
 10
29.492170824
 20
-41.4707836309
 10
29.484474173
 20
-41.4761857704
 10
29.476425519
 20
-41.4812844574
  0
LINE
  5
5A9
100
AcDbEntity
  8
RACCORDO
100
AcDbLine
 62
253
  6
CONTINUOUS
 10
30.2485919579
 20
-40.432126286
 11
30.4202016354
 21
-40.1826578263
  0
LINE
  5
5AA
100
AcDbEntity
  8
ASSI
100
AcDbLine
 62
253
  6
CONTINUOUS
 10
30.2485919579
 20
-40.432126286
 11
30.4202016354
 21
-40.1826578263
  0
LWPOLYLINE
  5
5AB
100
AcDbEntity
  8
RACCORDO
100
AcDbPolyline
 62
7
  6
CONTINUOUS
 90
3
 70
0
 10
29.3802348555
 20
-41.8461458219
 10
29.9831934044
 20
-41.0144688796
 10
30.5022431778
 20
-40.258679909
  0
LWPOLYLINE
  5
5AC
100
AcDbEntity
  8
ASSI
100
AcDbPolyline
 62
7
  6
CONTINUOUS
 90
3
 70
0
 10
29.3802348555
 20
-41.8461458219
 10
29.9831934044
 20
-41.0144688796
 10
30.5022431778
 20
-40.258679909
  0
LWPOLYLINE
  5
5AD
100
AcDbEntity
  8
RACCORDO
100
AcDbPolyline
 62
253
  6
CONTINUOUS
 90
5
 70
0
 10
29.5353365236
 20
-41.4251985728
 10
29.7176675356
 20
-41.1776711126
 10
29.897322289
 20
-40.9296431159
 10
30.0742979889
 20
-40.6811247772
 10
30.2485919579
 20
-40.432126286
  0
LWPOLYLINE
  5
5AE
100
AcDbEntity
  8
ASSI
100
AcDbPolyline
 62
253
  6
CONTINUOUS
 90
5
 70
0
 10
29.5353365236
 20
-41.4251985728
 10
29.7176675356
 20
-41.1776711126
 10
29.897322289
 20
-40.9296431159
 10
30.0742979889
 20
-40.6811247772
 10
30.2485919579
 20
-40.432126286
  0
LINE
  5
5AF
100
AcDbEntity
  8
RACCORDO
100
AcDbLine
 62
7
  6
CONTINUOUS
 10
29.1833348205
 20
-42.1080413223
 11
29.3802348555
 21
-41.8461458219
  0
LINE
  5
5B0
100
AcDbEntity
  8
ASSI
100
AcDbLine
 62
7
  6
CONTINUOUS
 10
29.1833348205
 20
-42.1080413223
 11
29.3802348555
 21
-41.8461458219
  0
LWPOLYLINE
  5
5B1
100
AcDbEntity
  8
RACCORDO
100
AcDbPolyline
 62
253
  6
CONTINUOUS
 90
27
 70
0
 10
28.1336691823
 20
-43.3500242835
 10
28.1353235032
 20
-43.3478925362
 10
28.1457814416
 20
-43.332462004
 10
28.1545115697
 20
-43.3158569941
 10
28.1614529662
 20
-43.2981933809
 10
28.166557192
 20
-43.2795944265
 10
28.1697886283
 20
-43.2601899195
 10
28.1711247251
 20
-43.2401152703
 10
28.1705561589
 20
-43.2195105655
 10
28.1680868972
 20
-43.1985195908
 10
28.1637341712
 20
-43.1772888273
 10
28.1575283555
 20
-43.1559664293
 10
28.149512756
 20
-43.1347011907
 10
28.139743308
 20
-43.1136415064
 10
28.1282881853
 20
-43.0929343372
 10
28.1152273251
 20
-43.0727241835
 10
28.10065187
 20
-43.0531520777
 10
28.0846635315
 20
-43.0343545995
 10
28.0673738809
 20
-43.0164629233
 10
28.0489035704
 20
-42.9996019022
 10
28.029381491
 20
-42.9838891975
 10
28.0089438735
 20
-42.9694344568
 10
27.9877333375
 20
-42.9563385496
 10
27.9658978961
 20
-42.9446928629
 10
27.9435899234
 20
-42.9345786636
 10
27.9209650908
 20
-42.9260665316
 10
27.8981812808
 20
-42.919215867
  0
LWPOLYLINE
  5
5B2
100
AcDbEntity
  8
ASSI
100
AcDbPolyline
 62
253
  6
CONTINUOUS
 90
27
 70
0
 10
28.1336691823
 20
-43.3500242835
 10
28.1353235032
 20
-43.3478925362
 10
28.1457814416
 20
-43.332462004
 10
28.1545115697
 20
-43.3158569941
 10
28.1614529662
 20
-43.2981933809
 10
28.166557192
 20
-43.2795944265
 10
28.1697886283
 20
-43.2601899195
 10
28.1711247251
 20
-43.2401152703
 10
28.1705561589
 20
-43.2195105655
 10
28.1680868972
 20
-43.1985195908
 10
28.1637341712
 20
-43.1772888273
 10
28.1575283555
 20
-43.1559664293
 10
28.149512756
 20
-43.1347011907
 10
28.139743308
 20
-43.1136415064
 10
28.1282881853
 20
-43.0929343372
 10
28.1152273251
 20
-43.0727241835
 10
28.10065187
 20
-43.0531520777
 10
28.0846635315
 20
-43.0343545995
 10
28.0673738809
 20
-43.0164629233
 10
28.0489035704
 20
-42.9996019022
 10
28.029381491
 20
-42.9838891975
 10
28.0089438735
 20
-42.9694344568
 10
27.9877333375
 20
-42.9563385496
 10
27.9658978961
 20
-42.9446928629
 10
27.9435899234
 20
-42.9345786636
 10
27.9209650908
 20
-42.9260665316
 10
27.8981812808
 20
-42.919215867
  0
LWPOLYLINE
  5
5B3
100
AcDbEntity
  8
RACCORDO
100
AcDbPolyline
 62
7
  6
CONTINUOUS
 90
6
 70
0
 10
28.1336679052
 20
-43.3500232756
 10
28.1402713393
 20
-43.3416829213
 10
28.1758896546
 20
-43.297421538
 10
28.212381067
 20
-43.2531076062
 10
28.249317706
 20
-43.2090527471
 10
28.2864568862
 20
-43.1653747359
  0
LWPOLYLINE
  5
5B4
100
AcDbEntity
  8
ASSI
100
AcDbPolyline
 62
7
  6
CONTINUOUS
 90
6
 70
0
 10
28.1336679052
 20
-43.3500232756
 10
28.1402713393
 20
-43.3416829213
 10
28.1758896546
 20
-43.297421538
 10
28.212381067
 20
-43.2531076062
 10
28.249317706
 20
-43.2090527471
 10
28.2864568862
 20
-43.1653747359
  0
LWPOLYLINE
  5
5B5
100
AcDbEntity
  8
RACCORDO
100
AcDbPolyline
 62
253
  6
CONTINUOUS
 90
10
 70
0
 10
27.8981812808
 20
-42.919215867
 10
27.4562770496
 20
-43.4680181691
 10
26.9945785423
 20
-44.0175314726
 10
26.513085759
 20
-44.5677557775
 10
26.0115209788
 20
-45.1193491065
 10
25.4901619226
 20
-45.6716534368
 10
24.9498417529
 20
-46.222694701
 10
24.3908381906
 20
-46.7718148764
 10
23.8128735148
 20
-47.3196719856
 10
23.2677233088
 20
-47.8188560726
  0
LWPOLYLINE
  5
5B6
100
AcDbEntity
  8
ASSI
100
AcDbPolyline
 62
253
  6
CONTINUOUS
 90
10
 70
0
 10
27.8981812808
 20
-42.919215867
 10
27.4562770496
 20
-43.4680181691
 10
26.9945785423
 20
-44.0175314726
 10
26.513085759
 20
-44.5677557775
 10
26.0115209788
 20
-45.1193491065
 10
25.4901619226
 20
-45.6716534368
 10
24.9498417529
 20
-46.222694701
 10
24.3908381906
 20
-46.7718148764
 10
23.8128735148
 20
-47.3196719856
 10
23.2677233088
 20
-47.8188560726
  0
LWPOLYLINE
  5
5B7
100
AcDbEntity
  8
RACCORDO
100
AcDbPolyline
 62
7
  6
CONTINUOUS
 90
8
 70
0
 10
29.0073291169
 20
-42.3307766767
 10
29.0357412564
 20
-42.2958765732
 10
29.0634070638
 20
-42.2615579416
 10
29.0903438735
 20
-42.2277918869
 10
29.1166707606
 20
-42.1944238782
 10
29.1423802039
 20
-42.1614525283
 10
29.1674687199
 20
-42.1288715089
 10
29.1830431438
 20
-42.1084268016
  0
LWPOLYLINE
  5
5B8
100
AcDbEntity
  8
ASSI
100
AcDbPolyline
 62
7
  6
CONTINUOUS
 90
8
 70
0
 10
29.0073291169
 20
-42.3307766767
 10
29.0357412564
 20
-42.2958765732
 10
29.0634070638
 20
-42.2615579416
 10
29.0903438735
 20
-42.2277918869
 10
29.1166707606
 20
-42.1944238782
 10
29.1423802039
 20
-42.1614525283
 10
29.1674687199
 20
-42.1288715089
 10
29.1830431438
 20
-42.1084268016
  0
LINE
  5
5B9
100
AcDbEntity
  8
RACCORDO
100
AcDbLine
 62
7
  6
CONTINUOUS
 10
28.9483191223
 20
-42.4022718629
 11
29.0073291169
 21
-42.3307766767
  0
LINE
  5
5BA
100
AcDbEntity
  8
ASSI
100
AcDbLine
 62
7
  6
CONTINUOUS
 10
28.9483191223
 20
-42.4022718629
 11
29.0073291169
 21
-42.3307766767
  0
LINE
  5
5BB
100
AcDbEntity
  8
RACCORDO
100
AcDbLine
 62
7
  6
CONTINUOUS
 10
28.8862294668
 20
-42.4762691327
 11
28.9483191223
 21
-42.4022718629
  0
LINE
  5
5BC
100
AcDbEntity
  8
ASSI
100
AcDbLine
 62
7
  6
CONTINUOUS
 10
28.8862294668
 20
-42.4762691327
 11
28.9483191223
 21
-42.4022718629
  0
LINE
  5
5BD
100
AcDbEntity
  8
RACCORDO
100
AcDbLine
 62
7
  6
CONTINUOUS
 10
28.821516595
 20
-42.5522942975
 11
28.8862294668
 21
-42.4762691327
  0
LINE
  5
5BE
100
AcDbEntity
  8
ASSI
100
AcDbLine
 62
7
  6
CONTINUOUS
 10
28.821516595
 20
-42.5522942975
 11
28.8862294668
 21
-42.4762691327
  0
LWPOLYLINE
  5
5BF
100
AcDbEntity
  8
RACCORDO
100
AcDbPolyline
 62
253
  6
CONTINUOUS
 90
20
 70
0
 10
23.4229544738
 20
-48.3281290524
 10
23.4351993918
 20
-48.3138720667
 10
23.4456367433
 20
-48.2979441664
 10
23.4541804764
 20
-48.2804766703
 10
23.4607601513
 20
-48.2616135906
 10
23.4653215206
 20
-48.2415104454
 10
23.4678269772
 20
-48.2203329768
 10
23.4682558637
 20
-48.1982557842
 10
23.4666046434
 20
-48.1754608848
 10
23.4628869287
 20
-48.1521362129
 10
23.4571333694
 20
-48.1284740709
 10
23.4493913999
 20
-48.1046695432
 10
23.439724848
 20
-48.0809188883
 10
23.428213409
 20
-48.0574179206
 10
23.4149519882
 20
-48.0343603958
 10
23.4000499187
 20
-48.0119364139
 10
23.38363006
 20
-47.9903308513
 10
23.3658277851
 20
-47.9697218373
 10
23.3467898644
 20
-47.9502792848
 10
23.3266732556
 20
-47.9321634899
  0
LWPOLYLINE
  5
5C0
100
AcDbEntity
  8
ASSI
100
AcDbPolyline
 62
253
  6
CONTINUOUS
 90
20
 70
0
 10
23.4229544738
 20
-48.3281290524
 10
23.4351993918
 20
-48.3138720667
 10
23.4456367433
 20
-48.2979441664
 10
23.4541804764
 20
-48.2804766703
 10
23.4607601513
 20
-48.2616135906
 10
23.4653215206
 20
-48.2415104454
 10
23.4678269772
 20
-48.2203329768
 10
23.4682558637
 20
-48.1982557842
 10
23.4666046434
 20
-48.1754608848
 10
23.4628869287
 20
-48.1521362129
 10
23.4571333694
 20
-48.1284740709
 10
23.4493913999
 20
-48.1046695432
 10
23.439724848
 20
-48.0809188883
 10
23.428213409
 20
-48.0574179206
 10
23.4149519882
 20
-48.0343603958
 10
23.4000499187
 20
-48.0119364139
 10
23.38363006
 20
-47.9903308513
 10
23.3658277851
 20
-47.9697218373
 10
23.3467898644
 20
-47.9502792848
 10
23.3266732556
 20
-47.9321634899
  0
LINE
  5
5C1
100
AcDbEntity
  8
RACCORDO
100
AcDbLine
 62
7
  6
CONTINUOUS
 10
28.7545033335
 20
-42.630072698
 11
28.821516595
 21
-42.5522942975
  0
LINE
  5
5C2
100
AcDbEntity
  8
ASSI
100
AcDbLine
 62
7
  6
CONTINUOUS
 10
28.7545033335
 20
-42.630072698
 11
28.821516595
 21
-42.5522942975
  0
LINE
  5
5C3
100
AcDbEntity
  8
RACCORDO
100
AcDbLine
 62
7
  6
CONTINUOUS
 10
28.2864568862
 20
-43.1653747359
 11
28.3609958686
 21
-43.0790260645
  0
LINE
  5
5C4
100
AcDbEntity
  8
ASSI
100
AcDbLine
 62
7
  6
CONTINUOUS
 10
28.2864568862
 20
-43.1653747359
 11
28.3609958686
 21
-43.0790260645
  0
LINE
  5
5C5
100
AcDbEntity
  8
RACCORDO
100
AcDbLine
 62
7
  6
CONTINUOUS
 10
28.6507477461
 20
-42.7490988544
 11
28.7545033335
 21
-42.630072698
  0
LINE
  5
5C6
100
AcDbEntity
  8
ASSI
100
AcDbLine
 62
7
  6
CONTINUOUS
 10
28.6507477461
 20
-42.7490988544
 11
28.7545033335
 21
-42.630072698
  0
LINE
  5
5C7
100
AcDbEntity
  8
RACCORDO
100
AcDbLine
 62
7
  6
CONTINUOUS
 10
28.3609958686
 20
-43.0790260645
 11
28.4716908824
 21
-42.9526307093
  0
LINE
  5
5C8
100
AcDbEntity
  8
ASSI
100
AcDbLine
 62
7
  6
CONTINUOUS
 10
28.3609958686
 20
-43.0790260645
 11
28.4716908824
 21
-42.9526307093
  0
LINE
  5
5C9
100
AcDbEntity
  8
RACCORDO
100
AcDbLine
 62
7
  6
CONTINUOUS
 10
28.4716908824
 20
-42.9526307093
 11
28.6507477461
 21
-42.7490988544
  0
LINE
  5
5CA
100
AcDbEntity
  8
ASSI
100
AcDbLine
 62
7
  6
CONTINUOUS
 10
28.4716908824
 20
-42.9526307093
 11
28.6507477461
 21
-42.7490988544
  0
LINE
  5
5CB
100
AcDbEntity
  8
RACCORDO
100
AcDbLine
 62
253
  6
CONTINUOUS
 10
29.2577858152
 20
-41.7527352287
 11
29.230721822
 21
-41.7789814302
  0
LINE
  5
5CC
100
AcDbEntity
  8
ASSI
100
AcDbLine
 62
253
  6
CONTINUOUS
 10
29.2577858152
 20
-41.7527352287
 11
29.230721822
 21
-41.7789814302
  0
LWPOLYLINE
  5
5CD
100
AcDbEntity
  8
RACCORDO
100
AcDbPolyline
 62
253
  6
CONTINUOUS
 90
7
 70
0
 10
23.2167527448
 20
-48.0645211716
 10
23.2310385336
 20
-48.0509343071
 10
23.2431071466
 20
-48.0366485505
 10
23.2528569633
 20
-48.0217841911
 10
23.2602058878
 20
-48.0064663902
 10
23.2650920406
 20
-47.9908241275
 10
23.267474279
 20
-47.9749891143
  0
LWPOLYLINE
  5
5CE
100
AcDbEntity
  8
ASSI
100
AcDbPolyline
 62
253
  6
CONTINUOUS
 90
7
 70
0
 10
23.2167527448
 20
-48.0645211716
 10
23.2310385336
 20
-48.0509343071
 10
23.2431071466
 20
-48.0366485505
 10
23.2528569633
 20
-48.0217841911
 10
23.2602058878
 20
-48.0064663902
 10
23.2650920406
 20
-47.9908241275
 10
23.267474279
 20
-47.9749891143
  0
LINE
  5
5CF
100
AcDbEntity
  8
RACCORDO
100
AcDbLine
 62
253
  6
CONTINUOUS
 10
29.230721822
 20
-41.7789814302
 11
29.201581586
 21
-41.8067980499
  0
LINE
  5
5D0
100
AcDbEntity
  8
ASSI
100
AcDbLine
 62
253
  6
CONTINUOUS
 10
29.230721822
 20
-41.7789814302
 11
29.201581586
 21
-41.8067980499
  0
LWPOLYLINE
  5
5D1
100
AcDbEntity
  8
RACCORDO
100
AcDbPolyline
 62
7
  6
CONTINUOUS
 90
9
 70
0
 10
23.9893630523
 20
-47.8106979512
 10
24.5726260895
 20
-47.2586433786
 10
25.1424304252
 20
-46.6993232058
 10
25.6934107902
 20
-46.137986127
 10
26.2256104191
 20
-45.5748256232
 10
26.7390827944
 20
-45.0100160748
 10
27.2338716115
 20
-44.4437332428
 10
27.7099334172
 20
-43.8761622919
 10
28.1336561111
 20
-43.3500408444
  0
LWPOLYLINE
  5
5D2
100
AcDbEntity
  8
ASSI
100
AcDbPolyline
 62
7
  6
CONTINUOUS
 90
9
 70
0
 10
23.9893630523
 20
-47.8106979512
 10
24.5726260895
 20
-47.2586433786
 10
25.1424304252
 20
-46.6993232058
 10
25.6934107902
 20
-46.137986127
 10
26.2256104191
 20
-45.5748256232
 10
26.7390827944
 20
-45.0100160748
 10
27.2338716115
 20
-44.4437332428
 10
27.7099334172
 20
-43.8761622919
 10
28.1336561111
 20
-43.3500408444
  0
LINE
  5
5D3
100
AcDbEntity
  8
RACCORDO
100
AcDbLine
 62
253
  6
CONTINUOUS
 10
29.201581586
 20
-41.8067980499
 11
29.1699612465
 21
-41.836544306
  0
LINE
  5
5D4
100
AcDbEntity
  8
ASSI
100
AcDbLine
 62
253
  6
CONTINUOUS
 10
29.201581586
 20
-41.8067980499
 11
29.1699612465
 21
-41.836544306
  0
LINE
  5
5D5
100
AcDbEntity
  8
RACCORDO
100
AcDbLine
 62
7
  6
CONTINUOUS
 10
23.9900949012
 20
-47.8100188633
 11
23.9894540211
 21
-47.8106146889
  0
LINE
  5
5D6
100
AcDbEntity
  8
ASSI
100
AcDbLine
 62
7
  6
CONTINUOUS
 10
23.9900949012
 20
-47.8100188633
 11
23.9894540211
 21
-47.8106146889
  0
LWPOLYLINE
  5
5D7
100
AcDbEntity
  8
RACCORDO
100
AcDbPolyline
 62
7
  6
CONTINUOUS
 90
3
 70
0
 10
15.0346324967
 20
-55.6348912952
 10
15.0225533479
 20
-55.6460934868
 10
15.0018018643
 20
-55.6603082584
  0
LINE
  5
5D8
100
AcDbEntity
  8
RACCORDO
100
AcDbLine
 62
253
  6
CONTINUOUS
 10
29.1699612465
 20
-41.836544306
 11
29.1354150709
 21
-41.8685851865
  0
LINE
  5
5D9
100
AcDbEntity
  8
ASSI
100
AcDbLine
 62
253
  6
CONTINUOUS
 10
29.1699612465
 20
-41.836544306
 11
29.1354150709
 21
-41.8685851865
  0
LINE
  5
5DA
100
AcDbEntity
  8
RACCORDO
100
AcDbLine
 62
253
  6
CONTINUOUS
 10
23.9894540211
 20
-47.8106146889
 11
23.4229582647
 21
-48.3281330245
  0
LINE
  5
5DB
100
AcDbEntity
  8
ASSI
100
AcDbLine
 62
253
  6
CONTINUOUS
 10
23.9894540211
 20
-47.8106146889
 11
23.4229582647
 21
-48.3281330245
  0
LINE
  5
5DC
100
AcDbEntity
  8
RACCORDO
100
AcDbLine
 62
253
  6
CONTINUOUS
 10
29.1354150709
 20
-41.8685851865
 11
29.0977558473
 21
-41.9030650397
  0
LINE
  5
5DD
100
AcDbEntity
  8
ASSI
100
AcDbLine
 62
253
  6
CONTINUOUS
 10
29.1354150709
 20
-41.8685851865
 11
29.0977558473
 21
-41.9030650397
  0
LINE
  5
5DE
100
AcDbEntity
  8
RACCORDO
100
AcDbLine
 62
253
  6
CONTINUOUS
 10
29.0977558473
 20
-41.9030650397
 11
29.0567565573
 21
-41.940134854
  0
LINE
  5
5DF
100
AcDbEntity
  8
ASSI
100
AcDbLine
 62
253
  6
CONTINUOUS
 10
29.0977558473
 20
-41.9030650397
 11
29.0567565573
 21
-41.940134854
  0
LWPOLYLINE
  5
5E0
100
AcDbEntity
  8
RACCORDO
100
AcDbPolyline
 62
253
  6
CONTINUOUS
 90
3
 70
0
 10
29.0567565573
 20
-41.940134854
 10
29.0126961088
 20
-41.9795087533
 10
28.9895449513
 20
-42.0000281927
  0
LWPOLYLINE
  5
5E1
100
AcDbEntity
  8
ASSI
100
AcDbPolyline
 62
253
  6
CONTINUOUS
 90
3
 70
0
 10
29.0567565573
 20
-41.940134854
 10
29.0126961088
 20
-41.9795087533
 10
28.9895449513
 20
-42.0000281927
  0
LWPOLYLINE
  5
5E2
100
AcDbEntity
  8
RACCORDO
100
AcDbPolyline
 62
7
  6
CONTINUOUS
 90
3
 70
0
 10
22.7123944228
 20
-48.9585866417
 10
23.5600856671
 20
-48.2052142099
 10
23.9900131011
 20
-47.810094932
  0
LWPOLYLINE
  5
5E3
100
AcDbEntity
  8
ASSI
100
AcDbPolyline
 62
7
  6
CONTINUOUS
 90
3
 70
0
 10
22.7123944228
 20
-48.9585866417
 10
23.5600856671
 20
-48.2052142099
 10
23.9900131011
 20
-47.810094932
  0
LWPOLYLINE
  5
5E4
100
AcDbEntity
  8
RACCORDO
100
AcDbPolyline
 62
253
  6
CONTINUOUS
 90
3
 70
0
 10
23.3956794943
 20
-48.3523536381
 10
23.3831526051
 20
-48.3631957047
 10
23.3712881186
 20
-48.3732078771
  0
LWPOLYLINE
  5
5E5
100
AcDbEntity
  8
ASSI
100
AcDbPolyline
 62
253
  6
CONTINUOUS
 90
3
 70
0
 10
23.3956794943
 20
-48.3523536381
 10
23.3831526051
 20
-48.3631957047
 10
23.3712881186
 20
-48.3732078771
  0
LWPOLYLINE
  5
5E6
100
AcDbEntity
  8
RACCORDO
100
AcDbPolyline
 62
253
  6
CONTINUOUS
 90
17
 70
0
 10
23.3712881186
 20
-48.3732078771
 10
23.3600920144
 20
-48.3823039503
 10
23.349639877
 20
-48.3902813833
 10
23.3397914904
 20
-48.3971189189
 10
23.3305235868
 20
-48.4026860535
 10
23.3220534501
 20
-48.4065872872
 10
23.3142695637
 20
-48.4086680908
 10
23.3070098552
 20
-48.4088540736
 10
23.3004112617
 20
-48.4068737163
 10
23.2943722764
 20
-48.4025332277
 10
23.288670186
 20
-48.3958034163
 10
23.2833240695
 20
-48.3867239289
 10
23.2782728035
 20
-48.3751190567
 10
23.273307922
 20
-48.3610420261
 10
23.2683807066
 20
-48.344995871
 10
23.2635416749
 20
-48.3269530357
 10
23.2586684623
 20
-48.3069845278
  0
LWPOLYLINE
  5
5E7
100
AcDbEntity
  8
ASSI
100
AcDbPolyline
 62
253
  6
CONTINUOUS
 90
17
 70
0
 10
23.3712881186
 20
-48.3732078771
 10
23.3600920144
 20
-48.3823039503
 10
23.3496398771
 20
-48.3902813833
 10
23.3397914904
 20
-48.3971189189
 10
23.3305235868
 20
-48.4026860535
 10
23.3220534501
 20
-48.4065872872
 10
23.3142695637
 20
-48.4086680908
 10
23.3070098552
 20
-48.4088540736
 10
23.3004112617
 20
-48.4068737163
 10
23.2943722765
 20
-48.4025332277
 10
23.288670186
 20
-48.3958034163
 10
23.2833240695
 20
-48.3867239289
 10
23.2782728035
 20
-48.3751190567
 10
23.273307922
 20
-48.3610420261
 10
23.2683807066
 20
-48.344995871
 10
23.2635416749
 20
-48.3269530357
 10
23.2586684623
 20
-48.3069845278
  0
LWPOLYLINE
  5
5E8
100
AcDbEntity
  8
RACCORDO
100
AcDbPolyline
 62
253
  6
CONTINUOUS
 90
10
 70
0
 10
14.2946950831
 20
-56.0685828517
 10
14.3155206131
 20
-56.0543638551
 10
14.3342969856
 20
-56.0369506643
 10
14.3508692208
 20
-56.0164827785
 10
14.365111194
 20
-55.9931159707
 10
14.3769145152
 20
-55.9670280764
 10
14.3861893539
 20
-55.9384176402
 10
14.3928651232
 20
-55.9075024048
 10
14.3968910162
 20
-55.8745176538
 10
14.3982363936
 20
-55.8397144212
  0
LINE
  5
5E9
100
AcDbEntity
  8
RACCORDO
100
AcDbLine
 62
253
  6
CONTINUOUS
 10
16.8731101278
 20
-58.8199058958
 11
18.4994557245
 21
-57.8808743312
  0
LINE
  5
5EA
100
AcDbEntity
  8
ASSI
100
AcDbLine
 62
253
  6
CONTINUOUS
 10
16.8731101278
 20
-58.8199058958
 11
18.4994557245
 21
-57.8808743312
  0
LINE
  5
5EB
100
AcDbEntity
  8
RACCORDO
100
AcDbLine
 62
7
  6
CONTINUOUS
 10
16.6660275067
 20
-59.277642757
 11
18.2923731034
 21
-58.3386111923
  0
LINE
  5
5EC
100
AcDbEntity
  8
ASSI
100
AcDbLine
 62
7
  6
CONTINUOUS
 10
16.6660275067
 20
-59.277642757
 11
18.2923731034
 21
-58.3386111923
  0
LWPOLYLINE
  5
5ED
100
AcDbEntity
  8
RACCORDO
100
AcDbPolyline
 62
253
  6
CONTINUOUS
 90
19
 70
0
 10
16.8731101278
 20
-58.8199058958
 10
16.8602462934
 20
-58.8267118693
 10
16.8464040588
 20
-58.832844602
 10
16.8316887715
 20
-58.83825742
 10
16.8162124238
 20
-58.8429091287
 10
16.8000928001
 20
-58.8467643256
 10
16.7834525804
 20
-58.8497936704
 10
16.7664184069
 20
-58.851974108
 10
16.7491199199
 20
-58.8532890438
 10
16.7316887714
 20
-58.8537284706
 10
16.7142576228
 20
-58.8532890438
 10
16.6969591359
 20
-58.8519741079
 10
16.6799249624
 20
-58.8497936704
 10
16.6632847428
 20
-58.8467643256
 10
16.6471651191
 20
-58.8429091286
 10
16.6316887715
 20
-58.83825742
 10
16.6169734842
 20
-58.8328446019
 10
16.6031312496
 20
-58.8267118693
 10
16.5902674153
 20
-58.8199058958
  0
LWPOLYLINE
  5
5EE
100
AcDbEntity
  8
ASSI
100
AcDbPolyline
 62
253
  6
CONTINUOUS
 90
19
 70
0
 10
16.8731101278
 20
-58.8199058958
 10
16.8602462934
 20
-58.8267118693
 10
16.8464040588
 20
-58.832844602
 10
16.8316887715
 20
-58.83825742
 10
16.8162124238
 20
-58.8429091287
 10
16.8000928001
 20
-58.8467643256
 10
16.7834525804
 20
-58.8497936704
 10
16.7664184069
 20
-58.851974108
 10
16.7491199199
 20
-58.8532890438
 10
16.7316887714
 20
-58.8537284706
 10
16.7142576228
 20
-58.8532890438
 10
16.6969591359
 20
-58.8519741079
 10
16.6799249624
 20
-58.8497936704
 10
16.6632847428
 20
-58.8467643256
 10
16.6471651191
 20
-58.8429091286
 10
16.6316887715
 20
-58.83825742
 10
16.6169734842
 20
-58.8328446019
 10
16.6031312496
 20
-58.8267118693
 10
16.5902674153
 20
-58.8199058958
  0
LWPOLYLINE
  5
5EF
100
AcDbEntity
  8
RACCORDO
100
AcDbPolyline
 62
7
  6
CONTINUOUS
 90
16
 70
0
 10
16.6660275067
 20
-59.277642757
 10
16.6343045337
 20
-59.2943687762
 10
16.600999373
 20
-59.3087728515
 10
16.5662159966
 20
-59.3207257001
 10
16.5301397256
 20
-59.3300947611
 10
16.4928232117
 20
-59.3368036134
 10
16.4541529441
 20
-59.3407799002
 10
16.4141292824
 20
-59.3418970794
 10
16.3729557222
 20
-59.3400257152
 10
16.3307826457
 20
-59.3350669192
 10
16.2875620276
 20
-59.3268990254
 10
16.2435251504
 20
-59.3154472346
 10
16.1992198773
 20
-59.3007951143
 10
16.1548825711
 20
-59.2830204753
 10
16.1104470815
 20
-59.2620892054
 10
16.0659985145
 20
-59.2380098148
  0
LWPOLYLINE
  5
5F0
100
AcDbEntity
  8
ASSI
100
AcDbPolyline
 62
7
  6
CONTINUOUS
 90
16
 70
0
 10
16.6660275067
 20
-59.277642757
 10
16.6343045337
 20
-59.2943687762
 10
16.600999373
 20
-59.3087728515
 10
16.5662159966
 20
-59.3207257001
 10
16.5301397256
 20
-59.3300947611
 10
16.4928232117
 20
-59.3368036134
 10
16.4541529441
 20
-59.3407799002
 10
16.4141292824
 20
-59.3418970794
 10
16.3729557222
 20
-59.3400257152
 10
16.3307826457
 20
-59.3350669192
 10
16.2875620276
 20
-59.3268990254
 10
16.2435251504
 20
-59.3154472346
 10
16.1992198773
 20
-59.3007951143
 10
16.1548825711
 20
-59.2830204753
 10
16.1104470815
 20
-59.2620892054
 10
16.0659985145
 20
-59.2380098148
  0
ARC
  5
5F1
100
AcDbEntity
  8
RACCORDO
100
AcDbCircle
 62
7
  6
CONTINUOUS
 10
-34.4628421864
 20
-27.6279400222
 40
0.5
100
AcDbArc
 50
180.000799284
 51
239.9992007565
  0
ENDSEC
  0
SECTION
  2
OBJECTS
  0
DICTIONARY
  5
C
100
AcDbDictionary
280
0
281
1
  3
ACAD_GROUP
350
D
  3
ACAD_MLINESTYLE
350
17
  3
ACAD_LAYOUT
350
1A
  3
ACAD_PLOTSETTINGS
350
19
  3
ACAD_PLOTSTYLENAME
350
E
  0
DICTIONARY
  5
D
102
{ACAD_REACTORS
330
C
102
}
100
AcDbDictionary
280
0
281
1
  0
ACDBDICTIONARYWDFLT
  5
E
102
{ACAD_REACTORS
330
C
102
}
100
AcDbDictionary
281
1
  3
Normal
350
F
100
AcDbDictionaryWithDefault
340
F
  0
DICTIONARY
  5
17
102
{ACAD_REACTORS
330
C
102
}
100
AcDbDictionary
280
0
281
1
  3
Standard
350
18
  0
DICTIONARY
  5
19
102
{ACAD_REACTORS
330
C
102
}
100
AcDbDictionary
281
1
  0
DICTIONARY
  5
1A
102
{ACAD_REACTORS
330
C
102
}
100
AcDbDictionary
281
1
  3
Model
350
5F2
  3
Layout1
350
5F3
  0
ACDBPLACEHOLDER
  5
F
102
{ACAD_REACTORS
330
E
102
}
  0
MLINESTYLE
  5
18
102
{ACAD_REACTORS
330
17
102
}
100
AcDbMlineStyle
  2
STANDARD
 70
0
  3

 62
256
 51
90.0
 52
90.0
 71
2
 49
0.5
 62
256
  6
BYLAYER
 49
-0.5
 62
256
  6
BYLAYER
  0
LAYOUT
  5
5F2
102
{ACAD_REACTORS
330
1A
102
}
100
AcDbPlotSettings
  1

  2
none_device
  4
ISO_A4_(297.00_x_210.00_MM)
  6

 40
0.0
 41
0.0
 42
0.0
 43
0.0
 44
297.0
 45
210.0
 46
0.0
 47
0.0
 48
0.0
 49
0.0
140
0.0
141
0.0
142
1.0
143
1.0
 70
1024
 72
1
 73
0
 74
0
  7

 75
0
147
1.0
148
0.0
149
0.0
100
AcDbLayout
  1
Model
 70
0
 71
0
 10
0.0
 20
0.0
 11
297.0
 21
210.0
 12
0.0
 22
0.0
 32
0.0
 14
0.0
 24
0.0
 34
0.0
 15
0.0
 25
0.0
 35
0.0
146
0.0
 13
0.0
 23
0.0
 33
0.0
 16
1.0
 26
0.0
 36
0.0
 17
0.0
 27
1.0
 37
0.0
 76
0
330
2BE
345
0
346
0
  0
LAYOUT
  5
5F3
102
{ACAD_REACTORS
330
1A
102
}
100
AcDbPlotSettings
  1

  2
none_device
  4
ISO_A4_(297.00_x_210.00_MM)
  6

 40
0.0
 41
0.0
 42
0.0
 43
0.0
 44
297.0
 45
210.0
 46
0.0
 47
0.0
 48
0.0
 49
0.0
140
0.0
141
0.0
142
1.0
143
1.0
 70
0
 72
1
 73
0
 74
0
  7

 75
0
147
1.0
148
0.0
149
0.0
100
AcDbLayout
  1
Layout1
 70
0
 71
1
 10
0.0
 20
0.0
 11
297.0
 21
210.0
 12
0.0
 22
0.0
 32
0.0
 14
0.0
 24
0.0
 34
0.0
 15
0.0
 25
0.0
 35
0.0
146
0.0
 13
0.0
 23
0.0
 33
0.0
 16
1.0
 26
0.0
 36
0.0
 17
0.0
 27
1.0
 37
0.0
 76
0
330
2BF
345
0
346
0
  0
ENDSEC
  0
EOF
