  0
SECTION
  2
HEADER
  9
$ACADVER
  1
AC1015
  9
$DWGCODEPAGE
  3
ANSI_1252
  9
$EXTMAX
 10
297.0
 20
210.0
 30
0.0
  9
$EXTMIN
 10
0.0
 20
0.0
 30
0.0
  9
$LIMMIN
 10
0.0
 20
0.0
  9
$LIMMAX
 10
297.0
 20
210.0
  9
$VIEWCTR
 10
148.5
 20
105.0
  9
$VIEWSIZE
 40
210.0
  9
$CLAYER
  8
0
  9
$LTSCALE
 40
16.335
  9
$CELTYPE
  6
BYLAYER
  9
$DIMSCALE
 40
1.0
  9
$DIMASZ
 40
3.0
  9
$DIMEXO
 40
0.5
  9
$DIMDLI
 40
11.286
  9
$DIMEXE
 40
1.5
  9
$DIMCEN
 40
2.673
  9
$DIMLFAC
 40
1.0
  9
$DIMBLK
  1
_FILLED
  9
$DIMALT
 70
0
  9
$DIMALTF
 40
0.0393700787
  9
$DIMTXT
 40
3.0
  9
$DIMTOL
 70
1
  9
$DIMLIM
 70
0
  9
$DIMTFAC
 40
1.0
  9
$DIMTP
 40
0.01
  9
$DIMTM
 40
0.01
  9
$DIMGAP
 40
0.625
  9
$DIMDSEP
 70
44
  9
$AUNITS
 70
0
  9
$PDMODE
 70
3
  9
$PDSIZE
 40
3.0
  9
$HANDSEED
  5
27A
  9
$TILEMODE
 70
1
  9
$MEASUREMENT
 70
1
  9
$INSUNITS
 70
4
  0
ENDSEC
  0
SECTION
  2
CLASSES
  0
CLASS
  1
ACDBDICTIONARYWDFLT
  2
AcDbDictionaryWithDefault
  3
AutoCAD 2000
 90
0
280
0
281
0
  0
CLASS
  1
ACDBPLACEHOLDER
  2
AcDbPlaceHolder
  3
AutoCAD 2000
 90
0
280
0
281
0
  0
CLASS
  1
LAYOUT
  2
AcDbLayout
  3
AutoCAD 2000
 90
0
280
0
281
0
  0
ENDSEC
  0
SECTION
  2
TABLES
  0
TABLE
  2
VPORT
  5
8
100
AcDbSymbolTable
 70
2
  0
VPORT
  5
1F4
100
AcDbSymbolTableRecord
100
AcDbViewportTableRecord
  2
*ACTIVE
 70
0
 10
0.0
 20
0.0
 11
1.0
 21
1.0
 12
148.5
 22
105.0
 13
0.0
 23
0.0
 14
1.0
 24
1.0
 15
0.0
 25
0.0
 16
0.0
 26
0.0
 36
1.0
 17
0.0
 27
0.0
 37
0.0
 40
210.0
 41
1.4142857143
 42
50.0
 43
0.0
 44
0.0
 50
0.0
 51
0.0
 71
0
 72
100
 73
1
 74
1
 75
0
 76
0
 77
0
 78
0
  0
ENDTAB
  0
TABLE
  2
LTYPE
  5
5
100
AcDbSymbolTable
 70
6
  0
LTYPE
  5
14
100
AcDbSymbolTableRecord
100
AcDbLinetypeTableRecord
  2
BYBLOCK
 70
0
  3

 72
65
 73
0
 40
0.0
  0
LTYPE
  5
15
100
AcDbSymbolTableRecord
100
AcDbLinetypeTableRecord
  2
BYLAYER
 70
0
  3

 72
65
 73
0
 40
0.0
  0
LTYPE
  5
16
100
AcDbSymbolTableRecord
100
AcDbLinetypeTableRecord
  2
CONTINUOUS
 70
64
  3
Solid line
 72
65
 73
0
 40
0.0
  0
LTYPE
  5
1F5
100
AcDbSymbolTableRecord
100
AcDbLinetypeTableRecord
  2
CENTER
 70
64
  3
____ _ ____ _ ____ _ ____ _ ____ _ ____ _ ____
 72
65
 73
4
 40
0.6
 49
0.375
 74
0
 49
-0.075
 74
0
 49
0.075
 74
0
 49
-0.075
 74
0
  0
LTYPE
  5
1F6
100
AcDbSymbolTableRecord
100
AcDbLinetypeTableRecord
  2
HIDDEN
 70
64
  3
- - - - - - - - - - - - - - - - - - - -
 72
65
 73
2
 40
0.2
 49
0.1
 74
0
 49
-0.1
 74
0
  0
LTYPE
  5
1F7
100
AcDbSymbolTableRecord
100
AcDbLinetypeTableRecord
  2
PHANTOM
 70
64
  3
_____ _ _ _____ _ _ _____ _ _ _____
 72
65
 73
6
 40
0.8
 49
0.45
 74
0
 49
-0.05
 74
0
 49
0.1
 74
0
 49
-0.05
 74
0
 49
0.1
 74
0
 49
-0.05
 74
0
  0
LTYPE
  5
1F8
100
AcDbSymbolTableRecord
100
AcDbLinetypeTableRecord
  2
DOT
 70
64
  3
. . . . . . . . . . . . . . . . . . . .
 72
65
 73
2
 40
0.2
 49
0.1
 74
0
 49
-0.1
 74
0
  0
LTYPE
  5
1F9
100
AcDbSymbolTableRecord
100
AcDbLinetypeTableRecord
  2
DASHED
 70
64
  3
- - - - - - - - - - - - - - - - - - - -
 72
65
 73
2
 40
0.2
 49
0.1
 74
0
 49
-0.1
 74
0
  0
ENDTAB
  0
TABLE
  2
LAYER
  5
2
100
AcDbSymbolTable
 70
36
  0
LAYER
  5
10
100
AcDbSymbolTableRecord
100
AcDbLayerTableRecord
  2
0
 70
0
 62
7
  6
CONTINUOUS
370
-3
390
F
  0
LAYER
  5
1FA
100
AcDbSymbolTableRecord
100
AcDbLayerTableRecord
  2
DEFAULT_1
 70
0
 62
7
  6
CENTER
370
-3
390
F
  0
LAYER
  5
1FB
100
AcDbSymbolTableRecord
100
AcDbLayerTableRecord
  2
DEFAULT_2
 70
0
 62
7
  6
HIDDEN
370
-3
390
F
  0
LAYER
  5
1FC
100
AcDbSymbolTableRecord
100
AcDbLayerTableRecord
  2
DEFAULT_3
 70
0
 62
7
  6
PHANTOM
370
-3
390
F
  0
LAYER
  5
1FD
100
AcDbSymbolTableRecord
100
AcDbLayerTableRecord
  2
ASSI
 70
0
 62
7
  6
CONTINUOUS
370
-3
390
F
  0
LAYER
  5
1FE
100
AcDbSymbolTableRecord
100
AcDbLayerTableRecord
  2
COORDINATE
 70
0
 62
7
  6
CONTINUOUS
370
-3
390
F
  0
LAYER
  5
1FF
100
AcDbSymbolTableRecord
100
AcDbLayerTableRecord
  2
COPY_PUBLISH
 70
0
 62
7
  6
CONTINUOUS
370
-3
390
F
  0
LAYER
  5
200
100
AcDbSymbolTableRecord
100
AcDbLayerTableRecord
  2
COSMETICI
 70
0
 62
7
  6
CONTINUOUS
370
-3
390
F
  0
LAYER
  5
201
100
AcDbSymbolTableRecord
100
AcDbLayerTableRecord
  2
CURVE
 70
0
 62
7
  6
CONTINUOUS
370
-3
390
F
  0
LAYER
  5
202
100
AcDbSymbolTableRecord
100
AcDbLayerTableRecord
  2
DRAFT
 70
0
 62
7
  6
CONTINUOUS
370
-3
390
F
  0
LAYER
  5
203
100
AcDbSymbolTableRecord
100
AcDbLayerTableRecord
  2
IMPORT_IGES
 70
0
 62
7
  6
CONTINUOUS
370
-3
390
F
  0
LAYER
  5
204
100
AcDbSymbolTableRecord
100
AcDbLayerTableRecord
  2
NOTE
 70
0
 62
7
  6
CONTINUOUS
370
-3
390
F
  0
LAYER
  5
205
100
AcDbSymbolTableRecord
100
AcDbLayerTableRecord
  2
PIANI
 70
0
 62
7
  6
CONTINUOUS
370
-3
390
F
  0
LAYER
  5
206
100
AcDbSymbolTableRecord
100
AcDbLayerTableRecord
  2
PUNTI
 70
0
 62
7
  6
CONTINUOUS
370
-3
390
F
  0
LAYER
  5
207
100
AcDbSymbolTableRecord
100
AcDbLayerTableRecord
  2
RACCORDO
 70
0
 62
7
  6
CONTINUOUS
370
-3
390
F
  0
LAYER
  5
208
100
AcDbSymbolTableRecord
100
AcDbLayerTableRecord
  2
SIMBOLI
 70
0
 62
7
  6
CONTINUOUS
370
-3
390
F
  0
LAYER
  5
209
100
AcDbSymbolTableRecord
100
AcDbLayerTableRecord
  2
SMUSSO
 70
0
 62
7
  6
CONTINUOUS
370
-3
390
F
  0
LAYER
  5
20A
100
AcDbSymbolTableRecord
100
AcDbLayerTableRecord
  2
SNAPLINE
 70
0
 62
7
  6
CONTINUOUS
370
-3
390
F
  0
LAYER
  5
20B
100
AcDbSymbolTableRecord
100
AcDbLayerTableRecord
  2
SUPERFICI
 70
0
 62
7
  6
CONTINUOUS
370
-3
390
F
  0
LAYER
  5
20C
100
AcDbSymbolTableRecord
100
AcDbLayerTableRecord
  2
TRASH
 70
0
 62
7
  6
CONTINUOUS
370
-3
390
F
  0
ENDTAB
  0
TABLE
  2
STYLE
  5
3
100
AcDbSymbolTable
 70
1
  0
STYLE
  5
11
100
AcDbSymbolTableRecord
100
AcDbTextStyleTableRecord
  2
STANDARD
 70
0
 40
0.0
 41
0.8
 50
0.0
 71
0
 42
0.2
  3
txt
  4

  0
STYLE
  5
20D
100
AcDbSymbolTableRecord
100
AcDbTextStyleTableRecord
  2
TEXTSTYLE_1
 70
0
 40
0.0
 41
0.8
 50
0.0
 71
0
 42
0.2
  3
gdt
  4

  0
ENDTAB
  0
TABLE
  2
VIEW
  5
6
100
AcDbSymbolTable
 70
0
  0
ENDTAB
  0
TABLE
  2
UCS
  5
7
100
AcDbSymbolTable
 70
0
  0
ENDTAB
  0
TABLE
  2
APPID
  5
9
100
AcDbSymbolTable
 70
1
  0
APPID
  5
20E
100
AcDbSymbolTableRecord
100
AcDbRegAppTableRecord
  2
ACAD
 70
0
  0
ENDTAB
  0
TABLE
  2
BLOCK_RECORD
  5
1
100
AcDbSymbolTable
 70
0
  0
BLOCK_RECORD
  5
20F
100
AcDbSymbolTableRecord
100
AcDbBlockTableRecord
  2
*Model_Space
  0
BLOCK_RECORD
  5
210
100
AcDbSymbolTableRecord
100
AcDbBlockTableRecord
  2
*Paper_Space
  0
ENDTAB
  0
TABLE
  2
DIMSTYLE
  5
A
100
AcDbSymbolTable
 70
1
100
AcDbDimStyleTable
 71
0
  0
DIMSTYLE
105
211
100
AcDbSymbolTableRecord
100
AcDbDimStyleTableRecord
  2
STANDARD
 70
0
  3

  4

 40
1.0
 41
3.0
 42
0.5
 43
0.38
 44
1.5
 45
0.0
 46
0.0
 47
0.01
 48
0.01
140
3.0
141
0.09
142
0.0
143
25.4
144
1.0
145
0.0
146
1.0
147
0.625
 71
1.0
 72
0.0
 73
0
 74
0
 75
0
 76
0
 77
1
 78
8
170
0
171
2
172
0
173
0
174
0
175
0
176
0
177
0
178
0
270
2
271
2
272
2
273
2
274
2
275
0
280
0
281
0
282
0
283
1
284
8
285
0
286
0
287
3
288
0
340
11
278
44
  0
ENDTAB
  0
ENDSEC
  0
SECTION
  2
BLOCKS
  0
BLOCK
  5
20
100
AcDbEntity
  8
0
100
AcDbBlockBegin
  2
*Model_Space
 70
0
 10
0.0
 20
0.0
 30
0.0
  3
*Model_Space
  1

  0
ENDBLK
  5
21
100
AcDbEntity
  8
0
100
AcDbBlockEnd
  0
BLOCK
  5
1C
100
AcDbEntity
  8
0
100
AcDbBlockBegin
  2
*Paper_Space
 70
0
 10
0.0
 20
0.0
 30
0.0
  3
*Paper_Space
  1

  0
ENDBLK
  5
1D
100
AcDbEntity
  8
0
100
AcDbBlockEnd
  0
ENDSEC
  0
SECTION
  2
ENTITIES
  0
LWPOLYLINE
  5
212
100
AcDbEntity
  8
RACCORDO
100
AcDbPolyline
 62
7
  6
CONTINUOUS
 90
12
 70
0
 10
-30.6218079127
 20
22.7632210126
 10
-30.6619918336
 20
22.735572963
 10
-30.6996593636
 20
22.7037984024
 10
-30.7342823497
 20
22.6681678294
 10
-30.7653573644
 20
22.6290548872
 10
-30.7924674249
 20
22.5868743686
 10
-30.8152951546
 20
22.5420149193
 10
-30.8335875775
 20
22.4948138311
 10
-30.8470283221
 20
22.4459386082
 10
-30.8554235059
 20
22.3961921901
 10
-30.8587631377
 20
22.3458391015
 10
-30.8588250844
 20
22.3378541581
  0
LINE
  5
213
100
AcDbEntity
  8
RACCORDO
100
AcDbLine
 62
7
  6
CONTINUOUS
 10
-28.5471336419
 20
24.0462307025
 11
-30.6218079127
 21
22.7632210126
  0
LINE
  5
214
100
AcDbEntity
  8
RACCORDO
100
AcDbLine
 62
253
  6
CONTINUOUS
 10
-28.2928298258
 20
24.0240366843
 11
-30.3649954808
 21
22.7425783601
  0
LINE
  5
215
100
AcDbEntity
  8
RACCORDO
100
AcDbLine
 62
7
  6
CONTINUOUS
 10
-27.4821278862
 20
24.661188072
 11
-28.542788058
 21
24.048776182
  0
LINE
  5
216
100
AcDbEntity
  8
RACCORDO
100
AcDbLine
 62
253
  6
CONTINUOUS
 10
-27.2321158062
 20
24.6364174832
 11
-28.2927759779
 21
24.0240055932
  0
LWPOLYLINE
  5
217
100
AcDbEntity
  8
RACCORDO
100
AcDbPolyline
 62
7
  6
CONTINUOUS
 90
10
 70
0
 10
-27.4821278862
 20
24.661188072
 10
-27.459416231
 20
24.6720635218
 10
-27.4348236462
 20
24.6796532084
 10
-27.4088925015
 20
24.6837929937
 10
-27.3815923898
 20
24.6844045092
 10
-27.3529537183
 20
24.6815661232
 10
-27.3236221571
 20
24.6753418284
 10
-27.2938129297
 20
24.6657529555
 10
-27.2633108128
 20
24.6527781738
 10
-27.2321158062
 20
24.6364174832
  0
LWPOLYLINE
  5
218
100
AcDbEntity
  8
RACCORDO
100
AcDbPolyline
 62
253
  6
CONTINUOUS
 90
9
 70
0
 10
-30.7366214289
 20
4.5979910181
 10
-30.7340912187
 20
4.5566351018
 10
-30.7281042066
 20
4.5179046484
 10
-30.7184108094
 20
4.4821625063
 10
-30.7045565008
 20
4.4495772845
 10
-30.6867637419
 20
4.4205063558
 10
-30.6657710764
 20
4.3955304888
 10
-30.6413947911
 20
4.3746942397
 10
-30.6356040504
 20
4.3706921292
  0
LINE
  5
219
100
AcDbEntity
  8
RACCORDO
100
AcDbLine
 62
253
  6
CONTINUOUS
 10
-30.8588250844
 20
22.3378541581
 11
-30.8588251233
 21
22.337968085
  0
LINE
  5
21A
100
AcDbEntity
  8
RACCORDO
100
AcDbLine
 62
7
  6
CONTINUOUS
 10
-30.8588251233
 20
22.337968085
 11
-30.8588251233
 21
4.7870974911
  0
LINE
  5
21B
100
AcDbEntity
  8
RACCORDO
100
AcDbLine
 62
253
  6
CONTINUOUS
 10
-30.7366214289
 20
22.1488616119
 11
-30.7366214289
 21
4.5979910181
  0
LWPOLYLINE
  5
21C
100
AcDbEntity
  8
RACCORDO
100
AcDbPolyline
 62
253
  6
CONTINUOUS
 90
16
 70
0
 10
-30.7366214289
 20
22.1488616119
 10
-30.7340913552
 20
22.1915269984
 10
-30.7281046461
 20
22.2363719875
 10
-30.7184116959
 20
22.282627497
 10
-30.704557956
 20
22.3291484808
 10
-30.6867658428
 20
22.3754449887
 10
-30.6657738088
 20
22.4216930752
 10
-30.6413980304
 20
22.4670710344
 10
-30.6137368825
 20
22.5107070793
 10
-30.583746088
 20
22.5527443701
 10
-30.5511955528
 20
22.5927198007
 10
-30.5162265709
 20
22.6296227777
 10
-30.4801812509
 20
22.6632330456
 10
-30.4433618469
 20
22.6934982195
 10
-30.4050829358
 20
22.7200694416
 10
-30.3649954811
 20
22.7425783603
  0
LINE
  5
21D
100
AcDbEntity
  8
DRAFT
100
AcDbLine
 62
7
  6
CONTINUOUS
 10
-19.4539412131
 20
20.4721034321
 11
-19.6166878216
 21
20.37813558
  0
LINE
  5
21E
100
AcDbEntity
  8
DRAFT
100
AcDbLine
 62
7
  6
CONTINUOUS
 10
-19.6166878216
 20
19.8882534139
 11
-19.8783214488
 21
19.7371894366
  0
LINE
  5
21F
100
AcDbEntity
  8
DRAFT
100
AcDbLine
 62
7
  6
CONTINUOUS
 10
-16.6255140884
 20
18.8390050588
 11
-16.7882606969
 21
18.7450372067
  0
LINE
  5
220
100
AcDbEntity
  8
DRAFT
100
AcDbLine
 62
7
  6
CONTINUOUS
 10
-16.7882606969
 20
18.2551550406
 11
-17.0498362462
 21
18.1041245968
  0
LINE
  5
221
100
AcDbEntity
  8
SMUSSO
100
AcDbLine
 62
7
  6
CONTINUOUS
 10
-22.2823683378
 20
21.1252559806
 11
-22.2823683378
 21
21.7784953299
  0
LINE
  5
222
100
AcDbEntity
  8
DRAFT
100
AcDbLine
 62
7
  6
CONTINUOUS
 10
-19.6166878216
 20
20.37813558
 11
-19.6166878216
 21
19.8882534139
  0
LINE
  5
223
100
AcDbEntity
  8
DRAFT
100
AcDbLine
 62
7
  6
CONTINUOUS
 10
-18.2518596851
 20
19.5330718674
 11
-18.2518596851
 21
19.0431897014
  0
LINE
  5
224
100
AcDbEntity
  8
DRAFT
100
AcDbLine
 62
7
  6
CONTINUOUS
 10
-16.7882606969
 20
18.7450372067
 11
-16.7882606969
 21
18.2551550406
  0
LINE
  5
225
100
AcDbEntity
  8
RACCORDO
100
AcDbLine
 62
253
  6
CONTINUOUS
 10
-16.4840927321
 20
18.1040239899
 11
-16.4840927321
 21
18.7806936443
  0
LINE
  5
226
100
AcDbEntity
  8
RACCORDO
100
AcDbLine
 62
7
  6
CONTINUOUS
 10
-16.3376461227
 20
18.1040239899
 11
-16.3376461227
 21
18.7374030827
  0
LWPOLYLINE
  5
227
100
AcDbEntity
  8
RACCORDO
100
AcDbPolyline
 62
253
  6
CONTINUOUS
 90
16
 70
0
 10
18.0305048607
 20
-23.5595365059
 10
18.0694867406
 20
-23.5771746456
 10
18.111299392
 20
-23.5924995508
 10
18.1555325671
 20
-23.6053608876
 10
18.2017572517
 20
-23.6156334393
 10
18.2495152712
 20
-23.6232149302
 10
18.2983223639
 20
-23.6280299024
 10
18.3476890478
 20
-23.6300336882
 10
18.3971411928
 20
-23.6292106199
 10
18.4462090173
 20
-23.6255699901
 10
18.4944746864
 20
-23.6191374467
 10
18.5413998434
 20
-23.6099792868
 10
18.5863636651
 20
-23.5982331852
 10
18.6288996711
 20
-23.5840606017
 10
18.668680099
 20
-23.5676122288
 10
18.7053549636
 20
-23.5490705466
  0
LWPOLYLINE
  5
228
100
AcDbEntity
  8
RACCORDO
100
AcDbPolyline
 62
253
  6
CONTINUOUS
 90
9
 70
0
 10
-30.7366214289
 20
4.5979910181
 10
-30.7671696008
 20
4.6204986555
 10
-30.7937114047
 20
4.6446407532
 10
-30.8159864666
 20
4.6701804408
 10
-30.8337779198
 20
4.6968700231
 10
-30.8469086133
 20
4.7244449463
 10
-30.8552478456
 20
4.7526255692
 10
-30.8587182657
 20
4.7811292417
 10
-30.8588251232
 20
4.7870905162
  0
LWPOLYLINE
  5
229
100
AcDbEntity
  8
RACCORDO
100
AcDbPolyline
 62
7
  6
CONTINUOUS
 90
16
 70
0
 10
-30.6355418999
 20
4.3706508456
 10
-27.6508929393
 20
2.405774684
 10
-24.5805771934
 20
0.4219546106
 10
-21.4777197871
 20
-1.5455099979
 10
-18.342635697
 20
-3.4964184797
 10
-15.1756009719
 20
-5.4306025185
 10
-11.9768716788
 20
-7.3479074591
 10
-8.746719294
 20
-9.2481702513
 10
-5.4854485577
 20
-11.1312141506
 10
-2.1933650134
 20
-12.9968636591
 10
1.1292235724
 20
-14.8449437307
 10
4.4820330276
 20
-16.6752984561
 10
7.8647935902
 20
-18.4877807293
 10
11.2772115854
 20
-20.2822318024
 10
14.7189370971
 20
-22.0584703222
 10
18.1337426953
 20
-23.7882764534
  0
LWPOLYLINE
  5
22A
100
AcDbEntity
  8
RACCORDO
100
AcDbPolyline
 62
253
  6
CONTINUOUS
 90
16
 70
0
 10
-30.7366214289
 20
4.5979910181
 10
-27.7067437515
 20
2.6036166084
 10
-24.6438742037
 20
0.6251166511
 10
-21.5482790865
 20
-1.3373256776
 10
-18.4201611485
 20
-3.2835694066
 10
-15.259858105
 20
-5.2133926855
 10
-12.0678493423
 20
-7.1264964714
 10
-8.8444193652
 20
-9.0227069978
 10
-5.5898554171
 20
-10.9018514778
 10
-2.3046572425
 20
-12.7636413615
 10
1.0108763944
 20
-14.607911077
 10
4.3564440597
 20
-16.4344960693
 10
7.7315263814
 20
-18.2431186925
 10
11.1357386566
 20
-20.0335836624
 10
14.5688372292
 20
-21.8057741892
 10
18.0305048607
 20
-23.5595365059
  0
LINE
  5
22B
100
AcDbEntity
  8
SMUSSO
100
AcDbLine
 62
7
  6
CONTINUOUS
 10
16.6085046274
 20
-0.6766073031
 11
15.4771337775
 21
-0.6766073031
  0
LINE
  5
22C
100
AcDbEntity
  8
DRAFT
100
AcDbLine
 62
7
  6
CONTINUOUS
 10
20.2799061449
 20
-15.2949548309
 11
20.8511453145
 21
-15.6247811682
  0
LWPOLYLINE
  5
22D
100
AcDbEntity
  8
RACCORDO
100
AcDbPolyline
 62
253
  6
CONTINUOUS
 90
9
 70
0
 10
-30.7366214289
 20
22.1488616119
 10
-30.7671696148
 20
22.1713692608
 10
-30.7937114192
 20
22.1955113617
 10
-30.8159864728
 20
22.2210510426
 10
-30.8337779079
 20
22.2477405962
 10
-30.8469085894
 20
22.2753154781
 10
-30.8552478286
 20
22.3034960817
 10
-30.8587182639
 20
22.3319997863
 10
-30.8588250844
 20
22.3378541581
  0
LWPOLYLINE
  5
22E
100
AcDbEntity
  8
RACCORDO
100
AcDbPolyline
 62
253
  6
CONTINUOUS
 90
16
 70
0
 10
18.0305048607
 20
-6.0086659121
 10
18.0694867208
 20
-6.0263040437
 10
18.1112993666
 20
-6.0416289486
 10
18.1555325532
 20
-6.0544902902
 10
18.2017572877
 20
-6.0647628522
 10
18.2495153787
 20
-6.0723443501
 10
18.2983225048
 20
-6.0771593183
 10
18.3476891332
 20
-6.0791630954
 10
18.3971411814
 20
-6.0783400265
 10
18.4462089545
 20
-6.0746994027
 10
18.4944746706
 20
-6.0682668555
 10
18.5413999135
 20
-6.0591086771
 10
18.5863637816
 20
-6.0473625568
 10
18.6288997749
 20
-6.0331899687
 10
18.6686801615
 20
-6.0167416052
 10
18.7053549636
 20
-5.9981999507
  0
LWPOLYLINE
  5
22F
100
AcDbEntity
  8
RACCORDO
100
AcDbPolyline
 62
253
  6
CONTINUOUS
 90
16
 70
0
 10
18.0305048607
 20
-6.0086659121
 10
14.5688372292
 20
-4.2635987067
 10
11.1357386566
 20
-2.4988619694
 10
7.7315263814
 20
-0.7146094674
 10
4.3564440597
 20
1.0890413585
 10
1.0108763944
 20
2.9118958751
 10
-2.3046572425
 20
4.7536783904
 10
-5.5898554171
 20
6.6142250006
 10
-8.8444193652
 20
8.4933694823
 10
-12.0678493423
 20
10.3908232853
 10
-15.259858105
 20
12.3064142743
 10
-18.4201611485
 20
14.2399680311
 10
-21.5482790865
 20
16.1911835579
 10
-24.6438742037
 20
18.1598383528
 10
-27.7067437515
 20
20.1457920962
 10
-30.7366214289
 20
22.1488616119
  0
LWPOLYLINE
  5
230
100
AcDbEntity
  8
RACCORDO
100
AcDbPolyline
 62
253
  6
CONTINUOUS
 90
16
 70
0
 10
18.3518554209
 20
-5.385920785
 10
14.893243737
 20
-3.6424041118
 10
11.4637971111
 20
-1.8795454621
 10
8.0635155431
 20
-0.0973448359
 10
4.6920203136
 20
1.7043973395
 10
1.3496901421
 20
3.5254814914
 10
-1.9623388134
 20
5.365308902
 10
-5.2440493514
 20
7.2238887391
 10
-8.4954586734
 20
9.1012118348
 10
-11.7154822257
 20
10.9966519675
 10
-14.9041050754
 20
12.910219646
 10
-18.0613421555
 20
14.8419043614
 10
-21.1861537115
 20
16.7910483653
 10
-24.2781931587
 20
18.7574324084
 10
-27.3378070818
 20
20.74127574
 10
-30.3649954808
 20
22.7425783601
  0
LINE
  5
231
100
AcDbEntity
  8
DRAFT
100
AcDbLine
 62
7
  6
CONTINUOUS
 10
13.0729707215
 20
1.691472139
 11
12.9102241129
 21
1.5975042869
  0
LINE
  5
232
100
AcDbEntity
  8
DRAFT
100
AcDbLine
 62
7
  6
CONTINUOUS
 10
12.9102241129
 20
1.1076221209
 11
12.6485904857
 21
0.9565581436
  0
LINE
  5
233
100
AcDbEntity
  8
RACCORDO
100
AcDbLine
 62
7
  6
CONTINUOUS
 10
16.0428192025
 20
0.0000623512
 11
15.9013978462
 21
0.0583737657
  0
LINE
  5
234
100
AcDbEntity
  8
RACCORDO
100
AcDbLine
 62
7
  6
CONTINUOUS
 10
13.2143920777
 20
1.6331607245
 11
13.0729707215
 21
1.691472139
  0
LWPOLYLINE
  5
235
100
AcDbEntity
  8
RACCORDO
100
AcDbPolyline
 62
253
  6
CONTINUOUS
 90
11
 70
0
 10
-30.3649954808
 20
22.7425783601
 10
-30.3963130821
 20
22.7585036933
 10
-30.4273454879
 20
22.7712297368
 10
-30.4578566145
 20
22.7806596753
 10
-30.4876143437
 20
22.7867217691
 10
-30.516392289
 20
22.7893698998
 10
-30.5439715178
 20
22.7885839214
 10
-30.5701422167
 20
22.7843698134
 10
-30.5947052882
 20
22.7767596352
 10
-30.6174738647
 20
22.7658112824
 10
-30.6218079127
 20
22.7632210126
  0
LINE
  5
236
100
AcDbEntity
  8
DRAFT
100
AcDbLine
 62
7
  6
CONTINUOUS
 10
15.9013978462
 20
0.0583737657
 11
15.7386512377
 21
-0.0355940864
  0
LINE
  5
237
100
AcDbEntity
  8
DRAFT
100
AcDbLine
 62
7
  6
CONTINUOUS
 10
15.7386512377
 20
-0.5254762524
 11
15.4770756884
 21
-0.6765066963
  0
LWPOLYLINE
  5
238
100
AcDbEntity
  8
RACCORDO
100
AcDbPolyline
 62
7
  6
CONTINUOUS
 90
7
 70
0
 10
-28.2927759779
 20
24.0240055932
 10
-28.3239709845
 20
24.0403662838
 10
-28.3544731015
 20
24.0533410655
 10
-28.3842823289
 20
24.0629299384
 10
-28.4136138901
 20
24.0691542332
 10
-28.4422525616
 20
24.0719926192
 10
-28.4695526732
 20
24.0713811037
  0
LINE
  5
239
100
AcDbEntity
  8
DRAFT
100
AcDbLine
 62
7
  6
CONTINUOUS
 10
15.7386512377
 20
-0.5254762524
 11
14.2750522495
 21
0.2625584083
  0
LINE
  5
23A
100
AcDbEntity
  8
DRAFT
100
AcDbLine
 62
7
  6
CONTINUOUS
 10
15.7386512377
 20
-0.0355940864
 11
14.2750522495
 21
0.7524405744
  0
LINE
  5
23B
100
AcDbEntity
  8
DRAFT
100
AcDbLine
 62
7
  6
CONTINUOUS
 10
-18.2518596851
 20
19.0431897014
 11
-16.7882606969
 21
18.2551550406
  0
LINE
  5
23C
100
AcDbEntity
  8
DRAFT
100
AcDbLine
 62
7
  6
CONTINUOUS
 10
-18.2518596851
 20
19.5330718674
 11
-16.7882606969
 21
18.7450372067
  0
LINE
  5
23D
100
AcDbEntity
  8
RACCORDO
100
AcDbLine
 62
7
  6
CONTINUOUS
 10
-28.2928298258
 20
24.0240366843
 11
20.4976457718
 21
-4.1469724375
  0
LINE
  5
23E
100
AcDbEntity
  8
SMUSSO
100
AcDbLine
 62
7
  6
CONTINUOUS
 10
-22.2823683378
 20
21.1252559806
 11
-17.0497781571
 21
18.1040239899
  0
LINE
  5
23F
100
AcDbEntity
  8
SMUSSO
100
AcDbLine
 62
7
  6
CONTINUOUS
 10
15.4771337775
 20
-0.6766073031
 11
10.2445435967
 21
2.3446246875
  0
LINE
  5
240
100
AcDbEntity
  8
RACCORDO
100
AcDbLine
 62
7
  6
CONTINUOUS
 10
-27.2321158062
 20
24.6364174832
 11
-22.2823683378
 21
21.7784953299
  0
LINE
  5
241
100
AcDbEntity
  8
SMUSSO
100
AcDbLine
 62
7
  6
CONTINUOUS
 10
-15.9184073072
 20
18.1040239899
 11
10.2445435967
 21
2.9978640368
  0
LINE
  5
242
100
AcDbEntity
  8
RACCORDO
100
AcDbLine
 62
7
  6
CONTINUOUS
 10
16.6085046274
 20
-0.6766073031
 11
21.5582520957
 21
-3.5345294564
  0
LINE
  5
243
100
AcDbEntity
  8
0
100
AcDbLine
 62
7
  6
CONTINUOUS
 10
-19.4539412131
 20
20.4721034321
 11
-16.6255140884
 21
18.8390050588
  0
LINE
  5
244
100
AcDbEntity
  8
0
100
AcDbLine
 62
7
  6
CONTINUOUS
 10
15.9013978462
 20
0.0583737657
 11
13.0729707215
 21
1.691472139
  0
LINE
  5
245
100
AcDbEntity
  8
RACCORDO
100
AcDbLine
 62
7
  6
CONTINUOUS
 10
-18.6054130757
 20
20.0638761847
 11
-16.4840927321
 21
18.8390524047
  0
LINE
  5
246
100
AcDbEntity
  8
RACCORDO
100
AcDbLine
 62
7
  6
CONTINUOUS
 10
16.0428192025
 20
0.0584211116
 11
13.9214988589
 21
1.2832448916
  0
LINE
  5
247
100
AcDbEntity
  8
DRAFT
100
AcDbLine
 62
7
  6
CONTINUOUS
 10
-19.6166878216
 20
19.8882534139
 11
-18.2518596851
 21
19.0431897014
  0
LINE
  5
248
100
AcDbEntity
  8
DRAFT
100
AcDbLine
 62
7
  6
CONTINUOUS
 10
-19.6166878216
 20
20.37813558
 11
-18.2518596851
 21
19.5330718674
  0
LINE
  5
249
100
AcDbEntity
  8
DRAFT
100
AcDbLine
 62
7
  6
CONTINUOUS
 10
14.2750522495
 20
0.2625584083
 11
12.9102241129
 21
1.1076221209
  0
LINE
  5
24A
100
AcDbEntity
  8
DRAFT
100
AcDbLine
 62
7
  6
CONTINUOUS
 10
14.2750522495
 20
0.7524405744
 11
12.9102241129
 21
1.5975042869
  0
LWPOLYLINE
  5
24B
100
AcDbEntity
  8
RACCORDO
100
AcDbPolyline
 62
7
  6
CONTINUOUS
 90
19
 70
0
 10
21.5582520957
 20
-3.5345294564
 10
21.5894471023
 20
-3.5541919775
 10
21.6199492193
 20
-3.5764402759
 10
21.6497584467
 20
-3.6012743516
 10
21.6790900078
 20
-3.6289214084
 10
21.7077286794
 20
-3.6591542425
 10
21.735028791
 20
-3.6912912426
 10
21.7609599358
 20
-3.7253756638
 10
21.7855525206
 20
-3.761364251
 10
21.8082520957
 20
-3.7984456269
 10
21.8290156594
 20
-3.8366446156
 10
21.8478862134
 20
-3.875936393
 10
21.8644383136
 20
-3.9154351104
 10
21.8786192936
 20
-3.9551454685
 10
21.8904818198
 20
-3.9950627666
 10
21.8997584467
 20
-4.0342870531
 10
21.9063600258
 20
-4.0725183441
 10
21.9103757057
 20
-4.1100566236
 10
21.9118054863
 20
-4.1469018915
  0
LINE
  5
24C
100
AcDbEntity
  8
RACCORDO
100
AcDbLine
 62
7
  6
CONTINUOUS
 10
-16.4840927321
 20
18.7806936443
 11
-16.6255140884
 21
18.8390050588
  0
LINE
  5
24D
100
AcDbEntity
  8
RACCORDO
100
AcDbLine
 62
7
  6
CONTINUOUS
 10
-19.3125198569
 20
20.4137920176
 11
-19.4539412131
 21
20.4721034321
  0
LINE
  5
24E
100
AcDbEntity
  8
SMUSSO
100
AcDbLine
 62
7
  6
CONTINUOUS
 10
10.2445435967
 20
2.3446246875
 11
10.2445435967
 21
2.9978640368
  0
LINE
  5
24F
100
AcDbEntity
  8
RACCORDO
100
AcDbLine
 62
253
  6
CONTINUOUS
 10
18.3518554209
 20
-5.385920785
 11
21.5582520957
 21
-3.5345294564
  0
LINE
  5
250
100
AcDbEntity
  8
RACCORDO
100
AcDbLine
 62
253
  6
CONTINUOUS
 10
18.7053549636
 20
-5.9981999528
 11
21.9118054863
 21
-4.1469018915
  0
LINE
  5
251
100
AcDbEntity
  8
DRAFT
100
AcDbLine
 62
7
  6
CONTINUOUS
 10
12.9102241129
 20
1.5975042869
 11
12.9102241129
 21
1.1076221209
  0
LINE
  5
252
100
AcDbEntity
  8
DRAFT
100
AcDbLine
 62
7
  6
CONTINUOUS
 10
14.2750522495
 20
0.7524405744
 11
14.2750522495
 21
0.2625584083
  0
LINE
  5
253
100
AcDbEntity
  8
SMUSSO
100
AcDbLine
 62
7
  6
CONTINUOUS
 10
-15.9184073072
 20
18.1040239899
 11
-17.0497781571
 21
18.1040239899
  0
LWPOLYLINE
  5
254
100
AcDbEntity
  8
RACCORDO
100
AcDbPolyline
 62
253
  6
CONTINUOUS
 90
19
 70
0
 10
18.7053549636
 20
-5.9981999528
 10
18.7034868868
 20
-5.9621472154
 10
18.6989906614
 20
-5.9247888814
 10
18.691900493
 20
-5.88640916
 10
18.682270321
 20
-5.8473000307
 10
18.6701734086
 20
-5.8077590223
 10
18.6557017848
 20
-5.7680869497
 10
18.6389655449
 20
-5.7285856244
 10
18.6200920124
 20
-5.6895555586
 10
18.5992247705
 20
-5.6512936794
 10
18.5765225698
 20
-5.6140910698
 10
18.5521581209
 20
-5.5782307545
 10
18.5263167801
 20
-5.5439855466
 10
18.4991951396
 20
-5.5116159719
 10
18.4709995312
 20
-5.4813682868
 10
18.4419444576
 20
-5.4534726053
 10
18.4122509597
 20
-5.4281411482
 10
18.3821449354
 20
-5.4055666284
 10
18.3518554209
 20
-5.385920785
  0
LWPOLYLINE
  5
255
100
AcDbEntity
  8
RACCORDO
100
AcDbPolyline
 62
253
  6
CONTINUOUS
 90
9
 70
0
 10
18.0305048607
 20
-23.5595365059
 10
18.0316397908
 20
-23.6000857652
 10
18.0369355243
 20
-23.6384164133
 10
18.0460402744
 20
-23.6738183662
 10
18.058108505
 20
-23.7053723291
 10
18.0730254036
 20
-23.7327830636
 10
18.0914463366
 20
-23.7562745969
 10
18.1126983428
 20
-23.7753076451
 10
18.1334481298
 20
-23.7881284793
  0
LINE
  5
256
100
AcDbEntity
  8
DRAFT
100
AcDbLine
 62
7
  6
CONTINUOUS
 10
15.7386512377
 20
-0.0355940864
 11
15.7386512377
 21
-0.5254762524
  0
LINE
  5
257
100
AcDbEntity
  8
RACCORDO
100
AcDbLine
 62
253
  6
CONTINUOUS
 10
16.0428192025
 20
-0.6766073031
 11
16.0428192025
 21
0.0000623512
  0
LINE
  5
258
100
AcDbEntity
  8
RACCORDO
100
AcDbLine
 62
7
  6
CONTINUOUS
 10
16.1892658119
 20
-0.6766073031
 11
16.1892658119
 21
-0.0432282104
  0
LINE
  5
259
100
AcDbEntity
  8
RACCORDO
100
AcDbLine
 62
253
  6
CONTINUOUS
 10
18.0305048607
 20
-23.5595365059
 11
18.0305048607
 21
-6.0086659121
  0
LWPOLYLINE
  5
25A
100
AcDbEntity
  8
RACCORDO
100
AcDbPolyline
 62
253
  6
CONTINUOUS
 90
16
 70
0
 10
18.0305048607
 20
-6.0086659121
 10
18.0316398572
 20
-5.9651937516
 10
18.0369358642
 20
-5.9199486245
 10
18.0460410367
 20
-5.873352424
 10
18.0581097887
 20
-5.825799552
 10
18.0730272471
 20
-5.7778421538
 10
18.0914486965
 20
-5.7301090709
 10
18.1127011629
 20
-5.6829273525
 10
18.1361337353
 20
-5.6368497486
 10
18.1623802099
 20
-5.5926509199
 10
18.1909160164
 20
-5.550358231
 10
18.220754183
 20
-5.5104938588
 10
18.2520441237
 20
-5.4741391237
 10
18.2846852551
 20
-5.4414627914
 10
18.3180680591
 20
-5.4120659795
 10
18.3518554212
 20
-5.3859207851
  0
LINE
  5
25B
100
AcDbEntity
  8
DRAFT
100
AcDbLine
 62
7
  6
CONTINUOUS
 10
20.8511453145
 20
-11.5296043735
 11
20.2036408762
 21
-11.8970503993
  0
LWPOLYLINE
  5
25C
100
AcDbEntity
  8
RACCORDO
100
AcDbPolyline
 62
7
  6
CONTINUOUS
 90
19
 70
0
 10
20.8511453145
 20
-4.7593137815
 10
20.8497155339
 20
-4.7224685136
 10
20.845699854
 20
-4.6849302341
 10
20.8390982749
 20
-4.6466989431
 10
20.829821648
 20
-4.6074746566
 10
20.8179591218
 20
-4.5675573585
 10
20.8037781418
 20
-4.5278470004
 10
20.7872260416
 20
-4.488348283
 10
20.7683554876
 20
-4.4490565056
 10
20.7475919239
 20
-4.4108575169
 10
20.7248923488
 20
-4.373776141
 10
20.700299764
 20
-4.3377875538
 10
20.6743686192
 20
-4.3037031326
 10
20.6470685076
 20
-4.2715661325
 10
20.6184298361
 20
-4.2413332984
 10
20.5890982749
 20
-4.2136862416
 10
20.5592890475
 20
-4.1888521659
 10
20.5287869305
 20
-4.1666038675
 10
20.4975919239
 20
-4.1469413464
  0
LINE
  5
25D
100
AcDbEntity
  8
RACCORDO
100
AcDbLine
 62
253
  6
CONTINUOUS
 10
18.7053549636
 20
-23.5490705466
 11
18.7053549636
 21
-5.9981999528
  0
LINE
  5
25E
100
AcDbEntity
  8
DRAFT
100
AcDbLine
 62
7
  6
CONTINUOUS
 10
20.2036408762
 20
-11.8970503993
 11
20.2036408762
 21
-15.9794017832
  0
LINE
  5
25F
100
AcDbEntity
  8
DRAFT
100
AcDbLine
 62
7
  6
CONTINUOUS
 10
20.2799061449
 20
-11.8537713602
 11
20.2799061449
 21
-15.2949548309
  0
LINE
  5
260
100
AcDbEntity
  8
RACCORDO
100
AcDbLine
 62
7
  6
CONTINUOUS
 10
20.8511453145
 20
-4.7593137815
 11
20.8511453145
 21
-22.3950717602
  0
LINE
  5
261
100
AcDbEntity
  8
RACCORDO
100
AcDbLine
 62
7
  6
CONTINUOUS
 10
20.2036408762
 20
-15.3389895162
 11
20.2799061449
 21
-15.2949548309
  0
LINE
  5
262
100
AcDbEntity
  8
DRAFT
100
AcDbLine
 62
7
  6
CONTINUOUS
 10
20.8511453145
 20
-15.6247811682
 11
20.2036408762
 21
-15.9794017832
  0
LINE
  5
263
100
AcDbEntity
  8
RACCORDO
100
AcDbLine
 62
7
  6
CONTINUOUS
 10
21.9118054863
 20
-4.1469018915
 11
21.9118054863
 21
-21.7826598702
  0
LWPOLYLINE
  5
264
100
AcDbEntity
  8
RACCORDO
100
AcDbPolyline
 62
7
  6
CONTINUOUS
 90
10
 70
0
 10
21.9118054863
 20
-21.7826598702
 10
21.9103757057
 20
-21.8178540633
 10
21.9063600258
 20
-21.8507551363
 10
21.8997584467
 20
-21.8813630892
 10
21.8904818198
 20
-21.9098749595
 10
21.8786192936
 20
-21.9360937096
 10
21.8644383136
 20
-21.9594282275
 10
21.8478862134
 20
-21.9798129945
 10
21.8290156594
 20
-21.9973135292
 10
21.8082641758
 20
-22.0115283008
  0
LWPOLYLINE
  5
265
100
AcDbEntity
  8
RACCORDO
100
AcDbPolyline
 62
7
  6
CONTINUOUS
 90
4
 70
0
 10
-28.4695526732
 20
24.0713811037
 10
-28.495483818
 20
24.0672413185
 10
-28.5200764028
 20
24.0596516318
 10
-28.542788058
 20
24.048776182
  0
LINE
  5
266
100
AcDbEntity
  8
RACCORDO
100
AcDbLine
 62
7
  6
CONTINUOUS
 10
20.7430728457
 20
-22.6261099306
 11
20.747604004
 21
-22.6239401907
  0
LWPOLYLINE
  5
267
100
AcDbEntity
  8
RACCORDO
100
AcDbPolyline
 62
7
  6
CONTINUOUS
 90
11
 70
0
 10
18.5948387704
 20
-23.7817646938
 10
18.550802478
 20
-23.8027440835
 10
18.5044503997
 20
-23.8194807591
 10
18.4562809193
 20
-23.831652536
 10
18.4068694857
 20
-23.8390102168
 10
18.356783771
 20
-23.8414000951
 10
18.306518826
 20
-23.838741612
 10
18.2564933029
 20
-23.8309842644
 10
18.2074436103
 20
-23.8181877778
 10
18.160162032
 20
-23.8005856453
 10
18.1334481298
 20
-23.7881284793
  0
LWPOLYLINE
  5
268
100
AcDbEntity
  8
RACCORDO
100
AcDbPolyline
 62
7
  6
CONTINUOUS
 90
6
 70
0
 10
20.8179591218
 20
-22.5485055996
 10
20.829821648
 20
-22.5222868495
 10
20.8390982749
 20
-22.4937749792
 10
20.845699854
 20
-22.4631670263
 10
20.8497155339
 20
-22.4302659533
 10
20.8511453145
 20
-22.3950717602
  0
LWPOLYLINE
  5
269
100
AcDbEntity
  8
RACCORDO
100
AcDbPolyline
 62
7
  6
CONTINUOUS
 90
3
 70
0
 10
20.7872260416
 20
-22.5922248845
 10
20.8037781418
 20
-22.5718401175
 10
20.8179591218
 20
-22.5485055996
  0
LWPOLYLINE
  5
26A
100
AcDbEntity
  8
RACCORDO
100
AcDbPolyline
 62
7
  6
CONTINUOUS
 90
3
 70
0
 10
20.747604004
 20
-22.6239401907
 10
20.7683554876
 20
-22.6097254192
 10
20.7872260416
 20
-22.5922248845
  0
LINE
  5
26B
100
AcDbEntity
  8
RACCORDO
100
AcDbLine
 62
253
  6
CONTINUOUS
 10
21.9118054863
 20
-21.7826598702
 11
20.8511453145
 21
-22.3950717602
  0
LINE
  5
26C
100
AcDbEntity
  8
RACCORDO
100
AcDbLine
 62
7
  6
CONTINUOUS
 10
21.8082641758
 20
-22.0115283008
 11
20.747604004
 21
-22.6239401908
  0
LWPOLYLINE
  5
26D
100
AcDbEntity
  8
RACCORDO
100
AcDbPolyline
 62
253
  6
CONTINUOUS
 90
11
 70
0
 10
18.5948387704
 20
-23.7817646938
 10
18.5992247705
 20
-23.7793201179
 10
18.6200920124
 20
-23.7650785574
 10
18.6389655449
 20
-23.7476138096
 10
18.6557017848
 20
-23.72705874
 10
18.6701734086
 20
-23.7035697244
 10
18.682270321
 20
-23.6773254592
 10
18.691900493
 20
-23.6485256019
 10
18.6989906614
 20
-23.6173892522
 10
18.7034868868
 20
-23.5841532845
 10
18.7053549636
 20
-23.5490705466
  0
LINE
  5
26E
100
AcDbEntity
  8
RACCORDO
100
AcDbLine
 62
253
  6
CONTINUOUS
 10
20.8511453145
 20
-22.3951339364
 11
18.7053549636
 21
-23.5490705466
  0
LINE
  5
26F
100
AcDbEntity
  8
RACCORDO
100
AcDbLine
 62
7
  6
CONTINUOUS
 10
20.7432268841
 20
-22.6264310908
 11
18.5948387704
 21
-23.7817646938
  0
ARC
  5
270
100
AcDbEntity
  8
RACCORDO
100
AcDbCircle
 62
7
  6
CONTINUOUS
 10
-30.3588251233
 20
4.7870974911
 40
0.5
100
AcDbArc
 50
180.0007992295
 51
236.3885592939
  0
ELLIPSE
  5
271
100
AcDbEntity
  8
RACCORDO
100
AcDbEllipse
 62
7
  6
CONTINUOUS
 10
13.5679454683
 20
1.4290234279
 30
0.0
 11
0.4997287615
 21
-0.2486526917
 31
0.0
 40
0.0662252425
 41
0.8183382896
 42
2.3891346164
  0
ELLIPSE
  5
272
100
AcDbEntity
  8
RACCORDO
100
AcDbEllipse
 62
7
  6
CONTINUOUS
 10
-18.9589664663
 20
20.2096547209
 30
0.0
 11
0.4997287615
 21
-0.2486526917
 31
0.0
 40
0.0662252425
 41
0.8183382896
 42
2.3891346164
  0
ELLIPSE
  5
273
100
AcDbEntity
  8
RACCORDO
100
AcDbEllipse
 62
7
  6
CONTINUOUS
 10
15.6892658119
 20
0.2041996479
 30
0.0
 11
0.4997287615
 21
-0.2486526917
 31
0.0
 40
0.0662252425
 41
-0.7524580372
 42
0.8183382896
  0
ELLIPSE
  5
274
100
AcDbEntity
  8
RACCORDO
100
AcDbEllipse
 62
7
  6
CONTINUOUS
 10
-16.8376461227
 20
18.9848309409
 30
0.0
 11
0.4997287615
 21
-0.2486526917
 31
0.0
 40
0.0662252425
 41
-0.7524580372
 42
0.8183382896
  0
ELLIPSE
  5
275
100
AcDbEntity
  8
RACCORDO
100
AcDbEllipse
 62
7
  6
CONTINUOUS
 10
20.4975380678
 20
-22.190841182
 30
0.0
 11
-0.2500882309
 21
0.4331376414
 31
0.0
 40
0.5771558487
 41
-3.159039784
 42
-2.3563950755
  0
ELLIPSE
  5
276
100
AcDbEntity
  8
RACCORDO
100
AcDbEllipse
 62
7
  6
CONTINUOUS
 10
20.4975380678
 20
-4.5552075746
 30
0.0
 11
-0.2500120911
 21
0.4330057209
 31
0.0
 40
0.5775075436
 41
-2.3560905478
 42
-0.7855988075
  0
ELLIPSE
  5
277
100
AcDbEntity
  8
RACCORDO
100
AcDbEllipse
 62
7
  6
CONTINUOUS
 10
-28.2927221218
 20
23.6156771733
 30
0.0
 11
-0.2500882309
 21
0.4331376414
 31
0.0
 40
0.5771558487
 41
-0.7852941622
 42
0.0174471304
  0
ENDSEC
  0
SECTION
  2
OBJECTS
  0
DICTIONARY
  5
C
100
AcDbDictionary
280
0
281
1
  3
ACAD_GROUP
350
D
  3
ACAD_MLINESTYLE
350
17
  3
ACAD_LAYOUT
350
1A
  3
ACAD_PLOTSETTINGS
350
19
  3
ACAD_PLOTSTYLENAME
350
E
  0
DICTIONARY
  5
D
102
{ACAD_REACTORS
330
C
102
}
100
AcDbDictionary
280
0
281
1
  0
ACDBDICTIONARYWDFLT
  5
E
102
{ACAD_REACTORS
330
C
102
}
100
AcDbDictionary
281
1
  3
Normal
350
F
100
AcDbDictionaryWithDefault
340
F
  0
DICTIONARY
  5
17
102
{ACAD_REACTORS
330
C
102
}
100
AcDbDictionary
280
0
281
1
  3
Standard
350
18
  0
DICTIONARY
  5
19
102
{ACAD_REACTORS
330
C
102
}
100
AcDbDictionary
281
1
  0
DICTIONARY
  5
1A
102
{ACAD_REACTORS
330
C
102
}
100
AcDbDictionary
281
1
  3
Model
350
278
  3
Layout1
350
279
  0
ACDBPLACEHOLDER
  5
F
102
{ACAD_REACTORS
330
E
102
}
  0
MLINESTYLE
  5
18
102
{ACAD_REACTORS
330
17
102
}
100
AcDbMlineStyle
  2
STANDARD
 70
0
  3

 62
256
 51
90.0
 52
90.0
 71
2
 49
0.5
 62
256
  6
BYLAYER
 49
-0.5
 62
256
  6
BYLAYER
  0
LAYOUT
  5
278
102
{ACAD_REACTORS
330
1A
102
}
100
AcDbPlotSettings
  1

  2
none_device
  4
ISO_A4_(297.00_x_210.00_MM)
  6

 40
0.0
 41
0.0
 42
0.0
 43
0.0
 44
297.0
 45
210.0
 46
0.0
 47
0.0
 48
0.0
 49
0.0
140
0.0
141
0.0
142
1.0
143
1.0
 70
1024
 72
1
 73
0
 74
0
  7

 75
0
147
1.0
148
0.0
149
0.0
100
AcDbLayout
  1
Model
 70
0
 71
0
 10
0.0
 20
0.0
 11
297.0
 21
210.0
 12
0.0
 22
0.0
 32
0.0
 14
0.0
 24
0.0
 34
0.0
 15
0.0
 25
0.0
 35
0.0
146
0.0
 13
0.0
 23
0.0
 33
0.0
 16
1.0
 26
0.0
 36
0.0
 17
0.0
 27
1.0
 37
0.0
 76
0
330
20F
345
0
346
0
  0
LAYOUT
  5
279
102
{ACAD_REACTORS
330
1A
102
}
100
AcDbPlotSettings
  1

  2
none_device
  4
ISO_A4_(297.00_x_210.00_MM)
  6

 40
0.0
 41
0.0
 42
0.0
 43
0.0
 44
297.0
 45
210.0
 46
0.0
 47
0.0
 48
0.0
 49
0.0
140
0.0
141
0.0
142
1.0
143
1.0
 70
0
 72
1
 73
0
 74
0
  7

 75
0
147
1.0
148
0.0
149
0.0
100
AcDbLayout
  1
Layout1
 70
0
 71
1
 10
0.0
 20
0.0
 11
297.0
 21
210.0
 12
0.0
 22
0.0
 32
0.0
 14
0.0
 24
0.0
 34
0.0
 15
0.0
 25
0.0
 35
0.0
146
0.0
 13
0.0
 23
0.0
 33
0.0
 16
1.0
 26
0.0
 36
0.0
 17
0.0
 27
1.0
 37
0.0
 76
0
330
210
345
0
346
0
  0
ENDSEC
  0
EOF
