  0
SECTION
  2
HEADER
  9
$ACADVER
  1
AC1015
  9
$DWGCODEPAGE
  3
ANSI_1252
  9
$EXTMAX
 10
297.0
 20
210.0
 30
0.0
  9
$EXTMIN
 10
0.0
 20
0.0
 30
0.0
  9
$LIMMIN
 10
0.0
 20
0.0
  9
$LIMMAX
 10
297.0
 20
210.0
  9
$VIEWCTR
 10
148.5
 20
105.0
  9
$VIEWSIZE
 40
210.0
  9
$CLAYER
  8
0
  9
$LTSCALE
 40
16.335
  9
$CELTYPE
  6
BYLAYER
  9
$DIMSCALE
 40
1.0
  9
$DIMASZ
 40
3.0
  9
$DIMEXO
 40
0.5
  9
$DIMDLI
 40
11.286
  9
$DIMEXE
 40
1.5
  9
$DIMCEN
 40
2.673
  9
$DIMLFAC
 40
1.0
  9
$DIMBLK
  1
_FILLED
  9
$DIMALT
 70
0
  9
$DIMALTF
 40
0.0393700787
  9
$DIMTXT
 40
3.0
  9
$DIMTOL
 70
1
  9
$DIMLIM
 70
0
  9
$DIMTFAC
 40
1.0
  9
$DIMTP
 40
0.01
  9
$DIMTM
 40
0.01
  9
$DIMGAP
 40
0.625
  9
$DIMDSEP
 70
44
  9
$AUNITS
 70
0
  9
$PDMODE
 70
3
  9
$PDSIZE
 40
3.0
  9
$HANDSEED
  5
27D
  9
$TILEMODE
 70
1
  9
$MEASUREMENT
 70
1
  9
$INSUNITS
 70
4
  0
ENDSEC
  0
SECTION
  2
CLASSES
  0
CLASS
  1
ACDBDICTIONARYWDFLT
  2
AcDbDictionaryWithDefault
  3
AutoCAD 2000
 90
0
280
0
281
0
  0
CLASS
  1
ACDBPLACEHOLDER
  2
AcDbPlaceHolder
  3
AutoCAD 2000
 90
0
280
0
281
0
  0
CLASS
  1
LAYOUT
  2
AcDbLayout
  3
AutoCAD 2000
 90
0
280
0
281
0
  0
ENDSEC
  0
SECTION
  2
TABLES
  0
TABLE
  2
VPORT
  5
8
100
AcDbSymbolTable
 70
2
  0
VPORT
  5
1F4
100
AcDbSymbolTableRecord
100
AcDbViewportTableRecord
  2
*ACTIVE
 70
0
 10
0.0
 20
0.0
 11
1.0
 21
1.0
 12
148.5
 22
105.0
 13
0.0
 23
0.0
 14
1.0
 24
1.0
 15
0.0
 25
0.0
 16
0.0
 26
0.0
 36
1.0
 17
0.0
 27
0.0
 37
0.0
 40
210.0
 41
1.4142857143
 42
50.0
 43
0.0
 44
0.0
 50
0.0
 51
0.0
 71
0
 72
100
 73
1
 74
1
 75
0
 76
0
 77
0
 78
0
  0
ENDTAB
  0
TABLE
  2
LTYPE
  5
5
100
AcDbSymbolTable
 70
6
  0
LTYPE
  5
14
100
AcDbSymbolTableRecord
100
AcDbLinetypeTableRecord
  2
BYBLOCK
 70
0
  3

 72
65
 73
0
 40
0.0
  0
LTYPE
  5
15
100
AcDbSymbolTableRecord
100
AcDbLinetypeTableRecord
  2
BYLAYER
 70
0
  3

 72
65
 73
0
 40
0.0
  0
LTYPE
  5
16
100
AcDbSymbolTableRecord
100
AcDbLinetypeTableRecord
  2
CONTINUOUS
 70
64
  3
Solid line
 72
65
 73
0
 40
0.0
  0
LTYPE
  5
1F5
100
AcDbSymbolTableRecord
100
AcDbLinetypeTableRecord
  2
CENTER
 70
64
  3
____ _ ____ _ ____ _ ____ _ ____ _ ____ _ ____
 72
65
 73
4
 40
0.6
 49
0.375
 74
0
 49
-0.075
 74
0
 49
0.075
 74
0
 49
-0.075
 74
0
  0
LTYPE
  5
1F6
100
AcDbSymbolTableRecord
100
AcDbLinetypeTableRecord
  2
HIDDEN
 70
64
  3
- - - - - - - - - - - - - - - - - - - -
 72
65
 73
2
 40
0.2
 49
0.1
 74
0
 49
-0.1
 74
0
  0
LTYPE
  5
1F7
100
AcDbSymbolTableRecord
100
AcDbLinetypeTableRecord
  2
PHANTOM
 70
64
  3
_____ _ _ _____ _ _ _____ _ _ _____
 72
65
 73
6
 40
0.8
 49
0.45
 74
0
 49
-0.05
 74
0
 49
0.1
 74
0
 49
-0.05
 74
0
 49
0.1
 74
0
 49
-0.05
 74
0
  0
LTYPE
  5
1F8
100
AcDbSymbolTableRecord
100
AcDbLinetypeTableRecord
  2
DOT
 70
64
  3
. . . . . . . . . . . . . . . . . . . .
 72
65
 73
2
 40
0.2
 49
0.1
 74
0
 49
-0.1
 74
0
  0
LTYPE
  5
1F9
100
AcDbSymbolTableRecord
100
AcDbLinetypeTableRecord
  2
DASHED
 70
64
  3
- - - - - - - - - - - - - - - - - - - -
 72
65
 73
2
 40
0.2
 49
0.1
 74
0
 49
-0.1
 74
0
  0
ENDTAB
  0
TABLE
  2
LAYER
  5
2
100
AcDbSymbolTable
 70
36
  0
LAYER
  5
10
100
AcDbSymbolTableRecord
100
AcDbLayerTableRecord
  2
0
 70
0
 62
7
  6
CONTINUOUS
370
-3
390
F
  0
LAYER
  5
1FA
100
AcDbSymbolTableRecord
100
AcDbLayerTableRecord
  2
DEFAULT_1
 70
0
 62
7
  6
CENTER
370
-3
390
F
  0
LAYER
  5
1FB
100
AcDbSymbolTableRecord
100
AcDbLayerTableRecord
  2
DEFAULT_2
 70
0
 62
7
  6
HIDDEN
370
-3
390
F
  0
LAYER
  5
1FC
100
AcDbSymbolTableRecord
100
AcDbLayerTableRecord
  2
DEFAULT_3
 70
0
 62
7
  6
PHANTOM
370
-3
390
F
  0
LAYER
  5
1FD
100
AcDbSymbolTableRecord
100
AcDbLayerTableRecord
  2
ASSI
 70
0
 62
7
  6
CONTINUOUS
370
-3
390
F
  0
LAYER
  5
1FE
100
AcDbSymbolTableRecord
100
AcDbLayerTableRecord
  2
COORDINATE
 70
0
 62
7
  6
CONTINUOUS
370
-3
390
F
  0
LAYER
  5
1FF
100
AcDbSymbolTableRecord
100
AcDbLayerTableRecord
  2
COPY_PUBLISH
 70
0
 62
7
  6
CONTINUOUS
370
-3
390
F
  0
LAYER
  5
200
100
AcDbSymbolTableRecord
100
AcDbLayerTableRecord
  2
COSMETICI
 70
0
 62
7
  6
CONTINUOUS
370
-3
390
F
  0
LAYER
  5
201
100
AcDbSymbolTableRecord
100
AcDbLayerTableRecord
  2
CURVE
 70
0
 62
7
  6
CONTINUOUS
370
-3
390
F
  0
LAYER
  5
202
100
AcDbSymbolTableRecord
100
AcDbLayerTableRecord
  2
DRAFT
 70
0
 62
7
  6
CONTINUOUS
370
-3
390
F
  0
LAYER
  5
203
100
AcDbSymbolTableRecord
100
AcDbLayerTableRecord
  2
IMPORT_IGES
 70
0
 62
7
  6
CONTINUOUS
370
-3
390
F
  0
LAYER
  5
204
100
AcDbSymbolTableRecord
100
AcDbLayerTableRecord
  2
NOTE
 70
0
 62
7
  6
CONTINUOUS
370
-3
390
F
  0
LAYER
  5
205
100
AcDbSymbolTableRecord
100
AcDbLayerTableRecord
  2
PIANI
 70
0
 62
7
  6
CONTINUOUS
370
-3
390
F
  0
LAYER
  5
206
100
AcDbSymbolTableRecord
100
AcDbLayerTableRecord
  2
PUNTI
 70
0
 62
7
  6
CONTINUOUS
370
-3
390
F
  0
LAYER
  5
207
100
AcDbSymbolTableRecord
100
AcDbLayerTableRecord
  2
RACCORDO
 70
0
 62
7
  6
CONTINUOUS
370
-3
390
F
  0
LAYER
  5
208
100
AcDbSymbolTableRecord
100
AcDbLayerTableRecord
  2
SIMBOLI
 70
0
 62
7
  6
CONTINUOUS
370
-3
390
F
  0
LAYER
  5
209
100
AcDbSymbolTableRecord
100
AcDbLayerTableRecord
  2
SMUSSO
 70
0
 62
7
  6
CONTINUOUS
370
-3
390
F
  0
LAYER
  5
20A
100
AcDbSymbolTableRecord
100
AcDbLayerTableRecord
  2
SNAPLINE
 70
0
 62
7
  6
CONTINUOUS
370
-3
390
F
  0
LAYER
  5
20B
100
AcDbSymbolTableRecord
100
AcDbLayerTableRecord
  2
SUPERFICI
 70
0
 62
7
  6
CONTINUOUS
370
-3
390
F
  0
LAYER
  5
20C
100
AcDbSymbolTableRecord
100
AcDbLayerTableRecord
  2
TRASH
 70
0
 62
7
  6
CONTINUOUS
370
-3
390
F
  0
ENDTAB
  0
TABLE
  2
STYLE
  5
3
100
AcDbSymbolTable
 70
1
  0
STYLE
  5
11
100
AcDbSymbolTableRecord
100
AcDbTextStyleTableRecord
  2
STANDARD
 70
0
 40
0.0
 41
0.8
 50
0.0
 71
0
 42
0.2
  3
txt
  4

  0
STYLE
  5
20D
100
AcDbSymbolTableRecord
100
AcDbTextStyleTableRecord
  2
TEXTSTYLE_1
 70
0
 40
0.0
 41
0.8
 50
0.0
 71
0
 42
0.2
  3
gdt
  4

  0
ENDTAB
  0
TABLE
  2
VIEW
  5
6
100
AcDbSymbolTable
 70
0
  0
ENDTAB
  0
TABLE
  2
UCS
  5
7
100
AcDbSymbolTable
 70
0
  0
ENDTAB
  0
TABLE
  2
APPID
  5
9
100
AcDbSymbolTable
 70
1
  0
APPID
  5
20E
100
AcDbSymbolTableRecord
100
AcDbRegAppTableRecord
  2
ACAD
 70
0
  0
ENDTAB
  0
TABLE
  2
BLOCK_RECORD
  5
1
100
AcDbSymbolTable
 70
0
  0
BLOCK_RECORD
  5
20F
100
AcDbSymbolTableRecord
100
AcDbBlockTableRecord
  2
*Model_Space
  0
BLOCK_RECORD
  5
210
100
AcDbSymbolTableRecord
100
AcDbBlockTableRecord
  2
*Paper_Space
  0
ENDTAB
  0
TABLE
  2
DIMSTYLE
  5
A
100
AcDbSymbolTable
 70
1
100
AcDbDimStyleTable
 71
0
  0
DIMSTYLE
105
211
100
AcDbSymbolTableRecord
100
AcDbDimStyleTableRecord
  2
STANDARD
 70
0
  3

  4

 40
1.0
 41
3.0
 42
0.5
 43
0.38
 44
1.5
 45
0.0
 46
0.0
 47
0.01
 48
0.01
140
3.0
141
0.09
142
0.0
143
25.4
144
1.0
145
0.0
146
1.0
147
0.625
 71
1.0
 72
0.0
 73
0
 74
0
 75
0
 76
0
 77
1
 78
8
170
0
171
2
172
0
173
0
174
0
175
0
176
0
177
0
178
0
270
2
271
2
272
2
273
2
274
2
275
0
280
0
281
0
282
0
283
1
284
8
285
0
286
0
287
3
288
0
340
11
278
44
  0
ENDTAB
  0
ENDSEC
  0
SECTION
  2
BLOCKS
  0
BLOCK
  5
20
100
AcDbEntity
  8
0
100
AcDbBlockBegin
  2
*Model_Space
 70
0
 10
0.0
 20
0.0
 30
0.0
  3
*Model_Space
  1

  0
ENDBLK
  5
21
100
AcDbEntity
  8
0
100
AcDbBlockEnd
  0
BLOCK
  5
1C
100
AcDbEntity
  8
0
100
AcDbBlockBegin
  2
*Paper_Space
 70
0
 10
0.0
 20
0.0
 30
0.0
  3
*Paper_Space
  1

  0
ENDBLK
  5
1D
100
AcDbEntity
  8
0
100
AcDbBlockEnd
  0
ENDSEC
  0
SECTION
  2
ENTITIES
  0
LWPOLYLINE
  5
212
100
AcDbEntity
  8
RACCORDO
100
AcDbPolyline
 62
7
  6
CONTINUOUS
 90
12
 70
0
 10
-24.1550111299
 20
15.397780262
 10
-24.1951950508
 20
15.3701322123
 10
-24.2328625807
 20
15.3383576518
 10
-24.2674855668
 20
15.3027270787
 10
-24.2985605816
 20
15.2636141365
 10
-24.3256706421
 20
15.2214336179
 10
-24.3484983717
 20
15.1765741687
 10
-24.3667907947
 20
15.1293730804
 10
-24.3802315393
 20
15.0804978576
 10
-24.3886267231
 20
15.0307514395
 10
-24.3919663549
 20
14.9803983508
 10
-24.3920283016
 20
14.9724134074
  0
LINE
  5
213
100
AcDbEntity
  8
RACCORDO
100
AcDbLine
 62
7
  6
CONTINUOUS
 10
-22.080336859
 20
16.6807899518
 11
-24.1550111299
 21
15.397780262
  0
LINE
  5
214
100
AcDbEntity
  8
RACCORDO
100
AcDbLine
 62
253
  6
CONTINUOUS
 10
-21.826033043
 20
16.6585959336
 11
-23.898198698
 21
15.3771376094
  0
LINE
  5
215
100
AcDbEntity
  8
RACCORDO
100
AcDbLine
 62
7
  6
CONTINUOUS
 10
-21.0153311034
 20
17.2957473214
 11
-22.0759912752
 21
16.6833354314
  0
LINE
  5
216
100
AcDbEntity
  8
RACCORDO
100
AcDbLine
 62
253
  6
CONTINUOUS
 10
-20.7653190233
 20
17.2709767325
 11
-21.8259791951
 21
16.6585648425
  0
LWPOLYLINE
  5
217
100
AcDbEntity
  8
RACCORDO
100
AcDbPolyline
 62
7
  6
CONTINUOUS
 90
10
 70
0
 10
-21.0153311034
 20
17.2957473213
 10
-20.9926194482
 20
17.3066227711
 10
-20.9680268634
 20
17.3142124578
 10
-20.9420957186
 20
17.318352243
 10
-20.914795607
 20
17.3189637585
 10
-20.8861569354
 20
17.3161253725
 10
-20.8568253743
 20
17.3099010777
 10
-20.8270161469
 20
17.3003122048
 10
-20.7965140299
 20
17.2873374231
 10
-20.7653190233
 20
17.2709767325
  0
LWPOLYLINE
  5
218
100
AcDbEntity
  8
RACCORDO
100
AcDbPolyline
 62
253
  6
CONTINUOUS
 90
9
 70
0
 10
-24.2698246461
 20
-2.7674497326
 10
-24.2672944359
 20
-2.8088056489
 10
-24.2613074238
 20
-2.8475361022
 10
-24.2516140266
 20
-2.8832782444
 10
-24.237759718
 20
-2.9158634662
 10
-24.2199669591
 20
-2.9449343949
 10
-24.1989742936
 20
-2.9699102618
 10
-24.1745980083
 20
-2.990746511
 10
-24.1688072676
 20
-2.9947486215
  0
LINE
  5
219
100
AcDbEntity
  8
RACCORDO
100
AcDbLine
 62
253
  6
CONTINUOUS
 10
-24.3920283016
 20
14.9724134074
 11
-24.3920283405
 21
14.9725273343
  0
LINE
  5
21A
100
AcDbEntity
  8
RACCORDO
100
AcDbLine
 62
7
  6
CONTINUOUS
 10
-24.3920283405
 20
14.9725273343
 11
-24.3920283405
 21
-2.5783432596
  0
LINE
  5
21B
100
AcDbEntity
  8
RACCORDO
100
AcDbLine
 62
253
  6
CONTINUOUS
 10
-24.2698246461
 20
14.7834208613
 11
-24.2698246461
 21
-2.7674497326
  0
LWPOLYLINE
  5
21C
100
AcDbEntity
  8
RACCORDO
100
AcDbPolyline
 62
253
  6
CONTINUOUS
 90
16
 70
0
 10
-24.2698246461
 20
14.7834208613
 10
-24.2672945724
 20
14.8260862478
 10
-24.2613078632
 20
14.8709312368
 10
-24.251614913
 20
14.9171867464
 10
-24.2377611732
 20
14.9637077301
 10
-24.2199690599
 20
15.0100042381
 10
-24.198977026
 20
15.0562523246
 10
-24.1746012476
 20
15.1016302837
 10
-24.1469400997
 20
15.1452663286
 10
-24.1169493051
 20
15.1873036195
 10
-24.0843987699
 20
15.22727905
 10
-24.0494297881
 20
15.264182027
 10
-24.0133844681
 20
15.297792295
 10
-23.9765650641
 20
15.3280574688
 10
-23.938286153
 20
15.3546286909
 10
-23.8981986982
 20
15.3771376096
  0
LINE
  5
21D
100
AcDbEntity
  8
DRAFT
100
AcDbLine
 62
7
  6
CONTINUOUS
 10
-12.4214590053
 20
13.4332823561
 11
-12.5842056138
 21
13.339314504
  0
LINE
  5
21E
100
AcDbEntity
  8
DRAFT
100
AcDbLine
 62
7
  6
CONTINUOUS
 10
-12.5842056138
 20
12.8494323379
 11
-13.411524666
 21
12.371748686
  0
LINE
  5
21F
100
AcDbEntity
  8
DRAFT
100
AcDbLine
 62
7
  6
CONTINUOUS
 10
-9.5930318806
 20
11.8001839828
 11
-9.7557784891
 21
11.7062161307
  0
LINE
  5
220
100
AcDbEntity
  8
DRAFT
100
AcDbLine
 62
7
  6
CONTINUOUS
 10
-9.7557784891
 20
11.2163339646
 11
-10.5830394634
 21
10.7386838461
  0
LINE
  5
221
100
AcDbEntity
  8
SMUSSO
100
AcDbLine
 62
7
  6
CONTINUOUS
 10
-15.815571555
 20
13.7598152299
 11
-15.815571555
 21
14.4130545792
  0
LINE
  5
222
100
AcDbEntity
  8
DRAFT
100
AcDbLine
 62
7
  6
CONTINUOUS
 10
-12.5842056138
 20
13.339314504
 11
-12.5842056138
 21
12.8494323379
  0
LINE
  5
223
100
AcDbEntity
  8
DRAFT
100
AcDbLine
 62
7
  6
CONTINUOUS
 10
-11.2193774773
 20
12.4942507914
 11
-11.2193774773
 21
12.0043686254
  0
LINE
  5
224
100
AcDbEntity
  8
DRAFT
100
AcDbLine
 62
7
  6
CONTINUOUS
 10
-9.7557784891
 20
11.7062161307
 11
-9.7557784891
 21
11.2163339646
  0
LINE
  5
225
100
AcDbEntity
  8
RACCORDO
100
AcDbLine
 62
253
  6
CONTINUOUS
 10
-9.4516105243
 20
10.7385832393
 11
-9.4516105243
 21
11.7418725683
  0
LINE
  5
226
100
AcDbEntity
  8
RACCORDO
100
AcDbLine
 62
7
  6
CONTINUOUS
 10
-9.3051639149
 20
10.6976895588
 11
-9.3051639149
 21
11.6985820066
  0
LWPOLYLINE
  5
227
100
AcDbEntity
  8
RACCORDO
100
AcDbPolyline
 62
253
  6
CONTINUOUS
 90
16
 70
0
 10
24.4973016436
 20
-30.9249772566
 10
24.5362835234
 20
-30.9426153963
 10
24.5780961749
 20
-30.9579403015
 10
24.6223293499
 20
-30.9708016382
 10
24.6685540346
 20
-30.9810741899
 10
24.716312054
 20
-30.9886556808
 10
24.7651191467
 20
-30.993470653
 10
24.8144858306
 20
-30.9954744389
 10
24.8639379756
 20
-30.9946513706
 10
24.9130058001
 20
-30.9910107407
 10
24.9612714692
 20
-30.9845781974
 10
25.0081966262
 20
-30.9754200375
 10
25.0531604479
 20
-30.9636739358
 10
25.095696454
 20
-30.9495013523
 10
25.1354768818
 20
-30.9330529795
 10
25.1721517464
 20
-30.9145112973
  0
LWPOLYLINE
  5
228
100
AcDbEntity
  8
RACCORDO
100
AcDbPolyline
 62
253
  6
CONTINUOUS
 90
9
 70
0
 10
-24.2698246461
 20
-2.7674497326
 10
-24.300372818
 20
-2.7449420951
 10
-24.3269146219
 20
-2.7207999975
 10
-24.3491896838
 20
-2.6952603099
 10
-24.3669811369
 20
-2.6685707276
 10
-24.3801118304
 20
-2.6409958044
 10
-24.3884510627
 20
-2.6128151814
 10
-24.3919214829
 20
-2.5843115089
 10
-24.3920283404
 20
-2.5783502345
  0
LWPOLYLINE
  5
229
100
AcDbEntity
  8
RACCORDO
100
AcDbPolyline
 62
7
  6
CONTINUOUS
 90
16
 70
0
 10
-24.1687451171
 20
-2.9947899051
 10
-21.1840961565
 20
-4.9596660667
 10
-18.1137804105
 20
-6.9434861401
 10
-15.0109230043
 20
-8.9109507486
 10
-11.8758389141
 20
-10.8618592304
 10
-8.7088041891
 20
-12.7960432692
 10
-5.5100748959
 20
-14.7133482098
 10
-2.2799225111
 20
-16.613611002
 10
0.9813482251
 20
-18.4966549013
 10
4.2734317694
 20
-20.3623044097
 10
7.5960203552
 20
-22.2103844814
 10
10.9488298104
 20
-24.0407392068
 10
14.331590373
 20
-25.8532214799
 10
17.7440083682
 20
-27.6476725531
 10
21.1857338799
 20
-29.4239110729
 10
24.6005394781
 20
-31.153717204
  0
LWPOLYLINE
  5
22A
100
AcDbEntity
  8
RACCORDO
100
AcDbPolyline
 62
253
  6
CONTINUOUS
 90
16
 70
0
 10
-24.2698246461
 20
-2.7674497326
 10
-21.2399469687
 20
-4.7618241423
 10
-18.1770774208
 20
-6.7403240996
 10
-15.0814823037
 20
-8.7027664283
 10
-11.9533643657
 20
-10.6490101572
 10
-8.7930613221
 20
-12.5788334362
 10
-5.6010525595
 20
-14.4919372221
 10
-2.3776225824
 20
-16.3881477485
 10
0.8769413657
 20
-18.2672922284
 10
4.1621395403
 20
-20.1290821122
 10
7.4776731773
 20
-21.9733518277
 10
10.8232408426
 20
-23.79993682
 10
14.1983231642
 20
-25.6085594432
 10
17.6025354395
 20
-27.3990244131
 10
21.035634012
 20
-29.1712149399
 10
24.4973016436
 20
-30.9249772566
  0
LINE
  5
22B
100
AcDbEntity
  8
SMUSSO
100
AcDbLine
 62
7
  6
CONTINUOUS
 10
23.0753014103
 20
-8.0420480538
 11
21.9439305604
 21
-8.0420480538
  0
LINE
  5
22C
100
AcDbEntity
  8
DRAFT
100
AcDbLine
 62
7
  6
CONTINUOUS
 10
26.7467029278
 20
-22.6603955816
 11
27.3179420974
 21
-22.9902219188
  0
LWPOLYLINE
  5
22D
100
AcDbEntity
  8
RACCORDO
100
AcDbPolyline
 62
253
  6
CONTINUOUS
 90
9
 70
0
 10
-24.2698246461
 20
14.7834208613
 10
-24.3003728319
 20
14.8059285101
 10
-24.3269146363
 20
14.830070611
 10
-24.3491896899
 20
14.855610292
 10
-24.3669811251
 20
14.8822998455
 10
-24.3801118066
 20
14.9098747274
 10
-24.3884510458
 20
14.938055331
 10
-24.3919214811
 20
14.9665590356
 10
-24.3920283016
 20
14.9724134074
  0
LWPOLYLINE
  5
22E
100
AcDbEntity
  8
RACCORDO
100
AcDbPolyline
 62
253
  6
CONTINUOUS
 90
16
 70
0
 10
24.4973016436
 20
-13.3741066627
 10
24.5362835037
 20
-13.3917447943
 10
24.5780961494
 20
-13.4070696993
 10
24.6223293361
 20
-13.4199310408
 10
24.6685540706
 20
-13.4302036029
 10
24.7163121615
 20
-13.4377851008
 10
24.7651192877
 20
-13.442600069
 10
24.8144859161
 20
-13.4446038461
 10
24.8639379642
 20
-13.4437807772
 10
24.9130057374
 20
-13.4401401533
 10
24.9612714534
 20
-13.4337076062
 10
25.0081966963
 20
-13.4245494278
 10
25.0531605644
 20
-13.4128033075
 10
25.0956965577
 20
-13.3986307194
 10
25.1354769444
 20
-13.3821823559
 10
25.1721517464
 20
-13.3636407014
  0
LWPOLYLINE
  5
22F
100
AcDbEntity
  8
RACCORDO
100
AcDbPolyline
 62
253
  6
CONTINUOUS
 90
16
 70
0
 10
24.4973016436
 20
-13.3741066627
 10
21.035634012
 20
-11.6290394574
 10
17.6025354395
 20
-9.8643027201
 10
14.1983231642
 20
-8.0800502181
 10
10.8232408426
 20
-6.2763993922
 10
7.4776731773
 20
-4.4535448755
 10
4.1621395403
 20
-2.6117623603
 10
0.8769413657
 20
-0.7512157501
 10
-2.3776225824
 20
1.1279287317
 10
-5.6010525595
 20
3.0253825347
 10
-8.7930613221
 20
4.9409735236
 10
-11.9533643657
 20
6.8745272805
 10
-15.0814823037
 20
8.8257428073
 10
-18.1770774208
 20
10.7943976021
 10
-21.2399469687
 20
12.7803513455
 10
-24.2698246461
 20
14.7834208613
  0
LWPOLYLINE
  5
230
100
AcDbEntity
  8
RACCORDO
100
AcDbPolyline
 62
253
  6
CONTINUOUS
 90
16
 70
0
 10
24.8186522037
 20
-12.7513615357
 10
21.3600405199
 20
-11.0078448625
 10
17.9305938939
 20
-9.2449862128
 10
14.5303123259
 20
-7.4627855866
 10
11.1588170965
 20
-5.6610434112
 10
7.8164869249
 20
-3.8399592593
 10
4.5044579694
 20
-2.0001318487
 10
1.2227474314
 20
-0.1415520116
 10
-2.0286618905
 20
1.7357710841
 10
-5.2486854429
 20
3.6312112168
 10
-8.4373082926
 20
5.5447788953
 10
-11.5945453727
 20
7.4764636107
 10
-14.7193569287
 20
9.4256076147
 10
-17.8113963759
 20
11.3919916577
 10
-20.871010299
 20
13.3758349893
 10
-23.898198698
 20
15.3771376094
  0
LINE
  5
231
100
AcDbEntity
  8
DRAFT
100
AcDbLine
 62
7
  6
CONTINUOUS
 10
20.1054529293
 20
-5.347348937
 11
19.9427063207
 21
-5.4413167891
  0
LINE
  5
232
100
AcDbEntity
  8
DRAFT
100
AcDbLine
 62
7
  6
CONTINUOUS
 10
19.9427063207
 20
-5.9311989551
 11
19.1153872686
 21
-6.4088826071
  0
LINE
  5
233
100
AcDbEntity
  8
RACCORDO
100
AcDbLine
 62
7
  6
CONTINUOUS
 10
23.0753014103
 20
-7.0387587248
 11
22.933880054
 21
-6.9804473103
  0
LINE
  5
234
100
AcDbEntity
  8
RACCORDO
100
AcDbLine
 62
7
  6
CONTINUOUS
 10
20.2468742855
 20
-5.4056603515
 11
20.1054529293
 21
-5.347348937
  0
LWPOLYLINE
  5
235
100
AcDbEntity
  8
RACCORDO
100
AcDbPolyline
 62
253
  6
CONTINUOUS
 90
11
 70
0
 10
-23.898198698
 20
15.3771376094
 10
-23.9295162992
 20
15.3930629426
 10
-23.960548705
 20
15.4057889861
 10
-23.9910598316
 20
15.4152189246
 10
-24.0208175608
 20
15.4212810184
 10
-24.0495955062
 20
15.4239291491
 10
-24.0771747349
 20
15.4231431708
 10
-24.1033454339
 20
15.4189290627
 10
-24.1279085053
 20
15.4113188845
 10
-24.1506770818
 20
15.4003705318
 10
-24.1550111299
 20
15.397780262
  0
LINE
  5
236
100
AcDbEntity
  8
DRAFT
100
AcDbLine
 62
7
  6
CONTINUOUS
 10
22.933880054
 20
-6.9804473103
 11
22.7711334455
 21
-7.0744151624
  0
LINE
  5
237
100
AcDbEntity
  8
DRAFT
100
AcDbLine
 62
7
  6
CONTINUOUS
 10
22.7711334455
 20
-7.5642973284
 11
21.9438724712
 21
-8.041947447
  0
LWPOLYLINE
  5
238
100
AcDbEntity
  8
RACCORDO
100
AcDbPolyline
 62
7
  6
CONTINUOUS
 90
14
 70
0
 10
4.4532428066
 20
2.7100951947
 10
4.4606591794
 20
2.7087609915
 10
4.535228919
 20
2.6914686998
 10
4.6070973401
 20
2.6707099803
 10
4.6763157834
 20
2.6465507724
 10
4.7415514267
 20
2.6194561321
 10
4.8027270593
 20
2.5893691399
 10
4.8599198917
 20
2.5563467152
 10
4.9120287335
 20
2.5210246717
 10
4.9589550038
 20
2.4833584289
 10
5.0007972834
 20
2.4433925672
 10
5.036750124
 20
2.4018966416
 10
5.0666993223
 20
2.3588410085
 10
5.0690100811
 20
2.3545588878
  0
LWPOLYLINE
  5
239
100
AcDbEntity
  8
RACCORDO
100
AcDbPolyline
 62
7
  6
CONTINUOUS
 90
7
 70
0
 10
-21.8259791951
 20
16.6585648425
 10
-21.8571742017
 20
16.6749255331
 10
-21.8876763187
 20
16.6879003148
 10
-21.917485546
 20
16.6974891877
 10
-21.9468171072
 20
16.7037134825
 10
-21.9754557788
 20
16.7065518685
 10
-22.0027558904
 20
16.705940353
  0
LINE
  5
23A
100
AcDbEntity
  8
DRAFT
100
AcDbLine
 62
7
  6
CONTINUOUS
 10
22.7711334455
 20
-7.5642973284
 11
21.3075344573
 21
-6.7762626677
  0
LINE
  5
23B
100
AcDbEntity
  8
DRAFT
100
AcDbLine
 62
7
  6
CONTINUOUS
 10
22.7711334455
 20
-7.0744151624
 11
21.3075344573
 21
-6.2863805016
  0
LINE
  5
23C
100
AcDbEntity
  8
DRAFT
100
AcDbLine
 62
7
  6
CONTINUOUS
 10
-11.2193774773
 20
12.0043686254
 11
-9.7557784891
 21
11.2163339646
  0
LINE
  5
23D
100
AcDbEntity
  8
DRAFT
100
AcDbLine
 62
7
  6
CONTINUOUS
 10
-11.2193774773
 20
12.4942507914
 11
-9.7557784891
 21
11.7062161307
  0
LINE
  5
23E
100
AcDbEntity
  8
RACCORDO
100
AcDbLine
 62
7
  6
CONTINUOUS
 10
-21.826033043
 20
16.6585959336
 11
26.9644425547
 21
-11.5124131882
  0
LINE
  5
23F
100
AcDbEntity
  8
SMUSSO
100
AcDbLine
 62
7
  6
CONTINUOUS
 10
-15.815571555
 20
13.7598152299
 11
-10.5829813742
 21
10.7385832393
  0
LINE
  5
240
100
AcDbEntity
  8
SMUSSO
100
AcDbLine
 62
7
  6
CONTINUOUS
 10
21.9439305604
 20
-8.0420480538
 11
16.7113403796
 21
-5.0208160632
  0
LINE
  5
241
100
AcDbEntity
  8
RACCORDO
100
AcDbLine
 62
7
  6
CONTINUOUS
 10
-20.7653190233
 20
17.2709767325
 11
-15.815571555
 21
14.4130545792
  0
LINE
  5
242
100
AcDbEntity
  8
SMUSSO
100
AcDbLine
 62
7
  6
CONTINUOUS
 10
-9.4516105243
 20
10.7385832393
 11
16.7113403796
 21
-4.3675767139
  0
LINE
  5
243
100
AcDbEntity
  8
RACCORDO
100
AcDbLine
 62
7
  6
CONTINUOUS
 10
23.0753014103
 20
-8.0420480538
 11
28.0250488786
 21
-10.8999702071
  0
LINE
  5
244
100
AcDbEntity
  8
0
100
AcDbLine
 62
7
  6
CONTINUOUS
 10
-12.4214590053
 20
13.4332823561
 11
-9.5930318806
 21
11.8001839828
  0
LINE
  5
245
100
AcDbEntity
  8
0
100
AcDbLine
 62
7
  6
CONTINUOUS
 10
22.933880054
 20
-6.9804473103
 11
20.1054529293
 21
-5.347348937
  0
LINE
  5
246
100
AcDbEntity
  8
RACCORDO
100
AcDbLine
 62
7
  6
CONTINUOUS
 10
-11.5729308679
 20
13.0250551087
 11
-9.4516105243
 21
11.8002313287
  0
LINE
  5
247
100
AcDbEntity
  8
RACCORDO
100
AcDbLine
 62
7
  6
CONTINUOUS
 10
23.0753014103
 20
-6.9803999644
 11
20.9539810667
 21
-5.7555761844
  0
LINE
  5
248
100
AcDbEntity
  8
DRAFT
100
AcDbLine
 62
7
  6
CONTINUOUS
 10
-12.5842056138
 20
12.8494323379
 11
-11.2193774773
 21
12.0043686254
  0
LINE
  5
249
100
AcDbEntity
  8
DRAFT
100
AcDbLine
 62
7
  6
CONTINUOUS
 10
-12.5842056138
 20
13.339314504
 11
-11.2193774773
 21
12.4942507914
  0
LINE
  5
24A
100
AcDbEntity
  8
DRAFT
100
AcDbLine
 62
7
  6
CONTINUOUS
 10
21.3075344573
 20
-6.7762626677
 11
19.9427063207
 21
-5.9311989551
  0
LINE
  5
24B
100
AcDbEntity
  8
DRAFT
100
AcDbLine
 62
7
  6
CONTINUOUS
 10
21.3075344573
 20
-6.2863805016
 11
19.9427063207
 21
-5.4413167891
  0
LWPOLYLINE
  5
24C
100
AcDbEntity
  8
RACCORDO
100
AcDbPolyline
 62
7
  6
CONTINUOUS
 90
19
 70
0
 10
28.0250488786
 20
-10.8999702071
 10
28.0562438852
 20
-10.9196327282
 10
28.0867460021
 20
-10.9418810266
 10
28.1165552295
 20
-10.9667151023
 10
28.1458867907
 20
-10.9943621591
 10
28.1745254623
 20
-11.0245949932
 10
28.2018255739
 20
-11.0567319933
 10
28.2277567186
 20
-11.0908164145
 10
28.2523493034
 20
-11.1268050016
 10
28.2750488786
 20
-11.1638863776
 10
28.2958124422
 20
-11.2020853662
 10
28.3146829962
 20
-11.2413771437
 10
28.3312350964
 20
-11.2808758611
 10
28.3454160764
 20
-11.3205862192
 10
28.3572786026
 20
-11.3605035173
 10
28.3665552295
 20
-11.3997278038
 10
28.3731568087
 20
-11.4379590948
 10
28.3771724885
 20
-11.4754973743
 10
28.3786022692
 20
-11.5123426422
  0
LINE
  5
24D
100
AcDbEntity
  8
RACCORDO
100
AcDbLine
 62
7
  6
CONTINUOUS
 10
-9.4516105243
 20
11.7418725683
 11
-9.5930318806
 21
11.8001839828
  0
LINE
  5
24E
100
AcDbEntity
  8
RACCORDO
100
AcDbLine
 62
7
  6
CONTINUOUS
 10
-12.2800376491
 20
13.3749709416
 11
-12.4214590053
 21
13.4332823561
  0
LINE
  5
24F
100
AcDbEntity
  8
SMUSSO
100
AcDbLine
 62
7
  6
CONTINUOUS
 10
16.7113403796
 20
-5.0208160632
 11
16.7113403796
 21
-4.3675767139
  0
LINE
  5
250
100
AcDbEntity
  8
RACCORDO
100
AcDbLine
 62
253
  6
CONTINUOUS
 10
24.8186522037
 20
-12.7513615357
 11
28.0250488786
 21
-10.8999702071
  0
LINE
  5
251
100
AcDbEntity
  8
RACCORDO
100
AcDbLine
 62
253
  6
CONTINUOUS
 10
25.1721517464
 20
-13.3636407034
 11
28.3786022692
 21
-11.5123426422
  0
LINE
  5
252
100
AcDbEntity
  8
DRAFT
100
AcDbLine
 62
7
  6
CONTINUOUS
 10
19.9427063207
 20
-5.4413167891
 11
19.9427063207
 21
-5.9311989551
  0
LINE
  5
253
100
AcDbEntity
  8
DRAFT
100
AcDbLine
 62
7
  6
CONTINUOUS
 10
21.3075344573
 20
-6.2863805016
 11
21.3075344573
 21
-6.7762626677
  0
LINE
  5
254
100
AcDbEntity
  8
SMUSSO
100
AcDbLine
 62
7
  6
CONTINUOUS
 10
-9.4516105243
 20
10.7385832393
 11
-10.5829813742
 21
10.7385832393
  0
LWPOLYLINE
  5
255
100
AcDbEntity
  8
RACCORDO
100
AcDbPolyline
 62
253
  6
CONTINUOUS
 90
19
 70
0
 10
25.1721517464
 20
-13.3636407034
 10
25.1702836696
 20
-13.3275879661
 10
25.1657874442
 20
-13.290229632
 10
25.1586972758
 20
-13.2518499106
 10
25.1490671039
 20
-13.2127407813
 10
25.1369701914
 20
-13.173199773
 10
25.1224985676
 20
-13.1335277004
 10
25.1057623278
 20
-13.0940263751
 10
25.0868887953
 20
-13.0549963093
 10
25.0660215534
 20
-13.0167344301
 10
25.0433193527
 20
-12.9795318205
 10
25.0189549037
 20
-12.9436715052
 10
24.993113563
 20
-12.9094262973
 10
24.9659919224
 20
-12.8770567225
 10
24.9377963141
 20
-12.8468090374
 10
24.9087412405
 20
-12.818913356
 10
24.8790477426
 20
-12.7935818988
 10
24.8489417183
 20
-12.771007379
 10
24.8186522037
 20
-12.7513615357
  0
LWPOLYLINE
  5
256
100
AcDbEntity
  8
RACCORDO
100
AcDbPolyline
 62
253
  6
CONTINUOUS
 90
9
 70
0
 10
24.4973016436
 20
-30.9249772566
 10
24.4984365736
 20
-30.9655265159
 10
24.5037323071
 20
-31.003857164
 10
24.5128370573
 20
-31.0392591169
 10
24.5249052878
 20
-31.0708130798
 10
24.5398221864
 20
-31.0982238143
 10
24.5582431195
 20
-31.1217153475
 10
24.5794951256
 20
-31.1407483958
 10
24.6002449126
 20
-31.15356923
  0
LINE
  5
257
100
AcDbEntity
  8
DRAFT
100
AcDbLine
 62
7
  6
CONTINUOUS
 10
22.7711334455
 20
-7.0744151624
 11
22.7711334455
 21
-7.5642973284
  0
LINE
  5
258
100
AcDbEntity
  8
RACCORDO
100
AcDbLine
 62
253
  6
CONTINUOUS
 10
23.0753014103
 20
-8.0420480538
 11
23.0753014103
 21
-7.0387587248
  0
LINE
  5
259
100
AcDbEntity
  8
RACCORDO
100
AcDbLine
 62
7
  6
CONTINUOUS
 10
23.2217480197
 20
-8.0829417343
 11
23.2217480197
 21
-7.0820492864
  0
LINE
  5
25A
100
AcDbEntity
  8
RACCORDO
100
AcDbLine
 62
253
  6
CONTINUOUS
 10
24.4973016436
 20
-30.9249772566
 11
24.4973016436
 21
-13.3741066627
  0
LWPOLYLINE
  5
25B
100
AcDbEntity
  8
RACCORDO
100
AcDbPolyline
 62
253
  6
CONTINUOUS
 90
16
 70
0
 10
24.4973016436
 20
-13.3741066627
 10
24.49843664
 20
-13.3306345022
 10
24.503732647
 20
-13.2853893752
 10
24.5128378195
 20
-13.2387931746
 10
24.5249065716
 20
-13.1912403027
 10
24.53982403
 20
-13.1432829045
 10
24.5582454794
 20
-13.0955498216
 10
24.5794979457
 20
-13.0483681032
 10
24.6029305182
 20
-13.0022904993
 10
24.6291769927
 20
-12.9580916706
 10
24.6577127992
 20
-12.9157989817
 10
24.6875509658
 20
-12.8759346095
 10
24.7188409065
 20
-12.8395798744
 10
24.7514820379
 20
-12.8069035421
 10
24.7848648419
 20
-12.7775067301
 10
24.818652204
 20
-12.7513615358
  0
LINE
  5
25C
100
AcDbEntity
  8
DRAFT
100
AcDbLine
 62
7
  6
CONTINUOUS
 10
27.3179420974
 20
-18.8950451242
 11
26.670437659
 21
-19.2624911499
  0
LWPOLYLINE
  5
25D
100
AcDbEntity
  8
RACCORDO
100
AcDbPolyline
 62
7
  6
CONTINUOUS
 90
19
 70
0
 10
27.3179420974
 20
-12.1247545321
 10
27.3165123168
 20
-12.0879092643
 10
27.3124966369
 20
-12.0503709848
 10
27.3058950577
 20
-12.0121396937
 10
27.2966184308
 20
-11.9729154073
 10
27.2847559047
 20
-11.9329981092
 10
27.2705749246
 20
-11.8932877511
 10
27.2540228245
 20
-11.8537890337
 10
27.2351522704
 20
-11.8144972562
 10
27.2143887068
 20
-11.7762982676
 10
27.1916891316
 20
-11.7392168916
 10
27.1670965468
 20
-11.7032283045
 10
27.1411654021
 20
-11.6691438832
 10
27.1138652905
 20
-11.6370068832
 10
27.0852266189
 20
-11.6067740491
 10
27.0558950577
 20
-11.5791269923
 10
27.0260858304
 20
-11.5542929166
 10
26.9955837134
 20
-11.5320446182
 10
26.9643887068
 20
-11.5123820971
  0
LINE
  5
25E
100
AcDbEntity
  8
RACCORDO
100
AcDbLine
 62
253
  6
CONTINUOUS
 10
25.1721517464
 20
-30.9145112973
 11
25.1721517464
 21
-13.3636407034
  0
LINE
  5
25F
100
AcDbEntity
  8
DRAFT
100
AcDbLine
 62
7
  6
CONTINUOUS
 10
26.670437659
 20
-19.2624911499
 11
26.670437659
 21
-23.3448425339
  0
LINE
  5
260
100
AcDbEntity
  8
DRAFT
100
AcDbLine
 62
7
  6
CONTINUOUS
 10
26.7467029278
 20
-19.2192121108
 11
26.7467029278
 21
-22.6603955816
  0
LINE
  5
261
100
AcDbEntity
  8
RACCORDO
100
AcDbLine
 62
7
  6
CONTINUOUS
 10
27.3179420974
 20
-12.1247545321
 11
27.3179420974
 21
-29.7605125109
  0
LINE
  5
262
100
AcDbEntity
  8
RACCORDO
100
AcDbLine
 62
7
  6
CONTINUOUS
 10
26.670437659
 20
-22.7044302669
 11
26.7467029278
 21
-22.6603955816
  0
LINE
  5
263
100
AcDbEntity
  8
DRAFT
100
AcDbLine
 62
7
  6
CONTINUOUS
 10
27.3179420974
 20
-22.9902219188
 11
26.670437659
 21
-23.3448425339
  0
LINE
  5
264
100
AcDbEntity
  8
RACCORDO
100
AcDbLine
 62
7
  6
CONTINUOUS
 10
28.3786022692
 20
-11.5123426422
 11
28.3786022692
 21
-29.1481006209
  0
LWPOLYLINE
  5
265
100
AcDbEntity
  8
RACCORDO
100
AcDbPolyline
 62
7
  6
CONTINUOUS
 90
10
 70
0
 10
28.3786022692
 20
-29.1481006209
 10
28.3771724885
 20
-29.183294814
 10
28.3731568087
 20
-29.2161958869
 10
28.3665552295
 20
-29.2468038399
 10
28.3572786026
 20
-29.2753157101
 10
28.3454160764
 20
-29.3015344603
 10
28.3312350964
 20
-29.3248689782
 10
28.3146829962
 20
-29.3452537452
 10
28.2958124422
 20
-29.3627542799
 10
28.2750609586
 20
-29.3769690514
  0
LWPOLYLINE
  5
266
100
AcDbEntity
  8
RACCORDO
100
AcDbPolyline
 62
7
  6
CONTINUOUS
 90
4
 70
0
 10
-22.0027558904
 20
16.705940353
 10
-22.0286870351
 20
16.7018005678
 10
-22.0532796199
 20
16.6942108811
 10
-22.0759912751
 20
16.6833354313
  0
LINE
  5
267
100
AcDbEntity
  8
RACCORDO
100
AcDbLine
 62
7
  6
CONTINUOUS
 10
27.2098696286
 20
-29.9915506813
 11
27.2144007868
 21
-29.9893809414
  0
LWPOLYLINE
  5
268
100
AcDbEntity
  8
RACCORDO
100
AcDbPolyline
 62
7
  6
CONTINUOUS
 90
11
 70
0
 10
25.0616355533
 20
-31.1472054444
 10
25.0175992609
 20
-31.1681848341
 10
24.9712471825
 20
-31.1849215098
 10
24.9230777021
 20
-31.1970932866
 10
24.8736662686
 20
-31.2044509674
 10
24.8235805538
 20
-31.2068408458
 10
24.7733156089
 20
-31.2041823627
 10
24.7232900857
 20
-31.1964250151
 10
24.6742403932
 20
-31.1836285284
 10
24.6269588149
 20
-31.166026396
 10
24.6002449126
 20
-31.15356923
  0
LWPOLYLINE
  5
269
100
AcDbEntity
  8
RACCORDO
100
AcDbPolyline
 62
7
  6
CONTINUOUS
 90
6
 70
0
 10
27.2847559047
 20
-29.9139463503
 10
27.2966184308
 20
-29.8877276001
 10
27.3058950577
 20
-29.8592157299
 10
27.3124966369
 20
-29.8286077769
 10
27.3165123168
 20
-29.7957067039
 10
27.3179420974
 20
-29.7605125109
  0
LWPOLYLINE
  5
26A
100
AcDbEntity
  8
RACCORDO
100
AcDbPolyline
 62
7
  6
CONTINUOUS
 90
3
 70
0
 10
27.2540228245
 20
-29.9576656352
 10
27.2705749246
 20
-29.9372808682
 10
27.2847559047
 20
-29.9139463503
  0
LWPOLYLINE
  5
26B
100
AcDbEntity
  8
RACCORDO
100
AcDbPolyline
 62
7
  6
CONTINUOUS
 90
3
 70
0
 10
27.2144007868
 20
-29.9893809414
 10
27.2351522704
 20
-29.9751661699
 10
27.2540228245
 20
-29.9576656352
  0
LINE
  5
26C
100
AcDbEntity
  8
RACCORDO
100
AcDbLine
 62
253
  6
CONTINUOUS
 10
28.3786022692
 20
-29.1481006209
 11
27.3179420974
 21
-29.7605125109
  0
LINE
  5
26D
100
AcDbEntity
  8
RACCORDO
100
AcDbLine
 62
7
  6
CONTINUOUS
 10
28.2750609586
 20
-29.3769690515
 11
27.2144007868
 21
-29.9893809414
  0
LWPOLYLINE
  5
26E
100
AcDbEntity
  8
RACCORDO
100
AcDbPolyline
 62
253
  6
CONTINUOUS
 90
11
 70
0
 10
25.0616355533
 20
-31.1472054444
 10
25.0660215534
 20
-31.1447608686
 10
25.0868887953
 20
-31.1305193081
 10
25.1057623278
 20
-31.1130545603
 10
25.1224985676
 20
-31.0924994907
 10
25.1369701914
 20
-31.0690104751
 10
25.1490671039
 20
-31.0427662098
 10
25.1586972758
 20
-31.0139663526
 10
25.1657874442
 20
-30.9828300028
 10
25.1702836696
 20
-30.9495940351
 10
25.1721517464
 20
-30.9145112973
  0
LINE
  5
26F
100
AcDbEntity
  8
RACCORDO
100
AcDbLine
 62
253
  6
CONTINUOUS
 10
27.3179420974
 20
-29.7605746871
 11
25.1721517464
 21
-30.9145112973
  0
LINE
  5
270
100
AcDbEntity
  8
RACCORDO
100
AcDbLine
 62
7
  6
CONTINUOUS
 10
27.210023667
 20
-29.9918718414
 11
25.0616355533
 21
-31.1472054444
  0
ARC
  5
271
100
AcDbEntity
  8
RACCORDO
100
AcDbCircle
 62
7
  6
CONTINUOUS
 10
-23.8920283405
 20
-2.5783432596
 40
0.5
100
AcDbArc
 50
180.0007992295
 51
236.3885592939
  0
ELLIPSE
  5
272
100
AcDbEntity
  8
RACCORDO
100
AcDbEllipse
 62
7
  6
CONTINUOUS
 10
22.7217480197
 20
-8.0930221674
 30
0.0
 11
0.4999124207
 21
0.0156705079
 31
0.0
 40
0.5971709375
 41
-0.1551104973
 42
-0.0187170366
  0
ELLIPSE
  5
273
100
AcDbEntity
  8
RACCORDO
100
AcDbEllipse
 62
7
  6
CONTINUOUS
 10
-9.8051639149
 20
10.6876091257
 30
0.0
 11
0.4999124207
 21
0.0156705079
 31
0.0
 40
0.5971709375
 41
-0.1551104973
 42
-0.0187170366
  0
ELLIPSE
  5
274
100
AcDbEntity
  8
RACCORDO
100
AcDbEllipse
 62
7
  6
CONTINUOUS
 10
20.6004276761
 20
-5.6097976482
 30
0.0
 11
0.4997287615
 21
-0.2486526917
 31
0.0
 40
0.0662252425
 41
0.8183382896
 42
2.3891346164
  0
ELLIPSE
  5
275
100
AcDbEntity
  8
RACCORDO
100
AcDbEllipse
 62
7
  6
CONTINUOUS
 10
-11.9264842585
 20
13.1708336449
 30
0.0
 11
0.4997287615
 21
-0.2486526917
 31
0.0
 40
0.0662252425
 41
0.8183382896
 42
2.3891346164
  0
ELLIPSE
  5
276
100
AcDbEntity
  8
RACCORDO
100
AcDbEllipse
 62
7
  6
CONTINUOUS
 10
22.7217480197
 20
-6.8346214281
 30
0.0
 11
0.4997287615
 21
-0.2486526917
 31
0.0
 40
0.0662252425
 41
-0.7524580372
 42
0.8183382896
  0
ELLIPSE
  5
277
100
AcDbEntity
  8
RACCORDO
100
AcDbEllipse
 62
7
  6
CONTINUOUS
 10
-9.8051639149
 20
11.9460098649
 30
0.0
 11
0.4997287615
 21
-0.2486526917
 31
0.0
 40
0.0662252425
 41
-0.7524580372
 42
0.8183382896
  0
ELLIPSE
  5
278
100
AcDbEntity
  8
RACCORDO
100
AcDbEllipse
 62
7
  6
CONTINUOUS
 10
26.9643348507
 20
-29.5562819327
 30
0.0
 11
-0.2500882309
 21
0.4331376414
 31
0.0
 40
0.5771558487
 41
-3.159039784
 42
-2.3563950755
  0
ELLIPSE
  5
279
100
AcDbEntity
  8
RACCORDO
100
AcDbEllipse
 62
7
  6
CONTINUOUS
 10
26.9643348507
 20
-11.9206483253
 30
0.0
 11
-0.2500120911
 21
0.4330057209
 31
0.0
 40
0.5775075436
 41
-2.3560905478
 42
-0.7855988075
  0
ELLIPSE
  5
27A
100
AcDbEntity
  8
RACCORDO
100
AcDbEllipse
 62
7
  6
CONTINUOUS
 10
-21.825925339
 20
16.2502364226
 30
0.0
 11
-0.2500882309
 21
0.4331376414
 31
0.0
 40
0.5771558487
 41
-0.7852941622
 42
0.0174471304
  0
ENDSEC
  0
SECTION
  2
OBJECTS
  0
DICTIONARY
  5
C
100
AcDbDictionary
280
0
281
1
  3
ACAD_GROUP
350
D
  3
ACAD_MLINESTYLE
350
17
  3
ACAD_LAYOUT
350
1A
  3
ACAD_PLOTSETTINGS
350
19
  3
ACAD_PLOTSTYLENAME
350
E
  0
DICTIONARY
  5
D
102
{ACAD_REACTORS
330
C
102
}
100
AcDbDictionary
280
0
281
1
  0
ACDBDICTIONARYWDFLT
  5
E
102
{ACAD_REACTORS
330
C
102
}
100
AcDbDictionary
281
1
  3
Normal
350
F
100
AcDbDictionaryWithDefault
340
F
  0
DICTIONARY
  5
17
102
{ACAD_REACTORS
330
C
102
}
100
AcDbDictionary
280
0
281
1
  3
Standard
350
18
  0
DICTIONARY
  5
19
102
{ACAD_REACTORS
330
C
102
}
100
AcDbDictionary
281
1
  0
DICTIONARY
  5
1A
102
{ACAD_REACTORS
330
C
102
}
100
AcDbDictionary
281
1
  3
Model
350
27B
  3
Layout1
350
27C
  0
ACDBPLACEHOLDER
  5
F
102
{ACAD_REACTORS
330
E
102
}
  0
MLINESTYLE
  5
18
102
{ACAD_REACTORS
330
17
102
}
100
AcDbMlineStyle
  2
STANDARD
 70
0
  3

 62
256
 51
90.0
 52
90.0
 71
2
 49
0.5
 62
256
  6
BYLAYER
 49
-0.5
 62
256
  6
BYLAYER
  0
LAYOUT
  5
27B
102
{ACAD_REACTORS
330
1A
102
}
100
AcDbPlotSettings
  1

  2
none_device
  4
ISO_A4_(297.00_x_210.00_MM)
  6

 40
0.0
 41
0.0
 42
0.0
 43
0.0
 44
297.0
 45
210.0
 46
0.0
 47
0.0
 48
0.0
 49
0.0
140
0.0
141
0.0
142
1.0
143
1.0
 70
1024
 72
1
 73
0
 74
0
  7

 75
0
147
1.0
148
0.0
149
0.0
100
AcDbLayout
  1
Model
 70
0
 71
0
 10
0.0
 20
0.0
 11
297.0
 21
210.0
 12
0.0
 22
0.0
 32
0.0
 14
0.0
 24
0.0
 34
0.0
 15
0.0
 25
0.0
 35
0.0
146
0.0
 13
0.0
 23
0.0
 33
0.0
 16
1.0
 26
0.0
 36
0.0
 17
0.0
 27
1.0
 37
0.0
 76
0
330
20F
345
0
346
0
  0
LAYOUT
  5
27C
102
{ACAD_REACTORS
330
1A
102
}
100
AcDbPlotSettings
  1

  2
none_device
  4
ISO_A4_(297.00_x_210.00_MM)
  6

 40
0.0
 41
0.0
 42
0.0
 43
0.0
 44
297.0
 45
210.0
 46
0.0
 47
0.0
 48
0.0
 49
0.0
140
0.0
141
0.0
142
1.0
143
1.0
 70
0
 72
1
 73
0
 74
0
  7

 75
0
147
1.0
148
0.0
149
0.0
100
AcDbLayout
  1
Layout1
 70
0
 71
1
 10
0.0
 20
0.0
 11
297.0
 21
210.0
 12
0.0
 22
0.0
 32
0.0
 14
0.0
 24
0.0
 34
0.0
 15
0.0
 25
0.0
 35
0.0
146
0.0
 13
0.0
 23
0.0
 33
0.0
 16
1.0
 26
0.0
 36
0.0
 17
0.0
 27
1.0
 37
0.0
 76
0
330
210
345
0
346
0
  0
ENDSEC
  0
EOF
