  0
SECTION
  2
HEADER
  9
$ACADVER
  1
AC1015
  9
$DWGCODEPAGE
  3
ANSI_1252
  9
$EXTMAX
 10
297.0
 20
210.0
 30
0.0
  9
$EXTMIN
 10
0.0
 20
0.0
 30
0.0
  9
$LIMMIN
 10
0.0
 20
0.0
  9
$LIMMAX
 10
297.0
 20
210.0
  9
$VIEWCTR
 10
148.5
 20
105.0
  9
$VIEWSIZE
 40
210.0
  9
$CLAYER
  8
0
  9
$LTSCALE
 40
16.335
  9
$CELTYPE
  6
BYLAYER
  9
$DIMSCALE
 40
1.0
  9
$DIMASZ
 40
3.0
  9
$DIMEXO
 40
0.5
  9
$DIMDLI
 40
11.286
  9
$DIMEXE
 40
1.5
  9
$DIMCEN
 40
2.673
  9
$DIMLFAC
 40
1.0
  9
$DIMBLK
  1
_FILLED
  9
$DIMALT
 70
0
  9
$DIMALTF
 40
0.0393700787
  9
$DIMTXT
 40
3.0
  9
$DIMTOL
 70
1
  9
$DIMLIM
 70
0
  9
$DIMTFAC
 40
1.0
  9
$DIMTP
 40
0.01
  9
$DIMTM
 40
0.01
  9
$DIMGAP
 40
0.625
  9
$DIMDSEP
 70
44
  9
$AUNITS
 70
0
  9
$PDMODE
 70
3
  9
$PDSIZE
 40
3.0
  9
$HANDSEED
  5
288
  9
$TILEMODE
 70
1
  9
$MEASUREMENT
 70
1
  9
$INSUNITS
 70
4
  0
ENDSEC
  0
SECTION
  2
CLASSES
  0
CLASS
  1
ACDBDICTIONARYWDFLT
  2
AcDbDictionaryWithDefault
  3
AutoCAD 2000
 90
0
280
0
281
0
  0
CLASS
  1
ACDBPLACEHOLDER
  2
AcDbPlaceHolder
  3
AutoCAD 2000
 90
0
280
0
281
0
  0
CLASS
  1
LAYOUT
  2
AcDbLayout
  3
AutoCAD 2000
 90
0
280
0
281
0
  0
ENDSEC
  0
SECTION
  2
TABLES
  0
TABLE
  2
VPORT
  5
8
100
AcDbSymbolTable
 70
2
  0
VPORT
  5
1F4
100
AcDbSymbolTableRecord
100
AcDbViewportTableRecord
  2
*ACTIVE
 70
0
 10
0.0
 20
0.0
 11
1.0
 21
1.0
 12
148.5
 22
105.0
 13
0.0
 23
0.0
 14
1.0
 24
1.0
 15
0.0
 25
0.0
 16
0.0
 26
0.0
 36
1.0
 17
0.0
 27
0.0
 37
0.0
 40
210.0
 41
1.4142857143
 42
50.0
 43
0.0
 44
0.0
 50
0.0
 51
0.0
 71
0
 72
100
 73
1
 74
1
 75
0
 76
0
 77
0
 78
0
  0
ENDTAB
  0
TABLE
  2
LTYPE
  5
5
100
AcDbSymbolTable
 70
6
  0
LTYPE
  5
14
100
AcDbSymbolTableRecord
100
AcDbLinetypeTableRecord
  2
BYBLOCK
 70
0
  3

 72
65
 73
0
 40
0.0
  0
LTYPE
  5
15
100
AcDbSymbolTableRecord
100
AcDbLinetypeTableRecord
  2
BYLAYER
 70
0
  3

 72
65
 73
0
 40
0.0
  0
LTYPE
  5
16
100
AcDbSymbolTableRecord
100
AcDbLinetypeTableRecord
  2
CONTINUOUS
 70
64
  3
Solid line
 72
65
 73
0
 40
0.0
  0
LTYPE
  5
1F5
100
AcDbSymbolTableRecord
100
AcDbLinetypeTableRecord
  2
CENTER
 70
64
  3
____ _ ____ _ ____ _ ____ _ ____ _ ____ _ ____
 72
65
 73
4
 40
0.6
 49
0.375
 74
0
 49
-0.075
 74
0
 49
0.075
 74
0
 49
-0.075
 74
0
  0
LTYPE
  5
1F6
100
AcDbSymbolTableRecord
100
AcDbLinetypeTableRecord
  2
HIDDEN
 70
64
  3
- - - - - - - - - - - - - - - - - - - -
 72
65
 73
2
 40
0.2
 49
0.1
 74
0
 49
-0.1
 74
0
  0
LTYPE
  5
1F7
100
AcDbSymbolTableRecord
100
AcDbLinetypeTableRecord
  2
PHANTOM
 70
64
  3
_____ _ _ _____ _ _ _____ _ _ _____
 72
65
 73
6
 40
0.8
 49
0.45
 74
0
 49
-0.05
 74
0
 49
0.1
 74
0
 49
-0.05
 74
0
 49
0.1
 74
0
 49
-0.05
 74
0
  0
LTYPE
  5
1F8
100
AcDbSymbolTableRecord
100
AcDbLinetypeTableRecord
  2
DOT
 70
64
  3
. . . . . . . . . . . . . . . . . . . .
 72
65
 73
2
 40
0.2
 49
0.1
 74
0
 49
-0.1
 74
0
  0
LTYPE
  5
1F9
100
AcDbSymbolTableRecord
100
AcDbLinetypeTableRecord
  2
DASHED
 70
64
  3
- - - - - - - - - - - - - - - - - - - -
 72
65
 73
2
 40
0.2
 49
0.1
 74
0
 49
-0.1
 74
0
  0
ENDTAB
  0
TABLE
  2
LAYER
  5
2
100
AcDbSymbolTable
 70
36
  0
LAYER
  5
10
100
AcDbSymbolTableRecord
100
AcDbLayerTableRecord
  2
0
 70
0
 62
7
  6
CONTINUOUS
370
-3
390
F
  0
LAYER
  5
1FA
100
AcDbSymbolTableRecord
100
AcDbLayerTableRecord
  2
DEFAULT_1
 70
0
 62
7
  6
CENTER
370
-3
390
F
  0
LAYER
  5
1FB
100
AcDbSymbolTableRecord
100
AcDbLayerTableRecord
  2
DEFAULT_2
 70
0
 62
7
  6
HIDDEN
370
-3
390
F
  0
LAYER
  5
1FC
100
AcDbSymbolTableRecord
100
AcDbLayerTableRecord
  2
DEFAULT_3
 70
0
 62
7
  6
PHANTOM
370
-3
390
F
  0
LAYER
  5
1FD
100
AcDbSymbolTableRecord
100
AcDbLayerTableRecord
  2
ASSI
 70
0
 62
7
  6
CONTINUOUS
370
-3
390
F
  0
LAYER
  5
1FE
100
AcDbSymbolTableRecord
100
AcDbLayerTableRecord
  2
COORDINATE
 70
0
 62
7
  6
CONTINUOUS
370
-3
390
F
  0
LAYER
  5
1FF
100
AcDbSymbolTableRecord
100
AcDbLayerTableRecord
  2
COPY_PUBLISH
 70
0
 62
7
  6
CONTINUOUS
370
-3
390
F
  0
LAYER
  5
200
100
AcDbSymbolTableRecord
100
AcDbLayerTableRecord
  2
COSMETICI
 70
0
 62
7
  6
CONTINUOUS
370
-3
390
F
  0
LAYER
  5
201
100
AcDbSymbolTableRecord
100
AcDbLayerTableRecord
  2
CURVE
 70
0
 62
7
  6
CONTINUOUS
370
-3
390
F
  0
LAYER
  5
202
100
AcDbSymbolTableRecord
100
AcDbLayerTableRecord
  2
DRAFT
 70
0
 62
7
  6
CONTINUOUS
370
-3
390
F
  0
LAYER
  5
203
100
AcDbSymbolTableRecord
100
AcDbLayerTableRecord
  2
IMPORT_IGES
 70
0
 62
7
  6
CONTINUOUS
370
-3
390
F
  0
LAYER
  5
204
100
AcDbSymbolTableRecord
100
AcDbLayerTableRecord
  2
NOTE
 70
0
 62
7
  6
CONTINUOUS
370
-3
390
F
  0
LAYER
  5
205
100
AcDbSymbolTableRecord
100
AcDbLayerTableRecord
  2
PIANI
 70
0
 62
7
  6
CONTINUOUS
370
-3
390
F
  0
LAYER
  5
206
100
AcDbSymbolTableRecord
100
AcDbLayerTableRecord
  2
PUNTI
 70
0
 62
7
  6
CONTINUOUS
370
-3
390
F
  0
LAYER
  5
207
100
AcDbSymbolTableRecord
100
AcDbLayerTableRecord
  2
RACCORDO
 70
0
 62
7
  6
CONTINUOUS
370
-3
390
F
  0
LAYER
  5
208
100
AcDbSymbolTableRecord
100
AcDbLayerTableRecord
  2
SIMBOLI
 70
0
 62
7
  6
CONTINUOUS
370
-3
390
F
  0
LAYER
  5
209
100
AcDbSymbolTableRecord
100
AcDbLayerTableRecord
  2
SMUSSO
 70
0
 62
7
  6
CONTINUOUS
370
-3
390
F
  0
LAYER
  5
20A
100
AcDbSymbolTableRecord
100
AcDbLayerTableRecord
  2
SNAPLINE
 70
0
 62
7
  6
CONTINUOUS
370
-3
390
F
  0
LAYER
  5
20B
100
AcDbSymbolTableRecord
100
AcDbLayerTableRecord
  2
SUPERFICI
 70
0
 62
7
  6
CONTINUOUS
370
-3
390
F
  0
LAYER
  5
20C
100
AcDbSymbolTableRecord
100
AcDbLayerTableRecord
  2
TRASH
 70
0
 62
7
  6
CONTINUOUS
370
-3
390
F
  0
ENDTAB
  0
TABLE
  2
STYLE
  5
3
100
AcDbSymbolTable
 70
1
  0
STYLE
  5
11
100
AcDbSymbolTableRecord
100
AcDbTextStyleTableRecord
  2
STANDARD
 70
0
 40
0.0
 41
0.8
 50
0.0
 71
0
 42
0.2
  3
txt
  4

  0
STYLE
  5
20D
100
AcDbSymbolTableRecord
100
AcDbTextStyleTableRecord
  2
TEXTSTYLE_1
 70
0
 40
0.0
 41
0.8
 50
0.0
 71
0
 42
0.2
  3
gdt
  4

  0
ENDTAB
  0
TABLE
  2
VIEW
  5
6
100
AcDbSymbolTable
 70
0
  0
ENDTAB
  0
TABLE
  2
UCS
  5
7
100
AcDbSymbolTable
 70
0
  0
ENDTAB
  0
TABLE
  2
APPID
  5
9
100
AcDbSymbolTable
 70
1
  0
APPID
  5
20E
100
AcDbSymbolTableRecord
100
AcDbRegAppTableRecord
  2
ACAD
 70
0
  0
ENDTAB
  0
TABLE
  2
BLOCK_RECORD
  5
1
100
AcDbSymbolTable
 70
0
  0
BLOCK_RECORD
  5
20F
100
AcDbSymbolTableRecord
100
AcDbBlockTableRecord
  2
*Model_Space
  0
BLOCK_RECORD
  5
210
100
AcDbSymbolTableRecord
100
AcDbBlockTableRecord
  2
*Paper_Space
  0
ENDTAB
  0
TABLE
  2
DIMSTYLE
  5
A
100
AcDbSymbolTable
 70
1
100
AcDbDimStyleTable
 71
0
  0
DIMSTYLE
105
211
100
AcDbSymbolTableRecord
100
AcDbDimStyleTableRecord
  2
STANDARD
 70
0
  3

  4

 40
1.0
 41
3.0
 42
0.5
 43
0.38
 44
1.5
 45
0.0
 46
0.0
 47
0.01
 48
0.01
140
3.0
141
0.09
142
0.0
143
25.4
144
1.0
145
0.0
146
1.0
147
0.625
 71
1.0
 72
0.0
 73
0
 74
0
 75
0
 76
0
 77
1
 78
8
170
0
171
2
172
0
173
0
174
0
175
0
176
0
177
0
178
0
270
2
271
2
272
2
273
2
274
2
275
0
280
0
281
0
282
0
283
1
284
8
285
0
286
0
287
3
288
0
340
11
278
44
  0
ENDTAB
  0
ENDSEC
  0
SECTION
  2
BLOCKS
  0
BLOCK
  5
20
100
AcDbEntity
  8
0
100
AcDbBlockBegin
  2
*Model_Space
 70
0
 10
0.0
 20
0.0
 30
0.0
  3
*Model_Space
  1

  0
ENDBLK
  5
21
100
AcDbEntity
  8
0
100
AcDbBlockEnd
  0
BLOCK
  5
1C
100
AcDbEntity
  8
0
100
AcDbBlockBegin
  2
*Paper_Space
 70
0
 10
0.0
 20
0.0
 30
0.0
  3
*Paper_Space
  1

  0
ENDBLK
  5
1D
100
AcDbEntity
  8
0
100
AcDbBlockEnd
  0
ENDSEC
  0
SECTION
  2
ENTITIES
  0
LWPOLYLINE
  5
212
100
AcDbEntity
  8
RACCORDO
100
AcDbPolyline
 62
7
  6
CONTINUOUS
 90
12
 70
0
 10
-27.5323775994
 20
29.9321822385
 10
-27.5725615202
 20
29.9045341888
 10
-27.6102290502
 20
29.8727596283
 10
-27.6448520363
 20
29.8371290552
 10
-27.6759270511
 20
29.7980161131
 10
-27.7030371115
 20
29.7558355944
 10
-27.7258648412
 20
29.7109761452
 10
-27.7441572641
 20
29.663775057
 10
-27.7575980087
 20
29.6148998341
 10
-27.7659931925
 20
29.565153416
 10
-27.7693328243
 20
29.5148003274
 10
-27.769394771
 20
29.5068153839
  0
LINE
  5
213
100
AcDbEntity
  8
RACCORDO
100
AcDbLine
 62
7
  6
CONTINUOUS
 10
-25.4577033285
 20
31.2151919284
 11
-27.5323775994
 21
29.9321822385
  0
LINE
  5
214
100
AcDbEntity
  8
RACCORDO
100
AcDbLine
 62
253
  6
CONTINUOUS
 10
-25.2033995124
 20
31.1929979102
 11
-27.2755651674
 21
29.911539586
  0
LINE
  5
215
100
AcDbEntity
  8
RACCORDO
100
AcDbLine
 62
7
  6
CONTINUOUS
 10
-24.3926975728
 20
31.8301492979
 11
-25.4533577446
 21
31.2177374079
  0
LINE
  5
216
100
AcDbEntity
  8
RACCORDO
100
AcDbLine
 62
253
  6
CONTINUOUS
 10
-24.1426854928
 20
31.805378709
 11
-25.2033456646
 21
31.1929668191
  0
LWPOLYLINE
  5
217
100
AcDbEntity
  8
RACCORDO
100
AcDbPolyline
 62
7
  6
CONTINUOUS
 90
10
 70
0
 10
-24.3926975728
 20
31.8301492979
 10
-24.3699859176
 20
31.8410247476
 10
-24.3453933328
 20
31.8486144343
 10
-24.3194621881
 20
31.8527542196
 10
-24.2921620765
 20
31.853365735
 10
-24.2635234049
 20
31.8505273491
 10
-24.2341918437
 20
31.8443030542
 10
-24.2043826164
 20
31.8347141814
 10
-24.1738804994
 20
31.8217393996
 10
-24.1426854928
 20
31.805378709
  0
LINE
  5
218
100
AcDbEntity
  8
DRAFT
100
AcDbLine
 62
7
  6
CONTINUOUS
 10
-16.4528992474
 20
27.6920989821
 11
-16.6125592668
 21
27.5999132879
  0
LINE
  5
219
100
AcDbEntity
  8
DRAFT
100
AcDbLine
 62
7
  6
CONTINUOUS
 10
-16.6125592668
 20
27.1100311218
 11
-16.8772794831
 21
26.9571849867
  0
LINE
  5
21A
100
AcDbEntity
  8
DRAFT
100
AcDbLine
 62
7
  6
CONTINUOUS
 10
-13.4476954273
 20
25.9569319605
 11
-13.6073554467
 21
25.8647462663
  0
LINE
  5
21B
100
AcDbEntity
  8
DRAFT
100
AcDbLine
 62
7
  6
CONTINUOUS
 10
-13.6073554467
 20
25.3748641002
 11
-13.7838034824
 21
25.2729852158
  0
LWPOLYLINE
  5
21C
100
AcDbEntity
  8
RACCORDO
100
AcDbPolyline
 62
253
  6
CONTINUOUS
 90
9
 70
0
 10
-27.6471911155
 20
-6.9955347168
 10
-27.6446609053
 20
-7.036890633
 10
-27.6386738932
 20
-7.0756210864
 10
-27.628980496
 20
-7.1113632285
 10
-27.6151261875
 20
-7.1439484503
 10
-27.5973334286
 20
-7.173019379
 10
-27.5763407631
 20
-7.197995246
 10
-27.5519644778
 20
-7.2188314951
 10
-27.546173737
 20
-7.2228336057
  0
LINE
  5
21D
100
AcDbEntity
  8
RACCORDO
100
AcDbLine
 62
253
  6
CONTINUOUS
 10
-27.769394771
 20
29.5068153839
 11
-27.76939481
 21
29.5069293108
  0
LINE
  5
21E
100
AcDbEntity
  8
RACCORDO
100
AcDbLine
 62
7
  6
CONTINUOUS
 10
-27.76939481
 20
29.5069293108
 11
-27.76939481
 21
-6.8064282437
  0
LINE
  5
21F
100
AcDbEntity
  8
RACCORDO
100
AcDbLine
 62
253
  6
CONTINUOUS
 10
-27.6471911155
 20
29.3178228378
 11
-27.6471911155
 21
-6.9955347168
  0
LWPOLYLINE
  5
220
100
AcDbEntity
  8
RACCORDO
100
AcDbPolyline
 62
253
  6
CONTINUOUS
 90
16
 70
0
 10
-27.6471911155
 20
29.3178228378
 10
-27.6446610418
 20
29.3604882243
 10
-27.6386743327
 20
29.4053332134
 10
-27.6289813825
 20
29.4515887229
 10
-27.6151276426
 20
29.4981097066
 10
-27.5973355294
 20
29.5444062146
 10
-27.5763434954
 20
29.5906543011
 10
-27.551967717
 20
29.6360322603
 10
-27.5243065691
 20
29.6796683051
 10
-27.4943157746
 20
29.721705596
 10
-27.4617652394
 20
29.7616810265
 10
-27.4267962575
 20
29.7985840035
 10
-27.3907509376
 20
29.8321942715
 10
-27.3539315335
 20
29.8624594453
 10
-27.3156526224
 20
29.8890306675
 10
-27.2755651677
 20
29.9115395861
  0
LWPOLYLINE
  5
221
100
AcDbEntity
  8
RACCORDO
100
AcDbPolyline
 62
253
  6
CONTINUOUS
 90
19
 70
0
 10
21.1199351741
 20
-35.1530622408
 10
21.1522045744
 20
-35.1679134568
 10
21.1864900497
 20
-35.1811794036
 10
21.2225587907
 20
-35.192769008
 10
21.2601731254
 20
-35.2026042998
 10
21.2990702538
 20
-35.2106150268
 10
21.3389617501
 20
-35.2167427399
 10
21.379554862
 20
-35.2209466447
 10
21.4205916058
 20
-35.2232041203
 10
21.4618281036
 20
-35.2235018356
 10
21.5030186639
 20
-35.2218330749
 10
21.5438471198
 20
-35.21820569
 10
21.5839672898
 20
-35.2126529769
 10
21.6231104565
 20
-35.2052196896
 10
21.6610133085
 20
-35.1959635636
 10
21.6973599472
 20
-35.184975538
 10
21.7318997452
 20
-35.1723535861
 10
21.7644407176
 20
-35.1581910703
 10
21.794785277
 20
-35.1425962815
  0
LWPOLYLINE
  5
222
100
AcDbEntity
  8
RACCORDO
100
AcDbPolyline
 62
253
  6
CONTINUOUS
 90
10
 70
0
 10
-27.6471911155
 20
-6.9955347168
 10
-27.6729124933
 20
-6.9769027898
 10
-27.695888301
 20
-6.9571067956
 10
-27.7159607998
 20
-6.9362811534
 10
-27.7329949519
 20
-6.9145630795
 10
-27.7468690679
 20
-6.8921043204
 10
-27.7574818985
 20
-6.8690714418
 10
-27.7647627932
 20
-6.8456334956
 10
-27.7686725915
 20
-6.8219394211
 10
-27.7693948098
 20
-6.8064352186
  0
LINE
  5
223
100
AcDbEntity
  8
SMUSSO
100
AcDbLine
 62
7
  6
CONTINUOUS
 10
-19.1929380245
 20
28.2942172064
 11
-19.1929380245
 21
28.9474565558
  0
LWPOLYLINE
  5
224
100
AcDbEntity
  8
RACCORDO
100
AcDbPolyline
 62
7
  6
CONTINUOUS
 90
16
 70
0
 10
-27.5461115865
 20
-7.2228748893
 10
-24.5614626259
 20
-9.1877510508
 10
-21.49114688
 20
-11.1715711242
 10
-18.3882894738
 20
-13.1390357327
 10
-15.2532053836
 20
-15.0899442145
 10
-12.0861706585
 20
-17.0241282534
 10
-8.8874413654
 20
-18.9414331939
 10
-5.6572889806
 20
-20.8416959862
 10
-2.3960182444
 20
-22.7247398855
 10
0.8960652999
 20
-24.5903893939
 10
4.2186538857
 20
-26.4384694655
 10
7.571463341
 20
-28.268824191
 10
10.9542239035
 20
-30.0813064641
 10
14.3666418987
 20
-31.8757575373
 10
17.8083674105
 20
-33.6519960571
 10
21.2231730087
 20
-35.3818021882
  0
LWPOLYLINE
  5
225
100
AcDbEntity
  8
RACCORDO
100
AcDbPolyline
 62
253
  6
CONTINUOUS
 90
16
 70
0
 10
-27.6471911155
 20
-6.9955347168
 10
-24.6173134381
 20
-8.9899091265
 10
-21.5544438903
 20
-10.9684090837
 10
-18.4588487731
 20
-12.9308514125
 10
-15.3307308351
 20
-14.8770951414
 10
-12.1704277916
 20
-16.8069184204
 10
-8.9784190289
 20
-18.7200222063
 10
-5.7549890518
 20
-20.6162327326
 10
-2.5004251037
 20
-22.4953772126
 10
0.7847730708
 20
-24.3571670963
 10
4.1003067078
 20
-26.2014368119
 10
7.4458743731
 20
-28.0280218041
 10
10.8209566948
 20
-29.8366444274
 10
14.22516897
 20
-31.6271093972
 10
17.6582675426
 20
-33.3992999241
 10
21.1199351741
 20
-35.1530622408
  0
LINE
  5
226
100
AcDbEntity
  8
DRAFT
100
AcDbLine
 62
7
  6
CONTINUOUS
 10
-16.6125592668
 20
27.5999132879
 11
-16.6125592668
 21
27.1100311218
  0
LINE
  5
227
100
AcDbEntity
  8
DRAFT
100
AcDbLine
 62
7
  6
CONTINUOUS
 10
-15.1624293717
 20
26.7020330933
 11
-15.1624293717
 21
26.2121509272
  0
LINE
  5
228
100
AcDbEntity
  8
DRAFT
100
AcDbLine
 62
7
  6
CONTINUOUS
 10
-13.6073554467
 20
25.8647462663
 11
-13.6073554467
 21
25.3748641002
  0
LINE
  5
229
100
AcDbEntity
  8
RACCORDO
100
AcDbLine
 62
253
  6
CONTINUOUS
 10
-13.3062740711
 20
25.2729852158
 11
-13.3062740711
 21
25.898620546
  0
LINE
  5
22A
100
AcDbEntity
  8
RACCORDO
100
AcDbLine
 62
7
  6
CONTINUOUS
 10
-13.1598274617
 20
25.2729852158
 11
-13.1598274617
 21
25.8553299843
  0
LINE
  5
22B
100
AcDbEntity
  8
DRAFT
100
AcDbLine
 62
7
  6
CONTINUOUS
 10
23.3693364583
 20
-29.7542912373
 11
23.9405756279
 21
-30.0841175745
  0
LINE
  5
22C
100
AcDbEntity
  8
DRAFT
100
AcDbLine
 62
7
  6
CONTINUOUS
 10
16.0740126872
 20
8.911467689
 11
15.9143526678
 21
8.8192819948
  0
LINE
  5
22D
100
AcDbEntity
  8
DRAFT
100
AcDbLine
 62
7
  6
CONTINUOUS
 10
15.9143526678
 20
8.3293998288
 11
15.6496324515
 21
8.1765536936
  0
LINE
  5
22E
100
AcDbEntity
  8
DRAFT
100
AcDbLine
 62
7
  6
CONTINUOUS
 10
23.3693364583
 20
-17.5072370854
 11
23.9405756279
 21
-17.8370634227
  0
LINE
  5
22F
100
AcDbEntity
  8
DRAFT
100
AcDbLine
 62
7
  6
CONTINUOUS
 10
19.0792165073
 20
7.1763006674
 11
18.9195564878
 21
7.0841149732
  0
LINE
  5
230
100
AcDbEntity
  8
DRAFT
100
AcDbLine
 62
7
  6
CONTINUOUS
 10
18.9195564878
 20
6.5942328071
 11
18.7431084521
 21
6.4923539227
  0
LINE
  5
231
100
AcDbEntity
  8
RACCORDO
100
AcDbLine
 62
253
  6
CONTINUOUS
 10
21.4412857343
 20
1.7830404409
 11
24.6476824091
 21
3.6344317694
  0
LINE
  5
232
100
AcDbEntity
  8
SMUSSO
100
AcDbLine
 62
7
  6
CONTINUOUS
 10
19.6979349408
 20
6.4923539227
 11
18.5665640909
 21
6.4923539227
  0
LINE
  5
233
100
AcDbEntity
  8
RACCORDO
100
AcDbLine
 62
253
  6
CONTINUOUS
 10
21.794785277
 20
1.1707612731
 11
25.0012357997
 21
3.0220593344
  0
LINE
  5
234
100
AcDbEntity
  8
DRAFT
100
AcDbLine
 62
7
  6
CONTINUOUS
 10
23.3693364583
 20
-5.2601829335
 11
23.9405756279
 21
-5.5900092708
  0
LWPOLYLINE
  5
235
100
AcDbEntity
  8
RACCORDO
100
AcDbPolyline
 62
253
  6
CONTINUOUS
 90
10
 70
0
 10
-27.6471911155
 20
29.3178228378
 10
-27.672912519
 20
29.3364547851
 10
-27.6958883327
 20
29.3562507888
 10
-27.715960823
 20
29.3770764278
 10
-27.7329949507
 20
29.3987944733
 10
-27.7468690429
 20
29.4212531877
 10
-27.7574818696
 20
29.4442860377
 10
-27.7647627772
 20
29.4677239918
 10
-27.7686725878
 20
29.4914180933
 10
-27.769394771
 20
29.5068153839
  0
LINE
  5
236
100
AcDbEntity
  8
DRAFT
100
AcDbLine
 62
7
  6
CONTINUOUS
 10
23.9405756279
 20
-1.4948324761
 11
23.2930711895
 21
-1.8622785019
  0
LWPOLYLINE
  5
237
100
AcDbEntity
  8
RACCORDO
100
AcDbPolyline
 62
253
  6
CONTINUOUS
 90
19
 70
0
 10
21.1199351741
 20
1.1602953138
 10
21.1522045393
 20
1.1454441126
 10
21.1864899979
 20
1.1321781692
 10
21.2225587446
 20
1.12058856
 10
21.2601731284
 20
1.110753254
 10
21.2990703343
 20
1.1027425134
 10
21.3389618801
 20
1.096614798
 10
21.3795549784
 20
1.0924109006
 10
21.4205916754
 20
1.0901534321
 10
21.4618281309
 20
1.0898557194
 10
21.5030186599
 20
1.0915244794
 10
21.5438470906
 20
1.0951518612
 10
21.5839672623
 20
1.1007045732
 10
21.6231104833
 20
1.1081378707
 10
21.6610134106
 20
1.1173940187
 10
21.6973600847
 20
1.1283820624
 10
21.7318998639
 20
1.1410040164
 10
21.7644407883
 20
1.1551665188
 10
21.794785277
 20
1.1707612751
  0
LWPOLYLINE
  5
238
100
AcDbEntity
  8
RACCORDO
100
AcDbPolyline
 62
253
  6
CONTINUOUS
 90
16
 70
0
 10
21.1199351741
 20
1.1602953138
 10
17.6582675426
 20
2.9053625192
 10
14.22516897
 20
4.6700992565
 10
10.8209566948
 20
6.4543517585
 10
7.4458743731
 20
8.2580025844
 10
4.1003067078
 20
10.080857101
 10
0.7847730708
 20
11.9226396163
 10
-2.5004251037
 20
13.7831862265
 10
-5.7549890518
 20
15.6623307082
 10
-8.9784190289
 20
17.5597845112
 10
-12.1704277916
 20
19.4753755001
 10
-15.3307308351
 20
21.408929257
 10
-18.4588487731
 20
23.3601447838
 10
-21.5544438903
 20
25.3287995787
 10
-24.6173134381
 20
27.3147533221
 10
-27.6471911155
 20
29.3178228378
  0
LWPOLYLINE
  5
239
100
AcDbEntity
  8
RACCORDO
100
AcDbPolyline
 62
253
  6
CONTINUOUS
 90
16
 70
0
 10
21.4412857343
 20
1.7830404409
 10
17.9826740504
 20
3.526557114
 10
14.5532274245
 20
5.2894157637
 10
11.1529458565
 20
7.0716163899
 10
7.781450627
 20
8.8733585653
 10
4.4391204555
 20
10.6944427173
 10
1.1270914999
 20
12.5342701278
 10
-2.154619038
 20
14.3928499649
 10
-5.40602836
 20
16.2701730607
 10
-8.6260519123
 20
18.1656131933
 10
-11.814674762
 20
20.0791808718
 10
-14.9719118421
 20
22.0108655872
 10
-18.0967233982
 20
23.9600095912
 10
-21.1887628453
 20
25.9263936342
 10
-24.2483767684
 20
27.9102369658
 10
-27.2755651674
 20
29.911539586
  0
LINE
  5
23A
100
AcDbEntity
  8
SMUSSO
100
AcDbLine
 62
7
  6
CONTINUOUS
 10
13.3339739101
 20
9.5135859134
 11
13.3339739101
 21
10.1668252627
  0
LINE
  5
23B
100
AcDbEntity
  8
DRAFT
100
AcDbLine
 62
7
  6
CONTINUOUS
 10
15.9143526678
 20
8.8192819948
 11
15.9143526678
 21
8.3293998288
  0
LINE
  5
23C
100
AcDbEntity
  8
RACCORDO
100
AcDbLine
 62
7
  6
CONTINUOUS
 10
23.2930711895
 20
-5.3042176188
 11
23.3693364583
 21
-5.2601829335
  0
LINE
  5
23D
100
AcDbEntity
  8
DRAFT
100
AcDbLine
 62
7
  6
CONTINUOUS
 10
23.9405756279
 20
-5.5900092708
 11
23.2930711895
 21
-5.9446298858
  0
LINE
  5
23E
100
AcDbEntity
  8
RACCORDO
100
AcDbLine
 62
7
  6
CONTINUOUS
 10
19.2206378635
 20
7.1179892529
 11
19.0792165073
 21
7.1763006674
  0
LINE
  5
23F
100
AcDbEntity
  8
RACCORDO
100
AcDbLine
 62
7
  6
CONTINUOUS
 10
16.2154340434
 20
8.8531562745
 11
16.0740126872
 21
8.911467689
  0
LWPOLYLINE
  5
240
100
AcDbEntity
  8
RACCORDO
100
AcDbPolyline
 62
253
  6
CONTINUOUS
 90
11
 70
0
 10
-27.2755651674
 20
29.911539586
 10
-27.3068827687
 20
29.9274649191
 10
-27.3379151745
 20
29.9401909626
 10
-27.3684263011
 20
29.9496209012
 10
-27.3981840303
 20
29.9556829949
 10
-27.4269619756
 20
29.9583311257
 10
-27.4545412044
 20
29.9575451473
 10
-27.4807119033
 20
29.9533310393
 10
-27.5052749748
 20
29.945720861
 10
-27.5280435513
 20
29.9347725083
 10
-27.5323775994
 20
29.9321822385
  0
LINE
  5
241
100
AcDbEntity
  8
DRAFT
100
AcDbLine
 62
7
  6
CONTINUOUS
 10
18.9195564878
 20
6.5942328071
 11
17.3644825629
 21
7.4315196342
  0
LINE
  5
242
100
AcDbEntity
  8
DRAFT
100
AcDbLine
 62
7
  6
CONTINUOUS
 10
18.9195564878
 20
7.0841149732
 11
17.3644825629
 21
7.9214018002
  0
LINE
  5
243
100
AcDbEntity
  8
RACCORDO
100
AcDbLine
 62
7
  6
CONTINUOUS
 10
-25.2033995124
 20
31.1929979102
 11
23.5870760852
 21
3.0219887883
  0
LINE
  5
244
100
AcDbEntity
  8
SMUSSO
100
AcDbLine
 62
7
  6
CONTINUOUS
 10
-19.1929380245
 20
28.2942172064
 11
-13.9603478437
 21
25.2729852158
  0
LINE
  5
245
100
AcDbEntity
  8
SMUSSO
100
AcDbLine
 62
7
  6
CONTINUOUS
 10
18.5665640909
 20
6.4923539227
 11
13.3339739101
 21
9.5135859134
  0
LINE
  5
246
100
AcDbEntity
  8
DRAFT
100
AcDbLine
 62
7
  6
CONTINUOUS
 10
-16.6125592668
 20
27.1100311218
 11
-15.1624293717
 21
26.2121509272
  0
LINE
  5
247
100
AcDbEntity
  8
DRAFT
100
AcDbLine
 62
7
  6
CONTINUOUS
 10
-16.6125592668
 20
27.5999132879
 11
-15.1624293717
 21
26.7020330933
  0
LINE
  5
248
100
AcDbEntity
  8
DRAFT
100
AcDbLine
 62
7
  6
CONTINUOUS
 10
17.3644825629
 20
7.9214018002
 11
17.3644825629
 21
7.4315196342
  0
LINE
  5
249
100
AcDbEntity
  8
DRAFT
100
AcDbLine
 62
7
  6
CONTINUOUS
 10
18.9195564878
 20
7.0841149732
 11
18.9195564878
 21
6.5942328071
  0
LWPOLYLINE
  5
24A
100
AcDbEntity
  8
RACCORDO
100
AcDbPolyline
 62
7
  6
CONTINUOUS
 90
7
 70
0
 10
-25.2033456646
 20
31.1929668191
 10
-25.2345406712
 20
31.2093275097
 10
-25.2650427881
 20
31.2223022914
 10
-25.2948520155
 20
31.2318911642
 10
-25.3241835767
 20
31.2381154591
 10
-25.3528222482
 20
31.240953845
 10
-25.3801223598
 20
31.2403423296
  0
LINE
  5
24B
100
AcDbEntity
  8
DRAFT
100
AcDbLine
 62
7
  6
CONTINUOUS
 10
-15.1624293717
 20
26.2121509272
 11
-13.6073554467
 21
25.3748641002
  0
LINE
  5
24C
100
AcDbEntity
  8
DRAFT
100
AcDbLine
 62
7
  6
CONTINUOUS
 10
-15.1624293717
 20
26.7020330933
 11
-13.6073554467
 21
25.8647462663
  0
LINE
  5
24D
100
AcDbEntity
  8
RACCORDO
100
AcDbLine
 62
7
  6
CONTINUOUS
 10
-24.1426854928
 20
31.805378709
 11
-19.1929380245
 21
28.9474565558
  0
LINE
  5
24E
100
AcDbEntity
  8
SMUSSO
100
AcDbLine
 62
7
  6
CONTINUOUS
 10
-12.8289769938
 20
25.2729852158
 11
13.3339739101
 21
10.1668252627
  0
LINE
  5
24F
100
AcDbEntity
  8
RACCORDO
100
AcDbLine
 62
7
  6
CONTINUOUS
 10
19.6979349408
 20
6.4923539227
 11
24.6476824091
 21
3.6344317694
  0
LINE
  5
250
100
AcDbEntity
  8
0
100
AcDbLine
 62
7
  6
CONTINUOUS
 10
-16.4528992474
 20
27.6920989821
 11
-13.4476954273
 21
25.9569319605
  0
LINE
  5
251
100
AcDbEntity
  8
0
100
AcDbLine
 62
7
  6
CONTINUOUS
 10
19.0792165073
 20
7.1763006674
 11
16.0740126872
 21
8.911467689
  0
LINE
  5
252
100
AcDbEntity
  8
RACCORDO
100
AcDbLine
 62
7
  6
CONTINUOUS
 10
-15.6043711099
 20
27.2838717347
 11
-13.3062740711
 21
25.9569793064
  0
LINE
  5
253
100
AcDbEntity
  8
RACCORDO
100
AcDbLine
 62
7
  6
CONTINUOUS
 10
19.2206378635
 20
7.1763480133
 11
16.9225408246
 21
8.5032404416
  0
LINE
  5
254
100
AcDbEntity
  8
DRAFT
100
AcDbLine
 62
7
  6
CONTINUOUS
 10
17.3644825629
 20
7.4315196342
 11
15.9143526678
 21
8.3293998288
  0
LINE
  5
255
100
AcDbEntity
  8
DRAFT
100
AcDbLine
 62
7
  6
CONTINUOUS
 10
17.3644825629
 20
7.9214018002
 11
15.9143526678
 21
8.8192819948
  0
LWPOLYLINE
  5
256
100
AcDbEntity
  8
RACCORDO
100
AcDbPolyline
 62
7
  6
CONTINUOUS
 90
19
 70
0
 10
24.6476824091
 20
3.6344317694
 10
24.6788774157
 20
3.6147692483
 10
24.7093795327
 20
3.5925209499
 10
24.73918876
 20
3.5676868742
 10
24.7685203212
 20
3.5400398174
 10
24.7971589928
 20
3.5098069833
 10
24.8244591044
 20
3.4776699833
 10
24.8503902492
 20
3.4435855621
 10
24.874982834
 20
3.4075969749
 10
24.8976824091
 20
3.370515599
 10
24.9184459728
 20
3.3323166103
 10
24.9373165268
 20
3.2930248328
 10
24.9538686269
 20
3.2535261155
 10
24.968049607
 20
3.2138157573
 10
24.9799121331
 20
3.1738984593
 10
24.98918876
 20
3.1346741728
 10
24.9957903392
 20
3.0964428817
 10
24.9998060191
 20
3.0589046023
 10
25.0012357997
 20
3.0220593344
  0
LWPOLYLINE
  5
257
100
AcDbEntity
  8
RACCORDO
100
AcDbPolyline
 62
253
  6
CONTINUOUS
 90
9
 70
0
 10
21.1199351741
 20
-35.1530622408
 10
21.1210701042
 20
-35.1936115
 10
21.1263658377
 20
-35.2319421481
 10
21.1354705878
 20
-35.267344101
 10
21.1475388183
 20
-35.298898064
 10
21.162455717
 20
-35.3263087984
 10
21.18087665
 20
-35.3498003317
 10
21.2021286562
 20
-35.3688333799
 10
21.2228784432
 20
-35.3816542141
  0
LINE
  5
258
100
AcDbEntity
  8
RACCORDO
100
AcDbLine
 62
253
  6
CONTINUOUS
 10
19.2206378635
 20
6.4923539227
 11
19.2206378635
 21
7.1179892529
  0
LINE
  5
259
100
AcDbEntity
  8
RACCORDO
100
AcDbLine
 62
7
  6
CONTINUOUS
 10
19.3670844729
 20
6.4923539227
 11
19.3670844729
 21
7.0746986913
  0
LINE
  5
25A
100
AcDbEntity
  8
RACCORDO
100
AcDbLine
 62
253
  6
CONTINUOUS
 10
21.1199351741
 20
-35.1530622408
 11
21.1199351741
 21
1.1602953138
  0
LINE
  5
25B
100
AcDbEntity
  8
RACCORDO
100
AcDbLine
 62
253
  6
CONTINUOUS
 10
21.794785277
 20
-35.1425962815
 11
21.794785277
 21
1.1707612731
  0
LWPOLYLINE
  5
25C
100
AcDbEntity
  8
RACCORDO
100
AcDbPolyline
 62
253
  6
CONTINUOUS
 90
16
 70
0
 10
21.1199351741
 20
1.1602953138
 10
21.1210701706
 20
1.2037674743
 10
21.1263661776
 20
1.2490126013
 10
21.1354713501
 20
1.2956088019
 10
21.1475401021
 20
1.3431616739
 10
21.1624575605
 20
1.391119072
 10
21.1808790099
 20
1.4388521549
 10
21.2021314763
 20
1.4860338734
 10
21.2255640487
 20
1.5321114772
 10
21.2518105233
 20
1.5763103059
 10
21.2803463298
 20
1.6186029949
 10
21.3101844963
 20
1.658467367
 10
21.3414744371
 20
1.6948221021
 10
21.3741155685
 20
1.7274984344
 10
21.4074983725
 20
1.7568952464
 10
21.4412857346
 20
1.7830404407
  0
LINE
  5
25D
100
AcDbEntity
  8
DRAFT
100
AcDbLine
 62
7
  6
CONTINUOUS
 10
23.9405756279
 20
-13.741886628
 11
23.2930711895
 21
-14.1093326538
  0
LINE
  5
25E
100
AcDbEntity
  8
RACCORDO
100
AcDbLine
 62
7
  6
CONTINUOUS
 10
-13.3062740711
 20
25.898620546
 11
-13.4476954273
 21
25.9569319605
  0
LINE
  5
25F
100
AcDbEntity
  8
RACCORDO
100
AcDbLine
 62
7
  6
CONTINUOUS
 10
-16.3114778911
 20
27.6337875676
 11
-16.4528992474
 21
27.6920989821
  0
LWPOLYLINE
  5
260
100
AcDbEntity
  8
RACCORDO
100
AcDbPolyline
 62
253
  6
CONTINUOUS
 90
19
 70
0
 10
21.794785277
 20
1.1707612731
 10
21.7929172002
 20
1.2068140105
 10
21.7884209747
 20
1.2441723445
 10
21.7813308063
 20
1.2825520659
 10
21.7717006344
 20
1.3216611952
 10
21.759603722
 20
1.3612022035
 10
21.7451320982
 20
1.4008742762
 10
21.7283958583
 20
1.4403756015
 10
21.7095223258
 20
1.4794056672
 10
21.6886550839
 20
1.5176675464
 10
21.6659528832
 20
1.5548701561
 10
21.6415884343
 20
1.5907304714
 10
21.6157470935
 20
1.6249756793
 10
21.5886254529
 20
1.657345254
 10
21.5604298446
 20
1.6875929391
 10
21.531374771
 20
1.7154886206
 10
21.5016812731
 20
1.7408200777
 10
21.4715752488
 20
1.7633945975
 10
21.4412857343
 20
1.7830404409
  0
LWPOLYLINE
  5
261
100
AcDbEntity
  8
RACCORDO
100
AcDbPolyline
 62
7
  6
CONTINUOUS
 90
19
 70
0
 10
23.9405756279
 20
2.4096474444
 10
23.9391458473
 20
2.4464927123
 10
23.9351301674
 20
2.4840309917
 10
23.9285285883
 20
2.5222622828
 10
23.9192519614
 20
2.5614865693
 10
23.9073894352
 20
2.6014038673
 10
23.8932084552
 20
2.6411142255
 10
23.876656355
 20
2.6806129428
 10
23.857785801
 20
2.7199047203
 10
23.8370222373
 20
2.758103709
 10
23.8143226622
 20
2.7951850849
 10
23.7897300774
 20
2.8311736721
 10
23.7637989326
 20
2.8652580933
 10
23.736498821
 20
2.8973950933
 10
23.7078601495
 20
2.9276279274
 10
23.6785285883
 20
2.9552749842
 10
23.6487193609
 20
2.9801090599
 10
23.6182172439
 20
3.0023573583
 10
23.5870222373
 20
3.0220198794
  0
LINE
  5
262
100
AcDbEntity
  8
DRAFT
100
AcDbLine
 62
7
  6
CONTINUOUS
 10
23.2930711895
 20
-1.8622785019
 11
23.2930711895
 21
-5.9446298858
  0
LINE
  5
263
100
AcDbEntity
  8
DRAFT
100
AcDbLine
 62
7
  6
CONTINUOUS
 10
23.2930711895
 20
-14.1093326538
 11
23.2930711895
 21
-18.1916840377
  0
LINE
  5
264
100
AcDbEntity
  8
DRAFT
100
AcDbLine
 62
7
  6
CONTINUOUS
 10
23.2930711895
 20
-26.3563868057
 11
23.2930711895
 21
-30.4387381896
  0
LINE
  5
265
100
AcDbEntity
  8
DRAFT
100
AcDbLine
 62
7
  6
CONTINUOUS
 10
23.3693364583
 20
-1.8189994628
 11
23.3693364583
 21
-5.2601829335
  0
LINE
  5
266
100
AcDbEntity
  8
DRAFT
100
AcDbLine
 62
7
  6
CONTINUOUS
 10
23.3693364583
 20
-14.0660536147
 11
23.3693364583
 21
-17.5072370854
  0
LINE
  5
267
100
AcDbEntity
  8
DRAFT
100
AcDbLine
 62
7
  6
CONTINUOUS
 10
23.3693364583
 20
-26.3131077665
 11
23.3693364583
 21
-29.7542912373
  0
LINE
  5
268
100
AcDbEntity
  8
DRAFT
100
AcDbLine
 62
7
  6
CONTINUOUS
 10
23.9405756279
 20
-5.5900092708
 11
23.9405756279
 21
-13.741886628
  0
LINE
  5
269
100
AcDbEntity
  8
DRAFT
100
AcDbLine
 62
7
  6
CONTINUOUS
 10
23.9405756279
 20
-17.8370634227
 11
23.9405756279
 21
-25.9889407799
  0
LINE
  5
26A
100
AcDbEntity
  8
RACCORDO
100
AcDbLine
 62
7
  6
CONTINUOUS
 10
23.9405756279
 20
2.4096474444
 11
23.9405756279
 21
-33.988597495
  0
LINE
  5
26B
100
AcDbEntity
  8
RACCORDO
100
AcDbLine
 62
7
  6
CONTINUOUS
 10
23.2930711895
 20
-17.5512717707
 11
23.3693364583
 21
-17.5072370854
  0
LINE
  5
26C
100
AcDbEntity
  8
RACCORDO
100
AcDbLine
 62
7
  6
CONTINUOUS
 10
25.0012357997
 20
3.0220593344
 11
25.0012357997
 21
-33.376185605
  0
LWPOLYLINE
  5
26D
100
AcDbEntity
  8
RACCORDO
100
AcDbPolyline
 62
7
  6
CONTINUOUS
 90
10
 70
0
 10
25.0012357997
 20
-33.376185605
 10
24.9998060191
 20
-33.4113797981
 10
24.9957903392
 20
-33.4442808711
 10
24.98918876
 20
-33.474888824
 10
24.9799121331
 20
-33.5034006943
 10
24.968049607
 20
-33.5296194445
 10
24.9538686269
 20
-33.5529539624
 10
24.9373165268
 20
-33.5733387294
 10
24.9184459728
 20
-33.590839264
 10
24.8976944892
 20
-33.6050540356
  0
LINE
  5
26E
100
AcDbEntity
  8
DRAFT
100
AcDbLine
 62
7
  6
CONTINUOUS
 10
23.9405756279
 20
-17.8370634227
 11
23.2930711895
 21
-18.1916840377
  0
LINE
  5
26F
100
AcDbEntity
  8
SMUSSO
100
AcDbLine
 62
7
  6
CONTINUOUS
 10
-12.8289769938
 20
25.2729852158
 11
-13.9603478437
 21
25.2729852158
  0
LINE
  5
270
100
AcDbEntity
  8
DRAFT
100
AcDbLine
 62
7
  6
CONTINUOUS
 10
23.9405756279
 20
-25.9889407799
 11
23.2930711895
 21
-26.3563868057
  0
LWPOLYLINE
  5
271
100
AcDbEntity
  8
RACCORDO
100
AcDbPolyline
 62
7
  6
CONTINUOUS
 90
6
 70
0
 10
23.9073894352
 20
-34.1420313345
 10
23.9192519614
 20
-34.1158125843
 10
23.9285285883
 20
-34.087300714
 10
23.9351301674
 20
-34.0566927611
 10
23.9391458473
 20
-34.0237916881
 10
23.9405756279
 20
-33.988597495
  0
LINE
  5
272
100
AcDbEntity
  8
RACCORDO
100
AcDbLine
 62
7
  6
CONTINUOUS
 10
23.2930711895
 20
-29.7983259226
 11
23.3693364583
 21
-29.7542912373
  0
LINE
  5
273
100
AcDbEntity
  8
DRAFT
100
AcDbLine
 62
7
  6
CONTINUOUS
 10
23.9405756279
 20
-30.0841175745
 11
23.2930711895
 21
-30.4387381896
  0
LWPOLYLINE
  5
274
100
AcDbEntity
  8
RACCORDO
100
AcDbPolyline
 62
7
  6
CONTINUOUS
 90
4
 70
0
 10
-25.3801223598
 20
31.2403423296
 10
-25.4060535046
 20
31.2362025443
 10
-25.4306460894
 20
31.2286128577
 10
-25.4533577446
 20
31.2177374079
  0
LWPOLYLINE
  5
275
100
AcDbEntity
  8
RACCORDO
100
AcDbPolyline
 62
7
  6
CONTINUOUS
 90
3
 70
0
 10
23.876656355
 20
-34.1857506193
 10
23.8932084552
 20
-34.1653658523
 10
23.9073894352
 20
-34.1420313345
  0
LWPOLYLINE
  5
276
100
AcDbEntity
  8
RACCORDO
100
AcDbPolyline
 62
7
  6
CONTINUOUS
 90
3
 70
0
 10
23.8370343174
 20
-34.2174659256
 10
23.857785801
 20
-34.203251154
 10
23.876656355
 20
-34.1857506193
  0
LINE
  5
277
100
AcDbEntity
  8
RACCORDO
100
AcDbLine
 62
253
  6
CONTINUOUS
 10
25.0012357997
 20
-33.376185605
 11
23.9405756279
 21
-33.988597495
  0
LINE
  5
278
100
AcDbEntity
  8
RACCORDO
100
AcDbLine
 62
7
  6
CONTINUOUS
 10
24.8976944892
 20
-33.6050540356
 11
23.8370343174
 21
-34.2174659256
  0
LWPOLYLINE
  5
279
100
AcDbEntity
  8
RACCORDO
100
AcDbPolyline
 62
253
  6
CONTINUOUS
 90
11
 70
0
 10
21.6842690838
 20
-35.3752904286
 10
21.6886550839
 20
-35.3728458527
 10
21.7095223258
 20
-35.3586042923
 10
21.7283958583
 20
-35.3411395444
 10
21.7451320982
 20
-35.3205844748
 10
21.759603722
 20
-35.2970954592
 10
21.7717006344
 20
-35.270851194
 10
21.7813308063
 20
-35.2420513367
 10
21.7884209747
 20
-35.210914987
 10
21.7929172002
 20
-35.1776790193
 10
21.794785277
 20
-35.1425962815
  0
LINE
  5
27A
100
AcDbEntity
  8
RACCORDO
100
AcDbLine
 62
253
  6
CONTINUOUS
 10
23.9405756279
 20
-33.9886596712
 11
21.794785277
 21
-35.1425962815
  0
LINE
  5
27B
100
AcDbEntity
  8
RACCORDO
100
AcDbLine
 62
7
  6
CONTINUOUS
 10
23.8326571975
 20
-34.2199568256
 11
21.6842690838
 21
-35.3752904286
  0
LINE
  5
27C
100
AcDbEntity
  8
RACCORDO
100
AcDbLine
 62
7
  6
CONTINUOUS
 10
23.8325031591
 20
-34.2196356655
 11
23.8370343174
 21
-34.2174659256
  0
LWPOLYLINE
  5
27D
100
AcDbEntity
  8
RACCORDO
100
AcDbPolyline
 62
7
  6
CONTINUOUS
 90
11
 70
0
 10
21.6842690838
 20
-35.3752904286
 10
21.6402327914
 20
-35.3962698183
 10
21.5938807131
 20
-35.4130064939
 10
21.5457112327
 20
-35.4251782708
 10
21.4962997991
 20
-35.4325359516
 10
21.4462140844
 20
-35.4349258299
 10
21.3959491394
 20
-35.4322673469
 10
21.3459236162
 20
-35.4245099992
 10
21.2968739237
 20
-35.4117135126
 10
21.2495923454
 20
-35.3941113802
 10
21.2228784432
 20
-35.3816542141
  0
ARC
  5
27E
100
AcDbEntity
  8
RACCORDO
100
AcDbCircle
 62
7
  6
CONTINUOUS
 10
-27.26939481
 20
-6.8064282437
 40
0.5
100
AcDbArc
 50
180.0007992295
 51
236.3885592939
  0
ELLIPSE
  5
27F
100
AcDbEntity
  8
RACCORDO
100
AcDbEllipse
 62
7
  6
CONTINUOUS
 10
-15.9579245005
 20
27.429650271
 30
0.0
 11
0.4997287615
 21
-0.2486526917
 31
0.0
 40
0.0662252425
 41
0.8183382896
 42
2.3891346164
  0
ELLIPSE
  5
280
100
AcDbEntity
  8
RACCORDO
100
AcDbEllipse
 62
7
  6
CONTINUOUS
 10
16.568987434
 20
8.6490189779
 30
0.0
 11
0.4997287615
 21
-0.2486526917
 31
0.0
 40
0.0662252425
 41
0.8183382896
 42
2.3891346164
  0
ELLIPSE
  5
281
100
AcDbEntity
  8
RACCORDO
100
AcDbEllipse
 62
7
  6
CONTINUOUS
 10
-13.6598274617
 20
26.1027578426
 30
0.0
 11
0.4997287615
 21
-0.2486526917
 31
0.0
 40
0.0662252425
 41
-0.7524580372
 42
0.8183382896
  0
ELLIPSE
  5
282
100
AcDbEntity
  8
RACCORDO
100
AcDbEllipse
 62
7
  6
CONTINUOUS
 10
18.8670844729
 20
7.3221265496
 30
0.0
 11
0.4997287615
 21
-0.2486526917
 31
0.0
 40
0.0662252425
 41
-0.7524580372
 42
0.8183382896
  0
ELLIPSE
  5
283
100
AcDbEntity
  8
RACCORDO
100
AcDbEllipse
 62
7
  6
CONTINUOUS
 10
23.5869683812
 20
-33.7843669169
 30
0.0
 11
-0.2500882309
 21
0.4331376414
 31
0.0
 40
0.5771558487
 41
-3.159039784
 42
-2.3563950755
  0
ELLIPSE
  5
284
100
AcDbEntity
  8
RACCORDO
100
AcDbEllipse
 62
7
  6
CONTINUOUS
 10
23.5869683812
 20
2.6137536512
 30
0.0
 11
-0.2500120911
 21
0.4330057209
 31
0.0
 40
0.5775075436
 41
-2.3560905478
 42
-0.7855988075
  0
ELLIPSE
  5
285
100
AcDbEntity
  8
RACCORDO
100
AcDbEllipse
 62
7
  6
CONTINUOUS
 10
-25.2032918085
 20
30.7846383992
 30
0.0
 11
-0.2500882309
 21
0.4331376414
 31
0.0
 40
0.5771558487
 41
-0.7852941622
 42
0.0174471304
  0
ENDSEC
  0
SECTION
  2
OBJECTS
  0
DICTIONARY
  5
C
100
AcDbDictionary
280
0
281
1
  3
ACAD_GROUP
350
D
  3
ACAD_MLINESTYLE
350
17
  3
ACAD_LAYOUT
350
1A
  3
ACAD_PLOTSETTINGS
350
19
  3
ACAD_PLOTSTYLENAME
350
E
  0
DICTIONARY
  5
D
102
{ACAD_REACTORS
330
C
102
}
100
AcDbDictionary
280
0
281
1
  0
ACDBDICTIONARYWDFLT
  5
E
102
{ACAD_REACTORS
330
C
102
}
100
AcDbDictionary
281
1
  3
Normal
350
F
100
AcDbDictionaryWithDefault
340
F
  0
DICTIONARY
  5
17
102
{ACAD_REACTORS
330
C
102
}
100
AcDbDictionary
280
0
281
1
  3
Standard
350
18
  0
DICTIONARY
  5
19
102
{ACAD_REACTORS
330
C
102
}
100
AcDbDictionary
281
1
  0
DICTIONARY
  5
1A
102
{ACAD_REACTORS
330
C
102
}
100
AcDbDictionary
281
1
  3
Model
350
286
  3
Layout1
350
287
  0
ACDBPLACEHOLDER
  5
F
102
{ACAD_REACTORS
330
E
102
}
  0
MLINESTYLE
  5
18
102
{ACAD_REACTORS
330
17
102
}
100
AcDbMlineStyle
  2
STANDARD
 70
0
  3

 62
256
 51
90.0
 52
90.0
 71
2
 49
0.5
 62
256
  6
BYLAYER
 49
-0.5
 62
256
  6
BYLAYER
  0
LAYOUT
  5
286
102
{ACAD_REACTORS
330
1A
102
}
100
AcDbPlotSettings
  1

  2
none_device
  4
ISO_A4_(297.00_x_210.00_MM)
  6

 40
0.0
 41
0.0
 42
0.0
 43
0.0
 44
297.0
 45
210.0
 46
0.0
 47
0.0
 48
0.0
 49
0.0
140
0.0
141
0.0
142
1.0
143
1.0
 70
1024
 72
1
 73
0
 74
0
  7

 75
0
147
1.0
148
0.0
149
0.0
100
AcDbLayout
  1
Model
 70
0
 71
0
 10
0.0
 20
0.0
 11
297.0
 21
210.0
 12
0.0
 22
0.0
 32
0.0
 14
0.0
 24
0.0
 34
0.0
 15
0.0
 25
0.0
 35
0.0
146
0.0
 13
0.0
 23
0.0
 33
0.0
 16
1.0
 26
0.0
 36
0.0
 17
0.0
 27
1.0
 37
0.0
 76
0
330
20F
345
0
346
0
  0
LAYOUT
  5
287
102
{ACAD_REACTORS
330
1A
102
}
100
AcDbPlotSettings
  1

  2
none_device
  4
ISO_A4_(297.00_x_210.00_MM)
  6

 40
0.0
 41
0.0
 42
0.0
 43
0.0
 44
297.0
 45
210.0
 46
0.0
 47
0.0
 48
0.0
 49
0.0
140
0.0
141
0.0
142
1.0
143
1.0
 70
0
 72
1
 73
0
 74
0
  7

 75
0
147
1.0
148
0.0
149
0.0
100
AcDbLayout
  1
Layout1
 70
0
 71
1
 10
0.0
 20
0.0
 11
297.0
 21
210.0
 12
0.0
 22
0.0
 32
0.0
 14
0.0
 24
0.0
 34
0.0
 15
0.0
 25
0.0
 35
0.0
146
0.0
 13
0.0
 23
0.0
 33
0.0
 16
1.0
 26
0.0
 36
0.0
 17
0.0
 27
1.0
 37
0.0
 76
0
330
210
345
0
346
0
  0
ENDSEC
  0
EOF
