  0
SECTION
  2
HEADER
  9
$ACADVER
  1
AC1015
  9
$DWGCODEPAGE
  3
ANSI_1252
  9
$EXTMAX
 10
297.0
 20
210.0
 30
0.0
  9
$EXTMIN
 10
0.0
 20
0.0
 30
0.0
  9
$LIMMIN
 10
0.0
 20
0.0
  9
$LIMMAX
 10
297.0
 20
210.0
  9
$VIEWCTR
 10
148.5
 20
105.0
  9
$VIEWSIZE
 40
210.0
  9
$CLAYER
  8
0
  9
$LTSCALE
 40
16.335
  9
$CELTYPE
  6
BYLAYER
  9
$DIMSCALE
 40
1.0
  9
$DIMASZ
 40
3.0
  9
$DIMEXO
 40
0.5
  9
$DIMDLI
 40
11.286
  9
$DIMEXE
 40
1.5
  9
$DIMCEN
 40
2.673
  9
$DIMLFAC
 40
1.0
  9
$DIMBLK
  1
_FILLED
  9
$DIMALT
 70
0
  9
$DIMALTF
 40
0.0393700787
  9
$DIMTXT
 40
3.0
  9
$DIMTOL
 70
1
  9
$DIMLIM
 70
0
  9
$DIMTFAC
 40
1.0
  9
$DIMTP
 40
0.01
  9
$DIMTM
 40
0.01
  9
$DIMGAP
 40
0.625
  9
$DIMDSEP
 70
44
  9
$AUNITS
 70
0
  9
$PDMODE
 70
3
  9
$PDSIZE
 40
3.0
  9
$HANDSEED
  5
34D
  9
$TILEMODE
 70
1
  9
$MEASUREMENT
 70
1
  9
$INSUNITS
 70
4
  0
ENDSEC
  0
SECTION
  2
CLASSES
  0
CLASS
  1
ACDBDICTIONARYWDFLT
  2
AcDbDictionaryWithDefault
  3
AutoCAD 2000
 90
0
280
0
281
0
  0
CLASS
  1
ACDBPLACEHOLDER
  2
AcDbPlaceHolder
  3
AutoCAD 2000
 90
0
280
0
281
0
  0
CLASS
  1
LAYOUT
  2
AcDbLayout
  3
AutoCAD 2000
 90
0
280
0
281
0
  0
ENDSEC
  0
SECTION
  2
TABLES
  0
TABLE
  2
VPORT
  5
8
100
AcDbSymbolTable
 70
2
  0
VPORT
  5
1F4
100
AcDbSymbolTableRecord
100
AcDbViewportTableRecord
  2
*ACTIVE
 70
0
 10
0.0
 20
0.0
 11
1.0
 21
1.0
 12
148.5
 22
105.0
 13
0.0
 23
0.0
 14
1.0
 24
1.0
 15
0.0
 25
0.0
 16
0.0
 26
0.0
 36
1.0
 17
0.0
 27
0.0
 37
0.0
 40
210.0
 41
1.4142857143
 42
50.0
 43
0.0
 44
0.0
 50
0.0
 51
0.0
 71
0
 72
100
 73
1
 74
1
 75
0
 76
0
 77
0
 78
0
  0
ENDTAB
  0
TABLE
  2
LTYPE
  5
5
100
AcDbSymbolTable
 70
6
  0
LTYPE
  5
14
100
AcDbSymbolTableRecord
100
AcDbLinetypeTableRecord
  2
BYBLOCK
 70
0
  3

 72
65
 73
0
 40
0.0
  0
LTYPE
  5
15
100
AcDbSymbolTableRecord
100
AcDbLinetypeTableRecord
  2
BYLAYER
 70
0
  3

 72
65
 73
0
 40
0.0
  0
LTYPE
  5
16
100
AcDbSymbolTableRecord
100
AcDbLinetypeTableRecord
  2
CONTINUOUS
 70
64
  3
Solid line
 72
65
 73
0
 40
0.0
  0
LTYPE
  5
1F5
100
AcDbSymbolTableRecord
100
AcDbLinetypeTableRecord
  2
CENTER
 70
64
  3
____ _ ____ _ ____ _ ____ _ ____ _ ____ _ ____
 72
65
 73
4
 40
0.6
 49
0.375
 74
0
 49
-0.075
 74
0
 49
0.075
 74
0
 49
-0.075
 74
0
  0
LTYPE
  5
1F6
100
AcDbSymbolTableRecord
100
AcDbLinetypeTableRecord
  2
HIDDEN
 70
64
  3
- - - - - - - - - - - - - - - - - - - -
 72
65
 73
2
 40
0.2
 49
0.1
 74
0
 49
-0.1
 74
0
  0
LTYPE
  5
1F7
100
AcDbSymbolTableRecord
100
AcDbLinetypeTableRecord
  2
PHANTOM
 70
64
  3
_____ _ _ _____ _ _ _____ _ _ _____
 72
65
 73
6
 40
0.8
 49
0.45
 74
0
 49
-0.05
 74
0
 49
0.1
 74
0
 49
-0.05
 74
0
 49
0.1
 74
0
 49
-0.05
 74
0
  0
LTYPE
  5
1F8
100
AcDbSymbolTableRecord
100
AcDbLinetypeTableRecord
  2
DOT
 70
64
  3
. . . . . . . . . . . . . . . . . . . .
 72
65
 73
2
 40
0.2
 49
0.1
 74
0
 49
-0.1
 74
0
  0
LTYPE
  5
1F9
100
AcDbSymbolTableRecord
100
AcDbLinetypeTableRecord
  2
DASHED
 70
64
  3
- - - - - - - - - - - - - - - - - - - -
 72
65
 73
2
 40
0.2
 49
0.1
 74
0
 49
-0.1
 74
0
  0
ENDTAB
  0
TABLE
  2
LAYER
  5
2
100
AcDbSymbolTable
 70
36
  0
LAYER
  5
10
100
AcDbSymbolTableRecord
100
AcDbLayerTableRecord
  2
0
 70
0
 62
7
  6
CONTINUOUS
370
-3
390
F
  0
LAYER
  5
1FA
100
AcDbSymbolTableRecord
100
AcDbLayerTableRecord
  2
DEFAULT_1
 70
0
 62
7
  6
CENTER
370
-3
390
F
  0
LAYER
  5
1FB
100
AcDbSymbolTableRecord
100
AcDbLayerTableRecord
  2
DEFAULT_2
 70
0
 62
7
  6
HIDDEN
370
-3
390
F
  0
LAYER
  5
1FC
100
AcDbSymbolTableRecord
100
AcDbLayerTableRecord
  2
DEFAULT_3
 70
0
 62
7
  6
PHANTOM
370
-3
390
F
  0
LAYER
  5
1FD
100
AcDbSymbolTableRecord
100
AcDbLayerTableRecord
  2
ASSI
 70
0
 62
7
  6
CONTINUOUS
370
-3
390
F
  0
LAYER
  5
1FE
100
AcDbSymbolTableRecord
100
AcDbLayerTableRecord
  2
COLOR1
 70
0
 62
7
  6
CONTINUOUS
370
-3
390
F
  0
LAYER
  5
1FF
100
AcDbSymbolTableRecord
100
AcDbLayerTableRecord
  2
COLOR15
 70
0
 62
7
  6
CONTINUOUS
370
-3
390
F
  0
LAYER
  5
200
100
AcDbSymbolTableRecord
100
AcDbLayerTableRecord
  2
COORDINATE
 70
0
 62
7
  6
CONTINUOUS
370
-3
390
F
  0
LAYER
  5
201
100
AcDbSymbolTableRecord
100
AcDbLayerTableRecord
  2
COPY_PUBLISH
 70
0
 62
7
  6
CONTINUOUS
370
-3
390
F
  0
LAYER
  5
202
100
AcDbSymbolTableRecord
100
AcDbLayerTableRecord
  2
COSMETICI
 70
0
 62
7
  6
CONTINUOUS
370
-3
390
F
  0
LAYER
  5
203
100
AcDbSymbolTableRecord
100
AcDbLayerTableRecord
  2
CURVE
 70
0
 62
7
  6
CONTINUOUS
370
-3
390
F
  0
LAYER
  5
204
100
AcDbSymbolTableRecord
100
AcDbLayerTableRecord
  2
DRAFT
 70
0
 62
7
  6
CONTINUOUS
370
-3
390
F
  0
LAYER
  5
205
100
AcDbSymbolTableRecord
100
AcDbLayerTableRecord
  2
IMPORT_IGES
 70
0
 62
7
  6
CONTINUOUS
370
-3
390
F
  0
LAYER
  5
206
100
AcDbSymbolTableRecord
100
AcDbLayerTableRecord
  2
INTF_11
 70
0
 62
7
  6
CONTINUOUS
370
-3
390
F
  0
LAYER
  5
207
100
AcDbSymbolTableRecord
100
AcDbLayerTableRecord
  2
INTF_7
 70
0
 62
7
  6
CONTINUOUS
370
-3
390
F
  0
LAYER
  5
208
100
AcDbSymbolTableRecord
100
AcDbLayerTableRecord
  2
INTF_RED
 70
0
 62
7
  6
CONTINUOUS
370
-3
390
F
  0
LAYER
  5
209
100
AcDbSymbolTableRecord
100
AcDbLayerTableRecord
  2
INTF_YELLOW
 70
0
 62
7
  6
CONTINUOUS
370
-3
390
F
  0
LAYER
  5
20A
100
AcDbSymbolTableRecord
100
AcDbLayerTableRecord
  2
NOTE
 70
0
 62
7
  6
CONTINUOUS
370
-3
390
F
  0
LAYER
  5
20B
100
AcDbSymbolTableRecord
100
AcDbLayerTableRecord
  2
PIANI
 70
0
 62
7
  6
CONTINUOUS
370
-3
390
F
  0
LAYER
  5
20C
100
AcDbSymbolTableRecord
100
AcDbLayerTableRecord
  2
PUNTI
 70
0
 62
7
  6
CONTINUOUS
370
-3
390
F
  0
LAYER
  5
20D
100
AcDbSymbolTableRecord
100
AcDbLayerTableRecord
  2
RACCORDO
 70
0
 62
7
  6
CONTINUOUS
370
-3
390
F
  0
LAYER
  5
20E
100
AcDbSymbolTableRecord
100
AcDbLayerTableRecord
  2
SIMBOLI
 70
0
 62
7
  6
CONTINUOUS
370
-3
390
F
  0
LAYER
  5
20F
100
AcDbSymbolTableRecord
100
AcDbLayerTableRecord
  2
SMUSSO
 70
0
 62
7
  6
CONTINUOUS
370
-3
390
F
  0
LAYER
  5
210
100
AcDbSymbolTableRecord
100
AcDbLayerTableRecord
  2
SNAPLINE
 70
0
 62
7
  6
CONTINUOUS
370
-3
390
F
  0
LAYER
  5
211
100
AcDbSymbolTableRecord
100
AcDbLayerTableRecord
  2
SUPERFICI
 70
0
 62
7
  6
CONTINUOUS
370
-3
390
F
  0
LAYER
  5
212
100
AcDbSymbolTableRecord
100
AcDbLayerTableRecord
  2
TRASH
 70
0
 62
7
  6
CONTINUOUS
370
-3
390
F
  0
ENDTAB
  0
TABLE
  2
STYLE
  5
3
100
AcDbSymbolTable
 70
1
  0
STYLE
  5
11
100
AcDbSymbolTableRecord
100
AcDbTextStyleTableRecord
  2
STANDARD
 70
0
 40
0.0
 41
0.8
 50
0.0
 71
0
 42
0.2
  3
txt
  4

  0
STYLE
  5
213
100
AcDbSymbolTableRecord
100
AcDbTextStyleTableRecord
  2
TEXTSTYLE_1
 70
0
 40
0.0
 41
0.8
 50
0.0
 71
0
 42
0.2
  3
gdt
  4

  0
ENDTAB
  0
TABLE
  2
VIEW
  5
6
100
AcDbSymbolTable
 70
0
  0
ENDTAB
  0
TABLE
  2
UCS
  5
7
100
AcDbSymbolTable
 70
0
  0
ENDTAB
  0
TABLE
  2
APPID
  5
9
100
AcDbSymbolTable
 70
1
  0
APPID
  5
214
100
AcDbSymbolTableRecord
100
AcDbRegAppTableRecord
  2
ACAD
 70
0
  0
ENDTAB
  0
TABLE
  2
BLOCK_RECORD
  5
1
100
AcDbSymbolTable
 70
0
  0
BLOCK_RECORD
  5
215
100
AcDbSymbolTableRecord
100
AcDbBlockTableRecord
  2
*Model_Space
  0
BLOCK_RECORD
  5
216
100
AcDbSymbolTableRecord
100
AcDbBlockTableRecord
  2
*Paper_Space
  0
ENDTAB
  0
TABLE
  2
DIMSTYLE
  5
A
100
AcDbSymbolTable
 70
1
100
AcDbDimStyleTable
 71
0
  0
DIMSTYLE
105
217
100
AcDbSymbolTableRecord
100
AcDbDimStyleTableRecord
  2
STANDARD
 70
0
  3

  4

 40
1.0
 41
3.0
 42
0.5
 43
0.38
 44
1.5
 45
0.0
 46
0.0
 47
0.01
 48
0.01
140
3.0
141
0.09
142
0.0
143
25.4
144
1.0
145
0.0
146
1.0
147
0.625
 71
1.0
 72
0.0
 73
0
 74
0
 75
0
 76
0
 77
1
 78
8
170
0
171
2
172
0
173
0
174
0
175
0
176
0
177
0
178
0
270
2
271
2
272
2
273
2
274
2
275
0
280
0
281
0
282
0
283
1
284
8
285
0
286
0
287
3
288
0
340
11
278
44
  0
ENDTAB
  0
ENDSEC
  0
SECTION
  2
BLOCKS
  0
BLOCK
  5
20
100
AcDbEntity
  8
0
100
AcDbBlockBegin
  2
*Model_Space
 70
0
 10
0.0
 20
0.0
 30
0.0
  3
*Model_Space
  1

  0
ENDBLK
  5
21
100
AcDbEntity
  8
0
100
AcDbBlockEnd
  0
BLOCK
  5
1C
100
AcDbEntity
  8
0
100
AcDbBlockBegin
  2
*Paper_Space
 70
0
 10
0.0
 20
0.0
 30
0.0
  3
*Paper_Space
  1

  0
ENDBLK
  5
1D
100
AcDbEntity
  8
0
100
AcDbBlockEnd
  0
ENDSEC
  0
SECTION
  2
ENTITIES
  0
LINE
  5
218
100
AcDbEntity
  8
RACCORDO
100
AcDbLine
 62
7
  6
CONTINUOUS
 10
-38.347960614
 20
15.9583134627
 11
-38.8694724837
 21
15.6358026997
  0
LINE
  5
219
100
AcDbEntity
  8
RACCORDO
100
AcDbLine
 62
7
  6
CONTINUOUS
 10
-36.7230013782
 20
15.6948725786
 11
-39.6390655837
 21
13.891534732
  0
LINE
  5
21A
100
AcDbEntity
  8
RACCORDO
100
AcDbLine
 62
7
  6
CONTINUOUS
 10
-37.9653318257
 20
16.5754388601
 11
-38.6786089643
 21
16.1492256762
  0
LINE
  5
21B
100
AcDbEntity
  8
0
100
AcDbLine
 62
7
  6
CONTINUOUS
 10
-41.9879798561
 20
14.1711030877
 11
-39.2118665363
 21
15.8271512374
  0
LINE
  5
21C
100
AcDbEntity
  8
0
100
AcDbLine
 62
7
  6
CONTINUOUS
 10
-41.6287076026
 20
13.9703220874
 11
-38.8525942828
 21
15.6263702371
  0
LINE
  5
21D
100
AcDbEntity
  8
RACCORDO
100
AcDbLine
 62
253
  6
CONTINUOUS
 10
-39.1452575155
 20
13.403746393
 11
-36.7230013782
 21
14.8023315308
  0
LINE
  5
21E
100
AcDbEntity
  8
RACCORDO
100
AcDbLine
 62
253
  6
CONTINUOUS
 10
-38.8806827128
 20
13.2299546631
 11
-36.5816015612
 21
14.5574198637
  0
LINE
  5
21F
100
AcDbEntity
  8
0
100
AcDbLine
 62
253
  6
CONTINUOUS
 10
-41.6287076026
 20
13.9703220874
 11
-42.0064374744
 21
13.7811713773
  0
LWPOLYLINE
  5
220
100
AcDbEntity
  8
RACCORDO
100
AcDbPolyline
 62
7
  6
CONTINUOUS
 90
15
 70
0
 10
-38.9998158529
 20
15.7086457088
 10
-38.9935290198
 20
15.7300194364
 10
-38.9796480824
 20
15.7692938026
 10
-38.9634415164
 20
15.8083813491
 10
-38.9449598671
 20
15.8472861361
 10
-38.9246107215
 20
15.885150173
 10
-38.9023525896
 20
15.9219503375
 10
-38.8782269613
 20
15.9577097518
 10
-38.8527658938
 20
15.991639792
 10
-38.8259397177
 20
16.023699815
 10
-38.7977781023
 20
16.0539304639
 10
-38.7689021128
 20
16.081665044
 10
-38.7395187708
 20
16.1066813236
 10
-38.7094210546
 20
16.1292015343
 10
-38.6786089643
 20
16.1492256762
  0
LINE
  5
221
100
AcDbEntity
  8
0
100
AcDbLine
 62
7
  6
CONTINUOUS
 10
-42.1287076026
 20
13.9703220874
 11
-42.1287076026
 21
-4.4819061681
  0
LINE
  5
222
100
AcDbEntity
  8
0
100
AcDbLine
 62
253
  6
CONTINUOUS
 10
-42.0064374744
 20
13.7811713773
 11
-42.0064374744
 21
-4.6710568782
  0
LINE
  5
223
100
AcDbEntity
  8
RACCORDO
100
AcDbLine
 62
7
  6
CONTINUOUS
 10
-41.3765430154
 20
13.895511718
 11
-41.3765430154
 21
13.8040415716
  0
LWPOLYLINE
  5
224
100
AcDbEntity
  8
0
100
AcDbPolyline
 62
7
  6
CONTINUOUS
 90
8
 70
0
 10
-42.1286908529
 20
13.9703221091
 10
-42.1285209622
 20
13.9782094112
 10
-42.1228985949
 20
14.0135387539
 10
-42.1097243664
 20
14.0487489241
 10
-42.0895865508
 20
14.082267668
 10
-42.0626812396
 20
14.1135709009
 10
-42.0288123414
 20
14.1431827075
 10
-41.9879798561
 20
14.1711030877
  0
LWPOLYLINE
  5
225
100
AcDbEntity
  8
RACCORDO
100
AcDbPolyline
 62
7
  6
CONTINUOUS
 90
4
 70
0
 10
-32.4613603613
 20
11.2498116749
 10
-32.4744514004
 20
11.2333491986
 10
-32.4892187523
 20
11.2183344038
 10
-32.5053893106
 20
11.205024939
  0
LWPOLYLINE
  5
226
100
AcDbEntity
  8
RACCORDO
100
AcDbPolyline
 62
253
  6
CONTINUOUS
 90
8
 70
0
 10
-32.5152370429
 20
11.1983205519
 10
-32.505956726
 20
11.2063424262
 10
-32.4980193343
 20
11.2160927955
 10
-32.4914905056
 20
11.2274546508
 10
-32.4864366803
 20
11.2402622826
 10
-32.4828918995
 20
11.2543453005
 10
-32.480867238
 20
11.2695410991
 10
-32.4803606911
 20
11.2856714838
  0
LINE
  5
227
100
AcDbEntity
  8
RACCORDO
100
AcDbLine
 62
7
  6
CONTINUOUS
 10
-32.5053893106
 20
11.205024939
 11
-32.5190818552
 21
11.1957591015
  0
LINE
  5
228
100
AcDbEntity
  8
RACCORDO
100
AcDbLine
 62
253
  6
CONTINUOUS
 10
-32.5190355354
 20
11.1957877201
 11
-32.5152370429
 21
11.1983205519
  0
LWPOLYLINE
  5
229
100
AcDbEntity
  8
RACCORDO
100
AcDbPolyline
 62
253
  6
CONTINUOUS
 90
19
 70
0
 10
-34.0856154224
 20
11.425842885
 10
-34.1087567216
 20
11.4111765446
 10
-34.1292980163
 20
11.3956748562
 10
-34.1472393067
 20
11.3793378198
 10
-34.1626703742
 20
11.3620350651
 10
-34.1755014373
 20
11.3438969623
 10
-34.1854631518
 20
11.3253146227
 10
-34.1924963348
 20
11.3062754242
 10
-34.1966601691
 20
11.2867919888
 10
-34.1978628598
 20
11.2672932939
 10
-34.1960339383
 20
11.2477738113
 10
-34.1912438732
 20
11.2282390692
 10
-34.1836122749
 20
11.2091346302
 10
-34.1730926243
 20
11.1904881312
 10
-34.1597314405
 20
11.1722719352
 10
-34.1437878909
 20
11.1548486949
 10
-34.1253483647
 20
11.1383392944
 10
-34.1043264726
 20
11.1226228494
 10
-34.0807222148
 20
11.1076993601
  0
LINE
  5
22A
100
AcDbEntity
  8
RACCORDO
100
AcDbLine
 62
253
  6
CONTINUOUS
 10
-32.4803606911
 20
11.2856714838
 11
-33.3477082218
 21
10.7492907604
  0
LINE
  5
22B
100
AcDbEntity
  8
RACCORDO
100
AcDbLine
 62
7
  6
CONTINUOUS
 10
-32.5190355354
 20
11.1957877201
 11
-33.2925430406
 21
10.7174390761
  0
LWPOLYLINE
  5
22C
100
AcDbEntity
  8
RACCORDO
100
AcDbPolyline
 62
253
  6
CONTINUOUS
 90
8
 70
0
 10
-33.9442156054
 20
11.1809312179
 10
-33.9556860177
 20
11.1739486763
 10
-33.9659850469
 20
11.1664171977
 10
-33.9750389306
 20
11.1583980572
 10
-33.9827819567
 20
11.1499610828
 10
-33.9891621827
 20
11.1411684681
 10
-33.9941387218
 20
11.1320735513
 10
-33.996794306
 20
11.1250706461
  0
LINE
  5
22D
100
AcDbEntity
  8
RACCORDO
100
AcDbLine
 62
253
  6
CONTINUOUS
 10
-32.6217605082
 20
12.2710572682
 11
-34.0856154224
 21
11.425842885
  0
LINE
  5
22E
100
AcDbEntity
  8
RACCORDO
100
AcDbLine
 62
253
  6
CONTINUOUS
 10
-32.4803606911
 20
12.0261456011
 11
-33.9442156054
 21
11.1809312179
  0
LINE
  5
22F
100
AcDbEntity
  8
DRAFT
100
AcDbLine
 62
7
  6
CONTINUOUS
 10
-31.03568537
 20
11.2271718888
 11
-32.632929024
 21
10.3365862098
  0
LINE
  5
230
100
AcDbEntity
  8
RACCORDO
100
AcDbLine
 62
7
  6
CONTINUOUS
 10
-30.9925179979
 20
11.6463037317
 11
-30.8229548885
 21
11.7374892847
  0
LINE
  5
231
100
AcDbEntity
  8
RACCORDO
100
AcDbLine
 62
253
  6
CONTINUOUS
 10
-30.894285553
 20
11.6354115726
 11
-30.7257615487
 21
11.7260383285
  0
LWPOLYLINE
  5
232
100
AcDbEntity
  8
RACCORDO
100
AcDbPolyline
 62
253
  6
CONTINUOUS
 90
9
 70
0
 10
-30.7257615487
 20
11.7260383285
 10
-30.7149204129
 20
11.7315979915
 10
-30.7041577337
 20
11.736154028
 10
-30.6935369559
 20
11.7396795806
 10
-30.6831206875
 20
11.7421538666
 10
-30.6729703314
 20
11.7435623004
 10
-30.6631457226
 20
11.7438965794
 10
-30.6537047761
 20
11.7431547332
 10
-30.6447031451
 20
11.7413411348
  0
LINE
  5
233
100
AcDbEntity
  8
RACCORDO
100
AcDbLine
 62
7
  6
CONTINUOUS
 10
-30.8115661862
 20
11.7431541595
 11
-30.8232299053
 21
11.7373405566
  0
LINE
  5
234
100
AcDbEntity
  8
RACCORDO
100
AcDbLine
 62
253
  6
CONTINUOUS
 10
-39.6390655837
 20
13.7325881442
 11
-39.6390655837
 21
13.891534732
  0
LWPOLYLINE
  5
235
100
AcDbEntity
  8
RACCORDO
100
AcDbPolyline
 62
253
  6
CONTINUOUS
 90
7
 70
0
 10
-36.6668693424
 20
14.8825255824
 10
-36.6683248557
 20
14.8686425468
 10
-36.6730949429
 20
14.8539610643
 10
-36.6811074015
 20
14.839757932
 10
-36.6922281624
 20
14.8262708077
 10
-36.7062711466
 20
14.8137253673
 10
-36.7230013782
 20
14.8023315308
  0
LINE
  5
236
100
AcDbEntity
  8
DRAFT
100
AcDbLine
 62
7
  6
CONTINUOUS
 10
-27.9951262109
 20
9.4715911375
 11
-29.5375664782
 21
8.5493626699
  0
LINE
  5
237
100
AcDbEntity
  8
RACCORDO
100
AcDbLine
 62
253
  6
CONTINUOUS
 10
-27.9737842888
 20
10.137081149
 11
-28.136526028
 21
10.0431157858
  0
LINE
  5
238
100
AcDbEntity
  8
RACCORDO
100
AcDbLine
 62
253
  6
CONTINUOUS
 10
-27.8323844717
 20
9.8921694819
 11
-27.9951262109
 21
9.7982041187
  0
LWPOLYLINE
  5
239
100
AcDbEntity
  8
RACCORDO
100
AcDbPolyline
 62
253
  6
CONTINUOUS
 90
8
 70
0
 10
-30.819199277
 20
11.7393495618
 10
-30.8078141493
 20
11.7434020175
 10
-30.7954681949
 20
11.7454898872
 10
-30.7823885695
 20
11.7455593358
 10
-30.7687249782
 20
11.7436123921
 10
-30.7546299926
 20
11.7396751274
 10
-30.7402564395
 20
11.733794424
 10
-30.7257615487
 20
11.7260383285
  0
LWPOLYLINE
  5
23A
100
AcDbEntity
  8
RACCORDO
100
AcDbPolyline
 62
253
  6
CONTINUOUS
 90
3
 70
0
 10
-34.0446049554
 20
11.122382413
 10
-34.0624904021
 20
11.1164923406
 10
-34.0807222148
 20
11.1076993601
  0
LINE
  5
23B
100
AcDbEntity
  8
DRAFT
100
AcDbLine
 62
7
  6
CONTINUOUS
 10
10.0313241901
 20
-28.6912212673
 11
8.6668833267
 21
-28.9912798531
  0
LWPOLYLINE
  5
23C
100
AcDbEntity
  8
RACCORDO
100
AcDbPolyline
 62
253
  6
CONTINUOUS
 90
19
 70
0
 10
-36.7230013782
 20
14.8023315308
 10
-36.7222566316
 20
14.7879019184
 10
-36.720464785
 20
14.7729531088
 10
-36.7176379751
 20
14.7576009534
 10
-36.7137956618
 20
14.7419679696
 10
-36.7089674296
 20
14.7261703964
 10
-36.7031907866
 20
14.7103171143
 10
-36.6965063098
 20
14.694523243
 10
-36.6889639838
 20
14.6789155512
 10
-36.6806257606
 20
14.6636189697
 10
-36.6715592591
 20
14.6487529366
 10
-36.6618306883
 20
14.6344261079
 10
-36.6515090338
 20
14.6207421919
 10
-36.6406782531
 20
14.6078085664
 10
-36.6294171445
 20
14.5957184817
 10
-36.6177907382
 20
14.5845504832
 10
-36.6058805187
 20
14.5743894617
 10
-36.5937858809
 20
14.5653214595
 10
-36.5816015612
 20
14.5574198637
  0
LINE
  5
23D
100
AcDbEntity
  8
RACCORDO
100
AcDbLine
 62
253
  6
CONTINUOUS
 10
-36.7230013782
 20
15.6948725786
 11
-36.7230013782
 21
14.8023315308
  0
LINE
  5
23E
100
AcDbEntity
  8
RACCORDO
100
AcDbLine
 62
7
  6
CONTINUOUS
 10
-36.6668693383
 20
15.7770557136
 11
-36.6668693383
 21
14.8825489381
  0
LWPOLYLINE
  5
23F
100
AcDbEntity
  8
RACCORDO
100
AcDbPolyline
 62
253
  6
CONTINUOUS
 90
8
 70
0
 10
-32.4244139395
 20
11.360919299
 10
-32.4263740953
 20
11.3490199385
 10
-32.4304541446
 20
11.3373012686
 10
-32.4366103869
 20
11.3258888689
 10
-32.4447768516
 20
11.3149050494
 10
-32.4548660282
 20
11.3044675047
 10
-32.4667698225
 20
11.294688056
 10
-32.4803606911
 20
11.2856714838
  0
LWPOLYLINE
  5
240
100
AcDbEntity
  8
RACCORDO
100
AcDbPolyline
 62
7
  6
CONTINUOUS
 90
9
 70
0
 10
-27.4368898004
 20
8.7962250615
 10
-27.4223030742
 20
8.8077369855
 10
-27.4101287329
 20
8.8210604519
 10
-27.4002845773
 20
8.8359887442
 10
-27.3926774834
 20
8.8524675269
 10
-27.3871057126
 20
8.870205601
 10
-27.3833485076
 20
8.8886893636
 10
-27.3812815612
 20
8.9077616703
 10
-27.3807577605
 20
8.9242452702
  0
LWPOLYLINE
  5
241
100
AcDbEntity
  8
RACCORDO
100
AcDbPolyline
 62
253
  6
CONTINUOUS
 90
9
 70
0
 10
-27.4368898004
 20
9.7302572907
 10
-27.4232989873
 20
9.7392738219
 10
-27.4113952359
 20
9.7490532211
 10
-27.4013060865
 20
9.7594907089
 10
-27.3931396375
 20
9.7704744548
 10
-27.3869833866
 20
9.7818867756
 10
-27.3829032939
 20
9.7936053961
 10
-27.3809430746
 20
9.8055047596
 10
-27.3807577605
 20
9.8104746981
  0
LINE
  5
242
100
AcDbEntity
  8
RACCORDO
100
AcDbLine
 62
7
  6
CONTINUOUS
 10
-28.6573499291
 20
8.0414742106
 11
-27.4368898004
 21
8.7962250615
  0
LINE
  5
243
100
AcDbEntity
  8
RACCORDO
100
AcDbLine
 62
7
  6
CONTINUOUS
 10
-28.3000169778
 20
8.0406435935
 11
-26.7841508391
 21
8.8558273476
  0
LINE
  5
244
100
AcDbEntity
  8
RACCORDO
100
AcDbLine
 62
253
  6
CONTINUOUS
 10
-28.202823638
 20
8.0291926373
 11
-26.6869574993
 21
8.8443763914
  0
LWPOLYLINE
  5
245
100
AcDbEntity
  8
RACCORDO
100
AcDbPolyline
 62
7
  6
CONTINUOUS
 90
11
 70
0
 10
-26.784149277
 20
8.8558281876
 10
-26.7794071215
 20
8.8582971741
 10
-26.7607382598
 20
8.8665363812
 10
-26.741282364
 20
8.8728423771
 10
-26.7212071272
 20
8.8771408292
 10
-26.7007092102
 20
8.8793635807
 10
-26.6800134393
 20
8.879460535
 10
-26.6593392145
 20
8.8774061992
 10
-26.6389023572
 20
8.8731954327
 10
-26.6189404511
 20
8.8668500718
 10
-26.5997051827
 20
8.8584284299
  0
LWPOLYLINE
  5
246
100
AcDbEntity
  8
RACCORDO
100
AcDbPolyline
 62
7
  6
CONTINUOUS
 90
21
 70
0
 10
-28.3000310893
 20
8.0406355721
 10
-28.3082022804
 20
8.0364865763
 10
-28.3209057245
 20
8.0308503895
 10
-28.3357472953
 20
8.025250185
 10
-28.3527804764
 20
8.0198689507
 10
-28.371815178
 20
8.0149553861
 10
-28.3923927914
 20
8.0107637618
 10
-28.4142678671
 20
8.0074339631
 10
-28.4372159798
 20
8.0050802062
 10
-28.4607334265
 20
8.0038062102
 10
-28.4845055162
 20
8.0036448012
 10
-28.5082594141
 20
8.004601462
 10
-28.5315481061
 20
8.0066457895
 10
-28.5540715455
 20
8.0097101682
 10
-28.5755860359
 20
8.0137038398
 10
-28.5957542019
 20
8.0184926029
 10
-28.6143782032
 20
8.0239364915
 10
-28.6312634438
 20
8.0298646428
 10
-28.6461200727
 20
8.0360271583
 10
-28.6588834396
 20
8.0422180413
 10
-28.6659755334
 20
8.0461167068
  0
LWPOLYLINE
  5
247
100
AcDbEntity
  8
RACCORDO
100
AcDbPolyline
 62
253
  6
CONTINUOUS
 90
9
 70
0
 10
-26.784149277
 20
8.8558281876
 10
-26.7809202281
 20
8.8574532566
 10
-26.7693876578
 20
8.861641141
 10
-26.7570114417
 20
8.8637977143
 10
-26.7439084014
 20
8.8639195744
 10
-26.7302009055
 20
8.8620094341
 10
-26.7160311156
 20
8.8580837659
 10
-26.7015633857
 20
8.8521848698
 10
-26.6869574993
 20
8.8443763914
  0
LWPOLYLINE
  5
248
100
AcDbEntity
  8
RACCORDO
100
AcDbPolyline
 62
253
  6
CONTINUOUS
 90
7
 70
0
 10
-28.3000169778
 20
8.0406435935
 10
-28.2878961977
 20
8.045701272
 10
-28.2726081811
 20
8.0486375492
 10
-28.2561688082
 20
8.0484243742
 10
-28.2388592524
 20
8.0450653929
 10
-28.2209755702
 20
8.0386180563
 10
-28.202823638
 20
8.0291926373
  0
LINE
  5
249
100
AcDbEntity
  8
DRAFT
100
AcDbLine
 62
7
  6
CONTINUOUS
 10
10.0313241901
 20
-25.2398583818
 11
8.6668833267
 21
-25.5785655155
  0
LWPOLYLINE
  5
24A
100
AcDbEntity
  8
RACCORDO
100
AcDbPolyline
 62
253
  6
CONTINUOUS
 90
13
 70
0
 10
-33.9442156054
 20
11.1809312179
 10
-33.9451295625
 20
11.2031131826
 10
-33.9484885552
 20
11.2262877661
 10
-33.9542351328
 20
11.2500585986
 10
-33.9622710081
 20
11.2740191125
 10
-33.9724587387
 20
11.2977594948
 10
-33.9846240762
 20
11.3208736968
 10
-33.9985589489
 20
11.342966381
 10
-34.0140250193
 20
11.3636596819
 10
-34.0307577598
 20
11.3825996676
 10
-34.048470979
 20
11.3994623951
 10
-34.0668617161
 20
11.4139594516
 10
-34.0856154224
 20
11.425842885
  0
LINE
  5
24B
100
AcDbEntity
  8
RACCORDO
100
AcDbLine
 62
253
  6
CONTINUOUS
 10
-33.9442156054
 20
11.1809312179
 11
-33.9442156054
 21
11.0937066476
  0
LINE
  5
24C
100
AcDbEntity
  8
RACCORDO
100
AcDbLine
 62
253
  6
CONTINUOUS
 10
-32.4803606911
 20
12.0261456011
 11
-32.4803606911
 21
11.2856714838
  0
LINE
  5
24D
100
AcDbEntity
  8
RACCORDO
100
AcDbLine
 62
7
  6
CONTINUOUS
 10
-32.4242286512
 20
12.1063630085
 11
-32.4242286512
 21
11.3658888912
  0
LWPOLYLINE
  5
24E
100
AcDbEntity
  8
RACCORDO
100
AcDbPolyline
 62
253
  6
CONTINUOUS
 90
9
 70
0
 10
-32.4242286512
 20
12.1063630085
 10
-32.4244139369
 20
12.1013934512
 10
-32.4263740953
 20
12.0894940555
 10
-32.430454146
 20
12.0777753828
 10
-32.4366103818
 20
12.0663629942
 10
-32.444776839
 20
12.0553791815
 10
-32.4548660147
 20
12.0449416344
 10
-32.4667698126
 20
12.0351621805
 10
-32.4803606911
 20
12.0261456011
  0
LINE
  5
24F
100
AcDbEntity
  8
RACCORDO
100
AcDbLine
 62
253
  6
CONTINUOUS
 10
-32.4242286512
 20
11.3658888912
 11
-32.4244139395
 21
11.360919299
  0
LWPOLYLINE
  5
250
100
AcDbEntity
  8
RACCORDO
100
AcDbPolyline
 62
7
  6
CONTINUOUS
 90
7
 70
0
 10
-32.4242286512
 20
11.3658888912
 10
-32.4252519214
 20
11.3456849366
 10
-32.4283553835
 20
11.3254707867
 10
-32.4335600569
 20
11.3055110213
 10
-32.4408404473
 20
11.2860843514
 10
-32.4501332089
 20
11.2674471637
 10
-32.4613603613
 20
11.2498116749
  0
LWPOLYLINE
  5
251
100
AcDbEntity
  8
RACCORDO
100
AcDbPolyline
 62
253
  6
CONTINUOUS
 90
16
 70
0
 10
-27.8323844717
 20
9.8921694819
 10
-27.8238864335
 20
9.9108145165
 10
-27.8169651818
 20
9.9301825752
 10
-27.8117131846
 20
9.9500750135
 10
-27.808203844
 20
9.9703042159
 10
-27.8065018807
 20
9.9906336287
 10
-27.806643597
 20
10.0107808814
 10
-27.8086299308
 20
10.0305132608
 10
-27.8124431377
 20
10.0496283593
 10
-27.8180392233
 20
10.0678976023
 10
-27.825354622
 20
10.0851200513
 10
-27.8343092665
 20
10.1011122359
 10
-27.8447983576
 20
10.1156935425
 10
-27.8567021105
 20
10.1287069662
 10
-27.8698900729
 20
10.1400182607
 10
-27.8842166332
 20
10.1495092956
  0
LINE
  5
252
100
AcDbEntity
  8
RACCORDO
100
AcDbLine
 62
253
  6
CONTINUOUS
 10
-27.428362465
 20
9.7489745506
 11
-27.4368898004
 21
9.7302572907
  0
LWPOLYLINE
  5
253
100
AcDbEntity
  8
RACCORDO
100
AcDbPolyline
 62
253
  6
CONTINUOUS
 90
16
 70
0
 10
-32.4803606911
 20
12.0261456011
 10
-32.480867238
 20
12.0434138932
 10
-32.4828918995
 20
12.0614374532
 10
-32.4864366803
 20
12.0800341392
 10
-32.4914905056
 20
12.0990231032
 10
-32.4980193343
 20
12.1181893822
 10
-32.505956726
 20
12.1372860963
 10
-32.5152370429
 20
12.1561176777
 10
-32.5257624491
 20
12.174453155
 10
-32.5373696849
 20
12.1920016734
 10
-32.5498967058
 20
12.2085370638
 10
-32.563224754
 20
12.2239199032
 10
-32.5772292428
 20
12.2380103156
 10
-32.5917650316
 20
12.2506588887
 10
-32.6066636189
 20
12.2617157363
 10
-32.6217605082
 20
12.2710572682
  0
LINE
  5
254
100
AcDbEntity
  8
RACCORDO
100
AcDbLine
 62
7
  6
CONTINUOUS
 10
-31.03568537
 20
11.55378487
 11
-31.03568537
 21
11.2271718888
  0
LINE
  5
255
100
AcDbEntity
  8
DRAFT
100
AcDbLine
 62
7
  6
CONTINUOUS
 10
10.0313241901
 20
-18.8935779458
 11
8.6668833267
 21
-19.1936365316
  0
LINE
  5
256
100
AcDbEntity
  8
RACCORDO
100
AcDbLine
 62
7
  6
CONTINUOUS
 10
-27.9951262109
 20
9.7982041187
 11
-27.9951262109
 21
9.4715911375
  0
LINE
  5
257
100
AcDbEntity
  8
RACCORDO
100
AcDbLine
 62
253
  6
CONTINUOUS
 10
-27.4368898004
 20
8.7962250615
 11
-27.4368898004
 21
9.7302572907
  0
LINE
  5
258
100
AcDbEntity
  8
RACCORDO
100
AcDbLine
 62
7
  6
CONTINUOUS
 10
-27.3807577605
 20
8.9242453199
 11
-27.3807577605
 21
9.8104746981
  0
LINE
  5
259
100
AcDbEntity
  8
DRAFT
100
AcDbLine
 62
7
  6
CONTINUOUS
 10
10.0313241901
 20
-15.4422150603
 11
8.8799576198
 21
-15.7280288917
  0
LWPOLYLINE
  5
25A
100
AcDbEntity
  8
0
100
AcDbPolyline
 62
7
  6
CONTINUOUS
 90
13
 70
0
 10
6.6219307314
 20
-32.7484672237
 10
6.6724452582
 20
-32.7704831525
 10
6.7255045009
 20
-32.7883920081
 10
6.7811084595
 20
-32.8021937906
 10
6.8401741724
 20
-32.8119729257
 10
6.9017846011
 20
-32.8176449875
 10
6.9631886304
 20
-32.8189566994
 10
7.0243769046
 20
-32.815710415
 10
7.0853587794
 20
-32.8081037806
 10
7.1434112066
 20
-32.7964764583
 10
7.1976265034
 20
-32.7809416688
 10
7.2489123526
 20
-32.7613861914
 10
7.2972687542
 20
-32.7378100262
  0
LWPOLYLINE
  5
25B
100
AcDbEntity
  8
0
100
AcDbPolyline
 62
7
  6
CONTINUOUS
 90
7
 70
0
 10
-42.0064374744
 20
-4.6710568782
 10
-42.044567725
 20
-4.6418904235
 10
-42.0755847745
 20
-4.6112546818
 10
-42.099488623
 20
-4.579149653
 10
-42.1164254905
 20
-4.5450458506
 10
-42.1262491569
 20
-4.5094727612
 10
-42.1286908529
 20
-4.4819061464
  0
LWPOLYLINE
  5
25C
100
AcDbEntity
  8
RACCORDO
100
AcDbPolyline
 62
7
  6
CONTINUOUS
 90
5
 70
0
 10
-27.3807577605
 20
9.8104746981
 10
-27.3822268618
 20
9.8346678954
 10
-27.386669883
 20
9.8587425433
 10
-27.3940814163
 20
9.8822517315
 10
-27.404361967
 20
9.9047324179
  0
LWPOLYLINE
  5
25D
100
AcDbEntity
  8
0
100
AcDbPolyline
 62
7
  6
CONTINUOUS
 90
16
 70
0
 10
-42.0064374744
 20
-4.6710568782
 10
-38.983211263
 20
-6.6646126735
 10
-35.9280112662
 20
-8.6412158431
 10
-32.8408374841
 20
-10.600866387
 10
-29.7214078781
 20
-12.5437366676
 10
-26.5700044868
 20
-14.4696543225
 10
-23.3874734256
 20
-16.3781022651
 10
-20.1738063363
 20
-18.2690758045
 10
-16.9290115771
 20
-20.1425796316
 10
-13.653960338
 20
-21.9981107323
 10
-10.3486444947
 20
-23.8356642806
 10
-7.0130721714
 20
-25.6552451023
 10
-3.6481389309
 20
-27.4563646612
 10
-0.2541432941
 20
-29.2388601116
 10
3.1692132601
 20
-31.0028942991
 10
6.6219307314
 20
-32.7484672237
  0
LWPOLYLINE
  5
25E
100
AcDbEntity
  8
RACCORDO
100
AcDbPolyline
 62
7
  6
CONTINUOUS
 90
10
 70
0
 10
10.5043137639
 20
-30.8339141512
 10
10.5244114154
 20
-30.8437430373
 10
10.5485370436
 20
-30.8516427808
 10
10.5739981111
 20
-30.8561710185
 10
10.6008242873
 20
-30.8572528457
 10
10.6289859026
 20
-30.8549631671
 10
10.6578618922
 20
-30.8493524782
 10
10.6872452342
 20
-30.840437611
 10
10.7173429503
 20
-30.8282017336
 10
10.7481550406
 20
-30.8126448459
  0
LINE
  5
25F
100
AcDbEntity
  8
RACCORDO
100
AcDbLine
 62
7
  6
CONTINUOUS
 10
10.504313318
 20
-30.8339149238
 11
10.1694086946
 21
-30.6405451916
  0
LINE
  5
260
100
AcDbEntity
  8
RACCORDO
100
AcDbLine
 62
253
  6
CONTINUOUS
 10
10.4007720075
 20
-30.6050464933
 11
10.1654434969
 21
-30.4691707606
  0
LINE
  5
261
100
AcDbEntity
  8
RACCORDO
100
AcDbLine
 62
253
  6
CONTINUOUS
 10
10.4007720075
 20
-30.3887328649
 11
10.1654434969
 21
-30.2528571322
  0
LINE
  5
262
100
AcDbEntity
  8
RACCORDO
100
AcDbLine
 62
253
  6
CONTINUOUS
 10
-27.4225546217
 20
9.9060130826
 11
-27.4169624354
 21
9.8877716312
  0
LWPOLYLINE
  5
263
100
AcDbEntity
  8
RACCORDO
100
AcDbPolyline
 62
253
  6
CONTINUOUS
 90
8
 70
0
 10
-27.4169624354
 20
9.8877716312
 10
-27.4131483253
 20
9.8686884829
 10
-27.4111551251
 20
9.8489842938
 10
-27.4110017661
 20
9.828863689
 10
-27.4126882589
 20
9.8085550304
 10
-27.4161837005
 20
9.7883223451
 10
-27.4214312807
 20
9.7683969545
 10
-27.428362465
 20
9.7489745506
  0
LWPOLYLINE
  5
264
100
AcDbEntity
  8
RACCORDO
100
AcDbPolyline
 62
253
  6
CONTINUOUS
 90
7
 70
0
 10
4.1453147908
 20
-10.8062512401
 10
4.1781795013
 20
-10.800939687
 10
4.2102859984
 20
-10.7940002078
 10
4.2409941406
 20
-10.7855669503
 10
4.2700905475
 20
-10.7756846304
 10
4.2977885995
 20
-10.7643085322
 10
4.3240882966
 20
-10.7514386557
  0
LINE
  5
265
100
AcDbEntity
  8
RACCORDO
100
AcDbLine
 62
253
  6
CONTINUOUS
 10
10.7481550406
 20
-29.7799852931
 11
10.5761628144
 21
-29.6806791373
  0
LINE
  5
266
100
AcDbEntity
  8
DRAFT
100
AcDbLine
 62
7
  6
CONTINUOUS
 10
11.4614321793
 20
-29.3537721092
 11
11.2492635425
 21
-29.2312685974
  0
LINE
  5
267
100
AcDbEntity
  8
0
100
AcDbLine
 62
7
  6
CONTINUOUS
 10
10.0721266426
 20
-28.6692790288
 11
10.2373075048
 21
-28.7678151582
  0
LWPOLYLINE
  5
268
100
AcDbEntity
  8
RACCORDO
100
AcDbPolyline
 62
7
  6
CONTINUOUS
 90
3
 70
0
 10
1.7607377671
 20
-7.0229196919
 10
1.737721194
 20
-7.0288042841
 10
1.7153457484
 20
-7.0374771336
  0
LINE
  5
269
100
AcDbEntity
  8
RACCORDO
100
AcDbLine
 62
7
  6
CONTINUOUS
 10
9.0487079942
 20
-23.0614829667
 11
8.7305099427
 21
-22.8777593997
  0
LINE
  5
26A
100
AcDbEntity
  8
DRAFT
100
AcDbLine
 62
7
  6
CONTINUOUS
 10
9.8706310065
 20
-24.90918645
 11
10.2371339807
 21
-25.1210267821
  0
LWPOLYLINE
  5
26B
100
AcDbEntity
  8
RACCORDO
100
AcDbPolyline
 62
7
  6
CONTINUOUS
 90
14
 70
0
 10
-36.5664581591
 20
14.639561771
 10
-36.5806219575
 20
14.6577083449
 10
-36.5942069337
 20
14.6770379159
 10
-36.6070085069
 20
14.6973035427
 10
-36.6188578308
 20
14.7182627177
 10
-36.629561648
 20
14.7395704703
 10
-36.6390081694
 20
14.7609476119
 10
-36.6471088817
 20
14.7820930736
 10
-36.6537730253
 20
14.8026021268
 10
-36.6590047604
 20
14.8222069739
 10
-36.6628341862
 20
14.8406063445
 10
-36.665310749
 20
14.8573423937
 10
-36.6665877072
 20
14.8722272657
 10
-36.6668693457
 20
14.8825255823
  0
LWPOLYLINE
  5
26C
100
AcDbEntity
  8
RACCORDO
100
AcDbPolyline
 62
7
  6
CONTINUOUS
 90
6
 70
0
 10
-27.404361967
 20
9.9047324179
 10
-27.417344305
 20
9.9257831314
 10
-27.4328558746
 20
9.9451039377
 10
-27.4506916019
 20
9.962404567
 10
-27.4705599078
 20
9.9773766687
 10
-27.4809255054
 20
9.9837762894
  0
LWPOLYLINE
  5
26D
100
AcDbEntity
  8
RACCORDO
100
AcDbPolyline
 62
253
  6
CONTINUOUS
 90
3
 70
0
 10
-27.4388057204
 20
9.9391860897
 10
-27.429862082
 20
9.9232122108
 10
-27.4225546217
 20
9.9060130826
  0
LWPOLYLINE
  5
26E
100
AcDbEntity
  8
RACCORDO
100
AcDbPolyline
 62
253
  6
CONTINUOUS
 90
3
 70
0
 10
-1.5176930208
 20
-7.6582488801
 10
-1.5355784676
 20
-7.6641389525
 10
-1.5538102802
 20
-7.672931933
  0
LWPOLYLINE
  5
26F
100
AcDbEntity
  8
RACCORDO
100
AcDbPolyline
 62
7
  6
CONTINUOUS
 90
3
 70
0
 10
1.8075782747
 20
-7.0194851707
 10
1.7840650365
 20
-7.019822109
 10
1.7607377671
 20
-7.0229196919
  0
LWPOLYLINE
  5
270
100
AcDbEntity
  8
RACCORDO
100
AcDbPolyline
 62
253
  6
CONTINUOUS
 90
7
 70
0
 10
3.9405553362
 20
-10.8032006895
 10
3.9741095188
 20
-10.8078630168
 10
4.0084467924
 20
-10.8109134097
 10
4.0428115202
 20
-10.8122841957
 10
4.0772137122
 20
-10.8119355905
 10
4.1116433582
 20
-10.8099073783
 10
4.1453147908
 20
-10.8062512401
  0
LINE
  5
271
100
AcDbEntity
  8
RACCORDO
100
AcDbLine
 62
253
  6
CONTINUOUS
 10
8.9433593634
 20
-22.8315710121
 11
8.7281633384
 21
-22.7073195243
  0
LINE
  5
272
100
AcDbEntity
  8
RACCORDO
100
AcDbLine
 62
253
  6
CONTINUOUS
 10
8.7281633384
 20
-22.2303531192
 11
8.9433593634
 21
-22.354604607
  0
LINE
  5
273
100
AcDbEntity
  8
RACCORDO
100
AcDbLine
 62
253
  6
CONTINUOUS
 10
9.1328245144
 20
-21.6694165922
 11
9.2842575159
 21
-21.7568521094
  0
LINE
  5
274
100
AcDbEntity
  8
0
100
AcDbLine
 62
7
  6
CONTINUOUS
 10
11.2043375897
 20
-22.0927752786
 11
11.2492635425
 21
-22.119575172
  0
LWPOLYLINE
  5
275
100
AcDbEntity
  8
0
100
AcDbPolyline
 62
7
  6
CONTINUOUS
 90
7
 70
0
 10
-42.0064374744
 20
13.7811713773
 10
-42.044567725
 20
13.810337832
 10
-42.0755847745
 20
13.8409735738
 10
-42.099488623
 20
13.8730786025
 10
-42.1164254905
 20
13.9071824049
 10
-42.1262491569
 20
13.9427554943
 10
-42.1286908529
 20
13.9703221091
  0
LWPOLYLINE
  5
276
100
AcDbEntity
  8
RACCORDO
100
AcDbPolyline
 62
253
  6
CONTINUOUS
 90
19
 70
0
 10
-1.5587034879
 20
-7.3547884081
 10
-1.5818231264
 20
-7.3694413623
 10
-1.6023480542
 20
-7.3849278235
 10
-1.620278271
 20
-7.4012477916
 10
-1.635703306
 20
-7.418530423
 10
-1.6485336301
 20
-7.4366465613
 10
-1.6585006564
 20
-7.4552087373
 10
-1.6655475837
 20
-7.4742278574
 10
-1.6697312131
 20
-7.4936930152
 10
-1.6709533617
 20
-7.513184023
 10
-1.6691426919
 20
-7.5327130748
 10
-1.6643705412
 20
-7.5522679766
 10
-1.6567527396
 20
-7.5713919585
 10
-1.646243032
 20
-7.5900528031
 10
-1.6328876736
 20
-7.6082827279
 10
-1.6169412596
 20
-7.625721615
 10
-1.5984886553
 20
-7.6422494253
 10
-1.5774449955
 20
-7.657986198
 10
-1.5538102802
 20
-7.672931933
  0
LWPOLYLINE
  5
277
100
AcDbEntity
  8
RACCORDO
100
AcDbPolyline
 62
253
  6
CONTINUOUS
 90
8
 70
0
 10
-1.4173036708
 20
-7.5997000752
 10
-1.4287697255
 20
-7.6066796393
 10
-1.4390659098
 20
-7.6142082142
 10
-1.4481183294
 20
-7.6222246766
 10
-1.4558611031
 20
-7.6306593588
 10
-1.4622420894
 20
-7.6394501563
 10
-1.4672201773
 20
-7.6485437461
 10
-1.4698823414
 20
-7.6555592917
  0
LINE
  5
278
100
AcDbEntity
  8
RACCORDO
100
AcDbLine
 62
253
  6
CONTINUOUS
 10
-0.0948485736
 20
-6.5095740249
 11
-1.5587034879
 21
-7.3547884081
  0
LINE
  5
279
100
AcDbEntity
  8
RACCORDO
100
AcDbLine
 62
253
  6
CONTINUOUS
 10
0.0465512435
 20
-6.754485692
 11
-1.4173036708
 21
-7.5997000752
  0
LWPOLYLINE
  5
27A
100
AcDbEntity
  8
RACCORDO
100
AcDbPolyline
 62
253
  6
CONTINUOUS
 90
9
 70
0
 10
1.8011503859
 20
-7.0545929646
 10
1.8119915217
 20
-7.0490333016
 10
1.8227542009
 20
-7.0444772651
 10
1.8333749787
 20
-7.0409517125
 10
1.843791247
 20
-7.0384774265
 10
1.8539416032
 20
-7.0370689927
 10
1.8637662119
 20
-7.0367347137
 10
1.8732071585
 20
-7.0374765599
 10
1.8822087895
 20
-7.0392901583
  0
LINE
  5
27B
100
AcDbEntity
  8
RACCORDO
100
AcDbLine
 62
7
  6
CONTINUOUS
 10
1.7153457484
 20
-7.0374771336
 11
1.7036820293
 21
-7.0432907365
  0
LWPOLYLINE
  5
27C
100
AcDbEntity
  8
RACCORDO
100
AcDbPolyline
 62
253
  6
CONTINUOUS
 90
8
 70
0
 10
1.7077126576
 20
-7.0412817313
 10
1.7190977852
 20
-7.0372292755
 10
1.7314437397
 20
-7.0351414059
 10
1.7445233651
 20
-7.0350719573
 10
1.7581869564
 20
-7.037018901
 10
1.772281942
 20
-7.0409561657
 10
1.7866554951
 20
-7.0468368691
 10
1.8011503859
 20
-7.0545929646
  0
LWPOLYLINE
  5
27D
100
AcDbEntity
  8
RACCORDO
100
AcDbPolyline
 62
7
  6
CONTINUOUS
 90
3
 70
0
 10
1.8537565748
 20
-7.0270200444
 10
1.8309724538
 20
-7.0219113278
 10
1.8075782747
 20
-7.0194851707
  0
LWPOLYLINE
  5
27E
100
AcDbEntity
  8
0
100
AcDbPolyline
 62
7
  6
CONTINUOUS
 90
13
 70
0
 10
6.6219307314
 20
-14.2962389681
 10
6.6724452582
 20
-14.3182548969
 10
6.7255045009
 20
-14.3361637526
 10
6.7811084595
 20
-14.3499655351
 10
6.8401741724
 20
-14.3597446701
 10
6.9017846011
 20
-14.365416732
 10
6.9631886304
 20
-14.3667284439
 10
7.0243769046
 20
-14.3634821595
 10
7.0853587794
 20
-14.3558755251
 10
7.1434112066
 20
-14.3442482028
 10
7.1976265034
 20
-14.3287134133
 10
7.2489123526
 20
-14.3091579359
 10
7.2972687542
 20
-14.2855817706
  0
LINE
  5
27F
100
AcDbEntity
  8
DRAFT
100
AcDbLine
 62
7
  6
CONTINUOUS
 10
11.2492635425
 20
-20.2909190665
 11
11.4614321793
 21
-20.4134225783
  0
LINE
  5
280
100
AcDbEntity
  8
0
100
AcDbLine
 62
7
  6
CONTINUOUS
 10
9.9880088693
 20
-18.9031035576
 11
10.2373075048
 21
-19.0518188643
  0
LWPOLYLINE
  5
281
100
AcDbEntity
  8
0
100
AcDbPolyline
 62
7
  6
CONTINUOUS
 90
16
 70
0
 10
-42.0064374744
 20
13.7811713773
 10
-38.983211263
 20
11.7876155821
 10
-35.9280112662
 20
9.8110124125
 10
-32.8408374841
 20
7.8513618685
 10
-29.7214078781
 20
5.9084915879
 10
-26.5700044868
 20
3.982573933
 10
-23.3874734256
 20
2.0741259904
 10
-20.1738063363
 20
0.183152451
 10
-16.9290115771
 20
-1.6903513761
 10
-13.653960338
 20
-3.5458824768
 10
-10.3486444947
 20
-5.383436025
 10
-7.0130721714
 20
-7.2030168468
 10
-3.6481389309
 20
-9.0041364057
 10
-0.2541432941
 20
-10.7866318561
 10
3.1692132601
 20
-12.5506660436
 10
6.6219307314
 20
-14.2962389681
  0
LWPOLYLINE
  5
282
100
AcDbEntity
  8
0
100
AcDbPolyline
 62
7
  6
CONTINUOUS
 90
16
 70
0
 10
-41.6287076026
 20
13.9703220874
 10
-38.6085436769
 20
11.9787878249
 10
-35.5564702392
 20
10.004207846
 10
-32.4724872896
 20
8.0465821509
 10
-29.3563421296
 20
6.1057558998
 10
-26.2082874577
 20
4.1818839325
 10
-23.0290813692
 20
2.2754307675
 10
-19.8186488592
 20
0.3863620326
 10
-16.5770649327
 20
-1.4852879
 10
-13.3053126992
 20
-3.3389513951
 10
-10.0034516894
 20
-5.1745851458
 10
-6.6714223727
 20
-6.992232459
 10
-3.3100292671
 20
-8.7914556199
 10
0.0804594547
 20
-10.5721087236
 10
3.5003119653
 20
-12.3343376751
 10
6.9495282649
 20
-14.0781424742
  0
LWPOLYLINE
  5
283
100
AcDbEntity
  8
RACCORDO
100
AcDbPolyline
 62
253
  6
CONTINUOUS
 90
8
 70
0
 10
0.0116748917
 20
-7.5823107412
 10
0.0209552086
 20
-7.5742888669
 10
0.0288926003
 20
-7.5645384976
 10
0.035421429
 20
-7.5531766423
 10
0.0404752543
 20
-7.5403690104
 10
0.0440200351
 20
-7.5262859926
 10
0.0460446966
 20
-7.511090194
 10
0.0465512435
 20
-7.4949598093
  0
LINE
  5
284
100
AcDbEntity
  8
RACCORDO
100
AcDbLine
 62
7
  6
CONTINUOUS
 10
0.021522624
 20
-7.5756063541
 11
0.0078300794
 21
-7.5848721916
  0
LINE
  5
285
100
AcDbEntity
  8
RACCORDO
100
AcDbLine
 62
253
  6
CONTINUOUS
 10
0.0078763991
 20
-7.5848435729
 11
0.0116748917
 21
-7.5823107412
  0
LINE
  5
286
100
AcDbEntity
  8
RACCORDO
100
AcDbLine
 62
253
  6
CONTINUOUS
 10
0.0465512435
 20
-7.4949598093
 11
-0.8207962872
 21
-8.0313405327
  0
LINE
  5
287
100
AcDbEntity
  8
RACCORDO
100
AcDbLine
 62
7
  6
CONTINUOUS
 10
0.0078763991
 20
-7.5848435729
 11
-0.765631106
 21
-8.063192217
  0
LINE
  5
288
100
AcDbEntity
  8
DRAFT
100
AcDbLine
 62
7
  6
CONTINUOUS
 10
1.4912265645
 20
-7.5534594043
 11
-0.1060170894
 21
-8.4440450833
  0
LINE
  5
289
100
AcDbEntity
  8
RACCORDO
100
AcDbLine
 62
7
  6
CONTINUOUS
 10
1.5343939367
 20
-7.1343275613
 11
1.7039570461
 21
-7.0431420084
  0
LINE
  5
28A
100
AcDbEntity
  8
RACCORDO
100
AcDbLine
 62
253
  6
CONTINUOUS
 10
1.6326263816
 20
-7.1452197204
 11
1.8011503859
 21
-7.0545929646
  0
LWPOLYLINE
  5
28B
100
AcDbEntity
  8
RACCORDO
100
AcDbPolyline
 62
253
  6
CONTINUOUS
 90
10
 70
0
 10
4.6426953014
 20
-8.6311219975
 10
4.6341689204
 20
-8.628242754
 10
4.6251484255
 20
-8.6264287607
 10
4.6156872119
 20
-8.6256907214
 10
4.6058348947
 20
-8.6260335349
 10
4.5956557557
 20
-8.627455953
 10
4.5852302896
 20
-8.6299437389
 10
4.5746282199
 20
-8.6334735085
 10
4.5639062223
 20
-8.6380197898
 10
4.5531276458
 20
-8.6435501441
  0
LINE
  5
28C
100
AcDbEntity
  8
RACCORDO
100
AcDbLine
 62
253
  6
CONTINUOUS
 10
1.8822087895
 20
-7.0392901583
 11
1.8907180415
 21
-7.042164818
  0
LINE
  5
28D
100
AcDbEntity
  8
RACCORDO
100
AcDbLine
 62
7
  6
CONTINUOUS
 10
1.875374788
 20
-7.0345759537
 11
1.8537565748
 21
-7.0270200444
  0
LINE
  5
28E
100
AcDbEntity
  8
RACCORDO
100
AcDbLine
 62
253
  6
CONTINUOUS
 10
5.0900221342
 20
-9.0503740024
 11
4.6945274628
 21
-8.8884618112
  0
LINE
  5
28F
100
AcDbEntity
  8
RACCORDO
100
AcDbLine
 62
253
  6
CONTINUOUS
 10
5.0381899728
 20
-8.7930341887
 11
4.6426953014
 21
-8.6311219975
  0
LINE
  5
290
100
AcDbEntity
  8
RACCORDO
100
AcDbLine
 62
253
  6
CONTINUOUS
 10
2.2849141715
 20
-7.2045985758
 11
2.3002647627
 21
-7.2121904866
  0
LINE
  5
291
100
AcDbEntity
  8
RACCORDO
100
AcDbLine
 62
7
  6
CONTINUOUS
 10
1.8753674504
 20
-7.0345729072
 11
2.2849141715
 21
-7.2045985758
  0
LWPOLYLINE
  5
292
100
AcDbEntity
  8
RACCORDO
100
AcDbPolyline
 62
7
  6
CONTINUOUS
 90
10
 70
0
 10
2.2849141715
 20
-7.2045985758
 10
2.2876729883
 20
-7.2057682199
 10
2.2904185365
 20
-7.2069811234
 10
2.293149756
 20
-7.208237055
 10
2.2958675588
 20
-7.2095367079
 10
2.2985688264
 20
-7.2108788456
 10
2.301246684
 20
-7.2122600653
 10
2.3038983898
 20
-7.213678725
 10
2.3065250627
 20
-7.2151351763
 10
2.3082345959
 20
-7.2161110639
  0
LWPOLYLINE
  5
293
100
AcDbEntity
  8
RACCORDO
100
AcDbPolyline
 62
253
  6
CONTINUOUS
 90
7
 70
0
 10
3.8609189256
 20
-10.7345042209
 10
3.8481437643
 20
-10.7288100754
 10
3.8330450034
 20
-10.7256017825
 10
3.8167392992
 20
-10.725440592
 10
3.7994994905
 20
-10.7283292003
 10
3.7816140456
 20
-10.7342192727
 10
3.763382236
 20
-10.7430122518
  0
LWPOLYLINE
  5
294
100
AcDbEntity
  8
RACCORDO
100
AcDbPolyline
 62
253
  6
CONTINUOUS
 90
5
 70
0
 10
-1.4562735912
 20
-7.6644239018
 10
-1.4690487494
 20
-7.6587297573
 10
-1.4841475084
 20
-7.655521464
 10
-1.5004532117
 20
-7.6553602725
 10
-1.5176930208
 20
-7.6582488801
  0
LWPOLYLINE
  5
295
100
AcDbEntity
  8
RACCORDO
100
AcDbPolyline
 62
7
  6
CONTINUOUS
 90
10
 70
0
 10
10.5043137639
 20
-13.4430972555
 10
10.5244114154
 20
-13.4529261416
 10
10.5485370436
 20
-13.4608258851
 10
10.5739981111
 20
-13.4653541228
 10
10.6008242873
 20
-13.4664359501
 10
10.6289859026
 20
-13.4641462714
 10
10.6578618922
 20
-13.4585355825
 10
10.6872452342
 20
-13.4496207153
 10
10.7173429503
 20
-13.4373848379
 10
10.7481550406
 20
-13.4218279502
  0
LWPOLYLINE
  5
296
100
AcDbEntity
  8
RACCORDO
100
AcDbPolyline
 62
253
  6
CONTINUOUS
 90
7
 70
0
 10
3.763382236
 20
-10.7430122518
 10
3.7892323003
 20
-10.7566566045
 10
3.8165538789
 20
-10.7688557786
 10
3.8453469718
 20
-10.7796097742
 10
3.8758410534
 20
-10.7889741765
 10
3.9078066492
 20
-10.7968934002
 10
3.9405553362
 20
-10.8032006895
  0
LINE
  5
297
100
AcDbEntity
  8
0
100
AcDbLine
 62
253
  6
CONTINUOUS
 10
-41.9879798561
 20
14.1711030877
 11
-41.6287076026
 21
13.9703220874
  0
LINE
  5
298
100
AcDbEntity
  8
RACCORDO
100
AcDbLine
 62
253
  6
CONTINUOUS
 10
-34.0807222148
 20
11.1076993601
 11
-28.7635296986
 21
8.0376190413
  0
LINE
  5
299
100
AcDbEntity
  8
RACCORDO
100
AcDbLine
 62
253
  6
CONTINUOUS
 10
-1.5538102802
 20
-7.672931933
 11
3.763382236
 21
-10.7430122518
  0
LINE
  5
29A
100
AcDbEntity
  8
RACCORDO
100
AcDbLine
 62
7
  6
CONTINUOUS
 10
-33.9831855257
 20
11.1162073913
 11
-28.6659930089
 21
8.0461270721
  0
LINE
  5
29B
100
AcDbEntity
  8
RACCORDO
100
AcDbLine
 62
7
  6
CONTINUOUS
 10
-1.4562735912
 20
-7.6644239018
 11
3.8609189256
 21
-10.7345042209
  0
LINE
  5
29C
100
AcDbEntity
  8
DRAFT
100
AcDbLine
 62
7
  6
CONTINUOUS
 10
9.9259089626
 20
-15.1434940304
 11
10.2371339807
 21
-15.3233834606
  0
LWPOLYLINE
  5
29D
100
AcDbEntity
  8
RACCORDO
100
AcDbPolyline
 62
7
  6
CONTINUOUS
 90
6
 70
0
 10
-1.4562659452
 20
-7.6644286374
 10
-1.4599748714
 20
-7.6622272151
 10
-1.4682656517
 20
-7.6567890609
 10
-1.4743804178
 20
-7.652137735
 10
-1.478429327
 20
-7.6485520251
 10
-1.4801548174
 20
-7.6467931256
  0
LWPOLYLINE
  5
29E
100
AcDbEntity
  8
RACCORDO
100
AcDbPolyline
 62
7
  6
CONTINUOUS
 90
6
 70
0
 10
-33.9831773042
 20
11.1162022167
 10
-33.9869534444
 20
11.1184447683
 10
-33.9952290556
 20
11.1238787526
 10
-34.0013269399
 20
11.1285221174
 10
-34.0053603642
 20
11.1320982804
 10
-34.0070779512
 20
11.1338507988
  0
LINE
  5
29F
100
AcDbEntity
  8
0
100
AcDbLine
 62
253
  6
CONTINUOUS
 10
7.2972687542
 20
-14.2855817706
 11
6.9495282649
 21
-14.0781424742
  0
LWPOLYLINE
  5
2A0
100
AcDbEntity
  8
RACCORDO
100
AcDbPolyline
 62
7
  6
CONTINUOUS
 90
11
 70
0
 10
-32.5242554631
 20
12.2795835586
 10
-32.5057964267
 20
12.2675269256
 10
-32.4898758256
 20
12.2545160255
 10
-32.4753671103
 20
12.2399303673
 10
-32.4623914411
 20
12.2238735077
 10
-32.4511427555
 20
12.2065691466
 10
-32.4417278126
 20
12.1881764675
 10
-32.4342027814
 20
12.1687342261
 10
-32.4286993137
 20
12.1484134844
 10
-32.4253521494
 20
12.1275309138
 10
-32.4242286512
 20
12.1063630085
  0
LWPOLYLINE
  5
2A1
100
AcDbEntity
  8
RACCORDO
100
AcDbPolyline
 62
7
  6
CONTINUOUS
 90
4
 70
0
 10
0.0655515733
 20
-7.5308196182
 10
0.0524605341
 20
-7.5472820945
 10
0.0376931823
 20
-7.5622968893
 10
0.021522624
 20
-7.5756063541
  0
LWPOLYLINE
  5
2A2
100
AcDbEntity
  8
RACCORDO
100
AcDbPolyline
 62
253
  6
CONTINUOUS
 90
9
 70
0
 10
5.0900221342
 20
-9.0503740024
 10
5.1036129472
 20
-9.0413574712
 10
5.1155166987
 20
-9.031578072
 10
5.125605848
 20
-9.0211405842
 10
5.1337722971
 20
-9.0101568383
 10
5.1399285479
 20
-8.9987445175
 10
5.1440086407
 20
-8.987025897
 10
5.1459688599
 20
-8.9751265335
 10
5.1461541741
 20
-8.970156595
  0
LINE
  5
2A3
100
AcDbEntity
  8
RACCORDO
100
AcDbLine
 62
7
  6
CONTINUOUS
 10
3.8695620054
 20
-10.7391570825
 11
5.0900221342
 21
-9.9844062316
  0
LINE
  5
2A4
100
AcDbEntity
  8
DRAFT
100
AcDbLine
 62
7
  6
CONTINUOUS
 10
4.5317857236
 20
-9.3090401556
 11
2.9893454564
 21
-10.2312686232
  0
LINE
  5
2A5
100
AcDbEntity
  8
RACCORDO
100
AcDbLine
 62
253
  6
CONTINUOUS
 10
4.5531276458
 20
-8.6435501441
 11
4.3903859066
 21
-8.7375155073
  0
LINE
  5
2A6
100
AcDbEntity
  8
RACCORDO
100
AcDbLine
 62
253
  6
CONTINUOUS
 10
4.6945274628
 20
-8.8884618112
 11
4.5317857236
 21
-8.9824271744
  0
LINE
  5
2A7
100
AcDbEntity
  8
RACCORDO
100
AcDbLine
 62
7
  6
CONTINUOUS
 10
4.2268949568
 20
-10.7399876995
 11
5.7427610955
 21
-9.9248039455
  0
LINE
  5
2A8
100
AcDbEntity
  8
RACCORDO
100
AcDbLine
 62
253
  6
CONTINUOUS
 10
4.3240882966
 20
-10.7514386557
 11
5.8399544353
 21
-9.9362549017
  0
LWPOLYLINE
  5
2A9
100
AcDbEntity
  8
RACCORDO
100
AcDbPolyline
 62
7
  6
CONTINUOUS
 90
11
 70
0
 10
5.7427626576
 20
-9.9248031055
 10
5.7475048131
 20
-9.922334119
 10
5.7661736748
 20
-9.9140949119
 10
5.7856295706
 20
-9.907788916
 10
5.8057048074
 20
-9.9034904639
 10
5.8262027244
 20
-9.9012677124
 10
5.8468984953
 20
-9.9011707581
 10
5.8675727201
 20
-9.9032250939
 10
5.8880095774
 20
-9.9074358604
 10
5.9079714835
 20
-9.9137812213
 10
5.9272067519
 20
-9.9222028632
  0
LWPOLYLINE
  5
2AA
100
AcDbEntity
  8
RACCORDO
100
AcDbPolyline
 62
7
  6
CONTINUOUS
 90
21
 70
0
 10
4.2268808453
 20
-10.739995721
 10
4.2187096542
 20
-10.7441447168
 10
4.20600621
 20
-10.7497809036
 10
4.1911646392
 20
-10.755381108
 10
4.1741314582
 20
-10.7607623424
 10
4.1550967566
 20
-10.765675907
 10
4.1345191432
 20
-10.7698675313
 10
4.1126440675
 20
-10.77319733
 10
4.0896959548
 20
-10.7755510869
 10
4.0661785081
 20
-10.7768250828
 10
4.0424064183
 20
-10.7769864919
 10
4.0186525205
 20
-10.7760298311
 10
3.9953638285
 20
-10.7739855036
 10
3.9728403891
 20
-10.7709211249
 10
3.9513258986
 20
-10.7669274533
 10
3.9311577327
 20
-10.7621386902
 10
3.9125337313
 20
-10.7566948016
 10
3.8956484908
 20
-10.7507666503
 10
3.8807918619
 20
-10.7446041348
 10
3.868028495
 20
-10.7384132518
 10
3.8609364011
 20
-10.7345145863
  0
LWPOLYLINE
  5
2AB
100
AcDbEntity
  8
RACCORDO
100
AcDbPolyline
 62
253
  6
CONTINUOUS
 90
9
 70
0
 10
5.7427626576
 20
-9.9248031055
 10
5.7459917065
 20
-9.9231780364
 10
5.7575242768
 20
-9.9189901521
 10
5.7699004929
 20
-9.9168335788
 10
5.7830035332
 20
-9.9167117187
 10
5.796711029
 20
-9.918621859
 10
5.8108808189
 20
-9.9225475272
 10
5.8253485489
 20
-9.9284464232
 10
5.8399544353
 20
-9.9362549017
  0
LWPOLYLINE
  5
2AC
100
AcDbEntity
  8
RACCORDO
100
AcDbPolyline
 62
253
  6
CONTINUOUS
 90
7
 70
0
 10
4.2268949568
 20
-10.7399876995
 10
4.2390157369
 20
-10.734930021
 10
4.2543037535
 20
-10.7319937438
 10
4.2707431264
 20
-10.7322069189
 10
4.2880526822
 20
-10.7355659001
 10
4.3059363644
 20
-10.7420132368
 10
4.3240882966
 20
-10.7514386557
  0
LWPOLYLINE
  5
2AD
100
AcDbEntity
  8
RACCORDO
100
AcDbPolyline
 62
253
  6
CONTINUOUS
 90
7
 70
0
 10
-28.6659930089
 20
8.0461270721
 10
-28.6787681703
 20
8.0518212177
 10
-28.6938669312
 20
8.0550295106
 10
-28.7101726354
 20
8.0551907011
 10
-28.7274124441
 20
8.0523020928
 10
-28.745297889
 20
8.0464120204
 10
-28.7635296986
 20
8.0376190413
  0
LWPOLYLINE
  5
2AE
100
AcDbEntity
  8
RACCORDO
100
AcDbPolyline
 62
253
  6
CONTINUOUS
 90
5
 70
0
 10
-33.9831855257
 20
11.1162073913
 10
-33.9959606839
 20
11.1219015358
 10
-34.011059443
 20
11.1251098291
 10
-34.0273651462
 20
11.1252710206
 10
-34.0446049554
 20
11.122382413
  0
LINE
  5
2AF
100
AcDbEntity
  8
RACCORDO
100
AcDbLine
 62
253
  6
CONTINUOUS
 10
5.0459864291
 20
-8.7968550037
 11
5.0381899728
 21
-8.7930341887
  0
LINE
  5
2B0
100
AcDbEntity
  8
RACCORDO
100
AcDbLine
 62
253
  6
CONTINUOUS
 10
1.8907180415
 20
-7.042164818
 11
1.875374788
 21
-7.0345759537
  0
LINE
  5
2B1
100
AcDbEntity
  8
RACCORDO
100
AcDbLine
 62
253
  6
CONTINUOUS
 10
2.2849141715
 20
-7.2045985758
 11
2.2958675588
 21
-7.2095367079
  0
LINE
  5
2B2
100
AcDbEntity
  8
RACCORDO
100
AcDbLine
 62
253
  6
CONTINUOUS
 10
2.2985688264
 20
-7.2108788456
 11
2.308233796
 21
-7.216110602
  0
LWPOLYLINE
  5
2B3
100
AcDbEntity
  8
RACCORDO
100
AcDbPolyline
 62
253
  6
CONTINUOUS
 90
7
 70
0
 10
-28.7635296986
 20
8.0376190413
 10
-28.7376796343
 20
8.0239746886
 10
-28.7103580557
 20
8.0117755144
 10
-28.6815649628
 20
8.0010215189
 10
-28.6510708812
 20
7.9916571166
 10
-28.6191052854
 20
7.9837378929
 10
-28.5863565984
 20
7.9774306036
  0
LWPOLYLINE
  5
2B4
100
AcDbEntity
  8
RACCORDO
100
AcDbPolyline
 62
253
  6
CONTINUOUS
 90
9
 70
0
 10
0.0026564715
 20
-6.5010477345
 10
-0.0013382226
 20
-6.4989213387
 10
-0.0126902382
 20
-6.4945751743
 10
-0.0249179432
 20
-6.4921927561
 10
-0.0379085483
 20
-6.4917794464
 10
-0.0515436069
 20
-6.4933352304
 10
-0.0656849748
 20
-6.496847531
 10
-0.0801721279
 20
-6.502279554
 10
-0.0948485736
 20
-6.5095740249
  0
LWPOLYLINE
  5
2B5
100
AcDbEntity
  8
RACCORDO
100
AcDbPolyline
 62
253
  6
CONTINUOUS
 90
9
 70
0
 10
-32.5242554631
 20
12.2795835586
 10
-32.5282501572
 20
12.2817099544
 10
-32.5396021728
 20
12.2860561188
 10
-32.5518298778
 20
12.288438537
 10
-32.5648204829
 20
12.2888518466
 10
-32.5784555414
 20
12.2872960626
 10
-32.5925969094
 20
12.2837837621
 10
-32.6070840625
 20
12.2783517391
 10
-32.6217605082
 20
12.2710572682
  0
LWPOLYLINE
  5
2B6
100
AcDbEntity
  8
RACCORDO
100
AcDbPolyline
 62
253
  6
CONTINUOUS
 90
9
 70
0
 10
5.9374911244
 20
-9.9277468705
 10
5.9334647889
 20
-9.9256022168
 10
5.9221127736
 20
-9.9212560519
 10
5.9098850675
 20
-9.9188736331
 10
5.8968944603
 20
-9.9184603233
 10
5.8832594004
 20
-9.9200161076
 10
5.8691180322
 20
-9.9235284084
 10
5.8546308796
 20
-9.9289604314
 10
5.8399544353
 20
-9.9362549017
  0
LWPOLYLINE
  5
2B7
100
AcDbEntity
  8
RACCORDO
100
AcDbPolyline
 62
253
  6
CONTINUOUS
 90
9
 70
0
 10
-26.5894208102
 20
8.8528844226
 10
-26.5934471457
 20
8.8550290763
 10
-26.604799161
 20
8.8593752411
 10
-26.6170268671
 20
8.86175766
 10
-26.6300174742
 20
8.8621709698
 10
-26.6436525342
 20
8.8606151855
 10
-26.6577939024
 20
8.8571028846
 10
-26.672281055
 20
8.8516708617
 10
-26.6869574993
 20
8.8443763914
  0
LINE
  5
2B8
100
AcDbEntity
  8
RACCORDO
100
AcDbLine
 62
7
  6
CONTINUOUS
 10
5.9272067519
 20
-9.9222028632
 11
5.9374946853
 21
-9.9277489267
  0
LINE
  5
2B9
100
AcDbEntity
  8
RACCORDO
100
AcDbLine
 62
7
  6
CONTINUOUS
 10
-26.5997051827
 20
8.8584284299
 11
-26.5894172493
 21
8.8528823664
  0
LINE
  5
2BA
100
AcDbEntity
  8
0
100
AcDbLine
 62
7
  6
CONTINUOUS
 10
-38.8525942828
 20
15.6263702371
 11
-39.2118665363
 21
15.8271512374
  0
LINE
  5
2BB
100
AcDbEntity
  8
RACCORDO
100
AcDbLine
 62
7
  6
CONTINUOUS
 10
10.1694086946
 20
-13.2497282959
 11
10.504313318
 21
-13.4430980281
  0
LINE
  5
2BC
100
AcDbEntity
  8
RACCORDO
100
AcDbLine
 62
253
  6
CONTINUOUS
 10
10.1654434969
 20
-13.0783538649
 11
10.4007720075
 21
-13.2142295976
  0
LINE
  5
2BD
100
AcDbEntity
  8
RACCORDO
100
AcDbLine
 62
253
  6
CONTINUOUS
 10
10.1654434969
 20
-12.8620402366
 11
10.4007720075
 21
-12.9979159692
  0
LINE
  5
2BE
100
AcDbEntity
  8
DRAFT
100
AcDbLine
 62
7
  6
CONTINUOUS
 10
-31.03568537
 20
11.2271718888
 11
-27.9951262109
 21
9.4715911375
  0
LINE
  5
2BF
100
AcDbEntity
  8
DRAFT
100
AcDbLine
 62
7
  6
CONTINUOUS
 10
4.5317857236
 20
-9.3090401556
 11
1.4912265645
 21
-7.5534594043
  0
LINE
  5
2C0
100
AcDbEntity
  8
RACCORDO
100
AcDbLine
 62
253
  6
CONTINUOUS
 10
-36.5816015612
 20
14.5574198637
 11
-32.6217605082
 21
12.2710572682
  0
LINE
  5
2C1
100
AcDbEntity
  8
RACCORDO
100
AcDbLine
 62
253
  6
CONTINUOUS
 10
-26.6869574993
 20
8.8443763914
 11
-0.0948485736
 21
-6.5095740249
  0
LINE
  5
2C2
100
AcDbEntity
  8
RACCORDO
100
AcDbLine
 62
253
  6
CONTINUOUS
 10
5.8399544353
 20
-9.9362549017
 11
9.0268942135
 21
-11.7763539879
  0
LINE
  5
2C3
100
AcDbEntity
  8
RACCORDO
100
AcDbLine
 62
7
  6
CONTINUOUS
 10
-36.4840648721
 20
14.5659278949
 11
-32.5242238192
 21
12.2795652994
  0
LINE
  5
2C4
100
AcDbEntity
  8
RACCORDO
100
AcDbLine
 62
7
  6
CONTINUOUS
 10
-26.5894208102
 20
8.8528844226
 11
0.0026881154
 21
-6.5010659937
  0
LINE
  5
2C5
100
AcDbEntity
  8
RACCORDO
100
AcDbLine
 62
7
  6
CONTINUOUS
 10
5.9374911244
 20
-9.9277468705
 11
9.0830303476
 21
-11.7439417951
  0
LINE
  5
2C6
100
AcDbEntity
  8
RACCORDO
100
AcDbLine
 62
7
  6
CONTINUOUS
 10
-30.894285553
 20
11.6354115726
 11
-28.136526028
 21
10.0431157858
  0
LINE
  5
2C7
100
AcDbEntity
  8
RACCORDO
100
AcDbLine
 62
7
  6
CONTINUOUS
 10
4.3903859066
 20
-8.7375155073
 11
1.6326263816
 21
-7.1452197204
  0
LINE
  5
2C8
100
AcDbEntity
  8
RACCORDO
100
AcDbLine
 62
253
  6
CONTINUOUS
 10
-38.6786089643
 20
16.1492256762
 11
-38.347960614
 21
15.9583134627
  0
LINE
  5
2C9
100
AcDbEntity
  8
RACCORDO
100
AcDbLine
 62
253
  6
CONTINUOUS
 10
10.4175066903
 20
-12.198256184
 11
10.7481550406
 21
-12.3891683974
  0
LINE
  5
2CA
100
AcDbEntity
  8
RACCORDO
100
AcDbLine
 62
253
  6
CONTINUOUS
 10
4.5531276458
 20
-8.6435501441
 11
1.8011503859
 21
-7.0545929646
  0
LINE
  5
2CB
100
AcDbEntity
  8
RACCORDO
100
AcDbLine
 62
253
  6
CONTINUOUS
 10
-27.9737842888
 20
10.137081149
 11
-30.7257615487
 21
11.7260383285
  0
LINE
  5
2CC
100
AcDbEntity
  8
RACCORDO
100
AcDbLine
 62
253
  6
CONTINUOUS
 10
4.6426953014
 20
-8.6311219975
 11
1.8907180415
 21
-7.042164818
  0
LINE
  5
2CD
100
AcDbEntity
  8
RACCORDO
100
AcDbLine
 62
253
  6
CONTINUOUS
 10
-27.8842166332
 20
10.1495092956
 11
-30.636193893
 21
11.7384664751
  0
LINE
  5
2CE
100
AcDbEntity
  8
RACCORDO
100
AcDbLine
 62
253
  6
CONTINUOUS
 10
2.308233796
 20
-7.216110602
 11
2.3002647627
 21
-7.2121904866
  0
LINE
  5
2CF
100
AcDbEntity
  8
RACCORDO
100
AcDbLine
 62
253
  6
CONTINUOUS
 10
-30.2186781386
 20
11.564520691
 11
-30.2266471719
 21
11.5684408065
  0
LINE
  5
2D0
100
AcDbEntity
  8
RACCORDO
100
AcDbLine
 62
7
  6
CONTINUOUS
 10
5.0461590061
 20
-8.7969543041
 11
2.308233796
 21
-7.216110602
  0
LINE
  5
2D1
100
AcDbEntity
  8
RACCORDO
100
AcDbLine
 62
7
  6
CONTINUOUS
 10
-27.4807529285
 20
9.983676989
 11
-30.2186781386
 21
11.564520691
  0
LINE
  5
2D2
100
AcDbEntity
  8
RACCORDO
100
AcDbLine
 62
7
  6
CONTINUOUS
 10
-37.9653318257
 20
16.5754388601
 11
-36.7254479821
 21
15.8595454682
  0
LINE
  5
2D3
100
AcDbEntity
  8
RACCORDO
100
AcDbLine
 62
7
  6
CONTINUOUS
 10
10.2215483357
 20
-11.2470618216
 11
11.4614321793
 21
-11.9629552135
  0
LWPOLYLINE
  5
2D4
100
AcDbEntity
  8
RACCORDO
100
AcDbPolyline
 62
7
  6
CONTINUOUS
 90
8
 70
0
 10
-36.4840758613
 20
14.5659339306
 10
-36.4856104024
 20
14.5668302377
 10
-36.4970932493
 20
14.5741543139
 10
-36.5097607583
 20
14.583419823
 10
-36.5233351273
 20
14.5946610639
 10
-36.5375665515
 20
14.607894729
 10
-36.5520283973
 20
14.6229078379
 10
-36.5664581591
 20
14.639561771
  0
LINE
  5
2D5
100
AcDbEntity
  8
0
100
AcDbLine
 62
7
  6
CONTINUOUS
 10
9.8177030076
 20
-12.4752494362
 11
10.1654434969
 21
-12.6826887327
  0
LINE
  5
2D6
100
AcDbEntity
  8
0
100
AcDbLine
 62
7
  6
CONTINUOUS
 10
11.1113654873
 20
-13.2194351965
 11
11.2492635425
 21
-13.3016961826
  0
LWPOLYLINE
  5
2D7
100
AcDbEntity
  8
RACCORDO
100
AcDbPolyline
 62
253
  6
CONTINUOUS
 90
16
 70
0
 10
-27.9737842888
 20
10.137081149
 10
-27.9587624908
 20
10.1277906609
 10
-27.9439322419
 20
10.1167981961
 10
-27.9294559627
 20
10.1042241439
 10
-27.9154921967
 20
10.0902062147
 10
-27.9021938746
 20
10.0748979324
 10
-27.8897066393
 20
10.0584669528
 10
-27.8781672504
 20
10.0410932274
 10
-27.8677020869
 20
10.0229670326
 10
-27.858425763
 20
10.0042868859
 10
-27.8504398726
 20
9.9852573715
 10
-27.8438318769
 20
9.9660869001
 10
-27.8386741464
 20
9.9469854259
 10
-27.8350231684
 20
9.9281621476
 10
-27.8329189284
 20
9.9098232172
 10
-27.8323844717
 20
9.8921694819
  0
LWPOLYLINE
  5
2D8
100
AcDbEntity
  8
RACCORDO
100
AcDbPolyline
 62
253
  6
CONTINUOUS
 90
16
 70
0
 10
4.5531276458
 20
-8.6435501441
 10
4.5681494438
 20
-8.6528406322
 10
4.5829796926
 20
-8.6638330969
 10
4.5974559719
 20
-8.6764071492
 10
4.6114197379
 20
-8.6904250784
 10
4.6247180599
 20
-8.7057333607
 10
4.6372052953
 20
-8.7221643403
 10
4.6487446842
 20
-8.7395380657
 10
4.6592098476
 20
-8.7576642605
 10
4.6684861716
 20
-8.7763444072
 10
4.676472062
 20
-8.7953739216
 10
4.6830800577
 20
-8.814544393
 10
4.6882377882
 20
-8.8336458672
 10
4.6918887661
 20
-8.8524691454
 10
4.6939930062
 20
-8.8708080759
 10
4.6945274628
 20
-8.8884618112
  0
LWPOLYLINE
  5
2D9
100
AcDbEntity
  8
RACCORDO
100
AcDbPolyline
 62
7
  6
CONTINUOUS
 90
11
 70
0
 10
0.0026564715
 20
-6.5010477345
 10
0.0211155079
 20
-6.5131043675
 10
0.0370361089
 20
-6.5261152676
 10
0.0515448243
 20
-6.5407009258
 10
0.0645204935
 20
-6.5567577854
 10
0.0757691791
 20
-6.5740621464
 10
0.085184122
 20
-6.5924548256
 10
0.0927091532
 20
-6.6118970669
 10
0.0982126209
 20
-6.6322178087
 10
0.1015597852
 20
-6.6531003792
 10
0.1026832834
 20
-6.6742682846
  0
LWPOLYLINE
  5
2DA
100
AcDbEntity
  8
RACCORDO
100
AcDbPolyline
 62
253
  6
CONTINUOUS
 90
5
 70
0
 10
-27.4887219618
 20
9.9875971044
 10
-27.474381007
 20
9.9780951862
 10
-27.4611877611
 20
9.9667756967
 10
-27.4492861334
 20
9.9537597194
 10
-27.4388057204
 20
9.9391860897
  0
LWPOLYLINE
  5
2DB
100
AcDbEntity
  8
RACCORDO
100
AcDbPolyline
 62
253
  6
CONTINUOUS
 90
5
 70
0
 10
5.0381899728
 20
-8.7930341887
 10
5.0525309275
 20
-8.8025361069
 10
5.0657241735
 20
-8.8138555964
 10
5.0776258011
 20
-8.8268715736
 10
5.0881062142
 20
-8.8414452034
  0
LWPOLYLINE
  5
2DC
100
AcDbEntity
  8
RACCORDO
100
AcDbPolyline
 62
253
  6
CONTINUOUS
 90
13
 70
0
 10
-1.4173036708
 20
-7.5997000752
 10
-1.4182176188
 20
-7.5775182073
 10
-1.4215765846
 20
-7.5543437126
 10
-1.4273231229
 20
-7.5305729551
 10
-1.4353589514
 20
-7.5066125003
 10
-1.4455466335
 20
-7.4828721557
 10
-1.4577119304
 20
-7.459757962
 10
-1.4716467773
 20
-7.4376652569
 10
-1.4871128411
 20
-7.4169719109
 10
-1.5038456007
 20
-7.3980318588
 10
-1.5215588676
 20
-7.3811690514
 10
-1.5399496803
 20
-7.3666719133
 10
-1.5587034878
 20
-7.354788408
  0
LINE
  5
2DD
100
AcDbEntity
  8
RACCORDO
100
AcDbLine
 62
253
  6
CONTINUOUS
 10
-1.4173036708
 20
-7.6869246454
 11
-1.4173036708
 21
-7.5997000752
  0
LWPOLYLINE
  5
2DE
100
AcDbEntity
  8
RACCORDO
100
AcDbPolyline
 62
7
  6
CONTINUOUS
 90
9
 70
0
 10
5.0900221342
 20
-9.9844062316
 10
5.1046088604
 20
-9.9728943075
 10
5.1167832016
 20
-9.9595708411
 10
5.1266273573
 20
-9.9446425489
 10
5.1342344512
 20
-9.9281637662
 10
5.1398062219
 20
-9.910425692
 10
5.1435634269
 20
-9.8919419295
 10
5.1456303734
 20
-9.8728696227
 10
5.1461541741
 20
-9.8563860229
  0
LINE
  5
2DF
100
AcDbEntity
  8
RACCORDO
100
AcDbLine
 62
7
  6
CONTINUOUS
 10
9.9411953054
 20
-11.2484497468
 11
6.9215224236
 21
-12.9919652422
  0
LWPOLYLINE
  5
2E0
100
AcDbEntity
  8
RACCORDO
100
AcDbPolyline
 62
253
  6
CONTINUOUS
 90
10
 70
0
 10
-27.8842166332
 20
10.1495092956
 10
-27.8927430142
 20
10.152388539
 10
-27.9017635091
 20
10.1542025323
 10
-27.9112247227
 20
10.1549405717
 10
-27.9210770399
 20
10.1545977582
 10
-27.9312561789
 20
10.1531753401
 10
-27.941681645
 20
10.1506875542
 10
-27.9522837147
 20
10.1471577845
 10
-27.9630057123
 20
10.1426115033
 10
-27.9737842888
 20
10.137081149
  0
LINE
  5
2E1
100
AcDbEntity
  8
RACCORDO
100
AcDbLine
 62
253
  6
CONTINUOUS
 10
-27.4368898004
 20
9.7302572907
 11
-27.8323844717
 21
9.8921694819
  0
LINE
  5
2E2
100
AcDbEntity
  8
RACCORDO
100
AcDbLine
 62
253
  6
CONTINUOUS
 10
-27.4887219618
 20
9.9875971044
 11
-27.8842166332
 21
10.1495092956
  0
LINE
  5
2E3
100
AcDbEntity
  8
RACCORDO
100
AcDbLine
 62
253
  6
CONTINUOUS
 10
-30.2419977631
 20
11.5760327173
 11
-30.2266471719
 21
11.5684408065
  0
LINE
  5
2E4
100
AcDbEntity
  8
RACCORDO
100
AcDbLine
 62
7
  6
CONTINUOUS
 10
-30.6515444842
 20
11.7460583859
 11
-30.2419977631
 21
11.5760327173
  0
LWPOLYLINE
  5
2E5
100
AcDbEntity
  8
RACCORDO
100
AcDbPolyline
 62
7
  6
CONTINUOUS
 90
10
 70
0
 10
-30.2419977631
 20
11.5760327173
 10
-30.2392389463
 20
11.5748630731
 10
-30.2364933981
 20
11.5736501696
 10
-30.2337621785
 20
11.5723942381
 10
-30.2310443758
 20
11.5710945852
 10
-30.2283431082
 20
11.5697524475
 10
-30.2256652506
 20
11.5683712278
 10
-30.2230135447
 20
11.5669525681
 10
-30.2203868719
 20
11.5654961168
 10
-30.2186773387
 20
11.5645202292
  0
LWPOLYLINE
  5
2E6
100
AcDbEntity
  8
RACCORDO
100
AcDbPolyline
 62
253
  6
CONTINUOUS
 90
7
 70
0
 10
-36.4840757281
 20
14.5659341616
 10
-36.4968400303
 20
14.5716220394
 10
-36.5119387894
 20
14.5748303327
 10
-36.5282444926
 20
14.5749915242
 10
-36.5454843018
 20
14.5721029166
 10
-36.5633697485
 20
14.5662128442
 10
-36.5816015612
 20
14.5574198637
  0
LINE
  5
2E7
100
AcDbEntity
  8
RACCORDO
100
AcDbLine
 62
253
  6
CONTINUOUS
 10
-27.4809255054
 20
9.9837762894
 11
-27.4887219618
 21
9.9875971044
  0
LINE
  5
2E8
100
AcDbEntity
  8
RACCORDO
100
AcDbLine
 62
253
  6
CONTINUOUS
 10
-30.636193893
 20
11.7384664751
 11
-30.6515371466
 21
11.7460553394
  0
LINE
  5
2E9
100
AcDbEntity
  8
RACCORDO
100
AcDbLine
 62
253
  6
CONTINUOUS
 10
-30.2419977631
 20
11.5760327173
 11
-30.2310443758
 21
11.5710945852
  0
LINE
  5
2EA
100
AcDbEntity
  8
RACCORDO
100
AcDbLine
 62
253
  6
CONTINUOUS
 10
-30.2283431082
 20
11.5697524475
 11
-30.2186781386
 21
11.564520691
  0
LWPOLYLINE
  5
2EB
100
AcDbEntity
  8
RACCORDO
100
AcDbPolyline
 62
253
  6
CONTINUOUS
 90
16
 70
0
 10
0.0465512435
 20
-6.754485692
 10
0.0460446966
 20
-6.7372173998
 10
0.0440200351
 20
-6.7191938399
 10
0.0404752543
 20
-6.7005971539
 10
0.035421429
 20
-6.6816081899
 10
0.0288926003
 20
-6.6624419109
 10
0.0209552086
 20
-6.6433451967
 10
0.0116748917
 20
-6.6245136154
 10
0.0011494854
 20
-6.6061781381
 10
-0.0104577504
 20
-6.5886296196
 10
-0.0229847712
 20
-6.5720942293
 10
-0.0363128194
 20
-6.5567113899
 10
-0.0503173082
 20
-6.5426209775
 10
-0.064853097
 20
-6.5299724044
 10
-0.0797516843
 20
-6.5189155568
 10
-0.0948485736
 20
-6.5095740249
  0
LINE
  5
2EC
100
AcDbEntity
  8
RACCORDO
100
AcDbLine
 62
253
  6
CONTINUOUS
 10
0.0465512435
 20
-6.754485692
 11
0.0465512435
 21
-7.4949598093
  0
LINE
  5
2ED
100
AcDbEntity
  8
RACCORDO
100
AcDbLine
 62
7
  6
CONTINUOUS
 10
0.1026832834
 20
-6.6742682846
 11
0.1026832834
 21
-7.4147424019
  0
LINE
  5
2EE
100
AcDbEntity
  8
RACCORDO
100
AcDbLine
 62
7
  6
CONTINUOUS
 10
1.4912265645
 20
-7.2268464231
 11
1.4912265645
 21
-7.5534594043
  0
LWPOLYLINE
  5
2EF
100
AcDbEntity
  8
RACCORDO
100
AcDbPolyline
 62
253
  6
CONTINUOUS
 90
9
 70
0
 10
0.1026832834
 20
-6.6742682846
 10
0.1024979977
 20
-6.6792378419
 10
0.1005378392
 20
-6.6911372376
 10
0.0964577886
 20
-6.7028559102
 10
0.0903015528
 20
-6.7142682989
 10
0.0821350956
 20
-6.7252521116
 10
0.0720459199
 20
-6.7356896587
 10
0.0601421219
 20
-6.7454691126
 10
0.0465512435
 20
-6.754485692
  0
LINE
  5
2F0
100
AcDbEntity
  8
RACCORDO
100
AcDbLine
 62
253
  6
CONTINUOUS
 10
0.1026832834
 20
-7.4147424019
 11
0.1024979951
 21
-7.4197119941
  0
LWPOLYLINE
  5
2F1
100
AcDbEntity
  8
RACCORDO
100
AcDbPolyline
 62
7
  6
CONTINUOUS
 90
7
 70
0
 10
0.1026832834
 20
-7.4147424019
 10
0.1016600132
 20
-7.4349463565
 10
0.098556551
 20
-7.4551605063
 10
0.0933518776
 20
-7.4751202717
 10
0.0860714873
 20
-7.4945469417
 10
0.0767787257
 20
-7.5131841294
 10
0.0655515733
 20
-7.5308196182
  0
LWPOLYLINE
  5
2F2
100
AcDbEntity
  8
RACCORDO
100
AcDbPolyline
 62
253
  6
CONTINUOUS
 90
8
 70
0
 10
0.1024979951
 20
-7.4197119941
 10
0.1005378393
 20
-7.4316113546
 10
0.09645779
 20
-7.4433300245
 10
0.0903015477
 20
-7.4547424242
 10
0.082135083
 20
-7.4657262436
 10
0.0720459064
 20
-7.4761637884
 10
0.0601421121
 20
-7.4859432371
 10
0.0465512435
 20
-7.4949598093
  0
LINE
  5
2F3
100
AcDbEntity
  8
0
100
AcDbLine
 62
253
  6
CONTINUOUS
 10
6.9495282649
 20
-14.0781424742
 11
6.6219307314
 21
-14.2962389681
  0
LWPOLYLINE
  5
2F4
100
AcDbEntity
  8
RACCORDO
100
AcDbPolyline
 62
7
  6
CONTINUOUS
 90
19
 70
0
 10
10.7481550406
 20
-12.3891683974
 10
10.7173429503
 20
-12.4091925393
 10
10.6872452342
 20
-12.43171275
 10
10.6578618922
 20
-12.4567290296
 10
10.6289859026
 20
-12.4844636097
 10
10.6008242873
 20
-12.5146942586
 10
10.5739981111
 20
-12.5467542816
 10
10.5485370436
 20
-12.5806843218
 10
10.5244114154
 20
-12.6164437361
 10
10.5021532834
 20
-12.6532439006
 10
10.4818041378
 20
-12.6911079375
 10
10.4633224886
 20
-12.7300127245
 10
10.4471159225
 20
-12.769100271
 10
10.4332349852
 20
-12.8083746372
 10
10.4216291311
 20
-12.8478317628
 10
10.4125543112
 20
-12.886601476
 10
10.4060958424
 20
-12.9243937195
 10
10.4021684079
 20
-12.9614985506
 10
10.4007720075
 20
-12.9979159692
  0
LINE
  5
2F5
100
AcDbEntity
  8
RACCORDO
100
AcDbLine
 62
7
  6
CONTINUOUS
 10
11.4614321793
 20
-11.9629552135
 11
10.7481550406
 21
-12.3891683974
  0
LINE
  5
2F6
100
AcDbEntity
  8
RACCORDO
100
AcDbLine
 62
7
  6
CONTINUOUS
 10
9.8767570392
 20
-12.5104772201
 11
10.4175066903
 21
-12.198256184
  0
LINE
  5
2F7
100
AcDbEntity
  8
0
100
AcDbLine
 62
7
  6
CONTINUOUS
 10
6.9495282649
 20
-14.0781424742
 11
9.8177030076
 21
-12.4752494362
  0
LINE
  5
2F8
100
AcDbEntity
  8
0
100
AcDbLine
 62
7
  6
CONTINUOUS
 10
7.2972687542
 20
-14.2855817706
 11
10.1654434969
 21
-12.6826887327
  0
LINE
  5
2F9
100
AcDbEntity
  8
0
100
AcDbLine
 62
7
  6
CONTINUOUS
 10
11.2492635425
 20
-13.3016961826
 11
10.1654434969
 21
-13.9073941479
  0
LINE
  5
2FA
100
AcDbEntity
  8
RACCORDO
100
AcDbLine
 62
7
  6
CONTINUOUS
 10
10.7481550406
 20
-13.4218279502
 11
11.4614321793
 21
-13.0243665733
  0
LWPOLYLINE
  5
2FB
100
AcDbEntity
  8
RACCORDO
100
AcDbPolyline
 62
253
  6
CONTINUOUS
 90
7
 70
0
 10
-28.5863565984
 20
7.9774306036
 10
-28.5528024158
 20
7.9727682763
 10
-28.5184651422
 20
7.9697178834
 10
-28.4841004144
 20
7.9683470973
 10
-28.4496982224
 20
7.9686957026
 10
-28.4152685764
 20
7.9707239148
 10
-28.3815971437
 20
7.9743800529
  0
LWPOLYLINE
  5
2FC
100
AcDbEntity
  8
RACCORDO
100
AcDbPolyline
 62
7
  6
CONTINUOUS
 90
3
 70
0
 10
-30.6731553598
 20
11.7536112487
 10
-30.6959394808
 20
11.7587199653
 10
-30.7193336599
 20
11.7611461224
  0
LINE
  5
2FD
100
AcDbEntity
  8
RACCORDO
100
AcDbLine
 62
253
  6
CONTINUOUS
 10
-30.6447031451
 20
11.7413411348
 11
-30.636193893
 21
11.7384664751
  0
LINE
  5
2FE
100
AcDbEntity
  8
RACCORDO
100
AcDbLine
 62
7
  6
CONTINUOUS
 10
-30.6515371466
 20
11.7460553394
 11
-30.6731553598
 21
11.7536112487
  0
LINE
  5
2FF
100
AcDbEntity
  8
RACCORDO
100
AcDbLine
 62
7
  6
CONTINUOUS
 10
4.5317857236
 20
-8.9824271744
 11
4.5317857236
 21
-9.3090401556
  0
LWPOLYLINE
  5
300
100
AcDbEntity
  8
RACCORDO
100
AcDbPolyline
 62
253
  6
CONTINUOUS
 90
16
 70
0
 10
4.6945274628
 20
-8.8884618112
 10
4.7030255011
 20
-8.8698167766
 10
4.7099467527
 20
-8.8504487179
 10
4.7151987499
 20
-8.8305562796
 10
4.7187080906
 20
-8.8103270771
 10
4.7204100539
 20
-8.7899976644
 10
4.7202683376
 20
-8.7698504116
 10
4.7182820038
 20
-8.7501180323
 10
4.7144687968
 20
-8.7310029337
 10
4.7088727113
 20
-8.7127336908
 10
4.7015573126
 20
-8.6955112418
 10
4.6926026681
 20
-8.6795190572
 10
4.682113577
 20
-8.6649377505
 10
4.6702098241
 20
-8.6519243268
 10
4.6570218617
 20
-8.6406130324
 10
4.6426953014
 20
-8.6311219975
  0
LINE
  5
301
100
AcDbEntity
  8
RACCORDO
100
AcDbLine
 62
253
  6
CONTINUOUS
 10
5.0985494696
 20
-9.0316567425
 11
5.0900221342
 21
-9.0503740024
  0
LINE
  5
302
100
AcDbEntity
  8
DRAFT
100
AcDbLine
 62
7
  6
CONTINUOUS
 10
10.2371339807
 20
-15.3233834606
 11
10.0313241901
 21
-15.4422150603
  0
LINE
  5
303
100
AcDbEntity
  8
0
100
AcDbLine
 62
7
  6
CONTINUOUS
 10
8.5485033186
 20
-15.9132636976
 11
10.2373075048
 21
-14.9694674804
  0
LWPOLYLINE
  5
304
100
AcDbEntity
  8
RACCORDO
100
AcDbPolyline
 62
253
  6
CONTINUOUS
 90
7
 70
0
 10
-28.3815971437
 20
7.9743800529
 10
-28.3487324332
 20
7.9796916061
 10
-28.3166259362
 20
7.9866310853
 10
-28.285917794
 20
7.9950643428
 10
-28.2568213871
 20
8.0049466627
 10
-28.2291233351
 20
8.0163227609
 10
-28.202823638
 20
8.0291926373
  0
LWPOLYLINE
  5
305
100
AcDbEntity
  8
RACCORDO
100
AcDbPolyline
 62
7
  6
CONTINUOUS
 90
6
 70
0
 10
5.1225499676
 20
-8.8758988752
 10
5.1095676296
 20
-8.8548481617
 10
5.09405606
 20
-8.8355273554
 10
5.0762203327
 20
-8.818226726
 10
5.0563520268
 20
-8.8032546243
 10
5.0459864291
 20
-8.7968550037
  0
LWPOLYLINE
  5
306
100
AcDbEntity
  8
RACCORDO
100
AcDbPolyline
 62
253
  6
CONTINUOUS
 90
3
 70
0
 10
5.0881062142
 20
-8.8414452034
 10
5.0970498526
 20
-8.8574190823
 10
5.1043573129
 20
-8.8746182105
  0
LWPOLYLINE
  5
307
100
AcDbEntity
  8
RACCORDO
100
AcDbPolyline
 62
7
  6
CONTINUOUS
 90
8
 70
0
 10
10.4125543112
 20
-30.7027550775
 10
10.4216291311
 20
-30.7310454162
 10
10.4332349852
 20
-30.7571003924
 10
10.4471159225
 20
-30.7803454
 10
10.4633224886
 20
-30.8007180103
 10
10.4818041378
 20
-30.818280652
 10
10.5021532834
 20
-30.8326460056
 10
10.5043137639
 20
-30.8339141512
  0
LINE
  5
308
100
AcDbEntity
  8
RACCORDO
100
AcDbLine
 62
253
  6
CONTINUOUS
 10
5.1043573129
 20
-8.8746182105
 11
5.1099494991
 21
-8.8928596619
  0
LWPOLYLINE
  5
309
100
AcDbEntity
  8
RACCORDO
100
AcDbPolyline
 62
253
  6
CONTINUOUS
 90
8
 70
0
 10
5.1099494991
 20
-8.8928596619
 10
5.1137636092
 20
-8.9119428102
 10
5.1157568095
 20
-8.9316469993
 10
5.1159101685
 20
-8.9517676041
 10
5.1142236757
 20
-8.9720762627
 10
5.1107282341
 20
-8.992308948
 10
5.1054806539
 20
-9.0122343386
 10
5.0985494696
 20
-9.0316567425
  0
LWPOLYLINE
  5
30A
100
AcDbEntity
  8
RACCORDO
100
AcDbPolyline
 62
7
  6
CONTINUOUS
 90
5
 70
0
 10
5.1461541741
 20
-8.970156595
 10
5.1446850727
 20
-8.9459633977
 10
5.1402420516
 20
-8.9218887498
 10
5.1328305183
 20
-8.8983795616
 10
5.1225499676
 20
-8.8758988752
  0
LINE
  5
30B
100
AcDbEntity
  8
RACCORDO
100
AcDbLine
 62
253
  6
CONTINUOUS
 10
5.0900221342
 20
-9.9844062316
 11
5.0900221342
 21
-9.0503740024
  0
LINE
  5
30C
100
AcDbEntity
  8
RACCORDO
100
AcDbLine
 62
7
  6
CONTINUOUS
 10
5.1461541741
 20
-9.8563859732
 11
5.1461541741
 21
-8.970156595
  0
LINE
  5
30D
100
AcDbEntity
  8
0
100
AcDbLine
 62
253
  6
CONTINUOUS
 10
6.6219307314
 20
-32.7484672237
 11
6.6219307314
 21
-14.2962389681
  0
LINE
  5
30E
100
AcDbEntity
  8
0
100
AcDbLine
 62
253
  6
CONTINUOUS
 10
7.2972687542
 20
-32.7378100262
 11
7.2972687542
 21
-14.2855817706
  0
LINE
  5
30F
100
AcDbEntity
  8
0
100
AcDbLine
 62
7
  6
CONTINUOUS
 10
10.2373075048
 20
-19.0518188643
 11
8.5485033186
 21
-19.9956150816
  0
LINE
  5
310
100
AcDbEntity
  8
0
100
AcDbLine
 62
7
  6
CONTINUOUS
 10
11.2492635425
 20
-20.4866346184
 11
8.7281633384
 21
-21.8955634068
  0
LINE
  5
311
100
AcDbEntity
  8
DRAFT
100
AcDbLine
 62
7
  6
CONTINUOUS
 10
10.2371339807
 20
-18.7829001007
 11
10.0313241901
 21
-18.8935779458
  0
LWPOLYLINE
  5
312
100
AcDbEntity
  8
RACCORDO
100
AcDbPolyline
 62
7
  6
CONTINUOUS
 90
3
 70
0
 10
-30.7193336599
 20
11.7611461224
 10
-30.7428468981
 20
11.760809184
 10
-30.7661741675
 20
11.7577116012
  0
LWPOLYLINE
  5
313
100
AcDbEntity
  8
RACCORDO
100
AcDbPolyline
 62
7
  6
CONTINUOUS
 90
4
 70
0
 10
10.4007720075
 20
-30.6050464933
 10
10.4021684079
 20
-30.6398513838
 10
10.4060958424
 20
-30.6724209119
 10
10.4125543112
 20
-30.7027550775
  0
LWPOLYLINE
  5
314
100
AcDbEntity
  8
RACCORDO
100
AcDbPolyline
 62
7
  6
CONTINUOUS
 90
11
 70
0
 10
10.4007720075
 20
-13.2142295976
 10
10.4021684079
 20
-13.2490344881
 10
10.4060958424
 20
-13.2816040162
 10
10.4125543112
 20
-13.3119381819
 10
10.4216291311
 20
-13.3402285205
 10
10.4332349852
 20
-13.3662834967
 10
10.4471159225
 20
-13.3895285043
 10
10.4633224886
 20
-13.4099011146
 10
10.4818041378
 20
-13.4274637563
 10
10.5021532834
 20
-13.44182911
 10
10.5043137639
 20
-13.4430972555
  0
LINE
  5
315
100
AcDbEntity
  8
0
100
AcDbLine
 62
7
  6
CONTINUOUS
 10
8.5485033186
 20
-29.7116113754
 11
8.5485033186
 21
-25.6292599914
  0
LINE
  5
316
100
AcDbEntity
  8
0
100
AcDbLine
 62
7
  6
CONTINUOUS
 10
8.5485033186
 20
-19.9956150816
 11
8.5485033186
 21
-15.9132636976
  0
LINE
  5
317
100
AcDbEntity
  8
DRAFT
100
AcDbLine
 62
7
  6
CONTINUOUS
 10
8.6668833267
 20
-15.8471064695
 11
8.6668833267
 21
-19.1936365316
  0
LINE
  5
318
100
AcDbEntity
  8
DRAFT
100
AcDbLine
 62
7
  6
CONTINUOUS
 10
8.6668833267
 20
-25.5785655155
 11
8.6668833267
 21
-28.9912798531
  0
LINE
  5
319
100
AcDbEntity
  8
0
100
AcDbLine
 62
7
  6
CONTINUOUS
 10
8.7281633384
 20
-23.5285039604
 11
8.7281633384
 21
-21.8955634068
  0
LINE
  5
31A
100
AcDbEntity
  8
RACCORDO
100
AcDbLine
 62
7
  6
CONTINUOUS
 10
8.9433593634
 20
-22.354604607
 11
8.9433593634
 21
-22.8315710121
  0
LINE
  5
31B
100
AcDbEntity
  8
DRAFT
100
AcDbLine
 62
7
  6
CONTINUOUS
 10
10.0313241901
 20
-15.4422150603
 11
10.0313241901
 21
-18.8935779458
  0
LINE
  5
31C
100
AcDbEntity
  8
DRAFT
100
AcDbLine
 62
7
  6
CONTINUOUS
 10
10.0313241901
 20
-25.2398583818
 11
10.0313241901
 21
-28.6912212673
  0
LINE
  5
31D
100
AcDbEntity
  8
0
100
AcDbLine
 62
7
  6
CONTINUOUS
 10
10.1654434969
 20
-31.1349169882
 11
10.1654434969
 21
-29.910211573
  0
LINE
  5
31E
100
AcDbEntity
  8
0
100
AcDbLine
 62
7
  6
CONTINUOUS
 10
10.1654434969
 20
-12.6826887327
 11
10.1654434969
 21
-13.9073941479
  0
LINE
  5
31F
100
AcDbEntity
  8
DRAFT
100
AcDbLine
 62
7
  6
CONTINUOUS
 10
10.2371339807
 20
-15.3233834606
 11
10.2371339807
 21
-18.7829001007
  0
LINE
  5
320
100
AcDbEntity
  8
DRAFT
100
AcDbLine
 62
7
  6
CONTINUOUS
 10
10.2371339807
 20
-25.1210267821
 11
10.2371339807
 21
-28.5805434222
  0
LINE
  5
321
100
AcDbEntity
  8
0
100
AcDbLine
 62
7
  6
CONTINUOUS
 10
10.2373075048
 20
-14.9694674804
 11
10.2373075048
 21
-15.3233834606
  0
LINE
  5
322
100
AcDbEntity
  8
0
100
AcDbLine
 62
7
  6
CONTINUOUS
 10
10.2373075048
 20
-18.7829001007
 11
10.2373075048
 21
-19.0518188643
  0
LINE
  5
323
100
AcDbEntity
  8
0
100
AcDbLine
 62
7
  6
CONTINUOUS
 10
10.2373075048
 20
-24.6854637742
 11
10.2373075048
 21
-25.1210267821
  0
LINE
  5
324
100
AcDbEntity
  8
0
100
AcDbLine
 62
7
  6
CONTINUOUS
 10
10.2373075048
 20
-28.5805434222
 11
10.2373075048
 21
-28.7678151582
  0
LINE
  5
325
100
AcDbEntity
  8
RACCORDO
100
AcDbLine
 62
7
  6
CONTINUOUS
 10
10.4007720075
 20
-12.9979159692
 11
10.4007720075
 21
-13.2142295976
  0
LINE
  5
326
100
AcDbEntity
  8
RACCORDO
100
AcDbLine
 62
7
  6
CONTINUOUS
 10
10.4007720075
 20
-30.3887328649
 11
10.4007720075
 21
-30.6050464933
  0
LINE
  5
327
100
AcDbEntity
  8
RACCORDO
100
AcDbLine
 62
7
  6
CONTINUOUS
 10
11.4614321793
 20
-20.4134225783
 11
9.2842575159
 21
-21.7568521094
  0
LINE
  5
328
100
AcDbEntity
  8
0
100
AcDbLine
 62
7
  6
CONTINUOUS
 10
11.2492635425
 20
-22.119575172
 11
8.7281633384
 21
-23.5285039604
  0
LINE
  5
329
100
AcDbEntity
  8
0
100
AcDbLine
 62
7
  6
CONTINUOUS
 10
8.5485033186
 20
-25.6292599914
 11
10.2373075048
 21
-24.6854637742
  0
LINE
  5
32A
100
AcDbEntity
  8
RACCORDO
100
AcDbLine
 62
7
  6
CONTINUOUS
 10
11.4614321793
 20
-21.9647161042
 11
9.2842575159
 21
-23.0491698471
  0
LWPOLYLINE
  5
32B
100
AcDbEntity
  8
RACCORDO
100
AcDbPolyline
 62
7
  6
CONTINUOUS
 90
3
 70
0
 10
-30.7661741675
 20
11.7577116012
 10
-30.7891907406
 20
11.751827009
 10
-30.8115661862
 20
11.7431541595
  0
LINE
  5
32C
100
AcDbEntity
  8
DRAFT
100
AcDbLine
 62
7
  6
CONTINUOUS
 10
11.1432341277
 20
-13.238445949
 11
11.1432341277
 21
-13.2016769466
  0
LINE
  5
32D
100
AcDbEntity
  8
0
100
AcDbLine
 62
7
  6
CONTINUOUS
 10
11.2492635425
 20
-29.3045136078
 11
11.2492635425
 21
-22.119575172
  0
LINE
  5
32E
100
AcDbEntity
  8
0
100
AcDbLine
 62
7
  6
CONTINUOUS
 10
11.2492635425
 20
-20.4866346184
 11
11.2492635425
 21
-13.3016961826
  0
LINE
  5
32F
100
AcDbEntity
  8
DRAFT
100
AcDbLine
 62
7
  6
CONTINUOUS
 10
11.4614321793
 20
-11.9629552135
 11
11.4614321793
 21
-13.0243665733
  0
LINE
  5
330
100
AcDbEntity
  8
DRAFT
100
AcDbLine
 62
7
  6
CONTINUOUS
 10
11.4614321793
 20
-20.4134225783
 11
11.4614321793
 21
-21.9647161042
  0
LINE
  5
331
100
AcDbEntity
  8
DRAFT
100
AcDbLine
 62
7
  6
CONTINUOUS
 10
11.4614321793
 20
-29.3537721092
 11
11.4614321793
 21
-30.415183469
  0
LINE
  5
332
100
AcDbEntity
  8
DRAFT
100
AcDbLine
 62
7
  6
CONTINUOUS
 10
9.8895670155
 20
-24.897476138
 11
9.8706310065
 21
-24.90918645
  0
LINE
  5
333
100
AcDbEntity
  8
DRAFT
100
AcDbLine
 62
7
  6
CONTINUOUS
 10
8.6668833267
 20
-25.5785655155
 11
9.5013177933
 21
-25.0967751099
  0
LINE
  5
334
100
AcDbEntity
  8
DRAFT
100
AcDbLine
 62
7
  6
CONTINUOUS
 10
10.2371339807
 20
-25.1210267821
 11
10.0313241901
 21
-25.2398583818
  0
LWPOLYLINE
  5
335
100
AcDbEntity
  8
RACCORDO
100
AcDbPolyline
 62
7
  6
CONTINUOUS
 90
19
 70
0
 10
10.7481550406
 20
-29.7799852931
 10
10.7173429503
 20
-29.800009435
 10
10.6872452342
 20
-29.8225296457
 10
10.6578618922
 20
-29.8475459253
 10
10.6289859026
 20
-29.8752805054
 10
10.6008242873
 20
-29.9055111543
 10
10.5739981111
 20
-29.9375711773
 10
10.5485370436
 20
-29.9715012175
 10
10.5244114154
 20
-30.0072606318
 10
10.5021532834
 20
-30.0440607963
 10
10.4818041378
 20
-30.0819248332
 10
10.4633224886
 20
-30.1208296202
 10
10.4471159225
 20
-30.1599171667
 10
10.4332349852
 20
-30.1991915329
 10
10.4216291311
 20
-30.2386486585
 10
10.4125543112
 20
-30.2774183717
 10
10.4060958424
 20
-30.3152106152
 10
10.4021684079
 20
-30.3523154463
 10
10.4007720075
 20
-30.3887328649
  0
LINE
  5
336
100
AcDbEntity
  8
RACCORDO
100
AcDbLine
 62
7
  6
CONTINUOUS
 10
10.7481550406
 20
-29.7799852931
 11
11.4614321793
 21
-29.3537721092
  0
LINE
  5
337
100
AcDbEntity
  8
0
100
AcDbLine
 62
7
  6
CONTINUOUS
 10
10.2373075048
 20
-28.7678151582
 11
8.5485033186
 21
-29.7116113754
  0
LINE
  5
338
100
AcDbEntity
  8
0
100
AcDbLine
 62
7
  6
CONTINUOUS
 10
11.2492635425
 20
-29.3045136078
 11
10.1654434969
 21
-29.910211573
  0
LINE
  5
339
100
AcDbEntity
  8
0
100
AcDbLine
 62
7
  6
CONTINUOUS
 10
7.2972687542
 20
-32.7378100262
 11
10.1654434969
 21
-31.1349169882
  0
LINE
  5
33A
100
AcDbEntity
  8
RACCORDO
100
AcDbLine
 62
7
  6
CONTINUOUS
 10
11.4614321793
 20
-30.415183469
 11
10.7481550406
 21
-30.8126448459
  0
LINE
  5
33B
100
AcDbEntity
  8
DRAFT
100
AcDbLine
 62
7
  6
CONTINUOUS
 10
10.2371339807
 20
-28.5805434222
 11
10.0313241901
 21
-28.6912212673
  0
LINE
  5
33C
100
AcDbEntity
  8
RACCORDO
100
AcDbLine
 62
7
  6
CONTINUOUS
 10
10.2721805095
 20
-30.6998843495
 11
10.1654434969
 21
-30.7572840608
  0
ELLIPSE
  5
33D
100
AcDbEntity
  8
RACCORDO
100
AcDbEllipse
 62
7
  6
CONTINUOUS
 10
324.3915381934
 20
204.0624712959
 30
0.0
 11
483.180267053
 21
7.4345633423
 31
0.0
 40
0.5873737521
 41
-2.4330341237
 42
-2.2974298849
  0
ELLIPSE
  5
33E
100
AcDbEntity
  8
RACCORDO
100
AcDbEllipse
 62
7
  6
CONTINUOUS
 10
10.0801269794
 20
-11.3315670486
 30
0.0
 11
0.1999918324
 21
0.0030772199
 31
0.0
 40
0.5873737521
 41
0.7763606493
 42
2.3297036836
  0
ELLIPSE
  5
33F
100
AcDbEntity
  8
RACCORDO
100
AcDbEllipse
 62
7
  6
CONTINUOUS
 10
6.7825907495
 20
-12.9088479404
 30
0.0
 11
0.1999918324
 21
0.0030772199
 31
0.0
 40
0.5873737521
 41
-2.2974298849
 42
-0.81188897
  0
ELLIPSE
  5
340
100
AcDbEntity
  8
RACCORDO
100
AcDbEllipse
 62
7
  6
CONTINUOUS
 10
6.9580968253
 20
-13.5423316876
 30
0.0
 11
0.7999673296
 21
0.0123088797
 31
0.0
 40
0.5873737521
 41
-1.7734551362
 42
-1.4265013831
  0
ELLIPSE
  5
341
100
AcDbEntity
  8
RACCORDO
100
AcDbEllipse
 62
7
  6
CONTINUOUS
 10
-36.8668693383
 20
15.7750402412
 30
0.0
 11
0.1999918324
 21
0.0030772199
 31
0.0
 40
0.5873737521
 41
-0.776982385
 42
0.7763606493
  0
ELLIPSE
  5
342
100
AcDbEntity
  8
RACCORDO
100
AcDbEllipse
 62
7
  6
CONTINUOUS
 10
-40.5765430154
 20
13.9035736074
 30
0.0
 11
0.7999673296
 21
0.0123088797
 31
0.0
 40
0.5873737521
 41
3.1325551291
 42
3.3582221017
  0
ELLIPSE
  5
343
100
AcDbEntity
  8
RACCORDO
100
AcDbEllipse
 62
7
  6
CONTINUOUS
 10
-39.4951976237
 20
13.8113670693
 30
0.0
 11
0.1999918324
 21
0.0030772199
 31
0.0
 40
0.5873737521
 41
2.3646102686
 42
3.8501511835
  0
ELLIPSE
  5
344
100
AcDbEntity
  8
RACCORDO
100
AcDbEllipse
 62
7
  6
CONTINUOUS
 10
-28.1365691096
 20
9.8798217309
 30
0.0
 11
-0.1000048364
 21
0.1732022883
 31
0.0
 40
0.5775075436
 41
-2.3560905478
 42
-0.7855988075
  0
ELLIPSE
  5
345
100
AcDbEntity
  8
RACCORDO
100
AcDbEllipse
 62
7
  6
CONTINUOUS
 10
-30.8942424714
 20
11.4720677682
 30
0.0
 11
-0.1000352924
 21
0.1732550566
 31
0.0
 40
0.5771558487
 41
-0.7852941622
 42
0.7851975781
  0
ELLIPSE
  5
346
100
AcDbEntity
  8
RACCORDO
100
AcDbEllipse
 62
7
  6
CONTINUOUS
 10
4.390342825
 20
-8.9008095621
 30
0.0
 11
-0.1000048364
 21
0.1732022883
 31
0.0
 40
0.5775075436
 41
-2.3560905478
 42
-0.7855988075
  0
ELLIPSE
  5
347
100
AcDbEntity
  8
RACCORDO
100
AcDbEllipse
 62
7
  6
CONTINUOUS
 10
1.6326694632
 20
-7.3085635248
 30
0.0
 11
-0.1000352924
 21
0.1732550566
 31
0.0
 40
0.5771558487
 41
-0.7852941622
 42
0.7851975781
  0
ELLIPSE
  5
348
100
AcDbEntity
  8
RACCORDO
100
AcDbEllipse
 62
7
  6
CONTINUOUS
 10
10.4237847518
 20
-12.602928646
 30
0.0
 11
0.2566641185
 21
0.42914135
 31
0.0
 40
0.5873179545
 41
0.8119364019
 42
1.9852365205
  0
ELLIPSE
  5
349
100
AcDbEntity
  8
RACCORDO
100
AcDbEllipse
 62
7
  6
CONTINUOUS
 10
9.3030840514
 20
-22.6309969452
 30
0.0
 11
0.2566641185
 21
0.42914135
 31
0.0
 40
0.5873179545
 41
-3.917905871
 42
-2.3994694217
  0
ELLIPSE
  5
34A
100
AcDbEntity
  8
RACCORDO
100
AcDbEllipse
 62
7
  6
CONTINUOUS
 10
9.3030840514
 20
-22.1540305401
 30
0.0
 11
0.2566641185
 21
0.42914135
 31
0.0
 40
0.5873179545
 41
0.846842987
 42
2.3652794362
  0
ENDSEC
  0
SECTION
  2
OBJECTS
  0
DICTIONARY
  5
C
100
AcDbDictionary
280
0
281
1
  3
ACAD_GROUP
350
D
  3
ACAD_MLINESTYLE
350
17
  3
ACAD_LAYOUT
350
1A
  3
ACAD_PLOTSETTINGS
350
19
  3
ACAD_PLOTSTYLENAME
350
E
  0
DICTIONARY
  5
D
102
{ACAD_REACTORS
330
C
102
}
100
AcDbDictionary
280
0
281
1
  0
ACDBDICTIONARYWDFLT
  5
E
102
{ACAD_REACTORS
330
C
102
}
100
AcDbDictionary
281
1
  3
Normal
350
F
100
AcDbDictionaryWithDefault
340
F
  0
DICTIONARY
  5
17
102
{ACAD_REACTORS
330
C
102
}
100
AcDbDictionary
280
0
281
1
  3
Standard
350
18
  0
DICTIONARY
  5
19
102
{ACAD_REACTORS
330
C
102
}
100
AcDbDictionary
281
1
  0
DICTIONARY
  5
1A
102
{ACAD_REACTORS
330
C
102
}
100
AcDbDictionary
281
1
  3
Model
350
34B
  3
Layout1
350
34C
  0
ACDBPLACEHOLDER
  5
F
102
{ACAD_REACTORS
330
E
102
}
  0
MLINESTYLE
  5
18
102
{ACAD_REACTORS
330
17
102
}
100
AcDbMlineStyle
  2
STANDARD
 70
0
  3

 62
256
 51
90.0
 52
90.0
 71
2
 49
0.5
 62
256
  6
BYLAYER
 49
-0.5
 62
256
  6
BYLAYER
  0
LAYOUT
  5
34B
102
{ACAD_REACTORS
330
1A
102
}
100
AcDbPlotSettings
  1

  2
none_device
  4
ISO_A4_(297.00_x_210.00_MM)
  6

 40
0.0
 41
0.0
 42
0.0
 43
0.0
 44
297.0
 45
210.0
 46
0.0
 47
0.0
 48
0.0
 49
0.0
140
0.0
141
0.0
142
1.0
143
1.0
 70
1024
 72
1
 73
0
 74
0
  7

 75
0
147
1.0
148
0.0
149
0.0
100
AcDbLayout
  1
Model
 70
0
 71
0
 10
0.0
 20
0.0
 11
297.0
 21
210.0
 12
0.0
 22
0.0
 32
0.0
 14
0.0
 24
0.0
 34
0.0
 15
0.0
 25
0.0
 35
0.0
146
0.0
 13
0.0
 23
0.0
 33
0.0
 16
1.0
 26
0.0
 36
0.0
 17
0.0
 27
1.0
 37
0.0
 76
0
330
215
345
0
346
0
  0
LAYOUT
  5
34C
102
{ACAD_REACTORS
330
1A
102
}
100
AcDbPlotSettings
  1

  2
none_device
  4
ISO_A4_(297.00_x_210.00_MM)
  6

 40
0.0
 41
0.0
 42
0.0
 43
0.0
 44
297.0
 45
210.0
 46
0.0
 47
0.0
 48
0.0
 49
0.0
140
0.0
141
0.0
142
1.0
143
1.0
 70
0
 72
1
 73
0
 74
0
  7

 75
0
147
1.0
148
0.0
149
0.0
100
AcDbLayout
  1
Layout1
 70
0
 71
1
 10
0.0
 20
0.0
 11
297.0
 21
210.0
 12
0.0
 22
0.0
 32
0.0
 14
0.0
 24
0.0
 34
0.0
 15
0.0
 25
0.0
 35
0.0
146
0.0
 13
0.0
 23
0.0
 33
0.0
 16
1.0
 26
0.0
 36
0.0
 17
0.0
 27
1.0
 37
0.0
 76
0
330
216
345
0
346
0
  0
ENDSEC
  0
EOF
