  0
SECTION
  2
HEADER
  9
$ACADVER
  1
AC1015
  9
$DWGCODEPAGE
  3
ANSI_1252
  9
$EXTMAX
 10
297.0
 20
210.0
 30
0.0
  9
$EXTMIN
 10
0.0
 20
0.0
 30
0.0
  9
$LIMMIN
 10
0.0
 20
0.0
  9
$LIMMAX
 10
297.0
 20
210.0
  9
$VIEWCTR
 10
148.5
 20
105.0
  9
$VIEWSIZE
 40
210.0
  9
$CLAYER
  8
0
  9
$LTSCALE
 40
16.335
  9
$CELTYPE
  6
BYLAYER
  9
$DIMSCALE
 40
1.0
  9
$DIMASZ
 40
3.0
  9
$DIMEXO
 40
0.5
  9
$DIMDLI
 40
11.286
  9
$DIMEXE
 40
1.5
  9
$DIMCEN
 40
2.673
  9
$DIMLFAC
 40
1.0
  9
$DIMBLK
  1
_FILLED
  9
$DIMALT
 70
0
  9
$DIMALTF
 40
0.0393700787
  9
$DIMTXT
 40
3.0
  9
$DIMTOL
 70
1
  9
$DIMLIM
 70
0
  9
$DIMTFAC
 40
1.0
  9
$DIMTP
 40
0.01
  9
$DIMTM
 40
0.01
  9
$DIMGAP
 40
0.625
  9
$DIMDSEP
 70
44
  9
$AUNITS
 70
0
  9
$PDMODE
 70
3
  9
$PDSIZE
 40
3.0
  9
$HANDSEED
  5
4C7
  9
$TILEMODE
 70
1
  9
$MEASUREMENT
 70
1
  9
$INSUNITS
 70
4
  0
ENDSEC
  0
SECTION
  2
CLASSES
  0
CLASS
  1
ACDBDICTIONARYWDFLT
  2
AcDbDictionaryWithDefault
  3
AutoCAD 2000
 90
0
280
0
281
0
  0
CLASS
  1
ACDBPLACEHOLDER
  2
AcDbPlaceHolder
  3
AutoCAD 2000
 90
0
280
0
281
0
  0
CLASS
  1
LAYOUT
  2
AcDbLayout
  3
AutoCAD 2000
 90
0
280
0
281
0
  0
ENDSEC
  0
SECTION
  2
TABLES
  0
TABLE
  2
VPORT
  5
8
100
AcDbSymbolTable
 70
2
  0
VPORT
  5
1F4
100
AcDbSymbolTableRecord
100
AcDbViewportTableRecord
  2
*ACTIVE
 70
0
 10
0.0
 20
0.0
 11
1.0
 21
1.0
 12
148.5
 22
105.0
 13
0.0
 23
0.0
 14
1.0
 24
1.0
 15
0.0
 25
0.0
 16
0.0
 26
0.0
 36
1.0
 17
0.0
 27
0.0
 37
0.0
 40
210.0
 41
1.4142857143
 42
50.0
 43
0.0
 44
0.0
 50
0.0
 51
0.0
 71
0
 72
100
 73
1
 74
1
 75
0
 76
0
 77
0
 78
0
  0
ENDTAB
  0
TABLE
  2
LTYPE
  5
5
100
AcDbSymbolTable
 70
6
  0
LTYPE
  5
14
100
AcDbSymbolTableRecord
100
AcDbLinetypeTableRecord
  2
BYBLOCK
 70
0
  3

 72
65
 73
0
 40
0.0
  0
LTYPE
  5
15
100
AcDbSymbolTableRecord
100
AcDbLinetypeTableRecord
  2
BYLAYER
 70
0
  3

 72
65
 73
0
 40
0.0
  0
LTYPE
  5
16
100
AcDbSymbolTableRecord
100
AcDbLinetypeTableRecord
  2
CONTINUOUS
 70
64
  3
Solid line
 72
65
 73
0
 40
0.0
  0
LTYPE
  5
1F5
100
AcDbSymbolTableRecord
100
AcDbLinetypeTableRecord
  2
CENTER
 70
64
  3
____ _ ____ _ ____ _ ____ _ ____ _ ____ _ ____
 72
65
 73
4
 40
0.6
 49
0.375
 74
0
 49
-0.075
 74
0
 49
0.075
 74
0
 49
-0.075
 74
0
  0
LTYPE
  5
1F6
100
AcDbSymbolTableRecord
100
AcDbLinetypeTableRecord
  2
HIDDEN
 70
64
  3
- - - - - - - - - - - - - - - - - - - -
 72
65
 73
2
 40
0.2
 49
0.1
 74
0
 49
-0.1
 74
0
  0
LTYPE
  5
1F7
100
AcDbSymbolTableRecord
100
AcDbLinetypeTableRecord
  2
PHANTOM
 70
64
  3
_____ _ _ _____ _ _ _____ _ _ _____
 72
65
 73
6
 40
0.8
 49
0.45
 74
0
 49
-0.05
 74
0
 49
0.1
 74
0
 49
-0.05
 74
0
 49
0.1
 74
0
 49
-0.05
 74
0
  0
LTYPE
  5
1F8
100
AcDbSymbolTableRecord
100
AcDbLinetypeTableRecord
  2
DOT
 70
64
  3
. . . . . . . . . . . . . . . . . . . .
 72
65
 73
2
 40
0.2
 49
0.1
 74
0
 49
-0.1
 74
0
  0
LTYPE
  5
1F9
100
AcDbSymbolTableRecord
100
AcDbLinetypeTableRecord
  2
DASHED
 70
64
  3
- - - - - - - - - - - - - - - - - - - -
 72
65
 73
2
 40
0.2
 49
0.1
 74
0
 49
-0.1
 74
0
  0
ENDTAB
  0
TABLE
  2
LAYER
  5
2
100
AcDbSymbolTable
 70
36
  0
LAYER
  5
10
100
AcDbSymbolTableRecord
100
AcDbLayerTableRecord
  2
0
 70
0
 62
7
  6
CONTINUOUS
370
-3
390
F
  0
LAYER
  5
1FA
100
AcDbSymbolTableRecord
100
AcDbLayerTableRecord
  2
DEFAULT_1
 70
0
 62
7
  6
CENTER
370
-3
390
F
  0
LAYER
  5
1FB
100
AcDbSymbolTableRecord
100
AcDbLayerTableRecord
  2
DEFAULT_2
 70
0
 62
7
  6
HIDDEN
370
-3
390
F
  0
LAYER
  5
1FC
100
AcDbSymbolTableRecord
100
AcDbLayerTableRecord
  2
DEFAULT_3
 70
0
 62
7
  6
PHANTOM
370
-3
390
F
  0
LAYER
  5
1FD
100
AcDbSymbolTableRecord
100
AcDbLayerTableRecord
  2
ASSI
 70
0
 62
7
  6
CONTINUOUS
370
-3
390
F
  0
LAYER
  5
1FE
100
AcDbSymbolTableRecord
100
AcDbLayerTableRecord
  2
COORDINATE
 70
0
 62
7
  6
CONTINUOUS
370
-3
390
F
  0
LAYER
  5
1FF
100
AcDbSymbolTableRecord
100
AcDbLayerTableRecord
  2
COPY_PUBLISH
 70
0
 62
7
  6
CONTINUOUS
370
-3
390
F
  0
LAYER
  5
200
100
AcDbSymbolTableRecord
100
AcDbLayerTableRecord
  2
COSMETICI
 70
0
 62
7
  6
CONTINUOUS
370
-3
390
F
  0
LAYER
  5
201
100
AcDbSymbolTableRecord
100
AcDbLayerTableRecord
  2
CURVE
 70
0
 62
7
  6
CONTINUOUS
370
-3
390
F
  0
LAYER
  5
202
100
AcDbSymbolTableRecord
100
AcDbLayerTableRecord
  2
DRAFT
 70
0
 62
7
  6
CONTINUOUS
370
-3
390
F
  0
LAYER
  5
203
100
AcDbSymbolTableRecord
100
AcDbLayerTableRecord
  2
IMPORT_IGES
 70
0
 62
7
  6
CONTINUOUS
370
-3
390
F
  0
LAYER
  5
204
100
AcDbSymbolTableRecord
100
AcDbLayerTableRecord
  2
NOTE
 70
0
 62
7
  6
CONTINUOUS
370
-3
390
F
  0
LAYER
  5
205
100
AcDbSymbolTableRecord
100
AcDbLayerTableRecord
  2
PIANI
 70
0
 62
7
  6
CONTINUOUS
370
-3
390
F
  0
LAYER
  5
206
100
AcDbSymbolTableRecord
100
AcDbLayerTableRecord
  2
PUNTI
 70
0
 62
7
  6
CONTINUOUS
370
-3
390
F
  0
LAYER
  5
207
100
AcDbSymbolTableRecord
100
AcDbLayerTableRecord
  2
RACCORDO
 70
0
 62
7
  6
CONTINUOUS
370
-3
390
F
  0
LAYER
  5
208
100
AcDbSymbolTableRecord
100
AcDbLayerTableRecord
  2
SIMBOLI
 70
0
 62
7
  6
CONTINUOUS
370
-3
390
F
  0
LAYER
  5
209
100
AcDbSymbolTableRecord
100
AcDbLayerTableRecord
  2
SMUSSO
 70
0
 62
7
  6
CONTINUOUS
370
-3
390
F
  0
LAYER
  5
20A
100
AcDbSymbolTableRecord
100
AcDbLayerTableRecord
  2
SNAPLINE
 70
0
 62
7
  6
CONTINUOUS
370
-3
390
F
  0
LAYER
  5
20B
100
AcDbSymbolTableRecord
100
AcDbLayerTableRecord
  2
SUPERFICI
 70
0
 62
7
  6
CONTINUOUS
370
-3
390
F
  0
LAYER
  5
20C
100
AcDbSymbolTableRecord
100
AcDbLayerTableRecord
  2
TRASH
 70
0
 62
7
  6
CONTINUOUS
370
-3
390
F
  0
ENDTAB
  0
TABLE
  2
STYLE
  5
3
100
AcDbSymbolTable
 70
1
  0
STYLE
  5
11
100
AcDbSymbolTableRecord
100
AcDbTextStyleTableRecord
  2
STANDARD
 70
0
 40
0.0
 41
0.8
 50
0.0
 71
0
 42
0.2
  3
txt
  4

  0
STYLE
  5
20D
100
AcDbSymbolTableRecord
100
AcDbTextStyleTableRecord
  2
TEXTSTYLE_1
 70
0
 40
0.0
 41
0.8
 50
0.0
 71
0
 42
0.2
  3
gdt
  4

  0
ENDTAB
  0
TABLE
  2
VIEW
  5
6
100
AcDbSymbolTable
 70
0
  0
ENDTAB
  0
TABLE
  2
UCS
  5
7
100
AcDbSymbolTable
 70
0
  0
ENDTAB
  0
TABLE
  2
APPID
  5
9
100
AcDbSymbolTable
 70
1
  0
APPID
  5
20E
100
AcDbSymbolTableRecord
100
AcDbRegAppTableRecord
  2
ACAD
 70
0
  0
ENDTAB
  0
TABLE
  2
BLOCK_RECORD
  5
1
100
AcDbSymbolTable
 70
0
  0
BLOCK_RECORD
  5
20F
100
AcDbSymbolTableRecord
100
AcDbBlockTableRecord
  2
*Model_Space
  0
BLOCK_RECORD
  5
210
100
AcDbSymbolTableRecord
100
AcDbBlockTableRecord
  2
*Paper_Space
  0
ENDTAB
  0
TABLE
  2
DIMSTYLE
  5
A
100
AcDbSymbolTable
 70
1
100
AcDbDimStyleTable
 71
0
  0
DIMSTYLE
105
211
100
AcDbSymbolTableRecord
100
AcDbDimStyleTableRecord
  2
STANDARD
 70
0
  3

  4

 40
1.0
 41
3.0
 42
0.5
 43
0.38
 44
1.5
 45
0.0
 46
0.0
 47
0.01
 48
0.01
140
3.0
141
0.09
142
0.0
143
25.4
144
1.0
145
0.0
146
1.0
147
0.625
 71
1.0
 72
0.0
 73
0
 74
0
 75
0
 76
0
 77
1
 78
8
170
0
171
2
172
0
173
0
174
0
175
0
176
0
177
0
178
0
270
2
271
2
272
2
273
2
274
2
275
0
280
0
281
0
282
0
283
1
284
8
285
0
286
0
287
3
288
0
340
11
278
44
  0
ENDTAB
  0
ENDSEC
  0
SECTION
  2
BLOCKS
  0
BLOCK
  5
20
100
AcDbEntity
  8
0
100
AcDbBlockBegin
  2
*Model_Space
 70
0
 10
0.0
 20
0.0
 30
0.0
  3
*Model_Space
  1

  0
ENDBLK
  5
21
100
AcDbEntity
  8
0
100
AcDbBlockEnd
  0
BLOCK
  5
1C
100
AcDbEntity
  8
0
100
AcDbBlockBegin
  2
*Paper_Space
 70
0
 10
0.0
 20
0.0
 30
0.0
  3
*Paper_Space
  1

  0
ENDBLK
  5
1D
100
AcDbEntity
  8
0
100
AcDbBlockEnd
  0
ENDSEC
  0
SECTION
  2
ENTITIES
  0
LWPOLYLINE
  5
212
100
AcDbEntity
  8
RACCORDO
100
AcDbPolyline
 62
7
  6
CONTINUOUS
 90
13
 70
0
 10
-39.5176373226
 20
66.9991650755
 10
-39.5383143005
 20
66.9854013224
 10
-39.5637356
 20
66.9654654936
 10
-39.5877464337
 20
66.9429464449
 10
-39.6100568928
 20
66.9179218602
 10
-39.6303763794
 20
66.8905208219
 10
-39.6484499373
 20
66.8609080021
 10
-39.6640828472
 20
66.8292124445
 10
-39.6770486209
 20
66.7956858543
 10
-39.6871620193
 20
66.7606464103
 10
-39.6943397342
 20
66.724295721
 10
-39.6985215976
 20
66.6867642853
 10
-39.6996747744
 20
66.6534532944
  0
LWPOLYLINE
  5
213
100
AcDbEntity
  8
RACCORDO
100
AcDbPolyline
 62
253
  6
CONTINUOUS
 90
16
 70
0
 10
-39.2619815557
 20
66.9778078062
 10
-39.2838867285
 20
66.9634061544
 10
-39.3055175359
 20
66.9465577351
 10
-39.3266422187
 20
66.9274430675
 10
-39.3470344408
 20
66.9062669519
 10
-39.3664757134
 20
66.8832562757
 10
-39.3847577369
 20
66.8586575825
 10
-39.401684632
 20
66.8327344301
 10
-39.4170750388
 20
66.8057645672
 10
-39.4307640598
 20
66.7780369572
 10
-39.4426050265
 20
66.7498486821
 10
-39.4524710713
 20
66.7215017598
 10
-39.4602564863
 20
66.693299908
 10
-39.4658778561
 20
66.66554529
 10
-39.4692749517
 20
66.6385352772
 10
-39.4704113756
 20
66.6125592632
  0
LWPOLYLINE
  5
214
100
AcDbEntity
  8
RACCORDO
100
AcDbPolyline
 62
253
  6
CONTINUOUS
 90
16
 70
0
 10
-38.0326508364
 20
66.268007194
 10
-38.054557126
 20
66.2536050547
 10
-38.0761889519
 20
66.2367560038
 10
-38.0973145328
 20
66.2176405986
 10
-38.1177075159
 20
66.1964636806
 10
-38.137149398
 20
66.173452173
 10
-38.1554318665
 20
66.1488526479
 10
-38.1723590354
 20
66.1229286985
 10
-38.1877495465
 20
66.0959581034
 10
-38.2014385058
 20
66.0682298404
 10
-38.2132792494
 20
66.040041016
 10
-38.2231449205
 20
66.0116936666
 10
-38.2309298248
 20
65.9834915082
 10
-38.2365505586
 20
65.9557367105
 10
-38.2399469059
 20
65.9287266589
 10
-38.241082485
 20
65.9027507517
  0
LINE
  5
215
100
AcDbEntity
  8
RACCORDO
100
AcDbLine
 62
7
  6
CONTINUOUS
 10
-38.6789307559
 20
67.5178344794
 11
-39.5177905488
 21
66.9990710004
  0
LINE
  5
216
100
AcDbEntity
  8
RACCORDO
100
AcDbLine
 62
253
  6
CONTINUOUS
 10
-38.4246269399
 20
67.4956404612
 11
-39.2619815557
 21
66.9778078062
  0
LINE
  5
217
100
AcDbEntity
  8
RACCORDO
100
AcDbLine
 62
7
  6
CONTINUOUS
 10
-38.1565966075
 20
65.7269536679
 11
-41.9770416698
 21
63.3643331335
  0
LINE
  5
218
100
AcDbEntity
  8
RACCORDO
100
AcDbLine
 62
253
  6
CONTINUOUS
 10
-37.9037979304
 20
65.7038288492
 11
-41.7202292379
 21
63.343690481
  0
LWPOLYLINE
  5
219
100
AcDbEntity
  8
RACCORDO
100
AcDbPolyline
 62
253
  6
CONTINUOUS
 90
13
 70
0
 10
-38.1564866005
 20
65.7270216359
 10
-38.1498823014
 20
65.7308919954
 10
-38.1321780641
 20
65.7394054799
 10
-38.1131377165
 20
65.7459398696
 10
-38.0927815682
 20
65.7503687791
 10
-38.07118267
 20
65.7525639939
 10
-38.0487330648
 20
65.7524291749
 10
-38.0256489565
 20
65.749972144
 10
-38.0019512275
 20
65.745205044
 10
-37.9777882723
 20
65.7381609298
 10
-37.9532948956
 20
65.7288843028
 10
-37.9285888649
 20
65.7174203065
 10
-37.9037979304
 20
65.7038288492
  0
LINE
  5
21A
100
AcDbEntity
  8
RACCORDO
100
AcDbLine
 62
7
  6
CONTINUOUS
 10
-38.6789294952
 20
67.5178351574
 11
-38.6702067918
 21
67.5228715367
  0
LWPOLYLINE
  5
21B
100
AcDbEntity
  8
RACCORDO
100
AcDbPolyline
 62
253
  6
CONTINUOUS
 90
19
 70
0
 10
-41.7202292379
 20
63.343690481
 10
-41.7523924589
 20
63.3251528736
 10
-41.7847093617
 20
63.3038911629
 10
-41.8167193336
 20
63.2799722101
 10
-41.8477372188
 20
63.2534346395
 10
-41.8775441817
 20
63.2245057141
 10
-41.9063666461
 20
63.1935319436
 10
-41.9337577936
 20
63.1606240727
 10
-41.9592872479
 20
63.1260113938
 10
-41.9831957759
 20
63.0901313161
 10
-42.0051553135
 20
63.0530439832
 10
-42.0247268537
 20
63.0150153063
 10
-42.0420857133
 20
62.9766624476
 10
-42.0571368231
 20
62.9378970409
 10
-42.0694633596
 20
62.8989379715
 10
-42.0791111769
 20
62.8606885519
 10
-42.0861810951
 20
62.8233401819
 10
-42.0904905617
 20
62.7864691078
 10
-42.0918042515
 20
62.7499398149
  0
LWPOLYLINE
  5
21C
100
AcDbEntity
  8
RACCORDO
100
AcDbPolyline
 62
253
  6
CONTINUOUS
 90
12
 70
0
 10
-39.5176557901
 20
66.9991542483
 10
-39.5039319804
 20
67.0067560233
 10
-39.4838665376
 20
67.0151144293
 10
-39.4625399788
 20
67.0209939407
 10
-39.4400714313
 20
67.0243617323
 10
-39.4165858415
 20
67.0251993557
 10
-39.3922151974
 20
67.0235016655
 10
-39.3670959678
 20
67.0192779921
 10
-39.3413673672
 20
67.0125526829
 10
-39.3151733281
 20
67.0033632583
 10
-39.2886616913
 20
66.9917601998
 10
-39.2619815557
 20
66.9778078062
  0
LINE
  5
21D
100
AcDbEntity
  8
RACCORDO
100
AcDbLine
 62
7
  6
CONTINUOUS
 10
-38.166593489
 20
67.7936984734
 11
-38.6702080522
 21
67.5228708589
  0
LINE
  5
21E
100
AcDbEntity
  8
RACCORDO
100
AcDbLine
 62
253
  6
CONTINUOUS
 10
-37.9210123767
 20
67.7664680757
 11
-38.4246269399
 21
67.4956404612
  0
LWPOLYLINE
  5
21F
100
AcDbEntity
  8
RACCORDO
100
AcDbPolyline
 62
7
  6
CONTINUOUS
 90
3
 70
0
 10
-38.6702067918
 20
67.5228715367
 10
-38.6650089248
 20
67.5255504686
 10
-38.6448952955
 20
67.5339074603
  0
LWPOLYLINE
  5
220
100
AcDbEntity
  8
RACCORDO
100
AcDbPolyline
 62
253
  6
CONTINUOUS
 90
16
 70
0
 10
11.1228242565
 20
-55.8971037146
 10
11.1697251313
 20
-55.8894955685
 10
11.2159095028
 20
-55.8795640551
 10
11.2594449169
 20
-55.8685803562
 10
11.3001981511
 20
-55.8578301311
 10
11.338784543
 20
-55.8478342381
 10
11.3745059309
 20
-55.8389789484
 10
11.4069470642
 20
-55.8320460191
 10
11.436753037
 20
-55.8273543328
 10
11.4646486259
 20
-55.8240976408
 10
11.4906377767
 20
-55.8222685542
 10
11.5146899174
 20
-55.8222734449
 10
11.5373180151
 20
-55.823505453
 10
11.5586258412
 20
-55.8257654782
 10
11.5783764686
 20
-55.8294077532
 10
11.596517904
 20
-55.834527699
  0
LINE
  5
221
100
AcDbEntity
  8
RACCORDO
100
AcDbLine
 62
253
  6
CONTINUOUS
 10
11.0951004039
 20
-55.9002939659
 11
11.1228242565
 21
-55.8971037146
  0
LINE
  5
222
100
AcDbEntity
  8
RACCORDO
100
AcDbLine
 62
7
  6
CONTINUOUS
 10
11.0947679178
 20
-55.9003258687
 11
11.0951004039
 21
-55.9002939659
  0
LINE
  5
223
100
AcDbEntity
  8
RACCORDO
100
AcDbLine
 62
7
  6
CONTINUOUS
 10
11.0952966107
 20
-55.9002396521
 11
11.1297057576
 21
-55.8972427803
  0
LINE
  5
224
100
AcDbEntity
  8
RACCORDO
100
AcDbLine
 62
7
  6
CONTINUOUS
 10
11.1297057576
 20
-55.8972427803
 11
11.170036847
 21
-55.8944123946
  0
LWPOLYLINE
  5
225
100
AcDbEntity
  8
RACCORDO
100
AcDbPolyline
 62
7
  6
CONTINUOUS
 90
18
 70
0
 10
11.170036847
 20
-55.8944123946
 10
11.2095296483
 20
-55.8924812586
 10
11.248315596
 20
-55.8915239967
 10
11.2862840812
 20
-55.8915882632
 10
11.3232696864
 20
-55.8926578778
 10
11.3592620576
 20
-55.8947196537
 10
11.3940938826
 20
-55.8977733632
 10
11.4275821611
 20
-55.9017980625
 10
11.4597036708
 20
-55.9067412201
 10
11.4902984992
 20
-55.9125264672
 10
11.5191229325
 20
-55.9190477486
 10
11.5460915362
 20
-55.9262076033
 10
11.5710797736
 20
-55.9338800025
 10
11.5939049502
 20
-55.9418973504
 10
11.6144736345
 20
-55.9500920102
 10
11.632734889
 20
-55.9582919496
 10
11.648647057
 20
-55.9663076273
 10
11.6586635221
 20
-55.9718646246
  0
LWPOLYLINE
  5
226
100
AcDbEntity
  8
RACCORDO
100
AcDbPolyline
 62
7
  6
CONTINUOUS
 90
9
 70
0
 10
17.0507972435
 20
-49.1942253388
 10
17.1251136211
 20
-49.174171812
 10
17.1983274606
 20
-49.1519348325
 10
17.2703943133
 20
-49.1275401201
 10
17.3413039945
 20
-49.1010036534
 10
17.4110777102
 20
-49.0723267846
 10
17.4797022393
 20
-49.0415209429
 10
17.5471328455
 20
-49.0086125151
 10
17.6133416989
 20
-48.9736226413
  0
LWPOLYLINE
  5
227
100
AcDbEntity
  8
RACCORDO
100
AcDbPolyline
 62
7
  6
CONTINUOUS
 90
7
 70
0
 10
16.2689846884
 20
-47.9867700653
 10
16.3361489171
 20
-47.9692368997
 10
16.4018322246
 20
-47.948943638
 10
16.4660933201
 20
-47.9259008437
 10
16.5289107752
 20
-47.9001349708
 10
16.5901923379
 20
-47.8717038062
 10
16.6498845752
 20
-47.8406562033
  0
LWPOLYLINE
  5
228
100
AcDbEntity
  8
RACCORDO
100
AcDbPolyline
 62
7
  6
CONTINUOUS
 90
4
 70
0
 10
16.1804110867
 20
-49.6458495735
 10
16.1924237084
 20
-49.6428703194
 10
16.2150520245
 20
-49.6352747595
 10
16.2362780841
 20
-49.625386163
  0
LINE
  5
229
100
AcDbEntity
  8
RACCORDO
100
AcDbLine
 62
7
  6
CONTINUOUS
 10
16.9784682599
 20
-49.2113994634
 11
17.0507972435
 21
-49.1942253388
  0
LWPOLYLINE
  5
22A
100
AcDbEntity
  8
RACCORDO
100
AcDbPolyline
 62
7
  6
CONTINUOUS
 90
3
 70
0
 10
16.1718108449
 20
-48.006717534
 10
16.2003507416
 20
-48.0015016422
 10
16.2689846884
 20
-47.9867700653
  0
LWPOLYLINE
  5
22B
100
AcDbEntity
  8
RACCORDO
100
AcDbPolyline
 62
7
  6
CONTINUOUS
 90
17
 70
0
 10
16.1718131395
 20
-48.0067024079
 10
16.1681222808
 20
-48.0073287911
 10
16.1432828147
 20
-48.0099948514
 10
16.1177966521
 20
-48.0102273108
 10
16.0918808454
 20
-48.0082423232
 10
16.0657653232
 20
-48.0040489433
 10
16.0396666613
 20
-47.9976798873
 10
16.0137634433
 20
-47.9893970341
 10
15.9882492392
 20
-47.9792431319
 10
15.9633028727
 20
-47.9672701834
 10
15.9390617433
 20
-47.953758554
 10
15.9156791766
 20
-47.9387731714
 10
15.8932935988
 20
-47.9223782421
 10
15.8720032935
 20
-47.9048535504
 10
15.8519136142
 20
-47.886340426
 10
15.8331334097
 20
-47.8668452601
 10
15.8157485386
 20
-47.846446639
  0
LWPOLYLINE
  5
22C
100
AcDbEntity
  8
RACCORDO
100
AcDbPolyline
 62
7
  6
CONTINUOUS
 90
16
 70
0
 10
16.9784647176
 20
-49.2114146355
 10
16.9600829989
 20
-49.2141586733
 10
16.943167256
 20
-49.2145670165
 10
16.9268952103
 20
-49.212669856
 10
16.9113297036
 20
-49.2083625227
 10
16.8964078942
 20
-49.2017496857
 10
16.882533124
 20
-49.1928832506
 10
16.8697686962
 20
-49.1818144712
 10
16.8580513078
 20
-49.1684920936
 10
16.8475943917
 20
-49.1528142623
 10
16.8383263243
 20
-49.1346229344
 10
16.8303187293
 20
-49.1140761527
 10
16.823999911
 20
-49.0915461899
 10
16.8195126378
 20
-49.0671571369
 10
16.8167141413
 20
-49.0407849028
 10
16.8156044217
 20
-49.0124294875
  0
LWPOLYLINE
  5
22D
100
AcDbEntity
  8
RACCORDO
100
AcDbPolyline
 62
7
  6
CONTINUOUS
 90
6
 70
0
 10
-38.1542560808
 20
65.7264959302
 10
-38.1524802263
 20
65.7295062032
 10
-38.151342032
 20
65.7311165157
 10
-38.151626203
 20
65.7308052785
 10
-38.1535516028
 20
65.7290832365
 10
-38.1564680728
 20
65.7270320458
  0
LINE
  5
22E
100
AcDbEntity
  8
RACCORDO
100
AcDbLine
 62
253
  6
CONTINUOUS
 10
13.4930769842
 20
-43.8842690676
 11
13.5554607056
 21
-43.8724198444
  0
LWPOLYLINE
  5
22F
100
AcDbEntity
  8
RACCORDO
100
AcDbPolyline
 62
253
  6
CONTINUOUS
 90
10
 70
0
 10
12.5350710831
 20
-44.887056134
 10
12.5460069568
 20
-44.8851809608
 10
12.5580244867
 20
-44.8828303909
 10
12.5709928694
 20
-44.8799542418
 10
12.5847189854
 20
-44.8764448951
 10
12.5990949173
 20
-44.8723308447
 10
12.6141093708
 20
-44.8677701965
 10
12.629649813
 20
-44.8627954174
 10
12.6454954888
 20
-44.85732121
 10
12.6614717608
 20
-44.8513327364
  0
LWPOLYLINE
  5
230
100
AcDbEntity
  8
RACCORDO
100
AcDbPolyline
 62
7
  6
CONTINUOUS
 90
6
 70
0
 10
13.5221939076
 20
-43.8610560952
 10
13.5220821933
 20
-43.8610705309
 10
13.5225833538
 20
-43.8610751357
 10
13.5237781527
 20
-43.8611965669
 10
13.5255097323
 20
-43.8615247926
 10
13.5276812912
 20
-43.8621105732
  0
LINE
  5
231
100
AcDbEntity
  8
RACCORDO
100
AcDbLine
 62
253
  6
CONTINUOUS
 10
13.551760485
 20
-44.1410771849
 11
14.105016637
 21
-44.0778378981
  0
LINE
  5
232
100
AcDbEntity
  8
RACCORDO
100
AcDbLine
 62
253
  6
CONTINUOUS
 10
13.4930769871
 20
-44.0864102954
 11
13.9815545078
 21
-44.0316890917
  0
LWPOLYLINE
  5
233
100
AcDbEntity
  8
RACCORDO
100
AcDbPolyline
 62
253
  6
CONTINUOUS
 90
3
 70
0
 10
14.4335469196
 20
-44.0412428473
 10
14.7296031764
 20
-44.0093444911
 10
14.750672376
 20
-44.0071366832
  0
LINE
  5
234
100
AcDbEntity
  8
0
100
AcDbLine
 62
7
  6
CONTINUOUS
 10
13.5477753252
 20
-42.0575003397
 11
13.3565749392
 21
-42.0929663153
  0
LINE
  5
235
100
AcDbEntity
  8
RACCORDO
100
AcDbLine
 62
253
  6
CONTINUOUS
 10
14.5890514824
 20
-43.9670000036
 11
14.7428934075
 21
-43.9517052416
  0
LWPOLYLINE
  5
236
100
AcDbEntity
  8
RACCORDO
100
AcDbPolyline
 62
7
  6
CONTINUOUS
 90
3
 70
0
 10
14.2406967765
 20
-44.1207049948
 10
14.2550444186
 20
-44.1200240388
 10
14.2686620241
 20
-44.1175951691
  0
LWPOLYLINE
  5
237
100
AcDbEntity
  8
RACCORDO
100
AcDbPolyline
 62
253
  6
CONTINUOUS
 90
6
 70
0
 10
14.1974041695
 20
-44.0905930954
 10
14.2067528579
 20
-44.0911320945
 10
14.2161471023
 20
-44.0903534631
 10
14.2253801942
 20
-44.0882205145
 10
14.2338320081
 20
-44.0846231887
 10
14.2413978322
 20
-44.079384568
  0
LWPOLYLINE
  5
238
100
AcDbEntity
  8
RACCORDO
100
AcDbPolyline
 62
7
  6
CONTINUOUS
 90
4
 70
0
 10
13.2186390632
 20
-46.375009855
 10
13.2319893716
 20
-46.3757869249
 10
13.2467627956
 20
-46.3756482322
 10
13.2628231968
 20
-46.3745442943
  0
LINE
  5
239
100
AcDbEntity
  8
RACCORDO
100
AcDbLine
 62
7
  6
CONTINUOUS
 10
14.225795716
 20
-44.1195315491
 11
14.2406967765
 21
-44.1207049948
  0
LWPOLYLINE
  5
23A
100
AcDbEntity
  8
RACCORDO
100
AcDbPolyline
 62
7
  6
CONTINUOUS
 90
11
 70
0
 10
13.1751655406
 20
-48.8542551094
 10
13.1762639648
 20
-48.8544363114
 10
13.1785842652
 20
-48.8540314503
 10
13.1819834958
 20
-48.8529321576
 10
13.1864085241
 20
-48.8512929123
 10
13.1918014816
 20
-48.849093173
 10
13.1980972655
 20
-48.8462962314
 10
13.2052466192
 20
-48.8430351992
 10
13.213194246
 20
-48.8392945978
 10
13.2218768904
 20
-48.8350498701
 10
13.2412239982
 20
-48.8254478977
  0
LWPOLYLINE
  5
23B
100
AcDbEntity
  8
RACCORDO
100
AcDbPolyline
 62
253
  6
CONTINUOUS
 90
15
 70
0
 10
6.5689339574
 20
-57.8079338209
 10
3.1152420119
 20
-56.0577097588
 10
-0.3099917766
 20
-54.2891445141
 10
-3.7064525002
 20
-52.5023910204
 10
-7.0738964276
 20
-50.6975665081
 10
-10.4119435889
 20
-48.8748641272
 10
-13.7200839267
 20
-47.0345566753
 10
-16.9980181899
 20
-45.1768076005
 10
-20.2454495209
 20
-43.3017815091
 10
-23.4618866405
 20
-41.4097620523
 10
-26.6470439694
 20
-39.500920898
 10
-29.8006388879
 20
-37.5754305484
 10
-32.9222003507
 20
-35.6335846783
 10
-36.0113943065
 20
-33.6756024017
 10
-39.0680172332
 20
-31.7016247159
  0
LWPOLYLINE
  5
23C
100
AcDbEntity
  8
RACCORDO
100
AcDbPolyline
 62
253
  6
CONTINUOUS
 90
11
 70
0
 10
6.6720418502
 20
-58.0366084413
 10
6.6625444496
 20
-58.0313666243
 10
6.6437082079
 20
-58.017834263
 10
6.6265532462
 20
-58.0010110081
 10
6.6116440685
 20
-57.9812893098
 10
6.5988595427
 20
-57.9585958503
 10
6.5880660751
 20
-57.9329859816
 10
6.5797315328
 20
-57.9051193512
 10
6.5739225895
 20
-57.8752070745
 10
6.5703452779
 20
-57.8428897274
 10
6.5689339579
 20
-57.8079338211
  0
LINE
  5
23D
100
AcDbEntity
  8
RACCORDO
100
AcDbLine
 62
253
  6
CONTINUOUS
 10
14.4498685613
 20
-43.3423583105
 11
14.5146553679
 21
-43.3470146387
  0
LWPOLYLINE
  5
23E
100
AcDbEntity
  8
RACCORDO
100
AcDbPolyline
 62
7
  6
CONTINUOUS
 90
5
 70
0
 10
14.4590876689
 20
-43.3187658592
 10
14.4589084499
 20
-43.3187482927
 10
14.459146927
 20
-43.3188178717
 10
14.4605400315
 20
-43.3193336841
 10
14.4613586223
 20
-43.3197090683
  0
LWPOLYLINE
  5
23F
100
AcDbEntity
  8
RACCORDO
100
AcDbPolyline
 62
253
  6
CONTINUOUS
 90
32
 70
0
 10
12.6614717608
 20
-44.8513327364
 10
12.6520403433
 20
-44.848803098
 10
12.6426694543
 20
-44.846174379
 10
12.6333802313
 20
-44.8434504844
 10
12.6241925842
 20
-44.8406338523
 10
12.6151281663
 20
-44.8377307534
 10
12.6062099963
 20
-44.8347514944
 10
12.597457237
 20
-44.8317019776
 10
12.5888898362
 20
-44.8285871841
 10
12.5805307598
 20
-44.8254168816
 10
12.5723980574
 20
-44.822198164
 10
12.5645099591
 20
-44.8189369261
 10
12.5568882702
 20
-44.8156419925
 10
12.5495495811
 20
-44.8123215178
 10
12.5425103765
 20
-44.8089823293
 10
12.5357907211
 20
-44.8056320705
 10
12.5294053854
 20
-44.8022798189
 10
12.5233690335
 20
-44.7989333367
 10
12.5176997934
 20
-44.7955990397
 10
12.5124104674
 20
-44.7922869492
 10
12.507513298
 20
-44.7890055752
 10
12.5030236021
 20
-44.785759705
 10
12.49895158
 20
-44.7825599582
 10
12.4953069724
 20
-44.7794156139
 10
12.4921021922
 20
-44.7763299366
 10
12.4893432982
 20
-44.7733128716
 10
12.4870383607
 20
-44.7703753104
 10
12.4851983934
 20
-44.7675222137
 10
12.4838251043
 20
-44.7647650401
 10
12.4829193697
 20
-44.7621132108
 10
12.48248444
 20
-44.7595684019
 10
12.4825157869
 20
-44.7571454229
  0
LWPOLYLINE
  5
240
100
AcDbEntity
  8
RACCORDO
100
AcDbPolyline
 62
253
  6
CONTINUOUS
 90
16
 70
0
 10
14.0279066446
 20
-57.0751160893
 10
14.0509714144
 20
-57.0871210845
 10
14.0760619089
 20
-57.0976851407
 10
14.1029093009
 20
-57.1066950714
 10
14.1312259391
 20
-57.1140543414
 10
14.1607084304
 20
-57.1196841012
 10
14.1910408903
 20
-57.1235240318
 10
14.2218983276
 20
-57.1255329911
 10
14.2529501262
 20
-57.1256894545
 10
14.2838635875
 20
-57.1239917455
 10
14.3143074954
 20
-57.1204580539
 10
14.3439556643
 20
-57.1151262408
 10
14.3724904348
 20
-57.1080534328
 10
14.3996060765
 20
-57.0993154102
 10
14.4250120641
 20
-57.0890057947
 10
14.4484361901
 20
-57.0772350469
  0
LWPOLYLINE
  5
241
100
AcDbEntity
  8
RACCORDO
100
AcDbPolyline
 62
7
  6
CONTINUOUS
 90
13
 70
0
 10
13.9486658447
 20
-57.2940778755
 10
13.9780562158
 20
-57.3097196426
 10
14.0126165807
 20
-57.3248557069
 10
14.0476539645
 20
-57.3368132307
 10
14.0830267773
 20
-57.3455797032
 10
14.1185192267
 20
-57.3511250243
 10
14.1537628564
 20
-57.3534483646
 10
14.1884274676
 20
-57.3526208047
 10
14.2223047995
 20
-57.3487468133
 10
14.2551230315
 20
-57.3419618974
 10
14.2866244645
 20
-57.3324512831
 10
14.3165980404
 20
-57.3204279518
 10
14.3391400011
 20
-57.3092709331
  0
LWPOLYLINE
  5
242
100
AcDbEntity
  8
RACCORDO
100
AcDbPolyline
 62
253
  6
CONTINUOUS
 90
22
 70
0
 10
13.8865068275
 20
-57.1567427919
 10
13.8971362904
 20
-57.1624097189
 10
13.907599995
 20
-57.1670934875
 10
13.9178979416
 20
-57.1707940975
 10
13.9280887589
 20
-57.1735228837
 10
13.9381138181
 20
-57.1752685115
 10
13.9477972323
 20
-57.175996977
 10
13.9571301926
 20
-57.175689772
 10
13.9661215078
 20
-57.1743654048
 10
13.9746217179
 20
-57.172045397
 10
13.982622622
 20
-57.1687130424
 10
13.990132421
 20
-57.1643850473
 10
13.9970262572
 20
-57.1591330515
 10
14.0032938712
 20
-57.1529416336
 10
14.0089455224
 20
-57.145826215
 10
14.0138871324
 20
-57.1379046997
 10
14.018107013
 20
-57.1291633261
 10
14.0216168523
 20
-57.1196158558
 10
14.0243576365
 20
-57.109421478
 10
14.0263096943
 20
-57.0986332558
 10
14.027492697
 20
-57.0871981263
 10
14.0279066446
 20
-57.0751160893
  0
LWPOLYLINE
  5
243
100
AcDbEntity
  8
RACCORDO
100
AcDbPolyline
 62
7
  6
CONTINUOUS
 90
16
 70
0
 10
-41.9907162698
 20
-29.9391791581
 10
-39.0077811198
 20
-31.9023340808
 10
-35.9436856091
 20
-33.8815931276
 10
-32.8471938656
 20
-35.8445656102
 10
-29.7186190267
 20
-37.7910520916
 10
-26.5582354439
 20
-39.7208853042
 10
-23.3662974265
 20
-41.6339116901
 10
-20.1430746544
 20
-43.5299693032
 10
-16.8888699163
 20
-45.4088825348
 10
-13.6039867652
 20
-47.270477033
 10
-10.2887310034
 20
-49.1145788834
 10
-6.9433848444
 20
-50.9410332456
 10
-3.5682160663
 20
-52.7496940658
 10
-0.1635165829
 20
-54.5404035537
 10
3.2703657068
 20
-56.3129813688
 10
6.6721753743
 20
-58.0366754938
  0
LINE
  5
244
100
AcDbEntity
  8
RACCORDO
100
AcDbLine
 62
253
  6
CONTINUOUS
 10
-39.0680172332
 20
-31.7016247159
 11
-42.0918042515
 21
-29.7118334414
  0
LINE
  5
245
100
AcDbEntity
  8
RACCORDO
100
AcDbLine
 62
7
  6
CONTINUOUS
 10
-41.9907946032
 20
-29.9391271236
 11
-41.9908617737
 21
-29.939082478
  0
LWPOLYLINE
  5
246
100
AcDbEntity
  8
RACCORDO
100
AcDbPolyline
 62
253
  6
CONTINUOUS
 90
10
 70
0
 10
-42.0918042515
 20
-29.7118334414
 10
-42.1174704657
 20
-29.6932512879
 10
-42.1404023396
 20
-29.6735130835
 10
-42.1604444398
 20
-29.6527526147
 10
-42.1774609201
 20
-29.6311105967
 10
-42.1913364422
 20
-29.6087337201
 10
-42.2019769571
 20
-29.5857736563
 10
-42.209310343
 20
-29.5623860295
 10
-42.213286894
 20
-29.538729362
 10
-42.2140588804
 20
-29.5226930504
  0
LWPOLYLINE
  5
247
100
AcDbEntity
  8
RACCORDO
100
AcDbPolyline
 62
253
  6
CONTINUOUS
 90
10
 70
0
 10
-41.9908617737
 20
-29.939082478
 10
-42.0051551253
 20
-29.9285903314
 10
-42.0247266922
 20
-29.9103717941
 10
-42.0420855839
 20
-29.8892356891
 10
-42.0571367274
 20
-29.8652335294
 10
-42.0694632941
 20
-29.8387384721
 10
-42.0791111379
 20
-29.8101135484
 10
-42.0861810784
 20
-29.7794731647
 10
-42.0904905591
 20
-29.7467330339
 10
-42.0918042515
 20
-29.7118334413
  0
LWPOLYLINE
  5
248
100
AcDbEntity
  8
RACCORDO
100
AcDbPolyline
 62
253
  6
CONTINUOUS
 90
10
 70
0
 10
14.381593079
 20
-45.7029944981
 10
14.3879416091
 20
-45.7048900202
 10
14.3951138556
 20
-45.7061520187
 10
14.4029061459
 20
-45.7067446561
 10
14.4110971995
 20
-45.7066511032
 10
14.4194544121
 20
-45.7058740166
 10
14.4277404612
 20
-45.7044354635
 10
14.4357200449
 20
-45.702376295
 10
14.4431665641
 20
-45.699754986
 10
14.4498685574
 20
-45.6966459748
  0
LWPOLYLINE
  5
249
100
AcDbEntity
  8
RACCORDO
100
AcDbPolyline
 62
253
  6
CONTINUOUS
 90
10
 70
0
 10
14.2641418908
 20
-44.8660598029
 10
14.2704904046
 20
-44.867955315
 10
14.2776626361
 20
-44.8692173086
 10
14.2854549148
 20
-44.8698099453
 10
14.2936459621
 20
-44.8697163945
 10
14.3020031746
 20
-44.8689393117
 10
14.3102892296
 20
-44.8675007629
 10
14.3182688246
 20
-44.8654415979
 10
14.325715359
 20
-44.862820291
 10
14.3324173692
 20
-44.8597112797
  0
LWPOLYLINE
  5
24A
100
AcDbEntity
  8
RACCORDO
100
AcDbPolyline
 62
253
  6
CONTINUOUS
 90
8
 70
0
 10
14.9246003096
 20
-45.0693542795
 10
14.9119360233
 20
-45.0654059562
 10
14.8991419091
 20
-45.0628833389
 10
14.8863824173
 20
-45.0619705916
 10
14.8737482549
 20
-45.0628570943
 10
14.8615571274
 20
-45.0657277641
 10
14.850273552
 20
-45.070604675
 10
14.8445507276
 20
-45.0741111145
  0
LWPOLYLINE
  5
24B
100
AcDbEntity
  8
RACCORDO
100
AcDbPolyline
 62
7
  6
CONTINUOUS
 90
3
 70
0
 10
14.1960933377
 20
-44.1118812069
 10
14.2105725662
 20
-44.1164739879
 10
14.225795716
 20
-44.1195315491
  0
LWPOLYLINE
  5
24C
100
AcDbEntity
  8
RACCORDO
100
AcDbPolyline
 62
253
  6
CONTINUOUS
 90
12
 70
0
 10
14.8972263024
 20
-45.1323878017
 10
14.887555309
 20
-45.1291401681
 10
14.8780454682
 20
-45.1272468517
 10
14.8686967798
 20
-45.1267078526
 10
14.8593025354
 20
-45.127486484
 10
14.8500694435
 20
-45.1296194326
 10
14.8416176296
 20
-45.1332167584
 10
14.8340518055
 20
-45.1384553791
 10
14.8272672593
 20
-45.145158377
 10
14.8215699814
 20
-45.1529050585
 10
14.8170619684
 20
-45.1615551923
 10
14.8136412236
 20
-45.1712490097
  0
LWPOLYLINE
  5
24D
100
AcDbEntity
  8
RACCORDO
100
AcDbPolyline
 62
253
  6
CONTINUOUS
 90
3
 70
0
 10
14.1782233353
 20
-44.0854521454
 10
14.1878943287
 20
-44.088699779
 10
14.1974041695
 20
-44.0905930954
  0
LINE
  5
24E
100
AcDbEntity
  8
RACCORDO
100
AcDbLine
 62
7
  6
CONTINUOUS
 10
13.5276812912
 20
-43.8621105732
 11
13.5299079583
 21
-43.8628684034
  0
LINE
  5
24F
100
AcDbEntity
  8
RACCORDO
100
AcDbLine
 62
253
  6
CONTINUOUS
 10
15.5633250909
 20
-45.3813683129
 11
14.8972263024
 21
-45.1323878017
  0
LINE
  5
250
100
AcDbEntity
  8
RACCORDO
100
AcDbLine
 62
253
  6
CONTINUOUS
 10
15.590699098
 20
-45.3183347906
 11
14.9246003096
 21
-45.0693542795
  0
LINE
  5
251
100
AcDbEntity
  8
RACCORDO
100
AcDbLine
 62
7
  6
CONTINUOUS
 10
13.5299734178
 20
-43.8628929723
 11
14.1960722426
 21
-44.1118734971
  0
LINE
  5
252
100
AcDbEntity
  8
RACCORDO
100
AcDbLine
 62
7
  6
CONTINUOUS
 10
11.6586418588
 20
-55.971852466
 11
13.9486316023
 21
-57.2940638436
  0
LINE
  5
253
100
AcDbEntity
  8
RACCORDO
100
AcDbLine
 62
253
  6
CONTINUOUS
 10
11.5965174531
 20
-55.8345295949
 11
13.8865068275
 21
-57.1567427919
  0
LWPOLYLINE
  5
254
100
AcDbEntity
  8
RACCORDO
100
AcDbPolyline
 62
7
  6
CONTINUOUS
 90
13
 70
0
 10
-42.2140588804
 20
-29.5226930504
 10
-42.2123222417
 20
-29.564328343
 10
-42.2070472402
 20
-29.6061340193
 10
-42.1981707817
 20
-29.647735711
 10
-42.1856776065
 20
-29.6887525962
 10
-42.1696093182
 20
-29.728784758
 10
-42.1500587994
 20
-29.7674461313
 10
-42.1271207565
 20
-29.8044373992
 10
-42.1009989287
 20
-29.8393591152
 10
-42.0720111484
 20
-29.8717921392
 10
-42.0403722535
 20
-29.901532825
 10
-42.0063366293
 20
-29.928369913
 10
-41.9908617737
 20
-29.939082478
  0
LWPOLYLINE
  5
255
100
AcDbEntity
  8
0
100
AcDbPolyline
 62
7
  6
CONTINUOUS
 90
16
 70
0
 10
-43.0423268
 20
-9.4974390918
 10
-43.0409846024
 20
-9.547428453
 10
-43.0318016331
 20
-9.6385504672
 10
-43.01399004
 20
-9.7289644892
 10
-42.9874706633
 20
-9.8186640246
 10
-42.9523226628
 20
-9.9076555678
 10
-42.908867493
 20
-9.9951251952
 10
-42.857028943
 20
-10.0810589452
 10
-42.7968832238
 20
-10.1654707794
 10
-42.7289804224
 20
-10.2475886588
 10
-42.6532493744
 20
-10.327391539
 10
-42.5697612442
 20
-10.4049004646
 10
-42.4792796125
 20
-10.4794065297
 10
-42.3817403199
 20
-10.5508821865
 10
-42.2772075258
 20
-10.6193549829
 10
-42.2140588804
 20
-10.6563883687
  0
LWPOLYLINE
  5
256
100
AcDbEntity
  8
0
100
AcDbPolyline
 62
7
  6
CONTINUOUS
 90
16
 70
0
 10
-43.0423266996
 20
60.7190047124
 10
-43.0414465193
 20
60.760207275
 10
-43.0331056224
 20
60.8510770775
 10
-43.016052088
 20
60.9418208958
 10
-42.9904418778
 20
61.031608776
 10
-42.9561964916
 20
61.1204319488
 10
-42.9133944295
 20
61.2082991836
 10
-42.8624271529
 20
61.2944068341
 10
-42.8032197528
 20
61.3787387583
 10
-42.7358471383
 20
61.4613110984
 10
-42.6609254973
 20
61.5413686341
 10
-42.5783855738
 20
61.618888295
 10
-42.488296624
 20
61.6938931516
 10
-42.3914826043
 20
61.7656971955
 10
-42.2878818175
 20
61.8342710626
 10
-42.2140588804
 20
61.8780144881
  0
LWPOLYLINE
  5
257
100
AcDbEntity
  8
RACCORDO
100
AcDbPolyline
 62
7
  6
CONTINUOUS
 90
13
 70
0
 10
-42.2140588804
 20
62.9390802059
 10
-42.2122463203
 20
62.9816142864
 10
-42.2067545186
 20
63.0242325719
 10
-42.1975400675
 20
63.0665397749
 10
-42.1846286953
 20
63.1080892161
 10
-42.1680782493
 20
63.1485232869
 10
-42.1479335105
 20
63.1875813233
 10
-42.1242702309
 20
63.2249589215
 10
-42.0973138728
 20
63.2601963946
 10
-42.0673638668
 20
63.2928818262
 10
-42.0346587617
 20
63.3227671978
 10
-41.9994811602
 20
63.3496092797
 10
-41.9770799377
 20
63.3643094609
  0
LWPOLYLINE
  5
258
100
AcDbEntity
  8
DRAFT
100
AcDbPolyline
 62
7
  6
CONTINUOUS
 90
3
 70
0
 10
14.8860996831
 20
-42.1855094527
 10
14.7919952771
 20
-42.1535819388
 10
14.6988422078
 20
-42.1285670407
  0
LINE
  5
259
100
AcDbEntity
  8
RACCORDO
100
AcDbLine
 62
253
  6
CONTINUOUS
 10
13.512124523
 20
-43.8364716253
 11
14.1782233353
 21
-44.0854521454
  0
LINE
  5
25A
100
AcDbEntity
  8
RACCORDO
100
AcDbLine
 62
7
  6
CONTINUOUS
 10
13.5299079642
 20
-43.8628683898
 11
13.5299734178
 21
-43.8628929723
  0
LINE
  5
25B
100
AcDbEntity
  8
DRAFT
100
AcDbLine
 62
7
  6
CONTINUOUS
 10
14.8970594856
 20
-42.1899903579
 11
14.8860996831
 21
-42.1855094527
  0
LWPOLYLINE
  5
25C
100
AcDbEntity
  8
RACCORDO
100
AcDbPolyline
 62
253
  6
CONTINUOUS
 90
10
 70
0
 10
13.4448840895
 20
-44.0819012928
 10
13.4492137796
 20
-44.0837359584
 10
13.4539630403
 20
-44.0852697549
 10
13.4590676469
 20
-44.0864819398
 10
13.4644585694
 20
-44.0873561197
 10
13.4700629052
 20
-44.0878804721
 10
13.4758048646
 20
-44.0880479054
 10
13.4816067972
 20
-44.0878561547
 10
13.4873902419
 20
-44.0873078125
 10
13.493076987
 20
-44.0864102936
  0
LWPOLYLINE
  5
25D
100
AcDbEntity
  8
RACCORDO
100
AcDbPolyline
 62
253
  6
CONTINUOUS
 90
19
 70
0
 10
13.5517604855
 20
-44.1410771853
 10
13.545850343
 20
-44.1385097136
 10
13.5402258031
 20
-44.1357469257
 10
13.5348912027
 20
-44.1328265355
 10
13.5298391991
 20
-44.1297887407
 10
13.5250824882
 20
-44.1266630181
 10
13.5206543452
 20
-44.1234667949
 10
13.5165570226
 20
-44.1202186652
 10
13.5127894985
 20
-44.1169535649
 10
13.5093785991
 20
-44.1137098227
 10
13.5063463202
 20
-44.1105284526
 10
13.5036653022
 20
-44.1074082045
 10
13.5012890533
 20
-44.1043206731
 10
13.4992122747
 20
-44.1012947792
 10
13.497437392
 20
-44.0983281615
 10
13.495935959
 20
-44.0953476021
 10
13.4947023294
 20
-44.0923417397
 10
13.4937485497
 20
-44.0893566061
 10
13.4930769866
 20
-44.0864102669
  0
LWPOLYLINE
  5
25E
100
AcDbEntity
  8
0
100
AcDbPolyline
 62
7
  6
CONTINUOUS
 90
8
 70
0
 10
14.6700913044
 20
-42.1173054808
 10
14.4414063411
 20
-42.016129152
 10
14.2173707623
 20
-41.9480834465
 10
14.0010142646
 20
-41.9140885657
 10
13.7952626986
 20
-41.914604232
 10
13.6028985013
 20
-41.949623472
 10
13.4265230684
 20
-42.0186727104
 10
13.3851445439
 20
-42.0411917934
  0
LWPOLYLINE
  5
25F
100
AcDbEntity
  8
RACCORDO
100
AcDbPolyline
 62
253
  6
CONTINUOUS
 90
6
 70
0
 10
14.8113077469
 20
-44.3517801441
 10
14.8059632265
 20
-44.3493049389
 10
14.8017744667
 20
-44.3463203261
 10
14.798860419
 20
-44.34291106
 10
14.7973038366
 20
-44.3391739538
 10
14.7971482809
 20
-44.3383150886
  0
LWPOLYLINE
  5
260
100
AcDbEntity
  8
RACCORDO
100
AcDbPolyline
 62
253
  6
CONTINUOUS
 90
6
 70
0
 10
14.6938565545
 20
-43.5148454191
 10
14.6885120223
 20
-43.5123702012
 10
14.6843232586
 20
-43.5093855771
 10
14.6814092131
 20
-43.5059763023
 10
14.6798526371
 20
-43.502239191
 10
14.6796970862
 20
-43.5013803475
  0
LINE
  5
261
100
AcDbEntity
  8
RACCORDO
100
AcDbLine
 62
7
  6
CONTINUOUS
 10
14.4613145054
 20
-43.3196877958
 11
14.4613586476
 21
-43.3197090145
  0
LWPOLYLINE
  5
262
100
AcDbEntity
  8
RACCORDO
100
AcDbPolyline
 62
253
  6
CONTINUOUS
 90
10
 70
0
 10
14.6277717221
 20
-45.9227750569
 10
14.6077711686
 20
-45.9129165025
 10
14.5877656281
 20
-45.9026326876
 10
14.5677551008
 20
-45.8919236122
 10
14.547736227
 20
-45.8807873332
 10
14.5277123663
 20
-45.8692257936
 10
14.5076935971
 20
-45.857244823
 10
14.4876832789
 20
-45.8448463647
 10
14.4676780522
 20
-45.8320284753
 10
14.447677917
 20
-45.818791155
  0
LWPOLYLINE
  5
263
100
AcDbEntity
  8
RACCORDO
100
AcDbPolyline
 62
253
  6
CONTINUOUS
 90
10
 70
0
 10
14.642935022
 20
-45.8758816145
 10
14.623513664
 20
-45.8663096415
 10
14.6040695732
 20
-45.8563146036
 10
14.5846092392
 20
-45.8458998367
 10
14.5651391571
 20
-45.8350688164
 10
14.5456658249
 20
-45.823825158
 10
14.5261957409
 20
-45.812172615
 10
14.5067354031
 20
-45.8001150766
 10
14.4872913066
 20
-45.7876565668
 10
14.4678699409
 20
-45.7748012437
  0
LWPOLYLINE
  5
264
100
AcDbEntity
  8
RACCORDO
100
AcDbPolyline
 62
253
  6
CONTINUOUS
 90
19
 70
0
 10
13.2628231968
 20
-48.8142724452
 10
13.4062465875
 20
-48.9028404103
 10
13.550738131
 20
-48.9861707125
 10
13.6962978273
 20
-49.0642633516
 10
13.843328367
 20
-49.137423085
 10
13.9914270595
 20
-49.2053451554
 10
14.1393858331
 20
-49.2671152911
 10
14.2871633792
 20
-49.3226003814
 10
14.4348010064
 20
-49.371933537
 10
14.5812145679
 20
-49.4145998186
 10
14.7262899094
 20
-49.4504829025
 10
14.8701411853
 20
-49.4796991123
 10
15.0120267119
 20
-49.5020824801
 10
15.1518780479
 20
-49.5175772241
 10
15.2897636346
 20
-49.5262391261
 10
15.425147113
 20
-49.5280695631
 10
15.5578496965
 20
-49.523068994
 10
15.6880501718
 20
-49.5112369598
 10
15.8157485386
 20
-49.4925734606
  0
LWPOLYLINE
  5
265
100
AcDbEntity
  8
RACCORDO
100
AcDbPolyline
 62
253
  6
CONTINUOUS
 90
10
 70
0
 10
-42.2140588804
 20
62.9390802059
 10
-42.213286894
 20
62.9230438942
 10
-42.209310343
 20
62.8993872267
 10
-42.2019769571
 20
62.8759995999
 10
-42.1913364422
 20
62.8530395361
 10
-42.1774609201
 20
62.8306626595
 10
-42.1604444398
 20
62.8090206415
 10
-42.1404023396
 20
62.7882601727
 10
-42.1174704657
 20
62.7685219683
 10
-42.0918042515
 20
62.7499398148
  0
LWPOLYLINE
  5
266
100
AcDbEntity
  8
0
100
AcDbPolyline
 62
7
  6
CONTINUOUS
 90
16
 70
0
 10
-43.0423266996
 20
57.4531236053
 10
-43.0409948484
 20
57.403329226
 10
-43.03183054
 20
57.3122062999
 10
-43.0140374243
 20
57.2217908088
 10
-42.9875363401
 20
57.1320892434
 10
-42.9524064487
 20
57.0430951131
 10
-42.9089690636
 20
56.9556223648
 10
-42.8571479717
 20
56.8696849566
 10
-42.7970193861
 20
56.7852689304
 10
-42.7291332601
 20
56.7031463597
 10
-42.6534184261
 20
56.6233382853
 10
-42.5699460516
 20
56.5458236663
 10
-42.4794795925
 20
56.4713114532
 10
-42.3819548856
 20
56.3998291909
 10
-42.2774360941
 20
56.3313493346
 10
-42.2140588804
 20
56.2941731558
  0
LINE
  5
267
100
AcDbEntity
  8
0
100
AcDbLine
 62
7
  6
CONTINUOUS
 10
-43.042340045
 20
60.7190047101
 11
-43.042340045
 21
57.4531236029
  0
LINE
  5
268
100
AcDbEntity
  8
0
100
AcDbLine
 62
7
  6
CONTINUOUS
 10
-43.042340045
 20
-6.2315579869
 11
-43.042340045
 21
-9.4974390941
  0
LINE
  5
269
100
AcDbEntity
  8
RACCORDO
100
AcDbLine
 62
7
  6
CONTINUOUS
 10
-42.2140588804
 20
-29.5226930504
 11
-42.2140588804
 21
62.9390802059
  0
LINE
  5
26A
100
AcDbEntity
  8
RACCORDO
100
AcDbLine
 62
253
  6
CONTINUOUS
 10
-42.0918042515
 20
-29.7118334414
 11
-42.0918042515
 21
62.7499398148
  0
LINE
  5
26B
100
AcDbEntity
  8
RACCORDO
100
AcDbLine
 62
7
  6
CONTINUOUS
 10
-39.6996791583
 20
64.7726882718
 11
-39.6996791583
 21
66.6534149273
  0
LINE
  5
26C
100
AcDbEntity
  8
RACCORDO
100
AcDbLine
 62
253
  6
CONTINUOUS
 10
-39.6118111927
 20
64.8270271398
 11
-39.6118111927
 21
66.5309325605
  0
LWPOLYLINE
  5
26D
100
AcDbEntity
  8
RACCORDO
100
AcDbPolyline
 62
253
  6
CONTINUOUS
 90
7
 70
0
 10
-38.2609673788
 20
65.7425705817
 10
-38.2603710287
 20
65.7715396749
 10
-38.258687495
 20
65.7996000855
 10
-38.2559167779
 20
65.8267518135
 10
-38.2520588773
 20
65.8529948589
 10
-38.2471137932
 20
65.8783292218
 10
-38.2410815256
 20
65.9027549021
  0
LWPOLYLINE
  5
26E
100
AcDbEntity
  8
0
100
AcDbPolyline
 62
7
  6
CONTINUOUS
 90
16
 70
0
 10
-43.0423266996
 20
-6.2315579846
 10
-43.0414465193
 20
-6.190355422
 10
-43.0331056224
 20
-6.0994856195
 10
-43.016052088
 20
-6.0087418012
 10
-42.9904418778
 20
-5.918953921
 10
-42.9561964916
 20
-5.8301307482
 10
-42.9133944295
 20
-5.7422635135
 10
-42.8624271529
 20
-5.6561558629
 10
-42.8032197528
 20
-5.5718239387
 10
-42.7358471383
 20
-5.4892515986
 10
-42.6609254973
 20
-5.4091940629
 10
-42.5783855738
 20
-5.331674402
 10
-42.488296624
 20
-5.2566695454
 10
-42.3914826043
 20
-5.1848655015
 10
-42.2878818175
 20
-5.1162916344
 10
-42.2140588804
 20
-5.0725482089
  0
LWPOLYLINE
  5
26F
100
AcDbEntity
  8
RACCORDO
100
AcDbPolyline
 62
253
  6
CONTINUOUS
 90
22
 70
0
 10
-39.6118111927
 20
66.5309325605
 10
-39.6114029916
 20
66.5429784563
 10
-39.610225649
 20
66.5543877847
 10
-39.6082791646
 20
66.5651605456
 10
-39.6055440051
 20
66.5753529948
 10
-39.602039704
 20
66.5849088766
 10
-39.5978248613
 20
66.5936594233
 10
-39.5928877639
 20
66.6015879345
 10
-39.587240125
 20
66.6087111105
 10
-39.5809756842
 20
66.6149102851
 10
-39.5740840634
 20
66.6201699431
 10
-39.5665756408
 20
66.6245055998
 10
-39.55857529
 20
66.6278451343
 10
-39.5500747664
 20
66.6301718187
 10
-39.5410823146
 20
66.6315023809
 10
-39.5317475427
 20
66.6318148839
 10
-39.522062469
 20
66.6310911827
 10
-39.5120350752
 20
66.6293494223
 10
-39.5018389137
 20
66.6266221004
 10
-39.4915318353
 20
66.6229200495
 10
-39.4810559893
 20
66.6182324371
 10
-39.4704113756
 20
66.6125592632
  0
LWPOLYLINE
  5
270
100
AcDbEntity
  8
RACCORDO
100
AcDbPolyline
 62
253
  6
CONTINUOUS
 90
4
 70
0
 10
14.4476779139
 20
-43.2950648939
 10
14.4676784678
 20
-43.3049234464
 10
14.4876840087
 20
-43.31520726
 10
14.5076945364
 20
-43.3259163346
  0
LINE
  5
271
100
AcDbEntity
  8
0
100
AcDbLine
 62
7
  6
CONTINUOUS
 10
14.7850208491
 20
-42.1797966224
 11
14.6700913044
 21
-42.1173054808
  0
LWPOLYLINE
  5
272
100
AcDbEntity
  8
RACCORDO
100
AcDbPolyline
 62
253
  6
CONTINUOUS
 90
8
 70
0
 10
15.6305655522
 20
-45.1359386585
 10
15.6267139753
 20
-45.1338279365
 10
15.6233926
 20
-45.1314696969
 10
15.6206463433
 20
-45.1288958303
 10
15.6185123446
 20
-45.1261411433
 10
15.6170194641
 20
-45.123242888
 10
15.6161878918
 20
-45.1202402585
 10
15.6160378855
 20
-45.1189437167
  0
LWPOLYLINE
  5
273
100
AcDbEntity
  8
RACCORDO
100
AcDbPolyline
 62
7
  6
CONTINUOUS
 90
5
 70
0
 10
14.5384222779
 20
-43.3601425924
 10
14.5190971407
 20
-43.3493918575
 10
14.4997992597
 20
-43.3390637096
 10
14.4805360306
 20
-43.3291613954
 10
14.4613145054
 20
-43.3196877958
  0
LWPOLYLINE
  5
274
100
AcDbEntity
  8
RACCORDO
100
AcDbPolyline
 62
253
  6
CONTINUOUS
 90
3
 70
0
 10
14.5076945364
 20
-43.3259163346
 10
14.5277134106
 20
-43.3370526133
 10
14.5477372718
 20
-43.3486141531
  0
LINE
  5
275
100
AcDbEntity
  8
0
100
AcDbLine
 62
7
  6
CONTINUOUS
 10
15.1332181766
 20
-42.38080254
 11
14.7850208491
 21
-42.1797966224
  0
LWPOLYLINE
  5
276
100
AcDbEntity
  8
RACCORDO
100
AcDbPolyline
 62
253
  6
CONTINUOUS
 90
5
 70
0
 10
14.5477372718
 20
-43.3486141531
 10
14.5677560414
 20
-43.3605951245
 10
14.58776636
 20
-43.3729935842
 10
14.607771587
 20
-43.3858114755
 10
14.6277717225
 20
-43.3990487984
  0
LWPOLYLINE
  5
277
100
AcDbEntity
  8
RACCORDO
100
AcDbPolyline
 62
253
  6
CONTINUOUS
 90
10
 70
0
 10
13.4448840864
 20
-43.8739535727
 10
13.4492137875
 20
-43.876566617
 10
13.4539630583
 20
-43.8788682639
 10
13.459067673
 20
-43.8808273875
 10
13.4644586005
 20
-43.8824174939
 10
13.4700629379
 20
-43.8836170794
 10
13.4758048957
 20
-43.8844099216
 10
13.4816068239
 20
-43.8847852985
 10
13.4873902611
 20
-43.8847381336
 10
13.4930769961
 20
-43.8842690648
  0
LWPOLYLINE
  5
278
100
AcDbEntity
  8
RACCORDO
100
AcDbPolyline
 62
253
  6
CONTINUOUS
 90
17
 70
0
 10
12.5350710831
 20
-44.887056134
 10
12.5279577523
 20
-44.8827311539
 10
12.5212362191
 20
-44.8781967152
 10
12.5149252702
 20
-44.8734645205
 10
12.5090426111
 20
-44.8685468044
 10
12.5036049509
 20
-44.8634564164
 10
12.4986279172
 20
-44.8582068008
 10
12.4941257417
 20
-44.8528116798
 10
12.4901115687
 20
-44.8472853776
 10
12.4865974119
 20
-44.8416429328
 10
12.4835929844
 20
-44.8358979899
 10
12.4811082113
 20
-44.8300672418
 10
12.4791520626
 20
-44.824170977
 10
12.4777285343
 20
-44.818220128
 10
12.4768430359
 20
-44.8122357778
 10
12.4764978938
 20
-44.8062540573
 10
12.4764924428
 20
-44.805422634
  0
LINE
  5
279
100
AcDbEntity
  8
RACCORDO
100
AcDbLine
 62
253
  6
CONTINUOUS
 10
12.5279592737
 20
-42.0138523999
 11
12.5350710831
 21
-42.0181764058
  0
LWPOLYLINE
  5
27A
100
AcDbEntity
  8
RACCORDO
100
AcDbPolyline
 62
253
  6
CONTINUOUS
 90
8
 70
0
 10
12.5350710831
 20
-45.2071954254
 10
12.5196093624
 20
-45.1971637724
 10
12.5062691912
 20
-45.1861635397
 10
12.4952309759
 20
-45.1743434835
 10
12.486643994
 20
-45.1618634478
 10
12.480624374
 20
-45.1488922014
 10
12.4772535259
 20
-45.1356051556
 10
12.4764924394
 20
-45.1255404576
  0
LWPOLYLINE
  5
27B
100
AcDbEntity
  8
RACCORDO
100
AcDbPolyline
 62
7
  6
CONTINUOUS
 90
19
 70
0
 10
13.1751659659
 20
-48.8542753231
 10
13.2903273823
 20
-48.9298472906
 10
13.4683552628
 20
-49.0399406118
 10
13.6468744953
 20
-49.1421742044
 10
13.8256965418
 20
-49.2364060994
 10
14.0045257373
 20
-49.3224436977
 10
14.1829679094
 20
-49.4000719109
 10
14.3608333716
 20
-49.4691869953
 10
14.5378383619
 20
-49.5296542298
 10
14.713465104
 20
-49.5812925937
 10
14.8875103735
 20
-49.6240537301
 10
15.0597243511
 20
-49.6578847324
 10
15.2295421104
 20
-49.6827078402
 10
15.3967201626
 20
-49.6985468512
 10
15.5610777738
 20
-49.7054424743
 10
15.7221634042
 20
-49.70344969
 10
15.8796946258
 20
-49.6926723839
 10
16.0335512038
 20
-49.673220217
 10
16.1804053888
 20
-49.6458938782
  0
LWPOLYLINE
  5
27C
100
AcDbEntity
  8
RACCORDO
100
AcDbPolyline
 62
253
  6
CONTINUOUS
 90
9
 70
0
 10
-39.6996791583
 20
66.6534149273
 10
-39.6991300419
 20
66.6429393884
 10
-39.6956503879
 20
66.6251227576
 10
-39.6889996562
 20
66.6076093227
 10
-39.6792491357
 20
66.5905867151
 10
-39.6665033145
 20
66.5742372977
 10
-39.6508987704
 20
66.5587362284
 10
-39.6326027154
 20
66.5442495826
 10
-39.6118111927
 20
66.5309325605
  0
LINE
  5
27D
100
AcDbEntity
  8
RACCORDO
100
AcDbLine
 62
253
  6
CONTINUOUS
 10
-38.2609673788
 20
65.6624092173
 11
-38.2609673788
 21
65.7425705817
  0
LWPOLYLINE
  5
27E
100
AcDbEntity
  8
RACCORDO
100
AcDbPolyline
 62
7
  6
CONTINUOUS
 90
7
 70
0
 10
14.0279066446
 20
-38.2189242854
 10
13.9929754697
 20
-38.2009462503
 10
13.9580631372
 20
-38.1832918455
 10
13.9231696473
 20
-38.1659610708
 10
13.8882949998
 20
-38.1489539264
 10
13.8534391948
 20
-38.1322704122
 10
13.8186022322
 20
-38.1159105282
  0
LWPOLYLINE
  5
27F
100
AcDbEntity
  8
0
100
AcDbPolyline
 62
7
  6
CONTINUOUS
 90
16
 70
0
 10
-42.2140588804
 20
-7.390508434
 10
-42.2774360941
 20
-7.3533322553
 10
-42.3819548856
 20
-7.2848523989
 10
-42.4794795925
 20
-7.2133701366
 10
-42.5699460516
 20
-7.1388579236
 10
-42.6534184261
 20
-7.0613433046
 10
-42.7291332601
 20
-6.9815352301
 10
-42.7970193861
 20
-6.8994126594
 10
-42.8571479717
 20
-6.8149966333
 10
-42.9089690636
 20
-6.729059225
 10
-42.9524064487
 20
-6.6415864768
 10
-42.9875363401
 20
-6.5525923464
 10
-43.0140374243
 20
-6.4628907811
 10
-43.03183054
 20
-6.37247529
 10
-43.0409948484
 20
-6.2813523639
 10
-43.0423266996
 20
-6.2315579846
  0
LWPOLYLINE
  5
280
100
AcDbEntity
  8
RACCORDO
100
AcDbPolyline
 62
7
  6
CONTINUOUS
 90
4
 70
0
 10
14.5964953523
 20
-43.3948999708
 10
14.5771278134
 20
-43.3828997171
 10
14.5577678766
 20
-43.3713128223
 10
14.5384222779
 20
-43.3601425924
  0
LINE
  5
281
100
AcDbEntity
  8
RACCORDO
100
AcDbLine
 62
253
  6
CONTINUOUS
 10
14.6062344612
 20
-41.9284899361
 11
14.729088705
 21
-42.0072300043
  0
LWPOLYLINE
  5
282
100
AcDbEntity
  8
RACCORDO
100
AcDbPolyline
 62
253
  6
CONTINUOUS
 90
8
 70
0
 10
12.5350710831
 20
-41.698030186
 10
12.5196093064
 20
-41.6879985071
 10
12.5062691049
 20
-41.6769982469
 10
12.495230882
 20
-41.6651781648
 10
12.4866439107
 20
-41.6526981073
 10
12.480624315
 20
-41.6397268457
 10
12.4772534998
 20
-41.626439794
 10
12.4764925318
 20
-41.6164862954
  0
LWPOLYLINE
  5
283
100
AcDbEntity
  8
RACCORDO
100
AcDbPolyline
 62
7
  6
CONTINUOUS
 90
3
 70
0
 10
14.6352239085
 20
-43.4201250233
 10
14.6158630822
 20
-43.4073096969
 10
14.5964953523
 20
-43.3948999708
  0
LWPOLYLINE
  5
284
100
AcDbEntity
  8
RACCORDO
100
AcDbPolyline
 62
253
  6
CONTINUOUS
 90
10
 70
0
 10
14.2641418908
 20
-44.0358534364
 10
14.2704904208
 20
-44.0401296461
 10
14.2776626674
 20
-44.0437047269
 10
14.2854549577
 20
-44.0464771562
 10
14.2936460112
 20
-44.0483682041
 10
14.3020032239
 20
-44.04932417
 10
14.310289273
 20
-44.0493179069
 10
14.3182688566
 20
-44.0483495928
 10
14.3257153758
 20
-44.0464467252
 10
14.3324173692
 20
-44.0436633404
  0
LWPOLYLINE
  5
285
100
AcDbEntity
  8
RACCORDO
100
AcDbPolyline
 62
253
  6
CONTINUOUS
 90
10
 70
0
 10
14.3815930827
 20
-43.3345484071
 10
14.3879415779
 20
-43.3388245963
 10
14.3951137925
 20
-43.342399669
 10
14.4029060591
 20
-43.3451721001
 10
14.4110971023
 20
-43.3470631571
 10
14.4194543187
 20
-43.3480191348
 10
14.4277403823
 20
-43.3480128823
 10
14.4357199886
 20
-43.3470445744
 10
14.4431665368
 20
-43.345141706
 10
14.4498685612
 20
-43.3423583111
  0
LWPOLYLINE
  5
286
100
AcDbEntity
  8
RACCORDO
100
AcDbPolyline
 62
253
  6
CONTINUOUS
 90
22
 70
0
 10
14.447677917
 20
-45.818791155
 10
14.4441708929
 20
-45.8163416308
 10
14.4406246247
 20
-45.8135952861
 10
14.4370391124
 20
-45.810552121
 10
14.4334013775
 20
-45.8072174351
 10
14.4297243985
 20
-45.8035859288
 10
14.4260471111
 20
-45.7996417032
 10
14.4223665829
 20
-45.7953819673
 10
14.4186857462
 20
-45.7908095122
 10
14.4150523339
 20
-45.7859168119
 10
14.4114661968
 20
-45.7807095384
 10
14.407927484
 20
-45.7751820197
 10
14.4044843755
 20
-45.769309714
 10
14.4011212612
 20
-45.7630715386
 10
14.3978537512
 20
-45.7564885761
 10
14.3947768555
 20
-45.7495995326
 10
14.3918820707
 20
-45.7423773278
 10
14.3891779001
 20
-45.734849042
 10
14.3867848637
 20
-45.7271346214
 10
14.3847431347
 20
-45.7192740483
 10
14.3830125398
 20
-45.7112273405
 10
14.381593079
 20
-45.7029944981
  0
LINE
  5
287
100
AcDbEntity
  8
RACCORDO
100
AcDbLine
 62
253
  6
CONTINUOUS
 10
14.6277717225
 20
-43.3990487984
 11
14.631278746
 21
-43.401498324
  0
LINE
  5
288
100
AcDbEntity
  8
RACCORDO
100
AcDbLine
 62
253
  6
CONTINUOUS
 10
14.729088705
 20
-42.0072300043
 11
14.8514175907
 21
-42.0931201892
  0
LWPOLYLINE
  5
289
100
AcDbEntity
  8
RACCORDO
100
AcDbPolyline
 62
7
  6
CONTINUOUS
 90
5
 70
0
 10
14.6353211335
 20
-43.4201897658
 10
14.6377370279
 20
-43.4219394067
 10
14.6433737732
 20
-43.4268444565
 10
14.6496867323
 20
-43.4336401647
 10
14.6561586015
 20
-43.4421199127
  0
LWPOLYLINE
  5
28A
100
AcDbEntity
  8
RACCORDO
100
AcDbPolyline
 62
253
  6
CONTINUOUS
 90
9
 70
0
 10
15.6305655558
 20
-45.3438863749
 10
15.6267139713
 20
-45.3409972745
 10
15.6233925922
 20
-45.3378711829
 10
15.6206463349
 20
-45.334550375
 10
15.6185123379
 20
-45.331079759
 10
15.6170194601
 20
-45.3275062689
 10
15.6161878905
 20
-45.3238782302
 10
15.6160288748
 20
-45.320244706
 10
15.616058778
 20
-45.319761549
  0
LINE
  5
28B
100
AcDbEntity
  8
RACCORDO
100
AcDbLine
 62
253
  6
CONTINUOUS
 10
14.1782233353
 20
-44.7172444997
 11
13.5121245256
 21
-44.1970308097
  0
LINE
  5
28C
100
AcDbEntity
  8
RACCORDO
100
AcDbLine
 62
253
  6
CONTINUOUS
 10
14.2178592953
 20
-44.6612908753
 11
13.551760485
 21
-44.1410771849
  0
LINE
  5
28D
100
AcDbEntity
  8
RACCORDO
100
AcDbLine
 62
7
  6
CONTINUOUS
 10
14.9018059057
 20
-44.5195879874
 11
15.5679047099
 21
-45.0398016731
  0
LINE
  5
28E
100
AcDbEntity
  8
RACCORDO
100
AcDbLine
 62
253
  6
CONTINUOUS
 10
14.8972263024
 20
-44.5005954474
 11
15.5633251063
 21
-45.0208091329
  0
LWPOLYLINE
  5
28F
100
AcDbEntity
  8
RACCORDO
100
AcDbPolyline
 62
253
  6
CONTINUOUS
 90
16
 70
0
 10
11.1958731135
 20
36.9461211896
 10
11.2192972395
 20
36.9578919373
 10
11.2447032272
 20
36.9682015527
 10
11.2718188689
 20
36.9769395753
 10
11.3003536394
 20
36.9840123833
 10
11.3300018083
 20
36.9893441964
 10
11.3604457162
 20
36.992877888
 10
11.3913591775
 20
36.9945755971
 10
11.4224109761
 20
36.9944191337
 10
11.4532684134
 20
36.9924101745
 10
11.4836008733
 20
36.9885702439
 10
11.5130833646
 20
36.9829404841
 10
11.5414000027
 20
36.9755812141
 10
11.5682473947
 20
36.9665712835
 10
11.5933378892
 20
36.9560072273
 10
11.616402659
 20
36.944002232
  0
LWPOLYLINE
  5
290
100
AcDbEntity
  8
RACCORDO
100
AcDbPolyline
 62
253
  6
CONTINUOUS
 90
3
 70
0
 10
14.8514175907
 20
-42.0931201892
 10
14.973225037
 20
-42.1861023292
 10
15.0935174125
 20
-42.285417969
  0
LWPOLYLINE
  5
291
100
AcDbEntity
  8
RACCORDO
100
AcDbPolyline
 62
253
  6
CONTINUOUS
 90
15
 70
0
 10
14.631278746
 20
-43.401498324
 10
14.6348250135
 20
-43.4042446695
 10
14.6384105253
 20
-43.4072878346
 10
14.6420482596
 20
-43.4106225196
 10
14.6457252381
 20
-43.4142540243
 10
14.6494025252
 20
-43.4181982482
 10
14.6530830532
 20
-43.4224579826
 10
14.6567638898
 20
-43.4270304363
 10
14.6603973021
 20
-43.431923135
 10
14.6639834391
 20
-43.4371304068
 10
14.6675221519
 20
-43.4426579237
 10
14.6709652604
 20
-43.4485302274
 10
14.6743283744
 20
-43.4547684004
 10
14.6775958842
 20
-43.4613513603
 10
14.6806727797
 20
-43.4682404011
  0
LWPOLYLINE
  5
292
100
AcDbEntity
  8
RACCORDO
100
AcDbPolyline
 62
7
  6
CONTINUOUS
 90
4
 70
0
 10
15.5681107327
 20
-45.0399587541
 10
15.5709207379
 20
-45.0422392304
 10
15.5808769948
 20
-45.0515432137
 10
15.5899131035
 20
-45.061843173
  0
LINE
  5
293
100
AcDbEntity
  8
RACCORDO
100
AcDbLine
 62
7
  6
CONTINUOUS
 10
14.8942993417
 20
-44.513470071
 11
14.9018518709
 21
-44.5196218976
  0
LWPOLYLINE
  5
294
100
AcDbEntity
  8
RACCORDO
100
AcDbPolyline
 62
253
  6
CONTINUOUS
 90
19
 70
0
 10
13.5121245256
 20
-44.1970308097
 10
13.5051710323
 20
-44.191213563
 10
13.4985766535
 20
-44.1851760592
 10
13.4923413891
 20
-44.1789182983
 10
13.4864521299
 20
-44.1723863402
 10
13.4809219852
 20
-44.165634125
 10
13.4757902825
 20
-44.1588234733
 10
13.4710618659
 20
-44.1519506277
 10
13.4667318914
 20
-44.1450193456
 10
13.4628251545
 20
-44.13820272
 10
13.4593700843
 20
-44.1315565473
 10
13.4563382518
 20
-44.1250250311
 10
13.4536691658
 20
-44.1186138747
 10
13.4513525609
 20
-44.112354039
 10
13.4493987025
 20
-44.106214563
 10
13.4477778956
 20
-44.1001082683
 10
13.446480242
 20
-44.0940060953
 10
13.44551564
 20
-44.0879371034
 10
13.4448840895
 20
-44.0819012928
  0
LWPOLYLINE
  5
295
100
AcDbEntity
  8
RACCORDO
100
AcDbPolyline
 62
253
  6
CONTINUOUS
 90
11
 70
0
 10
15.5633251063
 20
-45.0208091329
 10
15.5702786004
 20
-45.0266263801
 10
15.5768729801
 20
-45.0326638845
 10
15.5831082454
 20
-45.0389216459
 10
15.5889975055
 20
-45.0454536044
 10
15.5945276512
 20
-45.05220582
 10
15.5996593549
 20
-45.0590164723
 10
15.6043877728
 20
-45.0658893189
 10
15.6087177486
 20
-45.0728206021
 10
15.6126244867
 20
-45.0796372291
 10
15.6160795582
 20
-45.0862834034
  0
LWPOLYLINE
  5
296
100
AcDbEntity
  8
RACCORDO
100
AcDbPolyline
 62
253
  6
CONTINUOUS
 90
22
 70
0
 10
14.4678699616
 20
-45.774801276
 10
14.4662601039
 20
-45.7733906759
 10
14.4646732537
 20
-45.7717657186
 10
14.4631123208
 20
-45.7699255235
 10
14.4615776064
 20
-45.7678757222
 10
14.4600768483
 20
-45.7656104029
 10
14.4586251928
 20
-45.7631119628
 10
14.4572301352
 20
-45.7603815174
 10
14.4558970874
 20
-45.7574208688
 10
14.4546393839
 20
-45.7542139652
 10
14.4534687617
 20
-45.7507702125
 10
14.4523923028
 20
-45.7470872611
 10
14.4514187295
 20
-45.7431316611
 10
14.4505617069
 20
-45.7388984831
 10
14.4498362908
 20
-45.7344047128
 10
14.4492568988
 20
-45.7296510235
 10
14.4488474663
 20
-45.7246332097
 10
14.4486243047
 20
-45.7193771249
 10
14.4485927159
 20
-45.7139309644
 10
14.4487701363
 20
-45.7083213674
 10
14.4491868517
 20
-45.7025535553
 10
14.4498685574
 20
-45.6966459748
  0
LWPOLYLINE
  5
297
100
AcDbEntity
  8
RACCORDO
100
AcDbPolyline
 62
253
  6
CONTINUOUS
 90
7
 70
0
 10
14.693856556
 20
-45.8832915339
 10
14.6885120484
 20
-45.8784356548
 10
14.6843232918
 20
-45.8731379709
 10
14.6814092399
 20
-45.8675489197
 10
14.6798526489
 20
-45.8618272132
 10
14.679697728
 20
-45.8561353329
 10
14.6798869263
 20
-45.8546899424
  0
LWPOLYLINE
  5
298
100
AcDbEntity
  8
RACCORDO
100
AcDbPolyline
 62
253
  6
CONTINUOUS
 90
7
 70
0
 10
14.8113077469
 20
-45.1819865107
 10
14.8059632148
 20
-45.1771306052
 10
14.801774451
 20
-45.1718328987
 10
14.7988604056
 20
-45.1662438321
 10
14.7973038295
 20
-45.16052212
 10
14.7971489254
 20
-45.1548302439
 10
14.7973498706
 20
-45.153314041
  0
LWPOLYLINE
  5
299
100
AcDbEntity
  8
RACCORDO
100
AcDbPolyline
 62
7
  6
CONTINUOUS
 90
6
 70
0
 10
13.1786782651
 20
-46.3602295734
 10
13.1819945721
 20
-46.3636274164
 10
13.1884127771
 20
-46.367799554
 10
13.1967362279
 20
-46.371102151
 10
13.2068481034
 20
-46.3734521293
 10
13.2186390632
 20
-46.375009855
  0
LWPOLYLINE
  5
29A
100
AcDbEntity
  8
RACCORDO
100
AcDbPolyline
 62
253
  6
CONTINUOUS
 90
19
 70
0
 10
6.8903432615
 20
35.2765551534
 10
6.8619111189
 20
35.2558637414
 10
6.8340041404
 20
35.2320562933
 10
6.806699223
 20
35.2054212041
 10
6.7799108155
 20
35.1764420874
 10
6.7538579819
 20
35.1453460464
 10
6.7290413668
 20
35.1120597405
 10
6.7054323956
 20
35.076968384
 10
6.6830853012
 20
35.0405184449
 10
6.6625457996
 20
35.0026931983
 10
6.6437094152
 20
34.9638025269
 10
6.6265542666
 20
34.9243784711
 10
6.6116448965
 20
34.8846110146
 10
6.5988601674
 20
34.8445366261
 10
6.5880664907
 20
34.8046920307
 10
6.5797317808
 20
34.7656839489
 10
6.5739227228
 20
34.7276070805
 10
6.5703453295
 20
34.6903128181
 10
6.5689339579
 20
34.6538394351
  0
LINE
  5
29B
100
AcDbEntity
  8
RACCORDO
100
AcDbLine
 62
253
  6
CONTINUOUS
 10
6.8903432615
 20
35.2765551534
 11
10.8423735708
 21
37.5584003574
  0
LINE
  5
29C
100
AcDbEntity
  8
RACCORDO
100
AcDbLine
 62
253
  6
CONTINUOUS
 10
7.2438428042
 20
34.6642759857
 11
11.1958731135
 21
36.9461211896
  0
LINE
  5
29D
100
AcDbEntity
  8
RACCORDO
100
AcDbLine
 62
253
  6
CONTINUOUS
 10
14.0949366474
 20
36.170191955
 11
16.1431418524
 21
37.3528006518
  0
LINE
  5
29E
100
AcDbEntity
  8
RACCORDO
100
AcDbLine
 62
253
  6
CONTINUOUS
 10
14.4484361901
 20
35.5579127872
 11
16.496641395
 21
36.740521484
  0
LINE
  5
29F
100
AcDbEntity
  8
DRAFT
100
AcDbLine
 62
7
  6
CONTINUOUS
 10
15.760788758
 20
37.5735665364
 11
15.041339382
 21
37.1866699443
  0
LWPOLYLINE
  5
2A0
100
AcDbEntity
  8
RACCORDO
100
AcDbPolyline
 62
253
  6
CONTINUOUS
 90
3
 70
0
 10
15.0935174125
 20
-42.285417969
 10
15.2122822203
 20
-42.3911188311
 10
15.3295319573
 20
-42.5031531931
  0
LINE
  5
2A1
100
AcDbEntity
  8
RACCORDO
100
AcDbLine
 62
253
  6
CONTINUOUS
 10
15.3295319573
 20
-42.5031531931
 11
15.4443104834
 21
-42.620607433
  0
LWPOLYLINE
  5
2A2
100
AcDbEntity
  8
RACCORDO
100
AcDbPolyline
 62
7
  6
CONTINUOUS
 90
17
 70
0
 10
15.8157485386
 20
-49.4925734606
 10
15.8332948076
 20
-49.5125960836
 10
15.8522377452
 20
-49.5317026656
 10
15.8724851898
 20
-49.5498158406
 10
15.8939225612
 20
-49.5669293449
 10
15.9164389506
 20
-49.5829056358
 10
15.9399307384
 20
-49.5974724057
 10
15.9642553717
 20
-49.6105681484
 10
15.9892563826
 20
-49.6221318203
 10
16.0147936996
 20
-49.631892943
 10
16.0406873815
 20
-49.6398029256
 10
16.0667437521
 20
-49.6458238071
 10
16.0927847438
 20
-49.6497060171
 10
16.11859649
 20
-49.6514201646
 10
16.1439526238
 20
-49.6509621952
 10
16.1686399601
 20
-49.6481308359
 10
16.1804110867
 20
-49.6458495735
  0
LINE
  5
2A3
100
AcDbEntity
  8
RACCORDO
100
AcDbLine
 62
253
  6
CONTINUOUS
 10
15.4443104834
 20
-42.620607433
 11
15.5565976198
 21
-42.743525896
  0
LWPOLYLINE
  5
2A4
100
AcDbEntity
  8
0
100
AcDbPolyline
 62
7
  6
CONTINUOUS
 90
6
 70
0
 10
15.6230111912
 20
-42.8816921876
 10
15.5694101199
 20
-42.819660676
 10
15.3530536223
 20
-42.6038124964
 10
15.1290180434
 20
-42.4131475311
 10
14.9003330801
 20
-42.2502441965
 10
14.7850208491
 20
-42.1797966224
  0
LWPOLYLINE
  5
2A5
100
AcDbEntity
  8
RACCORDO
100
AcDbPolyline
 62
253
  6
CONTINUOUS
 90
15
 70
0
 10
15.5565976198
 20
-42.743525896
 10
15.6664135454
 20
-42.8718642367
 10
15.7728626564
 20
-43.0045757972
 10
15.8759174171
 20
-43.1416963385
 10
15.9756053633
 20
-43.2831900994
 10
16.0711134992
 20
-43.4279031379
 10
16.1624076378
 20
-43.5758617679
 10
16.2495219661
 20
-43.7270396755
 10
16.3317460496
 20
-43.8802039766
 10
16.4090399051
 20
-44.0353709259
 10
16.4814435158
 20
-44.1925242687
 10
16.5483663976
 20
-44.3503823564
 10
16.6097637361
 20
-44.5089509836
 10
16.6656803457
 20
-44.6682243559
 10
16.7156601854
 20
-44.8269034407
  0
LWPOLYLINE
  5
2A6
100
AcDbEntity
  8
RACCORDO
100
AcDbPolyline
 62
253
  6
CONTINUOUS
 90
10
 70
0
 10
12.5350710832
 20
-42.018179653
 10
12.5460822324
 20
-42.0314162166
 10
12.5580862049
 20
-42.0439317174
 10
12.5709918347
 20
-42.055630775
 10
12.584701491
 20
-42.0664245374
 10
12.5991105837
 20
-42.0762302734
 10
12.6141081512
 20
-42.0849723258
 10
12.629579502
 20
-42.0925840221
 10
12.6454072871
 20
-42.0990078558
 10
12.6614710177
 20
-42.1041950621
  0
LINE
  5
2A7
100
AcDbEntity
  8
RACCORDO
100
AcDbLine
 62
253
  6
CONTINUOUS
 10
13.2628231968
 20
-46.3745442943
 11
13.1973279808
 21
-46.2908880971
  0
LINE
  5
2A8
100
AcDbEntity
  8
RACCORDO
100
AcDbLine
 62
7
  6
CONTINUOUS
 10
13.1247874371
 20
-46.2891098851
 11
13.1786773385
 21
-46.3602155282
  0
LWPOLYLINE
  5
2A9
100
AcDbEntity
  8
RACCORDO
100
AcDbPolyline
 62
253
  6
CONTINUOUS
 90
11
 70
0
 10
13.1973279808
 20
-46.2908880971
 10
13.1324008712
 20
-46.2044817927
 10
13.0680418678
 20
-46.1153253811
 10
13.0040608325
 20
-46.0232719669
 10
12.9406479035
 20
-45.9284684456
 10
12.8783734958
 20
-45.8313555034
 10
12.8172316643
 20
-45.7318528546
 10
12.7572283542
 20
-45.6300407849
 10
12.6989518159
 20
-45.5266008379
 10
12.6425981331
 20
-45.4217601949
 10
12.5879712222
 20
-45.3152916746
  0
LINE
  5
2AA
100
AcDbEntity
  8
RACCORDO
100
AcDbLine
 62
7
  6
CONTINUOUS
 10
13.8186022322
 20
27.2017116152
 11
13.259153291
 21
26.8567914774
  0
LINE
  5
2AB
100
AcDbEntity
  8
DRAFT
100
AcDbLine
 62
7
  6
CONTINUOUS
 10
13.1749552311
 20
24.3840979299
 11
12.7948468066
 21
24.1536570505
  0
LWPOLYLINE
  5
2AC
100
AcDbEntity
  8
RACCORDO
100
AcDbPolyline
 62
253
  6
CONTINUOUS
 90
7
 70
0
 10
12.7948468066
 20
24.1536570505
 10
12.8129558036
 20
24.1644336219
 10
12.8818414787
 20
24.2018965271
 10
12.953040308
 20
24.2351748283
 10
13.0264634071
 20
24.2642270137
 10
13.1020194518
 20
24.2890170564
 10
13.1749552311
 20
24.3082834873
  0
LINE
  5
2AD
100
AcDbEntity
  8
DRAFT
100
AcDbLine
 62
7
  6
CONTINUOUS
 10
16.496641395
 20
28.2899355154
 11
15.3155422782
 21
27.608037774
  0
LINE
  5
2AE
100
AcDbEntity
  8
RACCORDO
100
AcDbLine
 62
7
  6
CONTINUOUS
 10
15.3155422782
 20
27.608037774
 11
14.4484361901
 21
27.1073549226
  0
LWPOLYLINE
  5
2AF
100
AcDbEntity
  8
RACCORDO
100
AcDbPolyline
 62
7
  6
CONTINUOUS
 90
19
 70
0
 10
14.4484361901
 20
27.1073549226
 10
14.4291936134
 20
27.0971435199
 10
14.4084753898
 20
27.087876275
 10
14.3864188865
 20
27.0796314829
 10
14.3631077022
 20
27.0724673587
 10
14.3387666827
 20
27.0664692891
 10
14.3137846238
 20
27.0617148139
 10
14.2884603102
 20
27.0582331536
 10
14.2628912113
 20
27.0560070712
 10
14.2371814331
 20
27.0550114979
 10
14.2115433201
 20
27.0552449072
 10
14.1861411503
 20
27.056696305
 10
14.1610077563
 20
27.0593485061
 10
14.1362141688
 20
27.063214
 10
14.1120851951
 20
27.0682711714
 10
14.0890181948
 20
27.0744274424
 10
14.0672381361
 20
27.0815910252
 10
14.0468227459
 20
27.0897075588
 10
14.0279066446
 20
27.098697858
  0
LWPOLYLINE
  5
2B0
100
AcDbEntity
  8
0
100
AcDbPolyline
 62
7
  6
CONTINUOUS
 90
3
 70
0
 10
13.3565749392
 20
23.2246558281
 10
13.1786414997
 20
23.1549966455
 10
13.1379295063
 20
23.133060713
  0
LWPOLYLINE
  5
2B1
100
AcDbEntity
  8
RACCORDO
100
AcDbPolyline
 62
7
  6
CONTINUOUS
 90
3
 70
0
 10
14.2686620241
 20
21.2000269743
 10
14.2814593053
 20
21.2040805093
 10
14.2886121806
 20
21.2071968805
  0
LWPOLYLINE
  5
2B2
100
AcDbEntity
  8
RACCORDO
100
AcDbPolyline
 62
253
  6
CONTINUOUS
 90
12
 70
0
 10
15.8157485386
 20
-42.8472230649
 10
15.9155759344
 20
-42.9766422281
 10
16.0119983298
 20
-43.1090125324
 10
16.1050157249
 20
-43.2443339778
 10
16.1948130606
 20
-43.382910393
 10
16.2812053959
 20
-43.5244379493
 10
16.363637908
 20
-43.6680051609
 10
16.4420857059
 20
-43.813624738
 10
16.5165736807
 20
-43.9612839704
 10
16.5866216822
 20
-44.1100332419
 10
16.6522031301
 20
-44.2598840806
 10
16.7133446046
 20
-44.4108249584
  0
LWPOLYLINE
  5
2B3
100
AcDbEntity
  8
RACCORDO
100
AcDbPolyline
 62
253
  6
CONTINUOUS
 90
19
 70
0
 10
15.8157485386
 20
-41.2010962433
 10
15.6886968825
 20
-41.0359222093
 10
15.5597008824
 20
-40.8751441075
 10
15.4287605383
 20
-40.7187619381
 10
15.2955798026
 20
-40.5665336013
 10
15.1604547229
 20
-40.4187011968
 10
15.0242734425
 20
-40.2759910231
 10
14.8874732734
 20
-40.1388197828
 10
14.7496169037
 20
-40.0067707733
 10
14.6102805413
 20
-39.8793201863
 10
14.469646638
 20
-39.7564522675
 10
14.3275327419
 20
-39.6381827713
 10
14.1829677057
 20
-39.5240351518
 10
14.0356032967
 20
-39.4136065861
 10
13.8857877475
 20
-39.3072998972
 10
13.7335946079
 20
-39.2058470083
 10
13.5790483945
 20
-39.1094918939
 10
13.4221245908
 20
-39.0179905796
 10
13.2628231968
 20
-38.9313430653
  0
LWPOLYLINE
  5
2B4
100
AcDbEntity
  8
RACCORDO
100
AcDbPolyline
 62
253
  6
CONTINUOUS
 90
19
 70
0
 10
16.2362780841
 20
-41.072521456
 10
16.0914499391
 20
-40.8784218812
 10
15.9433059157
 20
-40.6891236851
 10
15.7920845514
 20
-40.5048832049
 10
15.6378068038
 20
-40.3256972588
 10
15.4809281883
 20
-40.1520668068
 10
15.3223774327
 20
-39.9849209084
 10
15.1630274116
 20
-39.8249857406
 10
15.0025672817
 20
-39.6717595582
 10
14.8401367651
 20
-39.5243574461
 10
14.6764441002
 20
-39.3834046587
 10
14.5112429584
 20
-39.2486718083
 10
14.3421451486
 20
-39.1184033026
 10
14.1682433831
 20
-38.9923452363
 10
13.9908497193
 20
-38.8718992801
 10
13.8108893908
 20
-38.7580272019
 10
13.6288646027
 20
-38.6513210609
 10
13.4448469033
 20
-38.5520998352
 10
13.259153291
 20
-38.460830666
  0
LWPOLYLINE
  5
2B5
100
AcDbEntity
  8
RACCORDO
100
AcDbPolyline
 62
253
  6
CONTINUOUS
 90
39
 70
0
 10
16.2362780841
 20
-42.7132329391
 10
16.3434575597
 20
-42.8601828263
 10
16.4469987974
 20
-43.0108357531
 10
16.5466663873
 20
-43.1648485639
 10
16.6422322724
 20
-43.3218679683
 10
16.7334808772
 20
-43.481538846
 10
16.8202088955
 20
-43.6435054563
 10
16.9022181594
 20
-43.8073984109
 10
16.9793221714
 20
-43.9728457347
 10
17.0513495729
 20
-44.1394817901
 10
17.1181389941
 20
-44.3069379104
 10
17.1795322908
 20
-44.4748226241
 10
17.2353817355
 20
-44.6427332559
 10
17.2855626906
 20
-44.8102945372
 10
17.3299589291
 20
-44.9771177611
 10
17.3684610599
 20
-45.1427820113
 10
17.4009823209
 20
-45.3068884948
 10
17.4274596164
 20
-45.4690886788
 10
17.4478408404
 20
-45.6290426978
 10
17.4620799574
 20
-45.7863633056
 10
17.4701503724
 20
-45.940719531
 10
17.4720350385
 20
-46.0918580218
 10
17.4677186991
 20
-46.2394510387
 10
17.4572005594
 20
-46.3831341429
 10
17.4404907015
 20
-46.522601175
 10
17.4175835455
 20
-46.6576779021
 10
17.3885338854
 20
-46.7878796672
 10
17.3535197983
 20
-46.9124963086
 10
17.3126425097
 20
-47.0313494723
 10
17.2660578485
 20
-47.1441412191
 10
17.214189569
 20
-47.250145033
 10
17.1574609027
 20
-47.3489703306
 10
17.0959699877
 20
-47.440871591
 10
17.0296841268
 20
-47.5261346584
 10
16.9589080539
 20
-47.6045351137
 10
16.8837482051
 20
-47.6761105324
 10
16.8037031892
 20
-47.7413168157
 10
16.7183084583
 20
-47.8002740558
 10
16.6498845752
 20
-47.8406562033
  0
LWPOLYLINE
  5
2B6
100
AcDbEntity
  8
RACCORDO
100
AcDbPolyline
 62
7
  6
CONTINUOUS
 90
3
 70
0
 10
15.5899131035
 20
-45.061843173
 10
15.5977372951
 20
-45.0726047408
 10
15.6044035505
 20
-45.0837569392
  0
LWPOLYLINE
  5
2B7
100
AcDbEntity
  8
DRAFT
100
AcDbPolyline
 62
7
  6
CONTINUOUS
 90
37
 70
0
 10
16.8156044217
 20
-42.3840082331
 10
16.9302430376
 20
-42.5419370679
 10
17.0401996481
 20
-42.7032477743
 10
17.1454742532
 20
-42.8679403521
 10
17.2463416819
 20
-43.036511599
 10
17.3425271053
 20
-43.2084647174
 10
17.4332060357
 20
-43.382309315
 10
17.5182710071
 20
-43.5579173568
 10
17.5978294856
 20
-43.7354168777
 10
17.6713793823
 20
-43.9137015905
 10
17.738947854
 20
-44.0929769047
 10
17.800507744
 20
-44.2730374107
 10
17.8554754924
 20
-44.4521605926
 10
17.9037346177
 20
-44.6300993312
 10
17.9454016014
 20
-44.8071007456
 10
17.9802423282
 20
-44.9821836775
 10
18.0082489155
 20
-45.1555941876
 10
18.0294292458
 20
-45.3270862151
 10
18.0435728513
 20
-45.494940419
 10
18.0506095761
 20
-45.6588670811
 10
18.0506095761
 20
-45.8191559194
 10
18.0435728513
 20
-45.9749567481
 10
18.0294292458
 20
-46.1264782708
 10
18.0082489155
 20
-46.2735117838
 10
17.9802423282
 20
-46.414580989
 10
17.9454016014
 20
-46.5494307229
 10
17.9037346177
 20
-46.678316149
 10
17.8554754924
 20
-46.8005264593
 10
17.800507744
 20
-46.9161742631
 10
17.738947854
 20
-47.0251469513
 10
17.6713793823
 20
-47.1263958879
 10
17.5978294856
 20
-47.2197470236
 10
17.5182710071
 20
-47.3053744078
 10
17.4332060357
 20
-47.3827515529
 10
17.3425271053
 20
-47.4518823946
 10
17.2463416819
 20
-47.512762997
 10
17.2261906647
 20
-47.524080917
  0
LWPOLYLINE
  5
2B8
100
AcDbEntity
  8
RACCORDO
100
AcDbPolyline
 62
7
  6
CONTINUOUS
 90
4
 70
0
 10
14.839759403
 20
-44.4501129692
 10
14.8562131782
 20
-44.473436051
 10
14.8744641367
 20
-44.4946668851
 10
14.8942993417
 20
-44.513470071
  0
LWPOLYLINE
  5
2B9
100
AcDbEntity
  8
0
100
AcDbPolyline
 62
7
  6
CONTINUOUS
 90
8
 70
0
 10
13.1379295063
 20
23.133060713
 10
13.0210342017
 20
23.0539078609
 10
12.8845702559
 20
22.9201258497
 10
12.7684324514
 20
22.7549142366
 10
12.6772283506
 20
22.5648275002
 10
12.6124938073
 20
22.352050467
 10
12.5726929676
 20
22.1143983107
 10
12.5578258315
 20
21.8518710312
  0
LWPOLYLINE
  5
2BA
100
AcDbEntity
  8
RACCORDO
100
AcDbPolyline
 62
7
  6
CONTINUOUS
 90
4
 70
0
 10
12.7948468066
 20
24.1536570505
 10
12.6984294814
 20
24.0899565199
 10
12.6062749813
 20
24.018225405
 10
12.5956082187
 20
24.0091562773
  0
LINE
  5
2BB
100
AcDbEntity
  8
0
100
AcDbLine
 62
7
  6
CONTINUOUS
 10
13.3851445439
 20
23.2764303501
 11
13.1376571705
 21
23.1335342424
  0
LINE
  5
2BC
100
AcDbEntity
  8
RACCORDO
100
AcDbLine
 62
253
  6
CONTINUOUS
 10
14.7921703938
 20
20.9879285247
 11
14.2178592953
 21
20.6563312681
  0
LINE
  5
2BD
100
AcDbEntity
  8
RACCORDO
100
AcDbLine
 62
253
  6
CONTINUOUS
 10
14.9067484239
 20
20.7895196427
 11
14.3324173692
 21
20.4579108638
  0
LINE
  5
2BE
100
AcDbEntity
  8
RACCORDO
100
AcDbLine
 62
7
  6
CONTINUOUS
 10
16.8156044217
 20
22.9336139104
 11
16.2362780841
 21
22.6043892043
  0
LINE
  5
2BF
100
AcDbEntity
  8
RACCORDO
100
AcDbLine
 62
7
  6
CONTINUOUS
 10
16.2362780841
 20
24.2451006874
 11
17.0276723976
 21
24.6945938006
  0
LWPOLYLINE
  5
2C0
100
AcDbEntity
  8
RACCORDO
100
AcDbPolyline
 62
7
  6
CONTINUOUS
 90
19
 70
0
 10
16.2362780841
 20
22.6043892043
 10
16.2148779564
 20
22.5926212044
 10
16.1920740546
 20
22.5811439011
 10
16.1681222808
 20
22.5699970107
 10
16.1432828147
 20
22.5591367009
 10
16.1177966521
 20
22.5486385218
 10
16.0918808454
 20
22.5387021659
 10
16.0657653232
 20
22.5293070864
 10
16.0396666613
 20
22.5204320591
 10
16.0137634433
 20
22.512265527
 10
15.9882492392
 20
22.50476405
 10
15.9633028727
 20
22.4978763174
 10
15.9390617433
 20
22.4917743616
 10
15.9156791766
 20
22.4863995912
 10
15.8932935988
 20
22.4816814635
 10
15.8720032935
 20
22.4777735833
 10
15.8519136142
 20
22.4746790839
 10
15.8331334097
 20
22.472247111
 10
15.8157485386
 20
22.4703990786
  0
LWPOLYLINE
  5
2C1
100
AcDbEntity
  8
RACCORDO
100
AcDbPolyline
 62
7
  6
CONTINUOUS
 90
19
 70
0
 10
16.2362780841
 20
24.2451006874
 10
16.2150520245
 20
24.2334548604
 10
16.1924237084
 20
24.2221126047
 10
16.1686399601
 20
24.2111159273
 10
16.1439526238
 20
24.2004274843
 10
16.11859649
 20
24.1901229662
 10
16.0927847438
 20
24.1803954722
 10
16.0667437521
 20
24.1712276721
 10
16.0406873815
 20
24.1626034509
 10
16.0147936996
 20
24.1547074386
 10
15.9892563826
 20
24.1474997429
 10
15.9642553717
 20
24.1409337041
 10
15.9399307384
 20
24.1351788378
 10
15.9164389506
 20
24.1301796296
 10
15.8939225612
 20
24.125869044
 10
15.8724851898
 20
24.122398179
 10
15.8522377452
 20
24.1197706272
 10
15.8332948076
 20
24.1178389895
 10
15.8157485386
 20
24.1165259002
  0
LWPOLYLINE
  5
2C2
100
AcDbEntity
  8
RACCORDO
100
AcDbPolyline
 62
253
  6
CONTINUOUS
 90
8
 70
0
 10
14.2885584662
 20
21.207158682
 10
14.291371613
 20
21.2086073392
 10
14.3016160928
 20
21.215492935
 10
14.3107126244
 20
21.2243723005
 10
14.3183609572
 20
21.2349069677
 10
14.3244926436
 20
21.24678282
 10
14.329172407
 20
21.2598696249
 10
14.3324173692
 20
21.273958803
  0
LINE
  5
2C3
100
AcDbEntity
  8
RACCORDO
100
AcDbLine
 62
253
  6
CONTINUOUS
 10
14.7292128896
 20
21.4634016545
 11
14.3324173692
 21
21.273958803
  0
LINE
  5
2C4
100
AcDbEntity
  8
RACCORDO
100
AcDbLine
 62
7
  6
CONTINUOUS
 10
14.7352447892
 20
21.4204194925
 11
14.2881745387
 21
21.2069738796
  0
LWPOLYLINE
  5
2C5
100
AcDbEntity
  8
RACCORDO
100
AcDbPolyline
 62
253
  6
CONTINUOUS
 90
31
 70
0
 10
16.8156044217
 20
16.3051926559
 10
16.9568564813
 20
16.349988683
 10
17.0930147632
 20
16.4038877561
 10
17.2240792674
 20
16.4668898752
 10
17.3502585195
 20
16.5391349695
 10
17.4713439939
 20
16.6204831097
 10
17.5867101135
 20
16.7105145085
 10
17.6963267799
 20
16.809274597
 10
17.8002240913
 20
16.9167179441
 10
17.8978667659
 20
17.0322884693
 10
17.9892212745
 20
17.1560265418
 10
18.0743211461
 20
17.2878917924
 10
18.1527316863
 20
17.4272070333
 10
18.2244189065
 20
17.5740103823
 10
18.2894167953
 20
17.7282637215
 10
18.3473926237
 20
17.8891755101
 10
18.3983105922
 20
18.0567804467
 10
18.4422065005
 20
18.2310438327
 10
18.4788550185
 20
18.411070031
 10
18.5082188262
 20
18.5968889662
 10
18.5303352437
 20
18.7884707138
 10
18.5450909014
 20
18.9848298641
 10
18.5524478576
 20
19.185990636
 10
18.5524440539
 20
19.3919288105
 10
18.5450799457
 20
19.6015863209
 10
18.530317916
 20
19.8149813499
 10
18.5081955818
 20
20.0320957147
 10
18.4788262489
 20
20.2518168009
 10
18.4421729721
 20
20.4741580162
 10
18.3982726966
 20
20.6991059529
 10
18.3473495637
 20
20.9255077736
  0
LINE
  5
2C6
100
AcDbEntity
  8
DRAFT
100
AcDbLine
 62
7
  6
CONTINUOUS
 10
15.8018772086
 20
-12.2448682252
 11
16.496641395
 21
-12.646016359
  0
LWPOLYLINE
  5
2C7
100
AcDbEntity
  8
RACCORDO
100
AcDbPolyline
 62
7
  6
CONTINUOUS
 90
3
 70
0
 10
14.6561586015
 20
-43.4421199127
 10
14.6623337596
 20
-43.4519123199
 10
14.667817714
 20
-43.4624752302
  0
LWPOLYLINE
  5
2C8
100
AcDbEntity
  8
RACCORDO
100
AcDbPolyline
 62
253
  6
CONTINUOUS
 90
7
 70
0
 10
14.8398326912
 20
-44.4324593852
 10
14.8481528937
 20
-44.4459993456
 10
14.8573506481
 20
-44.4591438805
 10
14.8669086015
 20
-44.4712409609
 10
14.8766543028
 20
-44.4820732441
 10
14.8867602031
 20
-44.4918580729
 10
14.8972263024
 20
-44.5005954474
  0
LWPOLYLINE
  5
2C9
100
AcDbEntity
  8
RACCORDO
100
AcDbPolyline
 62
7
  6
CONTINUOUS
 90
15
 70
0
 10
13.2628231968
 20
-38.9313430653
 10
13.2517712732
 20
-38.9120835959
 10
13.2412239982
 20
-38.8923794932
 10
13.2312392
 20
-38.8722387211
 10
13.2218768904
 20
-38.8516284723
 10
13.213194246
 20
-38.8306053014
 10
13.2052466192
 20
-38.8093147683
 10
13.1980972655
 20
-38.7877780948
 10
13.1918014816
 20
-38.7660140948
 10
13.1864085241
 20
-38.7441675917
 10
13.1819834958
 20
-38.7222670093
 10
13.1785842652
 20
-38.7003411736
 10
13.1762639648
 20
-38.6785383944
 10
13.1750914788
 20
-38.6568899648
 10
13.1749552312
 20
-38.6467691614
  0
LINE
  5
2CA
100
AcDbEntity
  8
RACCORDO
100
AcDbLine
 62
7
  6
CONTINUOUS
 10
14.8254511693
 20
-44.4251421788
 11
14.839759403
 21
-44.4501129692
  0
LWPOLYLINE
  5
2CB
100
AcDbEntity
  8
RACCORDO
100
AcDbPolyline
 62
7
  6
CONTINUOUS
 90
8
 70
0
 10
12.5077151602
 20
-45.2785940768
 10
12.5244689135
 20
-45.3125055974
 10
12.6123718117
 20
-45.4826869597
 10
12.7054335567
 20
-45.6504104385
 10
12.8034258173
 20
-45.8152759322
 10
12.9061413843
 20
-45.9769353103
 10
13.0133487169
 20
-46.1350131675
 10
13.1247874371
 20
-46.2891098851
  0
LINE
  5
2CC
100
AcDbEntity
  8
RACCORDO
100
AcDbLine
 62
253
  6
CONTINUOUS
 10
12.5879712222
 20
-45.3152916746
 11
12.5350710831
 21
-45.207195277
  0
LINE
  5
2CD
100
AcDbEntity
  8
RACCORDO
100
AcDbLine
 62
7
  6
CONTINUOUS
 10
12.5076923208
 20
-45.2785471977
 11
12.5077168336
 21
-45.2785974894
  0
LINE
  5
2CE
100
AcDbEntity
  8
RACCORDO
100
AcDbLine
 62
7
  6
CONTINUOUS
 10
12.5044725701
 20
-45.2717298006
 11
12.5076902418
 21
-45.2785439508
  0
LWPOLYLINE
  5
2CF
100
AcDbEntity
  8
RACCORDO
100
AcDbPolyline
 62
253
  6
CONTINUOUS
 90
22
 70
0
 10
12.5852282116
 20
23.9995500613
 10
12.5800625239
 20
23.9942199966
 10
12.5748533497
 20
23.9884364283
 10
12.5696102681
 20
23.9821612169
 10
12.5643816557
 20
23.9754001381
 10
12.5591949315
 20
23.9681451833
 10
12.5540715898
 20
23.9603730221
 10
12.5490522332
 20
23.952085821
 10
12.5441860395
 20
23.9433228176
 10
12.5394952836
 20
23.9340760646
 10
12.5350121698
 20
23.9243514353
 10
12.5307860096
 20
23.9142215485
 10
12.5268322604
 20
23.9036908073
 10
12.5231733902
 20
23.8927721898
 10
12.5198499449
 20
23.8815630218
 10
12.5168708373
 20
23.8700914849
 10
12.5142415244
 20
23.8583619216
 10
12.5119809232
 20
23.8464430615
 10
12.5100907505
 20
23.8343681546
 10
12.5085687682
 20
23.8221414755
 10
12.5074211095
 20
23.8097901314
 10
12.5066459333
 20
23.7973360066
  0
LINE
  5
2D0
100
AcDbEntity
  8
RACCORDO
100
AcDbLine
 62
253
  6
CONTINUOUS
 10
12.5903862857
 20
24.0044987349
 11
12.5852282116
 21
23.9995500613
  0
LWPOLYLINE
  5
2D1
100
AcDbEntity
  8
RACCORDO
100
AcDbPolyline
 62
253
  6
CONTINUOUS
 90
13
 70
0
 10
12.5350710831
 20
23.6195917694
 10
12.5855243073
 20
23.664691706
 10
12.6379310872
 20
23.7065998337
 10
12.6922914228
 20
23.7453161526
 10
12.7486685332
 20
23.7808771999
 10
12.8069991994
 20
23.8132464384
 10
12.8670937637
 20
23.8423142561
 10
12.9289445811
 20
23.8680671224
 10
12.9925592967
 20
23.890518568
 10
13.0577711882
 20
23.9095995732
 10
13.1245246818
 20
23.9252871316
 10
13.1928753513
 20
23.9376042496
 10
13.2628231968
 20
23.9465509273
  0
LINE
  5
2D2
100
AcDbEntity
  8
RACCORDO
100
AcDbLine
 62
253
  6
CONTINUOUS
 10
12.5956117031
 20
24.009159267
 11
12.5903862857
 21
24.0044987349
  0
LWPOLYLINE
  5
2D3
100
AcDbEntity
  8
RACCORDO
100
AcDbPolyline
 62
7
  6
CONTINUOUS
 90
15
 70
0
 10
12.5958640691
 20
24.0093750349
 10
12.5900273799
 20
24.0042202265
 10
12.5741397726
 20
23.9884856903
 10
12.5594187824
 20
23.9713118951
 10
12.5457729827
 20
23.9526211335
 10
12.5332316673
 20
23.9324493712
 10
12.5218760527
 20
23.9109540221
 10
12.5117161339
 20
23.8882057093
 10
12.5027149341
 20
23.864130306
 10
12.4949302498
 20
23.8388437599
 10
12.4885003431
 20
23.812841343
 10
12.4834099431
 20
23.7861628264
 10
12.4796630113
 20
23.7587416786
 10
12.4773444121
 20
23.7309800989
 10
12.4764923753
 20
23.7011358478
  0
LINE
  5
2D4
100
AcDbEntity
  8
RACCORDO
100
AcDbLine
 62
7
  6
CONTINUOUS
 10
12.5958695769
 20
24.0093805032
 11
12.5956117031
 21
24.009159267
  0
LWPOLYLINE
  5
2D5
100
AcDbEntity
  8
RACCORDO
100
AcDbPolyline
 62
7
  6
CONTINUOUS
 90
3
 70
0
 10
14.8445191242
 20
20.2434877069
 10
14.8386132903
 20
20.2391130427
 10
14.8288552286
 20
20.230209923
  0
LINE
  5
2D6
100
AcDbEntity
  8
RACCORDO
100
AcDbLine
 62
7
  6
CONTINUOUS
 10
15.2528066302
 20
20.5239075859
 11
14.8444555835
 21
20.2434458102
  0
LINE
  5
2D7
100
AcDbEntity
  8
RACCORDO
100
AcDbLine
 62
253
  6
CONTINUOUS
 10
15.2870228293
 20
20.4971852214
 11
14.9246003096
 21
20.2482678639
  0
LINE
  5
2D8
100
AcDbEntity
  8
DRAFT
100
AcDbLine
 62
7
  6
CONTINUOUS
 10
19.7420076774
 20
17.5830361192
 11
18.5549456484
 21
16.863379305
  0
LWPOLYLINE
  5
2D9
100
AcDbEntity
  8
RACCORDO
100
AcDbPolyline
 62
253
  6
CONTINUOUS
 90
42
 70
0
 10
17.6133416989
 20
16.3439995021
 10
17.7592666391
 20
16.4319302057
 10
17.8884131959
 20
16.5240059999
 10
18.0112450526
 20
16.6259748216
 10
18.1275372365
 20
16.737650031
 10
18.2370720952
 20
16.8588223453
 10
18.3396466745
 20
16.9892658479
 10
18.4350739689
 20
17.1287412303
 10
18.5231797575
 20
17.2769931021
 10
18.6038018465
 20
17.4337482323
 10
18.6767916542
 20
17.5987173868
 10
18.7420154693
 20
17.7715983691
 10
18.7993531796
 20
17.9520735108
 10
18.8486986351
 20
18.1398094912
 10
18.8899606403
 20
18.3344598719
 10
18.9230630994
 20
18.5356662183
 10
18.9479448465
 20
18.7430574233
 10
18.964559848
 20
18.9562497459
 10
18.9728775616
 20
19.1748497548
 10
18.9728827835
 20
19.3984548132
 10
18.964575618
 20
19.6266522975
 10
18.9479716107
 20
19.859020403
 10
18.9231014821
 20
20.0951318202
 10
18.8900107471
 20
20.3345542719
 10
18.848760219
 20
20.5768465644
 10
18.7994257708
 20
20.82156209
 10
18.742097455
 20
21.0682527112
 10
18.6768794783
 20
21.316467478
 10
18.6038924226
 20
21.5657452352
 10
18.5232731807
 20
21.8156182708
 10
18.4351700458
 20
22.0656276956
 10
18.3397462911
 20
22.3153108618
 10
18.2371838605
 20
22.5641941048
 10
18.1276783837
 20
22.8118076429
 10
18.0114285393
 20
23.0577068536
 10
17.8886394515
 20
23.3014591298
 10
17.7595434744
 20
23.5426036538
 10
17.6243724086
 20
23.7807078489
 10
17.4833422858
 20
24.01538588
 10
17.336697606
 20
24.2462198147
 10
17.1847154014
 20
24.4727629153
 10
17.0276723976
 20
24.6945938006
  0
LINE
  5
2DA
100
AcDbEntity
  8
0
100
AcDbLine
 62
7
  6
CONTINUOUS
 10
16.1852798407
 20
18.426766205
 11
15.9377924672
 21
18.2838700974
  0
LINE
  5
2DB
100
AcDbEntity
  8
DRAFT
100
AcDbLine
 62
7
  6
CONTINUOUS
 10
18.4759606759
 20
16.8177743718
 11
18.5549456484
 21
16.863379305
  0
LINE
  5
2DC
100
AcDbEntity
  8
DRAFT
100
AcDbLine
 62
7
  6
CONTINUOUS
 10
17.2262130079
 20
17.7935019026
 11
16.6498845752
 21
17.4769659401
  0
LINE
  5
2DD
100
AcDbEntity
  8
DRAFT
100
AcDbLine
 62
7
  6
CONTINUOUS
 10
18.4759606759
 20
16.8177743718
 11
17.6133416989
 21
16.3439995021
  0
LINE
  5
2DE
100
AcDbEntity
  8
RACCORDO
100
AcDbLine
 62
7
  6
CONTINUOUS
 10
17.0039015104
 20
16.1122616673
 11
16.2362780841
 21
15.6922359804
  0
LWPOLYLINE
  5
2DF
100
AcDbEntity
  8
0
100
AcDbPolyline
 62
7
  6
CONTINUOUS
 90
22
 70
0
 10
15.9375201314
 20
18.2843436267
 10
15.896808138
 20
18.2624076943
 10
15.7188746985
 20
18.1927485117
 10
15.5276743125
 20
18.157282536
 10
15.3226735834
 20
18.1573845025
 10
15.1044059078
 20
18.191679676
 10
14.88153067
 20
18.258807456
 10
14.6538626233
 20
18.3600878749
 10
14.4215870144
 20
18.4942009004
 10
14.1939189677
 20
18.6558258351
 10
13.9710437299
 20
18.8460687931
 10
13.7527760543
 20
19.0638236604
 10
13.5477753252
 20
19.3004513974
 10
13.3565749392
 20
19.5567107861
 10
13.1786414997
 20
19.8318430445
 10
13.0210342017
 20
20.1149327864
 10
12.8845702559
 20
20.4062999416
 10
12.7684324514
 20
20.7056245802
 10
12.6772283506
 20
21.0010315261
 10
12.6124938073
 20
21.2885623872
 10
12.5726929676
 20
21.5721755556
 10
12.5578258315
 20
21.8518710312
  0
LWPOLYLINE
  5
2E0
100
AcDbEntity
  8
RACCORDO
100
AcDbPolyline
 62
7
  6
CONTINUOUS
 90
3
 70
0
 10
13.2412239982
 20
16.4921742457
 10
13.2517712732
 20
16.4975552377
 10
13.2628231968
 20
16.5033496983
  0
LWPOLYLINE
  5
2E1
100
AcDbEntity
  8
RACCORDO
100
AcDbPolyline
 62
7
  6
CONTINUOUS
 90
9
 70
0
 10
17.0507972435
 20
16.1233968046
 10
17.1251136211
 20
16.1434503314
 10
17.1983274606
 20
16.165687311
 10
17.2703943133
 20
16.1900820233
 10
17.3413039945
 20
16.21661849
 10
17.4110777102
 20
16.2452953588
 10
17.4797022393
 20
16.2761012005
 10
17.5471328455
 20
16.3090096283
 10
17.6133416989
 20
16.3439995021
  0
LWPOLYLINE
  5
2E2
100
AcDbEntity
  8
RACCORDO
100
AcDbPolyline
 62
7
  6
CONTINUOUS
 90
7
 70
0
 10
16.2689846884
 20
17.3308520781
 10
16.3361489171
 20
17.3483852437
 10
16.4018322246
 20
17.3686785054
 10
16.4660933201
 20
17.3917212997
 10
16.5289107752
 20
17.4174871726
 10
16.5901923379
 20
17.4459183373
 10
16.6498845752
 20
17.4769659401
  0
LWPOLYLINE
  5
2E3
100
AcDbEntity
  8
RACCORDO
100
AcDbPolyline
 62
7
  6
CONTINUOUS
 90
4
 70
0
 10
16.1804110867
 20
15.6717725699
 10
16.1924237084
 20
15.674751824
 10
16.2150520245
 20
15.6823473839
 10
16.2362780841
 20
15.6922359804
  0
LINE
  5
2E4
100
AcDbEntity
  8
RACCORDO
100
AcDbLine
 62
7
  6
CONTINUOUS
 10
16.9784682599
 20
16.10622268
 11
17.0507972435
 21
16.1233968046
  0
LWPOLYLINE
  5
2E5
100
AcDbEntity
  8
RACCORDO
100
AcDbPolyline
 62
7
  6
CONTINUOUS
 90
4
 70
0
 10
15.6044035505
 20
-45.0837569392
 10
15.6097480181
 20
-45.0949862288
 10
15.6134706407
 20
-45.10548767
 10
15.6155117664
 20
-45.11442042
  0
LWPOLYLINE
  5
2E6
100
AcDbEntity
  8
RACCORDO
100
AcDbPolyline
 62
253
  6
CONTINUOUS
 90
7
 70
0
 10
12.6614710625
 20
-42.104195005
 10
12.6964960619
 20
-42.179605379
 10
12.7291322705
 20
-42.2553038506
 10
12.7592742376
 20
-42.3313841338
 10
12.7867135
 20
-42.4079867499
 10
12.8114784728
 20
-42.4852244039
 10
12.8147873675
 20
-42.4967658091
  0
LWPOLYLINE
  5
2E7
100
AcDbEntity
  8
RACCORDO
100
AcDbPolyline
 62
253
  6
CONTINUOUS
 90
8
 70
0
 10
15.6160795582
 20
-45.0862834034
 10
15.6191113919
 20
-45.0928149214
 10
15.6217804788
 20
-45.0992260792
 10
15.6240970844
 20
-45.1054859159
 10
15.6260509432
 20
-45.1116253924
 10
15.6276717499
 20
-45.117731687
 10
15.6289694028
 20
-45.1238338593
 10
15.6299340036
 20
-45.1299028498
  0
LWPOLYLINE
  5
2E8
100
AcDbEntity
  8
RACCORDO
100
AcDbPolyline
 62
253
  6
CONTINUOUS
 90
25
 70
0
 10
12.494005049
 20
-42.0183649058
 10
12.495281831
 20
-42.021122563
 10
12.4988985721
 20
-42.0281435541
 10
12.5029384024
 20
-42.0349397426
 10
12.5073921563
 20
-42.0414973036
 10
12.5122500731
 20
-42.0478032974
 10
12.5174991957
 20
-42.0538404415
 10
12.5231285048
 20
-42.059596715
 10
12.529125805
 20
-42.0650603076
 10
12.5354750403
 20
-42.0702154371
 10
12.5421629921
 20
-42.0750514662
 10
12.5491754561
 20
-42.0795583642
 10
12.5564933158
 20
-42.0837226956
 10
12.5641010319
 20
-42.0875352757
 10
12.5719826697
 20
-42.0909880356
 10
12.580116871
 20
-42.094070841
 10
12.5884860267
 20
-42.096776189
 10
12.5970725321
 20
-42.0990979085
 10
12.6058534781
 20
-42.1010295841
 10
12.6148094788
 20
-42.1025655758
 10
12.6239212759
 20
-42.1037016343
 10
12.6331647264
 20
-42.1044352342
 10
12.6425176984
 20
-42.1047638636
 10
12.6519604918
 20
-42.1046844331
 10
12.6614716829
 20
-42.104194926
  0
LINE
  5
2E9
100
AcDbEntity
  8
RACCORDO
100
AcDbLine
 62
7
  6
CONTINUOUS
 10
14.8136416116
 20
-44.3992003913
 11
14.8254511693
 21
-44.4251421788
  0
LINE
  5
2EA
100
AcDbEntity
  8
RACCORDO
100
AcDbLine
 62
7
  6
CONTINUOUS
 10
12.4939127216
 20
-42.0181587336
 11
12.494005049
 21
-42.0183649058
  0
LWPOLYLINE
  5
2EB
100
AcDbEntity
  8
RACCORDO
100
AcDbPolyline
 62
7
  6
CONTINUOUS
 90
3
 70
0
 10
13.1749552312
 20
-48.8538886641
 10
13.1750914788
 20
-48.8542004961
 10
13.1751655406
 20
-48.8542551094
  0
LWPOLYLINE
  5
2EC
100
AcDbEntity
  8
RACCORDO
100
AcDbPolyline
 62
7
  6
CONTINUOUS
 90
9
 70
0
 10
12.4939125063
 20
-42.0181597961
 10
12.5163485431
 20
-42.0697389426
 10
12.554373377
 20
-42.1650930919
 10
12.5887700321
 20
-42.2626618916
 10
12.6193789356
 20
-42.3623555146
 10
12.6461128792
 20
-42.4641965954
 10
12.6689358919
 20
-42.5682997423
 10
12.6877917176
 20
-42.6745057732
 10
12.6938072109
 20
-42.7182411372
  0
LWPOLYLINE
  5
2ED
100
AcDbEntity
  8
RACCORDO
100
AcDbPolyline
 62
7
  6
CONTINUOUS
 90
5
 70
0
 10
14.667817714
 20
-43.4624752302
 10
14.6725112002
 20
-43.4736474967
 10
14.6763673925
 20
-43.4855266457
 10
14.6791236872
 20
-43.4977240142
 10
14.6796692355
 20
-43.5011670236
  0
LINE
  5
2EE
100
AcDbEntity
  8
RACCORDO
100
AcDbLine
 62
7
  6
CONTINUOUS
 10
12.4955573214
 20
-45.249567946
 11
12.5044725701
 21
-45.2717298006
  0
LWPOLYLINE
  5
2EF
100
AcDbEntity
  8
RACCORDO
100
AcDbPolyline
 62
7
  6
CONTINUOUS
 90
6
 70
0
 10
14.8288552286
 20
20.230209923
 10
14.8200794605
 20
20.2198421798
 10
14.8124157464
 20
20.2080493977
 10
14.8060189851
 20
20.1949331998
 10
14.8010289883
 20
20.1806446753
 10
14.7973560407
 20
20.1643342582
  0
LWPOLYLINE
  5
2F0
100
AcDbEntity
  8
RACCORDO
100
AcDbPolyline
 62
253
  6
CONTINUOUS
 90
21
 70
0
 10
12.5350710831
 20
23.2994424904
 10
12.602590728
 20
23.3791270194
 10
12.6750838365
 20
23.4512871729
 10
12.7525504087
 20
23.5159229509
 10
12.8352714146
 20
23.573215058
 10
12.9229658841
 20
23.6229827896
 10
13.0147909068
 20
23.664684032
 10
13.1107261302
 20
23.6982031603
 10
13.2107919069
 20
23.7236557995
 10
13.3142063846
 20
23.740846711
 10
13.4210145517
 20
23.7497136257
 10
13.5311714199
 20
23.7503188128
 10
13.6437601713
 20
23.7426538411
 10
13.7587922943
 20
23.7266500226
 10
13.8762563005
 20
23.7023760453
 10
13.9952009067
 20
23.6700295419
 10
14.115641236
 20
23.6295441899
 10
14.2375621654
 20
23.5809863118
 10
14.3599670423
 20
23.5247525076
 10
14.482858778
 20
23.4607803205
 10
14.6062344612
 20
23.3891322074
  0
LWPOLYLINE
  5
2F1
100
AcDbEntity
  8
RACCORDO
100
AcDbPolyline
 62
253
  6
CONTINUOUS
 90
20
 70
0
 10
12.6614706037
 20
23.2134264177
 10
12.7283130479
 20
23.2920797654
 10
12.8005292495
 20
23.3633077779
 10
12.8779101564
 20
23.4269029647
 10
12.9602328314
 20
23.4826806406
 10
13.0472577951
 20
23.5304771979
 10
13.1387291079
 20
23.5701516586
 10
13.2343798715
 20
23.6015886468
 10
13.3339335474
 20
23.6246976261
 10
13.4371010262
 20
23.6394116604
 10
13.5435823125
 20
23.6456881974
 10
13.6530687066
 20
23.6435092673
 10
13.7652437532
 20
23.6328811794
 10
13.879782702
 20
23.6138344769
 10
13.9963523468
 20
23.5864243478
 10
14.1146133224
 20
23.5507305582
 10
14.2342218297
 20
23.5068569927
 10
14.3548311747
 20
23.454930939
 10
14.476091761
 20
23.3951029303
 10
14.5789280834
 20
23.3384449312
  0
LINE
  5
2F2
100
AcDbEntity
  8
RACCORDO
100
AcDbLine
 62
253
  6
CONTINUOUS
 10
14.642935022
 20
19.4417405289
 11
14.6843949634
 21
19.4898505414
  0
LWPOLYLINE
  5
2F3
100
AcDbEntity
  8
RACCORDO
100
AcDbPolyline
 62
253
  6
CONTINUOUS
 90
14
 70
0
 10
14.6777088762
 20
19.4554820987
 10
14.6765539431
 20
19.4541728034
 10
14.6736080492
 20
19.4511425734
 10
14.6706395401
 20
19.4485062162
 10
14.6676883194
 20
19.4462716683
 10
14.6647971431
 20
19.4444396418
 10
14.6619660333
 20
19.4429785322
 10
14.6591664334
 20
19.4418511439
 10
14.6564146578
 20
19.4410419381
 10
14.6537209012
 20
19.4405478301
 10
14.6510301348
 20
19.4403677475
 10
14.6483218124
 20
19.440507033
 10
14.6456216242
 20
19.4409647627
 10
14.6429350508
 20
19.4417405042
  0
LWPOLYLINE
  5
2F4
100
AcDbEntity
  8
RACCORDO
100
AcDbPolyline
 62
253
  6
CONTINUOUS
 90
3
 70
0
 10
14.2413978322
 20
21.2382375755
 10
14.2481823784
 20
21.2449405734
 10
14.2538796563
 20
21.2526872548
  0
LWPOLYLINE
  5
2F5
100
AcDbEntity
  8
0
100
AcDbPolyline
 62
7
  6
CONTINUOUS
 90
3
 70
0
 10
16.1908793818
 20
18.49727849
 10
16.054415436
 20
18.3634964788
 10
15.9375201314
 20
18.2843436267
  0
LWPOLYLINE
  5
2F6
100
AcDbEntity
  8
DRAFT
100
AcDbPolyline
 62
7
  6
CONTINUOUS
 90
30
 70
0
 10
19.7420132444
 20
17.5830266335
 10
19.8320359802
 20
17.6407442913
 10
19.9622196296
 20
17.7362458366
 10
20.0856883309
 20
17.8418563818
 10
20.2025455313
 20
17.9577613445
 10
20.3126877836
 20
18.0837753071
 10
20.4152949803
 20
18.2189666547
 10
20.5102154188
 20
18.3632424349
 10
20.5976008015
 20
18.5166956002
 10
20.6770861291
 20
18.6786733928
 10
20.7486989641
 20
18.8493688738
 10
20.8124117439
 20
19.0285889822
 10
20.8677767806
 20
19.2151017774
 10
20.9147057425
 20
19.408830268
 10
20.9532869614
 20
19.6098514455
 10
20.9833377453
 20
19.8171643436
 10
21.0048268332
 20
20.0308736466
 10
21.0177854861
 20
20.2508746701
 10
21.0221247946
 20
20.4758523951
 10
21.0177854861
 20
20.7058410448
 10
21.0048268332
 20
20.9408063959
 10
20.9833377453
 20
21.179330759
 10
20.9532869614
 20
21.421345549
 10
20.9147057425
 20
21.666919351
 10
20.8677767806
 20
21.9148402305
 10
20.8124117439
 20
22.1652871824
 10
20.7486989641
 20
22.4180812118
 10
20.6770861291
 20
22.6714733996
 10
20.5976008015
 20
22.9252388562
 10
20.5102154188
 20
23.1796024711
  0
LWPOLYLINE
  5
2F7
100
AcDbEntity
  8
DRAFT
100
AcDbPolyline
 62
7
  6
CONTINUOUS
 90
53
 70
0
 10
18.5549456484
 20
16.863379305
 10
18.623179385
 20
16.9065303768
 10
18.7602111535
 20
17.004776302
 10
18.8900296024
 20
17.1140705835
 10
19.0125512504
 20
17.2343445877
 10
19.127615977
 20
17.3655089351
 10
19.2348419141
 20
17.5072007286
 10
19.3338412355
 20
17.6589057298
 10
19.4243362783
 20
17.8201081016
 10
19.5062697765
 20
17.9906072907
 10
19.5796066813
 20
18.1703319293
 10
19.6442404105
 20
18.3591483821
 10
19.6999272625
 20
18.5564899156
 10
19.7464568975
 20
18.7616094456
 10
19.7837188119
 20
18.9738115422
 10
19.8117188663
 20
19.1928703351
 10
19.8304480983
 20
19.4187172364
 10
19.8398486025
 20
19.6511775444
 10
19.8398486025
 20
19.8895229231
 10
19.8304480983
 20
20.1328386977
 10
19.8117188663
 20
20.3803136467
 10
19.7837188119
 20
20.6317062005
 10
19.7464568975
 20
20.8869374218
 10
19.6999272625
 20
21.1457882081
 10
19.6442404105
 20
21.4074355224
 10
19.5796066813
 20
21.6708893855
 10
19.5062697765
 20
21.9353016435
 10
19.4243362783
 20
22.2004155827
 10
19.3338412355
 20
22.4661193615
 10
19.2348419141
 20
22.7321462976
 10
19.127615977
 20
22.9976599156
 10
19.0125512504
 20
23.261698125
 10
18.8900296024
 20
23.5234570571
 10
18.7602111535
 20
23.7826624294
 10
18.623179385
 20
24.0391492061
 10
18.4790703732
 20
24.292607384
 10
18.3282902348
 20
24.542269963
 10
18.171344036
 20
24.7872987835
 10
18.0087003621
 20
25.0270048211
 10
17.8405838049
 20
25.2610980311
 10
17.6671567222
 20
25.4893541232
 10
17.4886490943
 20
25.7114378781
 10
17.3055388382
 20
25.9267230475
 10
17.1183707829
 20
26.134567019
 10
16.9276396319
 20
26.3344440795
 10
16.7336469758
 20
26.5260613397
 10
16.5366635328
 20
26.7091533855
 10
16.3370212872
 20
26.8833958765
 10
16.1352040097
 20
27.0483510158
 10
15.9317150244
 20
27.203605089
 10
15.7270059085
 20
27.3488205219
 10
15.5214729252
 20
27.4837231322
 10
15.3155422782
 20
27.608037774
  0
LWPOLYLINE
  5
2F8
100
AcDbEntity
  8
RACCORDO
100
AcDbPolyline
 62
7
  6
CONTINUOUS
 90
3
 70
0
 10
16.1718108449
 20
17.3109046094
 10
16.2003507416
 20
17.3161205013
 10
16.2689846884
 20
17.3308520781
  0
LWPOLYLINE
  5
2F9
100
AcDbEntity
  8
RACCORDO
100
AcDbPolyline
 62
7
  6
CONTINUOUS
 90
17
 70
0
 10
16.1718131395
 20
17.3109197355
 10
16.1681222808
 20
17.3102933523
 10
16.1432828147
 20
17.307627292
 10
16.1177966521
 20
17.3073948326
 10
16.0918808454
 20
17.3093798202
 10
16.0657653232
 20
17.3135732001
 10
16.0396666613
 20
17.3199422562
 10
16.0137634433
 20
17.3282251093
 10
15.9882492392
 20
17.3383790115
 10
15.9633028727
 20
17.3503519601
 10
15.9390617433
 20
17.3638635894
 10
15.9156791766
 20
17.378848972
 10
15.8932935988
 20
17.3952439013
 10
15.8720032935
 20
17.412768593
 10
15.8519136142
 20
17.4312817175
 10
15.8331334097
 20
17.4507768833
 10
15.8157485386
 20
17.4711755045
  0
LWPOLYLINE
  5
2FA
100
AcDbEntity
  8
RACCORDO
100
AcDbPolyline
 62
7
  6
CONTINUOUS
 90
16
 70
0
 10
16.9784647176
 20
16.106207508
 10
16.9600829989
 20
16.1034634701
 10
16.943167256
 20
16.1030551269
 10
16.9268952103
 20
16.1049522875
 10
16.9113297036
 20
16.1092596207
 10
16.8964078942
 20
16.1158724577
 10
16.882533124
 20
16.1247388928
 10
16.8697686962
 20
16.1358076722
 10
16.8580513078
 20
16.1491300498
 10
16.8475943917
 20
16.1648078811
 10
16.8383263243
 20
16.182999209
 10
16.8303187293
 20
16.2035459907
 10
16.823999911
 20
16.2260759535
 10
16.8195126378
 20
16.2504650065
 10
16.8167141413
 20
16.2768372406
 10
16.8156044217
 20
16.3051926559
  0
LWPOLYLINE
  5
2FB
100
AcDbEntity
  8
RACCORDO
100
AcDbPolyline
 62
253
  6
CONTINUOUS
 90
6
 70
0
 10
14.6806727797
 20
-43.4682404011
 10
14.6835675642
 20
-43.4754626032
 10
14.6862717346
 20
-43.4829908864
 10
14.6886647708
 20
-43.4907053042
 10
14.6907064995
 20
-43.4985658745
 10
14.6924370941
 20
-43.5066125795
  0
LINE
  5
2FC
100
AcDbEntity
  8
RACCORDO
100
AcDbLine
 62
253
  6
CONTINUOUS
 10
16.7133446046
 20
-44.4108249584
 11
16.7696456963
 21
-44.5618716747
  0
LWPOLYLINE
  5
2FD
100
AcDbEntity
  8
RACCORDO
100
AcDbPolyline
 62
253
  6
CONTINUOUS
 90
3
 70
0
 10
12.526258792
 20
-41.6722884897
 10
12.5304443235
 20
-41.685150494
 10
12.5350710831
 20
-41.698030186
  0
LWPOLYLINE
  5
2FE
100
AcDbEntity
  8
RACCORDO
100
AcDbPolyline
 62
253
  6
CONTINUOUS
 90
5
 70
0
 10
14.8164467542
 20
-44.3768947487
 10
14.8206547482
 20
-44.3901189794
 10
14.8260266606
 20
-44.4040678439
 10
14.8324909
 20
-44.4184613273
 10
14.8398326912
 20
-44.4324593852
  0
LINE
  5
2FF
100
AcDbEntity
  8
RACCORDO
100
AcDbLine
 62
253
  6
CONTINUOUS
 10
12.5225067988
 20
-41.6594721459
 11
12.526258792
 21
-41.6722884897
  0
LWPOLYLINE
  5
300
100
AcDbEntity
  8
RACCORDO
100
AcDbPolyline
 62
253
  6
CONTINUOUS
 90
17
 70
0
 10
12.5350710831
 20
20.110426718
 10
12.5299066514
 20
20.1024983261
 10
12.5253353906
 20
20.0951001685
 10
12.5213330708
 20
20.0882201913
 10
12.5178774661
 20
20.0818547425
 10
12.5149345018
 20
20.0759808951
 10
12.5124653831
 20
20.0705595784
 10
12.5104438271
 20
20.0655794224
 10
12.5088449946
 20
20.0610289337
 10
12.5076416483
 20
20.0568732098
 10
12.5068103198
 20
20.0531008137
 10
12.5063287158
 20
20.0497032641
 10
12.506178162
 20
20.0466530617
 10
12.5063371999
 20
20.043939218
 10
12.5067850603
 20
20.0415545311
 10
12.5075059173
 20
20.0394778302
 10
12.5076923208
 20
20.0390749457
  0
LWPOLYLINE
  5
301
100
AcDbEntity
  8
RACCORDO
100
AcDbPolyline
 62
253
  6
CONTINUOUS
 90
15
 70
0
 10
14.6853505701
 20
19.409598881
 10
14.6822681316
 20
19.4049931859
 10
14.6789358435
 20
19.4009918171
 10
14.6753480294
 20
19.3976036453
 10
14.6715103658
 20
19.3948197998
 10
14.6675603614
 20
19.3925895156
 10
14.6635321228
 20
19.3909259257
 10
14.6593915434
 20
19.3898158971
 10
14.6551738115
 20
19.3891692658
 10
14.650910874
 20
19.388955733
 10
14.6465707839
 20
19.3892055974
 10
14.642092889
 20
19.3899195918
 10
14.6374569716
 20
19.3910979602
 10
14.6326832493
 20
19.3927404584
 10
14.6277717221
 20
19.3948470866
  0
LINE
  5
302
100
AcDbEntity
  8
RACCORDO
100
AcDbLine
 62
253
  6
CONTINUOUS
 10
15.6229488417
 20
19.9489074943
 11
15.620829448
 21
19.9458810785
  0
LINE
  5
303
100
AcDbEntity
  8
RACCORDO
100
AcDbLine
 62
253
  6
CONTINUOUS
 10
15.1191306042
 20
20.4320968365
 11
15.2093911461
 21
20.5578144611
  0
LWPOLYLINE
  5
304
100
AcDbEntity
  8
RACCORDO
100
AcDbPolyline
 62
253
  6
CONTINUOUS
 90
3
 70
0
 10
14.977068003
 20
20.3345260583
 10
14.9995057496
 20
20.3651183882
 10
15.1652760769
 20
20.5922677022
  0
LINE
  5
305
100
AcDbEntity
  8
RACCORDO
100
AcDbLine
 62
253
  6
CONTINUOUS
 10
14.4678699409
 20
19.5428208997
 11
14.759544483
 21
19.9385708575
  0
LINE
  5
306
100
AcDbEntity
  8
RACCORDO
100
AcDbLine
 62
253
  6
CONTINUOUS
 10
14.4498685574
 20
19.6209761688
 11
14.781317698
 21
20.0685794591
  0
LINE
  5
307
100
AcDbEntity
  8
RACCORDO
100
AcDbLine
 62
7
  6
CONTINUOUS
 10
14.6775335627
 20
19.4552634208
 11
14.6777110461
 21
19.4554843702
  0
LWPOLYLINE
  5
308
100
AcDbEntity
  8
RACCORDO
100
AcDbPolyline
 62
253
  6
CONTINUOUS
 90
14
 70
0
 10
15.620829448
 20
19.9458810785
 10
15.6184089905
 20
19.9430832523
 10
15.6156924559
 20
19.9405109643
 10
15.6126748575
 20
19.9381672658
 10
15.6093108484
 20
19.9361339713
 10
15.6055899756
 20
19.9343990919
 10
15.6015226921
 20
19.9329746164
 10
15.5970950097
 20
19.931978326
 10
15.5922877277
 20
19.9314114886
 10
15.5871200468
 20
19.9312728362
 10
15.5816355813
 20
19.9316763464
 10
15.5758488691
 20
19.9326600118
 10
15.5697453724
 20
19.9341858399
 10
15.5633250909
 20
19.9362538306
  0
LWPOLYLINE
  5
309
100
AcDbEntity
  8
RACCORDO
100
AcDbPolyline
 62
253
  6
CONTINUOUS
 90
39
 70
0
 10
16.4814435074
 20
18.047748826
 10
16.4090398951
 20
17.9742053579
 10
16.3317460385
 20
17.9082954157
 10
16.2495219548
 20
17.8500814265
 10
16.1624076269
 20
17.7995009632
 10
16.0711134884
 20
17.7569665174
 10
15.975605352
 20
17.7225438813
 10
15.875917405
 20
17.6961672628
 10
15.7728626437
 20
17.6780517768
 10
15.6664135323
 20
17.6682649826
 10
15.5565976065
 20
17.6667393209
 10
15.4443104698
 20
17.6734872295
 10
15.3295319432
 20
17.6885763557
 10
15.2122822057
 20
17.7119390521
 10
15.0935173975
 20
17.7433848142
 10
14.9732250215
 20
17.7829797954
 10
14.8514175747
 20
17.8306578423
 10
14.7290886886
 20
17.8860299896
 10
14.6062344445
 20
17.9491589237
 10
14.4828587609
 20
18.0199819583
 10
14.359967025
 20
18.0979220684
 10
14.2375621481
 20
18.1830383489
 10
14.1156412188
 20
18.275271705
 10
13.9952008896
 20
18.3738678273
 10
13.8762562837
 20
18.4788755745
 10
13.7587922779
 20
18.590246088
 10
13.6437601553
 20
18.7070784825
 10
13.5311714043
 20
18.8294281794
 10
13.4210145366
 20
18.9572397573
 10
13.3142063698
 20
19.089446067
 10
13.2107918923
 20
19.2260574262
 10
13.1107261158
 20
19.3670635172
 10
13.0147908929
 20
19.5113662374
 10
12.9229658707
 20
19.6591047151
 10
12.8352714021
 20
19.8101398221
 10
12.752550398
 20
19.9629560713
 10
12.6750838286
 20
20.1170483003
 10
12.6025907236
 20
20.2729216716
 10
12.5350710831
 20
20.430576185
  0
LINE
  5
30A
100
AcDbEntity
  8
RACCORDO
100
AcDbLine
 62
253
  6
CONTINUOUS
 10
13.4930769842
 20
21.4333530758
 11
13.5554607056
 21
21.445202299
  0
LINE
  5
30B
100
AcDbEntity
  8
0
100
AcDbLine
 62
7
  6
CONTINUOUS
 10
13.5477753252
 20
23.2601218037
 11
13.3565749392
 21
23.2246558281
  0
LWPOLYLINE
  5
30C
100
AcDbEntity
  8
RACCORDO
100
AcDbPolyline
 62
253
  6
CONTINUOUS
 90
10
 70
0
 10
12.5350710831
 20
20.4305641519
 10
12.5460070094
 20
20.4324393449
 10
12.5580245777
 20
20.4347899328
 10
12.5709929765
 20
20.4376660965
 10
12.584719071
 20
20.4411754682
 10
12.5990949481
 20
20.4452895343
 10
12.6141093392
 20
20.4498501357
 10
12.6296497213
 20
20.4548247864
 10
12.6454953332
 20
20.4602987983
 10
12.6614715428
 20
20.4662870077
  0
LWPOLYLINE
  5
30D
100
AcDbEntity
  8
RACCORDO
100
AcDbPolyline
 62
7
  6
CONTINUOUS
 90
6
 70
0
 10
13.5221939076
 20
21.4565660482
 10
13.5220821933
 20
21.4565516125
 10
13.5225833538
 20
21.4565470078
 10
13.5237781527
 20
21.4564255766
 10
13.5255097323
 20
21.4560973508
 10
13.5276812912
 20
21.4555115703
  0
LINE
  5
30E
100
AcDbEntity
  8
RACCORDO
100
AcDbLine
 62
253
  6
CONTINUOUS
 10
13.551760485
 20
21.1765449585
 11
14.105016637
 21
21.2397842453
  0
LINE
  5
30F
100
AcDbEntity
  8
RACCORDO
100
AcDbLine
 62
253
  6
CONTINUOUS
 10
13.4930769871
 20
21.231211848
 11
13.9815545078
 21
21.2859330517
  0
LWPOLYLINE
  5
310
100
AcDbEntity
  8
RACCORDO
100
AcDbPolyline
 62
253
  6
CONTINUOUS
 90
3
 70
0
 10
14.4335469196
 20
21.2763792961
 10
14.7296031764
 20
21.3082776523
 10
14.750672376
 20
21.3104854603
  0
LINE
  5
311
100
AcDbEntity
  8
RACCORDO
100
AcDbLine
 62
253
  6
CONTINUOUS
 10
14.5890514824
 20
21.3506221398
 11
14.7428934075
 21
21.3659169018
  0
LWPOLYLINE
  5
312
100
AcDbEntity
  8
DRAFT
100
AcDbPolyline
 62
7
  6
CONTINUOUS
 90
26
 70
0
 10
20.5102154188
 20
-42.1380196723
 10
20.4152949803
 20
-41.8841321491
 10
20.3126877836
 20
-41.6304525827
 10
20.2025455313
 20
-41.3772491079
 10
20.0856883309
 20
-41.1264003793
 10
19.9622196296
 20
-40.8782112727
 10
19.8320359802
 20
-40.6323769122
 10
19.6956471493
 20
-40.3898613254
 10
19.5528500224
 20
-40.1503940627
 10
19.403847714
 20
-39.9142455736
 10
19.2497593335
 20
-39.6831912335
 10
19.0907368892
 20
-39.4575270693
 10
18.9266283727
 20
-39.236957054
 10
18.7580968689
 20
-39.022368482
 10
18.5849377686
 20
-38.8135686707
 10
18.4073556811
 20
-38.6107503027
 10
18.2266275181
 20
-38.4153787205
 10
18.0428949453
 20
-38.2276710605
 10
17.8560162971
 20
-38.0474101864
 10
17.6668434892
 20
-37.8754100311
 10
17.4752416682
 20
-37.711602107
 10
17.2813456875
 20
-37.5560549017
 10
17.0864120223
 20
-37.4097878115
 10
16.8908594977
 20
-37.2731406352
 10
16.6942692886
 20
-37.1457735741
 10
16.496641395
 20
-37.0276866281
  0
LWPOLYLINE
  5
313
100
AcDbEntity
  8
RACCORDO
100
AcDbPolyline
 62
253
  6
CONTINUOUS
 90
34
 70
0
 10
16.7696456963
 20
-44.5618716747
 10
16.8210757687
 20
-44.713033771
 10
16.8676654582
 20
-44.8643017058
 10
16.9091062641
 20
-45.0146626543
 10
16.9453598924
 20
-45.1641023378
 10
16.9764646372
 20
-45.3126350351
 10
17.0022268803
 20
-45.4592907582
 10
17.0226119813
 20
-45.6040342693
 10
17.0376545806
 20
-45.7469008062
 10
17.0472649806
 20
-45.8870260944
 10
17.0514182145
 20
-46.0243937152
 10
17.050139249
 20
-46.1590200874
 10
17.0434132868
 20
-46.2900901926
 10
17.0311935238
 20
-46.4176483264
 10
17.0135267641
 20
-46.5416501932
 10
16.9905386225
 20
-46.6611478888
 10
16.9621126484
 20
-46.7761814871
 10
16.9283652924
 20
-46.886710914
 10
16.8897715212
 20
-46.9916680426
 10
16.8462686327
 20
-47.0908709626
 10
16.797919329
 20
-47.1845015843
 10
16.745386683
 20
-47.2720375108
 10
16.6888506875
 20
-47.3532301862
 10
16.6281313497
 20
-47.4283281663
 10
16.5633517639
 20
-47.4975547225
 10
16.4945220555
 20
-47.5610509471
 10
16.4216320991
 20
-47.6186757477
 10
16.3447746125
 20
-47.6702291188
 10
16.2634156298
 20
-47.7158370835
 10
16.1780891171
 20
-47.7553736187
 10
16.09048969
 20
-47.7882606494
 10
16.0011822205
 20
-47.8143054838
 10
15.9096018367
 20
-47.8337008137
 10
15.8157485386
 20
-47.846446639
  0
LWPOLYLINE
  5
314
100
AcDbEntity
  8
RACCORDO
100
AcDbPolyline
 62
253
  6
CONTINUOUS
 90
20
 70
0
 10
16.7156601854
 20
-44.8269034407
 10
16.7596546776
 20
-44.9849831757
 10
16.7977123998
 20
-45.1424686234
 10
16.8295230446
 20
-45.2980759382
 10
16.8550356005
 20
-45.451789957
 10
16.8743010789
 20
-45.6036258431
 10
16.8871622058
 20
-45.75234524
 10
16.8935665566
 20
-45.8979228978
 10
16.8935665559
 20
-46.0403840666
 10
16.8871622037
 20
-46.1785661401
 10
16.8743010751
 20
-46.3124338301
 10
16.855035595
 20
-46.4420224249
 10
16.8295230379
 20
-46.5662751824
 10
16.7977123929
 20
-46.6851483579
 10
16.759654671
 20
-46.7986856963
 10
16.715660179
 20
-46.9059616901
 10
16.6656803393
 20
-47.0069253062
 10
16.6097637295
 20
-47.1016275778
 10
16.5483663905
 20
-47.1892960966
 10
16.4814435074
 20
-47.2698733175
  0
LWPOLYLINE
  5
315
100
AcDbEntity
  8
RACCORDO
100
AcDbPolyline
 62
253
  6
CONTINUOUS
 90
7
 70
0
 10
13.512124523
 20
-43.8364716253
 10
13.5136574231
 20
-43.843527782
 10
13.5161507909
 20
-43.8498038667
 10
13.5195338212
 20
-43.8551216553
 10
13.523710445
 20
-43.8593301367
 10
13.5285620572
 20
-43.8623098011
 10
13.5299079642
 20
-43.8628683898
  0
LWPOLYLINE
  5
316
100
AcDbEntity
  8
RACCORDO
100
AcDbPolyline
 62
253
  6
CONTINUOUS
 90
7
 70
0
 10
14.1782233353
 20
-44.0854521454
 10
14.179756236
 20
-44.0925082888
 10
14.1822496004
 20
-44.0987843671
 10
14.1856326256
 20
-44.1041021553
 10
14.1898092444
 20
-44.1083106411
 10
14.1946608533
 20
-44.1112903128
 10
14.1960722426
 20
-44.1118734971
  0
LINE
  5
317
100
AcDbEntity
  8
RACCORDO
100
AcDbLine
 62
253
  6
CONTINUOUS
 10
6.5689339574
 20
-57.8079338209
 11
6.5689339574
 21
34.6538394353
  0
LINE
  5
318
100
AcDbEntity
  8
RACCORDO
100
AcDbLine
 62
253
  6
CONTINUOUS
 10
7.2438428042
 20
-57.7974972705
 11
7.2438428042
 21
34.6642759857
  0
LWPOLYLINE
  5
319
100
AcDbEntity
  8
RACCORDO
100
AcDbPolyline
 62
253
  6
CONTINUOUS
 90
4
 70
0
 10
12.7447259219
 20
20.7824092139
 10
12.731751445
 20
20.7302416586
 10
12.6978984835
 20
20.6006511353
 10
12.66147155
 20
20.4662871011
  0
LINE
  5
31A
100
AcDbEntity
  8
RACCORDO
100
AcDbLine
 62
253
  6
CONTINUOUS
 10
15.590699098
 20
19.9992873528
 11
15.619066375
 21
20.0577494346
  0
LINE
  5
31B
100
AcDbEntity
  8
RACCORDO
100
AcDbLine
 62
7
  6
CONTINUOUS
 10
15.615753668
 20
19.9954922392
 11
15.6157143932
 21
19.9954122086
  0
LWPOLYLINE
  5
31C
100
AcDbEntity
  8
RACCORDO
100
AcDbPolyline
 62
253
  6
CONTINUOUS
 90
17
 70
0
 10
15.6157143932
 20
19.9954122086
 10
15.6155325613
 20
19.9950582064
 10
15.614806067
 20
19.9938669057
 10
15.6139632362
 20
19.9928143831
 10
15.6130008708
 20
19.9919178829
 10
15.6119169123
 20
19.9911921456
 10
15.6107057993
 20
19.9906485598
 10
15.6093561328
 20
19.9903037796
 10
15.6078613338
 20
19.9901773825
 10
15.6062202579
 20
19.9902874131
 10
15.604427885
 20
19.9906534176
 10
15.6024844899
 20
19.9913028754
 10
15.6003934127
 20
19.9922526919
 10
15.5981580446
 20
19.9935070285
 10
15.5957874495
 20
19.9950807849
 10
15.5932956765
 20
19.9970008207
 10
15.5906990981
 20
19.9992873528
  0
LINE
  5
31D
100
AcDbEntity
  8
RACCORDO
100
AcDbLine
 62
7
  6
CONTINUOUS
 10
14.6780262483
 20
19.4562145543
 11
14.6775335627
 21
19.4552634208
  0
LINE
  5
31E
100
AcDbEntity
  8
RACCORDO
100
AcDbLine
 62
253
  6
CONTINUOUS
 10
14.6880626798
 20
19.4148330556
 11
14.6853505701
 21
19.409598881
  0
LWPOLYLINE
  5
31F
100
AcDbEntity
  8
RACCORDO
100
AcDbPolyline
 62
253
  6
CONTINUOUS
 90
3
 70
0
 10
14.2538796563
 20
21.2526872548
 10
14.2583876693
 20
21.2613373887
 10
14.2618084141
 20
21.2710312061
  0
LWPOLYLINE
  5
320
100
AcDbEntity
  8
RACCORDO
100
AcDbPolyline
 62
7
  6
CONTINUOUS
 90
3
 70
0
 10
14.2406967765
 20
21.1969171486
 10
14.2550444186
 20
21.1975981046
 10
14.2686620241
 20
21.2000269743
  0
LWPOLYLINE
  5
321
100
AcDbEntity
  8
RACCORDO
100
AcDbPolyline
 62
253
  6
CONTINUOUS
 90
6
 70
0
 10
14.1974041695
 20
21.2270290481
 10
14.2067528579
 20
21.2264900489
 10
14.2161471023
 20
21.2272686803
 10
14.2253801942
 20
21.2294016289
 10
14.2338320081
 20
21.2329989547
 10
14.2413978322
 20
21.2382375755
  0
LWPOLYLINE
  5
322
100
AcDbEntity
  8
RACCORDO
100
AcDbPolyline
 62
7
  6
CONTINUOUS
 90
4
 70
0
 10
13.2186390632
 20
18.9426122884
 10
13.2319893716
 20
18.9418352185
 10
13.2467627956
 20
18.9419739112
 10
13.2628231968
 20
18.9430778492
  0
LINE
  5
323
100
AcDbEntity
  8
RACCORDO
100
AcDbLine
 62
253
  6
CONTINUOUS
 10
14.4498685613
 20
21.9752638329
 11
14.5146553679
 21
21.9706075047
  0
LINE
  5
324
100
AcDbEntity
  8
RACCORDO
100
AcDbLine
 62
7
  6
CONTINUOUS
 10
14.225795716
 20
21.1980905943
 11
14.2406967765
 21
21.1969171486
  0
LWPOLYLINE
  5
325
100
AcDbEntity
  8
RACCORDO
100
AcDbPolyline
 62
7
  6
CONTINUOUS
 90
11
 70
0
 10
13.1751655406
 20
16.463367034
 10
13.1762639648
 20
16.463185832
 10
13.1785842652
 20
16.4635906931
 10
13.1819834958
 20
16.4646899858
 10
13.1864085241
 20
16.4663292311
 10
13.1918014816
 20
16.4685289704
 10
13.1980972655
 20
16.471325912
 10
13.2052466192
 20
16.4745869443
 10
13.213194246
 20
16.4783275456
 10
13.2218768904
 20
16.4825722734
 10
13.2412239982
 20
16.4921742457
  0
LWPOLYLINE
  5
326
100
AcDbEntity
  8
RACCORDO
100
AcDbPolyline
 62
253
  6
CONTINUOUS
 90
16
 70
0
 10
18.3473495637
 20
-44.3921143698
 10
18.2893666932
 20
-44.1642485965
 10
18.2243609652
 20
-43.9349289392
 10
18.1526671615
 20
-43.7053384409
 10
18.0742493984
 20
-43.4754738852
 10
17.9891435595
 20
-43.2453384885
 10
17.8977920773
 20
-43.0161249425
 10
17.8001653053
 20
-42.7878443071
 10
17.6962928902
 20
-42.5604855225
 10
17.5867062046
 20
-42.3352081003
 10
17.4713840298
 20
-42.1120330141
 10
17.3503475847
 20
-41.8909392904
 10
17.2241918984
 20
-41.6730235198
 10
17.093115314
 20
-41.4586512325
 10
16.9569194884
 20
-41.2474568983
 10
16.8156044217
 20
-41.0394405172
  0
LWPOLYLINE
  5
327
100
AcDbEntity
  8
RACCORDO
100
AcDbPolyline
 62
253
  6
CONTINUOUS
 90
15
 70
0
 10
14.4498685612
 20
-43.3423583111
 10
14.4491369217
 20
-43.3386954642
 10
14.4487172431
 20
-43.3353435969
 10
14.4485790329
 20
-43.3323100679
 10
14.4486838074
 20
-43.3295997184
 10
14.4490123863
 20
-43.3272100804
 10
14.4495663142
 20
-43.3251340302
 10
14.4503306138
 20
-43.3233634268
 10
14.4512745185
 20
-43.3218960523
 10
14.4523782468
 20
-43.3207282245
 10
14.4536172768
 20
-43.3198501275
 10
14.4549790105
 20
-43.319237418
 10
14.4564648014
 20
-43.3188686071
 10
14.4580469537
 20
-43.3187347276
 10
14.4590783922
 20
-43.3187648685
  0
LWPOLYLINE
  5
328
100
AcDbEntity
  8
RACCORDO
100
AcDbPolyline
 62
253
  6
CONTINUOUS
 90
13
 70
0
 10
14.3324173692
 20
-44.8597112796
 10
14.3295040818
 20
-44.8436280141
 10
14.3252911371
 20
-44.8266524064
 10
14.3197012713
 20
-44.8089044764
 10
14.3126158277
 20
-44.7903842689
 10
14.3040335253
 20
-44.7714388668
 10
14.2941675288
 20
-44.7527443684
 10
14.2830909452
 20
-44.7345199621
 10
14.2709199245
 20
-44.7169891318
 10
14.2581029052
 20
-44.7007574888
 10
14.2449306736
 20
-44.6860719639
 10
14.2314644837
 20
-44.6728931918
 10
14.2178592953
 20
-44.6612908753
  0
LINE
  5
329
100
AcDbEntity
  8
RACCORDO
100
AcDbLine
 62
253
  6
CONTINUOUS
 10
14.6924370941
 20
-43.5066125795
 11
14.6938565545
 21
-43.5148454191
  0
LWPOLYLINE
  5
32A
100
AcDbEntity
  8
RACCORDO
100
AcDbPolyline
 62
253
  6
CONTINUOUS
 90
13
 70
0
 10
14.2641418908
 20
-44.8660598029
 10
14.2621185505
 20
-44.8537248102
 10
14.2590028835
 20
-44.8409451984
 10
14.2547948895
 20
-44.8277209677
 10
14.249422977
 20
-44.8137721032
 10
14.2429587377
 20
-44.7993786197
 10
14.2356169465
 20
-44.7853805618
 10
14.227296744
 20
-44.7718406014
 10
14.2180989896
 20
-44.7586960666
 10
14.2085410362
 20
-44.7465989862
 10
14.1987953349
 20
-44.735766703
 10
14.1886894346
 20
-44.7259818742
 10
14.1782233353
 20
-44.7172444997
  0
LWPOLYLINE
  5
32B
100
AcDbEntity
  8
RACCORDO
100
AcDbPolyline
 62
253
  6
CONTINUOUS
 90
3
 70
0
 10
14.8113077469
 20
-44.3517801441
 10
14.8133310872
 20
-44.3641151369
 10
14.8164467542
 20
-44.3768947487
  0
LWPOLYLINE
  5
32C
100
AcDbEntity
  8
RACCORDO
100
AcDbPolyline
 62
7
  6
CONTINUOUS
 90
4
 70
0
 10
14.7971395259
 20
-44.3382504997
 10
14.7984097731
 20
-44.3462868266
 10
14.8045736481
 20
-44.3728079558
 10
14.8136416116
 20
-44.3992003913
  0
LINE
  5
32D
100
AcDbEntity
  8
RACCORDO
100
AcDbLine
 62
253
  6
CONTINUOUS
 10
14.381593079
 20
-45.7029944981
 11
14.2641418908
 21
-44.8660598029
  0
LINE
  5
32E
100
AcDbEntity
  8
RACCORDO
100
AcDbLine
 62
253
  6
CONTINUOUS
 10
14.4498685574
 20
-45.6966459746
 11
14.3324173692
 21
-44.8597112796
  0
LINE
  5
32F
100
AcDbEntity
  8
RACCORDO
100
AcDbLine
 62
7
  6
CONTINUOUS
 10
14.6796970862
 20
-43.5013803475
 11
14.7971482809
 21
-44.3383150886
  0
LINE
  5
330
100
AcDbEntity
  8
RACCORDO
100
AcDbLine
 62
253
  6
CONTINUOUS
 10
14.6938565545
 20
-43.5148454191
 11
14.8113077469
 21
-44.3517801441
  0
LINE
  5
331
100
AcDbEntity
  8
RACCORDO
100
AcDbLine
 62
253
  6
CONTINUOUS
 10
15.6299340036
 20
-45.1299028498
 11
15.6305655522
 21
-45.1359386585
  0
LWPOLYLINE
  5
332
100
AcDbEntity
  8
RACCORDO
100
AcDbPolyline
 62
253
  6
CONTINUOUS
 90
10
 70
0
 10
14.8972263024
 20
-45.1323878017
 10
14.8966973951
 20
-45.1247519651
 10
14.8971875024
 20
-45.1167532676
 10
14.8986827082
 20
-45.1086188499
 10
14.9011405542
 20
-45.1005797073
 10
14.9044912459
 20
-45.0928641301
 10
14.9086396338
 20
-45.0856912211
 10
14.9134679158
 20
-45.0792646733
 10
14.9188389823
 20
-45.0737669855
 10
14.9246003096
 20
-45.0693542795
  0
LWPOLYLINE
  5
333
100
AcDbEntity
  8
RACCORDO
100
AcDbPolyline
 62
253
  6
CONTINUOUS
 90
10
 70
0
 10
15.5633250909
 20
-45.3813683129
 10
15.5627961887
 20
-45.3737324604
 10
15.5632863038
 20
-45.3657337501
 10
15.5647815183
 20
-45.3575993241
 10
15.567239372
 20
-45.3495601785
 10
15.5705900683
 20
-45.3418446039
 10
15.5747384566
 20
-45.334671702
 10
15.5795667333
 20
-45.3282451643
 10
15.5849377884
 20
-45.3227474873
 10
15.5906990981
 20
-45.3183347906
  0
LWPOLYLINE
  5
334
100
AcDbEntity
  8
RACCORDO
100
AcDbPolyline
 62
253
  6
CONTINUOUS
 90
10
 70
0
 10
13.4448840895
 20
-44.0819012928
 10
13.443420878
 20
-44.0579625465
 10
13.4423234715
 20
-44.0342292532
 10
13.4415918701
 20
-44.0107014129
 10
13.4412260766
 20
-43.9873751482
 10
13.4412260882
 20
-43.9642543365
 10
13.4415918958
 20
-43.9413506099
 10
13.4423234966
 20
-43.9186678458
 10
13.4434208935
 20
-43.8962021667
 10
13.4448840864
 20
-43.8739535727
  0
LWPOLYLINE
  5
335
100
AcDbEntity
  8
RACCORDO
100
AcDbPolyline
 62
253
  6
CONTINUOUS
 90
7
 70
0
 10
13.4930769871
 20
-44.0864102954
 10
13.4916552055
 20
-44.0631642424
 10
13.4905884538
 20
-44.0400969314
 10
13.4898770882
 20
-44.0172160611
 10
13.4895213461
 20
-43.9945292682
 10
13.4895213462
 20
-43.9720441244
 10
13.4898770881
 20
-43.9497681341
  0
LINE
  5
336
100
AcDbEntity
  8
RACCORDO
100
AcDbLine
 62
7
  6
CONTINUOUS
 10
15.6174553216
 20
-45.142117899
 11
15.6160378855
 21
-45.1189437167
  0
LINE
  5
337
100
AcDbEntity
  8
RACCORDO
100
AcDbLine
 62
253
  6
CONTINUOUS
 10
15.6305655522
 20
-45.1359386585
 11
15.6320287619
 21
-45.1598774034
  0
LWPOLYLINE
  5
338
100
AcDbEntity
  8
RACCORDO
100
AcDbPolyline
 62
253
  6
CONTINUOUS
 90
9
 70
0
 10
11.596517315
 20
-55.8345295152
 10
11.5976535375
 20
-55.8591934445
 10
11.6010504583
 20
-55.8822808074
 10
11.6066716812
 20
-55.9035442358
 10
11.6144569775
 20
-55.9227559041
 10
11.6243229321
 20
-55.9397099701
 10
11.6361638365
 20
-55.9542247807
 10
11.6498528219
 20
-55.9661448177
 10
11.6586418588
 20
-55.971852466
  0
LWPOLYLINE
  5
339
100
AcDbEntity
  8
RACCORDO
100
AcDbPolyline
 62
253
  6
CONTINUOUS
 90
9
 70
0
 10
13.8865068275
 20
-57.1567427919
 10
13.8876432156
 20
-57.1814061436
 10
13.8910402206
 20
-57.2044930257
 10
13.8966614617
 20
-57.2257560732
 10
13.9044467272
 20
-57.2449674594
 10
13.9143126185
 20
-57.261921336
 10
13.9261534433
 20
-57.2764360397
 10
13.9398423495
 20
-57.2883560413
 10
13.9486316023
 20
-57.2940638436
  0
LWPOLYLINE
  5
33A
100
AcDbEntity
  8
RACCORDO
100
AcDbPolyline
 62
7
  6
CONTINUOUS
 90
7
 70
0
 10
12.4764924572
 20
-41.9364727759
 10
12.4770547499
 20
-41.9515084156
 10
12.4785474724
 20
-41.9651185115
 10
12.4809689681
 20
-41.9785996509
 10
12.4843206496
 20
-41.991929097
 10
12.4885973122
 20
-42.0050445978
 10
12.49400557
 20
-42.0183660694
  0
LWPOLYLINE
  5
33B
100
AcDbEntity
  8
RACCORDO
100
AcDbPolyline
 62
7
  6
CONTINUOUS
 90
7
 70
0
 10
12.4764924572
 20
23.3811463288
 10
12.4770546365
 20
23.3661122064
 10
12.4785471867
 20
23.3525025783
 10
12.4809684456
 20
23.3390218892
 10
12.4843198258
 20
23.3256928726
 10
12.4885961237
 20
23.3125777734
 10
12.4940038602
 20
23.299256855
  0
LWPOLYLINE
  5
33C
100
AcDbEntity
  8
RACCORDO
100
AcDbPolyline
 62
7
  6
CONTINUOUS
 90
6
 70
0
 10
12.4764922227
 20
-45.1254360802
 10
12.477297887
 20
-45.1536581072
 10
12.479566068
 20
-45.1792168889
 10
12.4832538163
 20
-45.2032860928
 10
12.4885137736
 20
-45.2266540795
 10
12.4955573214
 20
-45.249567946
  0
LWPOLYLINE
  5
33D
100
AcDbEntity
  8
RACCORDO
100
AcDbPolyline
 62
7
  6
CONTINUOUS
 90
6
 70
0
 10
12.4764922227
 20
20.1921860633
 10
12.477297887
 20
20.1639640362
 10
12.479566068
 20
20.1384052545
 10
12.4832538163
 20
20.1143360506
 10
12.4885137736
 20
20.090968064
 10
12.4955573214
 20
20.0680541974
  0
LWPOLYLINE
  5
33E
100
AcDbEntity
  8
RACCORDO
100
AcDbPolyline
 62
7
  6
CONTINUOUS
 90
11
 70
0
 10
13.1749552315
 20
-41.1514523697
 10
13.175289129
 20
-41.1642081575
 10
13.1775887035
 20
-41.1877815262
 10
13.1819945721
 20
-41.2116297732
 10
13.1884127771
 20
-41.2354471016
 10
13.1967362279
 20
-41.2591418604
 10
13.2068481034
 20
-41.2826373713
 10
13.2186390632
 20
-41.305659986
 10
13.2319893716
 20
-41.3280766298
 10
13.2467627956
 20
-41.3498968674
 10
13.2628231968
 20
-41.3710712162
  0
LWPOLYLINE
  5
33F
100
AcDbEntity
  8
RACCORDO
100
AcDbPolyline
 62
253
  6
CONTINUOUS
 90
16
 70
0
 10
12.4764924394
 20
-41.9365214871
 10
12.4765021735
 20
-41.9376607903
 10
12.4768714554
 20
-41.9436274062
 10
12.4777776575
 20
-41.9495918289
 10
12.4792176516
 20
-41.9555197117
 10
12.4811851731
 20
-41.9613898794
 10
12.4836756317
 20
-41.9671920065
 10
12.4866808258
 20
-41.9729085871
 10
12.4901909428
 20
-41.9785232104
 10
12.4941963367
 20
-41.9840223752
 10
12.498687005
 20
-41.9893933701
 10
12.5036505984
 20
-41.9946219828
 10
12.5090735071
 20
-41.9996943814
 10
12.5149429049
 20
-42.0045987454
 10
12.5212439379
 20
-42.0093224748
 10
12.5279592737
 20
-42.0138523999
  0
LWPOLYLINE
  5
340
100
AcDbEntity
  8
RACCORDO
100
AcDbPolyline
 62
253
  6
CONTINUOUS
 90
16
 70
0
 10
12.4764924394
 20
23.3810976249
 10
12.4765021735
 20
23.3799583217
 10
12.4768714554
 20
23.3739917059
 10
12.4777776575
 20
23.3680272831
 10
12.4792176516
 20
23.3620994004
 10
12.4811851731
 20
23.3562292327
 10
12.4836756317
 20
23.3504271055
 10
12.4866808258
 20
23.3447105249
 10
12.4901909428
 20
23.3390959016
 10
12.4941963367
 20
23.3335967369
 10
12.498687005
 20
23.328225742
 10
12.5036505984
 20
23.3229971292
 10
12.5090735071
 20
23.3179247307
 10
12.5149429049
 20
23.3130203666
 10
12.5212439379
 20
23.3082966373
 10
12.5279592737
 20
23.3037667122
  0
LINE
  5
341
100
AcDbEntity
  8
RACCORDO
100
AcDbLine
 62
253
  6
CONTINUOUS
 10
11.1958731135
 20
36.9461211896
 11
11.1958731135
 21
-55.6722232629
  0
LINE
  5
342
100
AcDbEntity
  8
RACCORDO
100
AcDbLine
 62
253
  6
CONTINUOUS
 10
11.616402659
 20
36.944002232
 11
11.616402659
 21
-55.6743422204
  0
LINE
  5
343
100
AcDbEntity
  8
RACCORDO
100
AcDbLine
 62
7
  6
CONTINUOUS
 10
12.4764924394
 20
23.7012468761
 11
12.4764924394
 21
23.3810976249
  0
LINE
  5
344
100
AcDbEntity
  8
RACCORDO
100
AcDbLine
 62
7
  6
CONTINUOUS
 10
12.4764924394
 20
20.5122190706
 11
12.4764924394
 21
20.1920816858
  0
LINE
  5
345
100
AcDbEntity
  8
RACCORDO
100
AcDbLine
 62
7
  6
CONTINUOUS
 10
12.4764924394
 20
-41.6163752673
 11
12.4764924394
 21
-41.9365214871
  0
LINE
  5
346
100
AcDbEntity
  8
RACCORDO
100
AcDbLine
 62
7
  6
CONTINUOUS
 10
12.4764924394
 20
-44.8054012154
 11
12.4764924394
 21
-45.1255404576
  0
LINE
  5
347
100
AcDbEntity
  8
RACCORDO
100
AcDbLine
 62
253
  6
CONTINUOUS
 10
12.5350710831
 20
23.6195917694
 11
12.5350710831
 21
23.2994424904
  0
LINE
  5
348
100
AcDbEntity
  8
RACCORDO
100
AcDbLine
 62
253
  6
CONTINUOUS
 10
12.5350710831
 20
20.430576185
 11
12.5350710831
 21
20.1104268664
  0
LINE
  5
349
100
AcDbEntity
  8
RACCORDO
100
AcDbLine
 62
253
  6
CONTINUOUS
 10
12.5350710831
 20
-41.698030374
 11
12.5350710831
 21
-42.018179653
  0
LINE
  5
34A
100
AcDbEntity
  8
RACCORDO
100
AcDbLine
 62
253
  6
CONTINUOUS
 10
12.5350710831
 20
-44.8870459584
 11
12.5350710831
 21
-45.207195277
  0
LWPOLYLINE
  5
34B
100
AcDbEntity
  8
RACCORDO
100
AcDbPolyline
 62
7
  6
CONTINUOUS
 90
12
 70
0
 10
13.1749552312
 20
26.670852982
 10
13.1751310285
 20
26.6821786503
 10
13.1764537547
 20
26.7032447902
 10
13.1791340138
 20
26.7238934194
 10
13.1832425478
 20
26.7440511783
 10
13.1888784103
 20
26.7634735912
 10
13.1961251235
 20
26.7821187068
 10
13.2050505852
 20
26.7998698029
 10
13.2157568556
 20
26.8163511236
 10
13.2283222641
 20
26.8313621945
 10
13.2427793017
 20
26.8448831449
 10
13.259153291
 20
26.8567914774
  0
LWPOLYLINE
  5
34C
100
AcDbEntity
  8
RACCORDO
100
AcDbPolyline
 62
253
  6
CONTINUOUS
 90
13
 70
0
 10
11.1958731135
 20
-55.6722232629
 10
11.1953688329
 20
-55.6981218367
 10
11.1933720938
 20
-55.7229670386
 10
11.1899106945
 20
-55.746666138
 10
11.1850259657
 20
-55.7691069489
 10
11.1787516451
 20
-55.7902399471
 10
11.1710977811
 20
-55.8100633374
 10
11.1621000181
 20
-55.8284959123
 10
11.1517971527
 20
-55.8454665876
 10
11.1401832542
 20
-55.860966602
 10
11.1273003838
 20
-55.8749107976
 10
11.1131856315
 20
-55.8872318974
 10
11.0978033821
 20
-55.897912502
  0
LWPOLYLINE
  5
34D
100
AcDbEntity
  8
RACCORDO
100
AcDbPolyline
 62
253
  6
CONTINUOUS
 90
7
 70
0
 10
11.616402659
 20
-55.6743422204
 10
11.6158053695
 20
-55.7033184357
 10
11.6141213153
 20
-55.7313833232
 10
11.6113504966
 20
-55.7585368828
 10
11.6074929133
 20
-55.7847791146
 10
11.6025485655
 20
-55.8101100187
 10
11.5965174531
 20
-55.8345295949
  0
LWPOLYLINE
  5
34E
100
AcDbEntity
  8
RACCORDO
100
AcDbPolyline
 62
253
  6
CONTINUOUS
 90
12
 70
0
 10
12.5066459333
 20
23.7973360066
 10
12.5062406005
 20
23.7847943102
 10
12.50620942
 20
23.7721819721
 10
12.5065492619
 20
23.7595153764
 10
12.5072566063
 20
23.7468144158
 10
12.5083351299
 20
23.7341010367
 10
12.5097779457
 20
23.7214099351
 10
12.5115805358
 20
23.708741613
 10
12.5137545308
 20
23.6960673746
 10
12.5162916859
 20
23.6834406958
 10
12.5191938877
 20
23.6708444692
 10
12.5225067988
 20
23.6581499975
  0
LWPOLYLINE
  5
34F
100
AcDbEntity
  8
RACCORDO
100
AcDbPolyline
 62
253
  6
CONTINUOUS
 90
4
 70
0
 10
13.4898770881
 20
21.3678540093
 10
13.4905884531
 20
21.3899134113
 10
13.4916552038
 20
21.4117488627
 10
13.4930769842
 20
21.4333530758
  0
LWPOLYLINE
  5
350
100
AcDbEntity
  8
RACCORDO
100
AcDbPolyline
 62
7
  6
CONTINUOUS
 90
6
 70
0
 10
12.4764960085
 20
20.5134135853
 10
12.4768393336
 20
20.5239935076
 10
12.47774239
 20
20.5345443434
 10
12.4792034307
 20
20.5450374651
 10
12.48122166
 20
20.5554547356
 10
12.4828154661
 20
20.5621112505
  0
LWPOLYLINE
  5
351
100
AcDbEntity
  8
RACCORDO
100
AcDbPolyline
 62
253
  6
CONTINUOUS
 90
16
 70
0
 10
11.5965172245
 20
37.1271525541
 10
11.5976536302
 20
37.153127631
 10
11.6010505645
 20
37.1801369834
 10
11.6066716981
 20
37.2078912586
 10
11.614456877
 20
37.2360932101
 10
11.624322753
 20
37.2644405812
 10
11.6361636111
 20
37.2926293423
 10
11.6498525531
 20
37.3203573653
 10
11.6652429229
 20
37.347327657
 10
11.682169821
 20
37.3732512411
 10
11.7004518819
 20
37.3978503589
 10
11.7198932208
 20
37.4208614424
 10
11.7402855341
 20
37.4420379365
 10
11.7614103271
 20
37.4611529447
 10
11.7830412548
 20
37.47800166
 10
11.8049465504
 20
37.4924035571
  0
LWPOLYLINE
  5
352
100
AcDbEntity
  8
RACCORDO
100
AcDbPolyline
 62
253
  6
CONTINUOUS
 90
16
 70
0
 10
13.8865068275
 20
35.8049434119
 10
13.8876432514
 20
35.8309194259
 10
13.891040347
 20
35.8579294387
 10
13.8966617169
 20
35.8856840568
 10
13.9044471318
 20
35.9138859086
 10
13.9143131766
 20
35.9422328309
 10
13.9261541433
 20
35.9704211059
 10
13.9398431643
 20
35.998148716
 10
13.9552335711
 20
36.0251185789
 10
13.9721604662
 20
36.0510417313
 10
13.9904424897
 20
36.0756404245
 10
14.0098837624
 20
36.0986511006
 10
14.0302759844
 20
36.1198272162
 10
14.0514006672
 20
36.1389418839
 10
14.0730314746
 20
36.1557903032
 10
14.0949366474
 20
36.170191955
  0
LWPOLYLINE
  5
353
100
AcDbEntity
  8
RACCORDO
100
AcDbPolyline
 62
253
  6
CONTINUOUS
 90
22
 70
0
 10
13.4448840864
 20
21.4436685707
 10
13.445251825
 20
21.4475056745
 10
13.4458570014
 20
21.4512509984
 10
13.4466996155
 20
21.4549045425
 10
13.4477685874
 20
21.45848769
 10
13.4490749972
 20
21.4619790577
 10
13.4506520841
 20
21.465314496
 10
13.4525007993
 20
21.4684968418
 10
13.4546201917
 20
21.4715232582
 10
13.4570406479
 20
21.4743210851
 10
13.459757181
 20
21.4768933739
 10
13.4627747779
 20
21.4792370732
 10
13.4661387853
 20
21.4812703686
 10
13.4698596561
 20
21.4830052489
 10
13.4739269375
 20
21.4844297253
 10
13.4783546177
 20
21.4854260167
 10
13.4831618975
 20
21.4859928552
 10
13.4883295761
 20
21.4861315087
 10
13.4938140394
 20
21.4857279995
 10
13.4996007493
 20
21.484744335
 10
13.5057042438
 20
21.4832185079
 10
13.512124523
 20
21.4811505181
  0
LWPOLYLINE
  5
354
100
AcDbEntity
  8
RACCORDO
100
AcDbPolyline
 62
253
  6
CONTINUOUS
 90
10
 70
0
 10
14.447677917
 20
19.4988309884
 10
14.4482540304
 20
19.5034977183
 10
14.4493004733
 20
19.5083774002
 10
14.4508030947
 20
19.513404045
 10
14.4527415742
 20
19.5185096759
 10
14.4550896973
 20
19.523625248
 10
14.4578157099
 20
19.5286815818
 10
14.4608827473
 20
19.5336102989
 10
14.4642493333
 20
19.5383447467
 10
14.4678699404
 20
19.5428209
  0
LINE
  5
355
100
AcDbEntity
  8
RACCORDO
100
AcDbLine
 62
253
  6
CONTINUOUS
 10
14.2641418908
 20
21.281768707
 11
14.3815930827
 21
21.9830737364
  0
LINE
  5
356
100
AcDbEntity
  8
RACCORDO
100
AcDbLine
 62
253
  6
CONTINUOUS
 10
14.3324173692
 20
21.273958803
 11
14.4498685613
 21
21.9752638329
  0
LINE
  5
357
100
AcDbEntity
  8
RACCORDO
100
AcDbLine
 62
7
  6
CONTINUOUS
 10
14.7973498706
 20
20.1643081024
 11
14.6798986796
 21
19.4630030789
  0
LINE
  5
358
100
AcDbEntity
  8
RACCORDO
100
AcDbLine
 62
253
  6
CONTINUOUS
 10
14.8113077469
 20
20.1356356327
 11
14.693856556
 21
19.4343306095
  0
LWPOLYLINE
  5
359
100
AcDbEntity
  8
RACCORDO
100
AcDbPolyline
 62
7
  6
CONTINUOUS
 90
6
 70
0
 10
12.628654764
 20
21.2167804056
 10
12.6162415109
 20
21.1488027469
 10
12.5841726231
 20
20.9910168616
 10
12.5480721921
 20
20.8286488097
 10
12.5080620934
 20
20.6619173752
 10
12.4828168356
 20
20.5621254838
  0
LINE
  5
35A
100
AcDbEntity
  8
RACCORDO
100
AcDbLine
 62
253
  6
CONTINUOUS
 10
12.482515783
 20
20.5604748693
 11
12.4828153848
 21
20.5621109351
  0
LWPOLYLINE
  5
35B
100
AcDbEntity
  8
RACCORDO
100
AcDbPolyline
 62
7
  6
CONTINUOUS
 90
4
 70
0
 10
15.6158879547
 20
19.9963558675
 10
15.6157556246
 20
19.9956643622
 10
15.6156545853
 20
19.995272726
 10
15.6157448441
 20
19.9954745819
  0
LWPOLYLINE
  5
35C
100
AcDbEntity
  8
RACCORDO
100
AcDbPolyline
 62
7
  6
CONTINUOUS
 90
5
 70
0
 10
14.6798869437
 20
19.4629321966
 10
14.6794729096
 20
19.4608159347
 10
14.6788897134
 20
19.4585800411
 10
14.6782984317
 20
19.4568626611
 10
14.6780262483
 20
19.4562145543
  0
LWPOLYLINE
  5
35D
100
AcDbEntity
  8
RACCORDO
100
AcDbPolyline
 62
253
  6
CONTINUOUS
 90
16
 70
0
 10
13.4930769813
 20
21.4333531142
 10
13.4934936216
 20
21.4352966655
 10
13.4941074041
 20
21.4372314295
 10
13.4949205468
 20
21.4391470601
 10
13.4959283232
 20
21.4410307836
 10
13.4971397227
 20
21.4428732567
 10
13.4985775649
 20
21.4446681958
 10
13.5002446323
 20
21.4464025733
 10
13.5021420702
 20
21.4480640145
 10
13.5042904471
 20
21.449645305
 10
13.5066874865
 20
21.4511292009
 10
13.5093387645
 20
21.4525043223
 10
13.5122776109
 20
21.4537666776
 10
13.5155151277
 20
21.454899301
 10
13.5190441336
 20
21.4558793405
 10
13.5223646051
 20
21.4565949054
  0
LINE
  5
35E
100
AcDbEntity
  8
RACCORDO
100
AcDbLine
 62
253
  6
CONTINUOUS
 10
14.2618084141
 20
21.2710312061
 11
14.2641418908
 21
21.281768707
  0
LINE
  5
35F
100
AcDbEntity
  8
RACCORDO
100
AcDbLine
 62
253
  6
CONTINUOUS
 10
14.8136412236
 20
20.1463731337
 11
14.8113077469
 21
20.1356356327
  0
LWPOLYLINE
  5
360
100
AcDbEntity
  8
RACCORDO
100
AcDbPolyline
 62
253
  6
CONTINUOUS
 90
19
 70
0
 10
14.3815930827
 20
21.9830737364
 10
14.3831540458
 20
21.9902013995
 10
14.3850853379
 20
21.9967005832
 10
14.3873869588
 20
22.0025712873
 10
14.3900990686
 20
22.0078054608
 10
14.3931815072
 20
22.0124111548
 10
14.3965137953
 20
22.0164125224
 10
14.4001016092
 20
22.0198006929
 10
14.4039392724
 20
22.0225845371
 10
14.4078892764
 20
22.0248148201
 10
14.4119175141
 20
22.026478409
 10
14.4160580925
 20
22.0275884368
 10
14.4202758237
 20
22.0282350674
 10
14.4245387608
 20
22.0284485998
 10
14.4288788505
 20
22.028198735
 10
14.4333567455
 20
22.0274847408
 10
14.4379926631
 20
22.0263063731
 10
14.4427663859
 20
22.024663876
 10
14.4476779139
 20
22.0225572495
  0
LWPOLYLINE
  5
361
100
AcDbEntity
  8
RACCORDO
100
AcDbPolyline
 62
253
  6
CONTINUOUS
 90
4
 70
0
 10
14.693856556
 20
19.4343306095
 10
14.6922955928
 20
19.4272029454
 10
14.6903643007
 20
19.4207037608
 10
14.6880626798
 20
19.4148330556
  0
LWPOLYLINE
  5
362
100
AcDbEntity
  8
RACCORDO
100
AcDbPolyline
 62
253
  6
CONTINUOUS
 90
10
 70
0
 10
13.5121245256
 20
21.1205913337
 10
13.5136574152
 20
21.1270366931
 10
13.5161507669
 20
21.1338787228
 10
13.5195337806
 20
21.1409231298
 10
13.5237103921
 20
21.1479698741
 10
13.5285619996
 20
21.1548188458
 10
13.5339508305
 20
21.1612755485
 10
13.5397238564
 20
21.1671566261
 10
13.5457171394
 20
21.1722950699
 10
13.5517604855
 20
21.1765449581
  0
LWPOLYLINE
  5
363
100
AcDbEntity
  8
RACCORDO
100
AcDbPolyline
 62
253
  6
CONTINUOUS
 90
10
 70
0
 10
14.1782233353
 20
20.6003776437
 10
14.1797562354
 20
20.6068230374
 10
14.1822496032
 20
20.6136650947
 10
14.1856326335
 20
20.6207095195
 10
14.1898092573
 20
20.6277562687
 10
14.1946608695
 20
20.6346052333
 10
14.2000496973
 20
20.641061921
 10
14.2058227121
 20
20.6469429788
 10
14.2118159757
 20
20.6520814004
 10
14.2178592953
 20
20.6563312681
  0
LINE
  5
364
100
AcDbEntity
  8
DRAFT
100
AcDbLine
 62
7
  6
CONTINUOUS
 10
16.496641395
 20
-6.4939861996
 11
15.8018772086
 21
-6.9236387942
  0
LWPOLYLINE
  5
365
100
AcDbEntity
  8
RACCORDO
100
AcDbPolyline
 62
7
  6
CONTINUOUS
 90
5
 70
0
 10
14.4590876689
 20
21.9988562843
 10
14.4589084499
 20
21.9988738507
 10
14.459146927
 20
21.9988042717
 10
14.4605400315
 20
21.9982884593
 10
14.4613586223
 20
21.9979130752
  0
LWPOLYLINE
  5
366
100
AcDbEntity
  8
RACCORDO
100
AcDbPolyline
 62
253
  6
CONTINUOUS
 90
32
 70
0
 10
12.6614715428
 20
20.4662870077
 10
12.6520401069
 20
20.4688166364
 10
12.6426692009
 20
20.4714453487
 10
12.6333799626
 20
20.4741692394
 10
12.6241923022
 20
20.4769858706
 10
12.6151278729
 20
20.4798889712
 10
12.6062096933
 20
20.4828682347
 10
12.5974569262
 20
20.4859177588
 10
12.5888895196
 20
20.4890325619
 10
12.5805304395
 20
20.4922028766
 10
12.5723977354
 20
20.4954216086
 10
12.5645096378
 20
20.498682863
 10
12.5568879515
 20
20.501977815
 10
12.5495492668
 20
20.5052983101
 10
12.5425100686
 20
20.5086375207
 10
12.5357904223
 20
20.5119878027
 10
12.5294050987
 20
20.5153400782
 10
12.5233687612
 20
20.5186865851
 10
12.5176995374
 20
20.5220209073
 10
12.5124102296
 20
20.5253330235
 10
12.5075130799
 20
20.5286144236
 10
12.5030234042
 20
20.5318603202
 10
12.4989514026
 20
20.5350600941
 10
12.4953068159
 20
20.5382044658
 10
12.4921020566
 20
20.5412901705
 10
12.4893431835
 20
20.5443072629
 10
12.4870382666
 20
20.5472448515
 10
12.4851983193
 20
20.5500979752
 10
12.4838250496
 20
20.5528551753
 10
12.4829193333
 20
20.5555070308
 10
12.4824844207
 20
20.5580518653
 10
12.482515783
 20
20.5604748693
  0
LWPOLYLINE
  5
367
100
AcDbEntity
  8
RACCORDO
100
AcDbPolyline
 62
253
  6
CONTINUOUS
 90
10
 70
0
 10
14.381593079
 20
19.6146276453
 10
14.3879416091
 20
19.6127321233
 10
14.3951138556
 20
19.6114701248
 10
14.4029061459
 20
19.6108774873
 10
14.4110971995
 20
19.6109710402
 10
14.4194544121
 20
19.6117481268
 10
14.4277404612
 20
19.6131866799
 10
14.4357200449
 20
19.6152458484
 10
14.4431665641
 20
19.6178671574
 10
14.4498685574
 20
19.6209761686
  0
LWPOLYLINE
  5
368
100
AcDbEntity
  8
RACCORDO
100
AcDbPolyline
 62
253
  6
CONTINUOUS
 90
10
 70
0
 10
14.2641418908
 20
20.4515623405
 10
14.2704904046
 20
20.4496668284
 10
14.2776626361
 20
20.4484048348
 10
14.2854549148
 20
20.4478121981
 10
14.2936459621
 20
20.4479057489
 10
14.3020031746
 20
20.4486828317
 10
14.3102892296
 20
20.4501213806
 10
14.3182688246
 20
20.4521805455
 10
14.325715359
 20
20.4548018525
 10
14.3324173692
 20
20.4579108638
  0
LWPOLYLINE
  5
369
100
AcDbEntity
  8
RACCORDO
100
AcDbPolyline
 62
253
  6
CONTINUOUS
 90
8
 70
0
 10
14.9246003096
 20
20.2482678639
 10
14.9119360233
 20
20.2522161872
 10
14.8991419091
 20
20.2547388045
 10
14.8863824173
 20
20.2556515518
 10
14.8737482549
 20
20.2547650491
 10
14.8615571274
 20
20.2518943793
 10
14.850273552
 20
20.2470174684
 10
14.8445507276
 20
20.2435110289
  0
LWPOLYLINE
  5
36A
100
AcDbEntity
  8
RACCORDO
100
AcDbPolyline
 62
7
  6
CONTINUOUS
 90
3
 70
0
 10
14.1960933377
 20
21.2057409366
 10
14.2105725662
 20
21.2011481555
 10
14.225795716
 20
21.1980905943
  0
LWPOLYLINE
  5
36B
100
AcDbEntity
  8
RACCORDO
100
AcDbPolyline
 62
253
  6
CONTINUOUS
 90
12
 70
0
 10
14.8972263024
 20
20.1852343417
 10
14.887555309
 20
20.1884819753
 10
14.8780454682
 20
20.1903752917
 10
14.8686967798
 20
20.1909142909
 10
14.8593025354
 20
20.1901356595
 10
14.8500694435
 20
20.1880027108
 10
14.8416176296
 20
20.1844053851
 10
14.8340518055
 20
20.1791667643
 10
14.8272672593
 20
20.1724637664
 10
14.8215699814
 20
20.1647170849
 10
14.8170619684
 20
20.1560669511
 10
14.8136412236
 20
20.1463731337
  0
LWPOLYLINE
  5
36C
100
AcDbEntity
  8
RACCORDO
100
AcDbPolyline
 62
253
  6
CONTINUOUS
 90
3
 70
0
 10
14.1782233353
 20
21.232169998
 10
14.1878943287
 20
21.2289223644
 10
14.1974041695
 20
21.2270290481
  0
LINE
  5
36D
100
AcDbEntity
  8
RACCORDO
100
AcDbLine
 62
7
  6
CONTINUOUS
 10
13.5276812912
 20
21.4555115703
 11
13.5299079583
 21
21.4547537401
  0
LINE
  5
36E
100
AcDbEntity
  8
RACCORDO
100
AcDbLine
 62
253
  6
CONTINUOUS
 10
15.5633250909
 20
19.9362538306
 11
14.8972263024
 21
20.1852343417
  0
LINE
  5
36F
100
AcDbEntity
  8
RACCORDO
100
AcDbLine
 62
253
  6
CONTINUOUS
 10
15.590699098
 20
19.9992873528
 11
14.9246003096
 21
20.2482678639
  0
LINE
  5
370
100
AcDbEntity
  8
RACCORDO
100
AcDbLine
 62
7
  6
CONTINUOUS
 10
13.5299734178
 20
21.4547291711
 11
14.1960722426
 21
21.2057486463
  0
LINE
  5
371
100
AcDbEntity
  8
RACCORDO
100
AcDbLine
 62
253
  6
CONTINUOUS
 10
13.512124523
 20
21.4811505181
 11
14.1782233353
 21
21.232169998
  0
LWPOLYLINE
  5
372
100
AcDbEntity
  8
RACCORDO
100
AcDbPolyline
 62
253
  6
CONTINUOUS
 90
19
 70
0
 10
13.2628231968
 20
16.5033496983
 10
13.4062465875
 20
16.4147817331
 10
13.550738131
 20
16.3314514309
 10
13.6962978273
 20
16.2533587918
 10
13.843328367
 20
16.1801990584
 10
13.9914270595
 20
16.112276988
 10
14.1393858331
 20
16.0505068523
 10
14.2871633792
 20
15.995021762
 10
14.4348010064
 20
15.9456886064
 10
14.5812145679
 20
15.9030223248
 10
14.7262899094
 20
15.867139241
 10
14.8701411853
 20
15.8379230311
 10
15.0120267119
 20
15.8155396633
 10
15.1518780479
 20
15.8000449193
 10
15.2897636346
 20
15.7913830173
 10
15.425147113
 20
15.7895525804
 10
15.5578496965
 20
15.7945531495
 10
15.6880501718
 20
15.8063851836
 10
15.8157485386
 20
15.8250486828
  0
LWPOLYLINE
  5
373
100
AcDbEntity
  8
RACCORDO
100
AcDbPolyline
 62
7
  6
CONTINUOUS
 90
19
 70
0
 10
13.1751659659
 20
16.4633468203
 10
13.2903273823
 20
16.3877748529
 10
13.4683552628
 20
16.2776815316
 10
13.6468744953
 20
16.175447939
 10
13.8256965418
 20
16.081216044
 10
14.0045257373
 20
15.9951784457
 10
14.1829679094
 20
15.9175502326
 10
14.3608333716
 20
15.8484351481
 10
14.5378383619
 20
15.7879679136
 10
14.713465104
 20
15.7363295497
 10
14.8875103735
 20
15.6935684133
 10
15.0597243511
 20
15.659737411
 10
15.2295421104
 20
15.6349143033
 10
15.3967201626
 20
15.6190752922
 10
15.5610777738
 20
15.6121796691
 10
15.7221634042
 20
15.6141724534
 10
15.8796946258
 20
15.6249497596
 10
16.0335512038
 20
15.6444019265
 10
16.1804053888
 20
15.6717282652
  0
LWPOLYLINE
  5
374
100
AcDbEntity
  8
RACCORDO
100
AcDbPolyline
 62
253
  6
CONTINUOUS
 90
3
 70
0
 10
-38.2062742248
 20
65.6992646775
 10
-38.2218789116
 20
65.7147661217
 10
-38.2401753049
 20
65.7292531647
  0
LWPOLYLINE
  5
375
100
AcDbEntity
  8
RACCORDO
100
AcDbPolyline
 62
253
  6
CONTINUOUS
 90
9
 70
0
 10
14.4476779139
 20
-43.2950648939
 10
14.4482540269
 20
-43.2998447819
 10
14.4493004682
 20
-43.3042839741
 10
14.4508030875
 20
-43.3083224374
 10
14.4527415655
 20
-43.3119055579
 10
14.4550896883
 20
-43.3149848789
 10
14.4578157021
 20
-43.3175187563
 10
14.4608827424
 20
-43.3194729228
 10
14.4613145054
 20
-43.3196877958
  0
LINE
  5
376
100
AcDbEntity
  8
RACCORDO
100
AcDbLine
 62
7
  6
CONTINUOUS
 10
15.6155117664
 20
-45.11442042
 11
15.6160300909
 21
-45.1188224995
  0
LINE
  5
377
100
AcDbEntity
  8
RACCORDO
100
AcDbLine
 62
253
  6
CONTINUOUS
 10
15.6299340036
 20
20.1877192936
 11
15.6305655522
 21
20.1816834849
  0
LWPOLYLINE
  5
378
100
AcDbEntity
  8
0
100
AcDbPolyline
 62
7
  6
CONTINUOUS
 90
7
 70
0
 10
20.5481324589
 20
-42.1184449542
 10
20.5289692098
 20
-41.9003318363
 10
20.4711167436
 20
-41.666119973
 10
20.3772690233
 20
-41.4301536537
 10
20.251804556
 20
-41.2034419916
 10
20.1031848457
 20
-40.9996894824
 10
19.9313416052
 20
-40.8197998109
  0
LWPOLYLINE
  5
379
100
AcDbEntity
  8
0
100
AcDbPolyline
 62
7
  6
CONTINUOUS
 90
12
 70
0
 10
20.7602644933
 20
-42.2409273322
 10
20.7462819915
 20
-42.0440333916
 10
20.7112691989
 20
-41.8466908557
 10
20.6552261157
 20
-41.6488997246
 10
20.5759937825
 20
-41.4462874806
 10
20.4757311585
 20
-41.2432266414
 10
20.3609151219
 20
-41.0528347598
 10
20.2305848452
 20
-40.8759482502
 10
20.0857011558
 20
-40.7117306982
 10
19.9356234135
 20
-40.5707904145
 10
19.7800087031
 20
-40.4546641818
 10
19.7090502711
 20
-40.4136936724
  0
LWPOLYLINE
  5
37A
100
AcDbEntity
  8
RACCORDO
100
AcDbPolyline
 62
253
  6
CONTINUOUS
 90
10
 70
0
 10
14.8972263024
 20
20.1852343417
 10
14.8966973951
 20
20.1928701783
 10
14.8971875024
 20
20.2008688758
 10
14.8986827082
 20
20.2090032935
 10
14.9011405542
 20
20.2170424362
 10
14.9044912459
 20
20.2247580134
 10
14.9086396338
 20
20.2319309223
 10
14.9134679158
 20
20.2383574701
 10
14.9188389823
 20
20.243855158
 10
14.9246003096
 20
20.2482678639
  0
LWPOLYLINE
  5
37B
100
AcDbEntity
  8
RACCORDO
100
AcDbPolyline
 62
253
  6
CONTINUOUS
 90
10
 70
0
 10
15.5633250909
 20
19.9362538306
 10
15.5627961887
 20
19.943889683
 10
15.5632863038
 20
19.9518883934
 10
15.5647815183
 20
19.9600228194
 10
15.567239372
 20
19.9680619649
 10
15.5705900683
 20
19.9757775395
 10
15.5747384566
 20
19.9829504414
 10
15.5795667333
 20
19.9893769791
 10
15.5849377884
 20
19.9948746561
 10
15.5906990981
 20
19.9992873528
  0
LWPOLYLINE
  5
37C
100
AcDbEntity
  8
RACCORDO
100
AcDbPolyline
 62
253
  6
CONTINUOUS
 90
10
 70
0
 10
13.4448840895
 20
21.2357208506
 10
13.443420878
 20
21.2596595969
 10
13.4423234715
 20
21.2833928902
 10
13.4415918701
 20
21.3069207306
 10
13.4412260766
 20
21.3302469952
 10
13.4412260882
 20
21.3533678069
 10
13.4415918958
 20
21.3762715335
 10
13.4423234966
 20
21.3989542977
 10
13.4434208935
 20
21.4214199767
 10
13.4448840864
 20
21.4436685707
  0
LWPOLYLINE
  5
37D
100
AcDbEntity
  8
RACCORDO
100
AcDbPolyline
 62
253
  6
CONTINUOUS
 90
7
 70
0
 10
13.4930769871
 20
21.231211848
 10
13.4916552055
 20
21.254457901
 10
13.4905884538
 20
21.277525212
 10
13.4898770882
 20
21.3004060823
 10
13.4895213461
 20
21.3230928753
 10
13.4895213462
 20
21.3455780191
 10
13.4898770881
 20
21.3678540093
  0
LINE
  5
37E
100
AcDbEntity
  8
RACCORDO
100
AcDbLine
 62
7
  6
CONTINUOUS
 10
15.6174553216
 20
20.1755042444
 11
15.6160378855
 21
20.1986784267
  0
LINE
  5
37F
100
AcDbEntity
  8
RACCORDO
100
AcDbLine
 62
253
  6
CONTINUOUS
 10
15.6305655522
 20
20.1816834849
 11
15.6320287619
 21
20.1577447401
  0
LWPOLYLINE
  5
380
100
AcDbEntity
  8
0
100
AcDbPolyline
 62
7
  6
CONTINUOUS
 90
19
 70
0
 10
16.5176238062
 20
-45.7520888349
 10
16.5027566701
 20
-45.4723933592
 10
16.4629558304
 20
-45.1887801909
 10
16.3982212871
 20
-44.9012493298
 10
16.3070171863
 20
-44.6058423839
 10
16.1908793818
 20
-44.3065177452
 10
16.054415436
 20
-44.01515059
 10
15.896808138
 20
-43.7320608482
 10
15.7188746985
 20
-43.4569285898
 10
15.5276743125
 20
-43.200669201
 10
15.3226735834
 20
-42.9640414641
 10
15.1044059078
 20
-42.7462865968
 10
14.88153067
 20
-42.5560436387
 10
14.6538626233
 20
-42.394418704
 10
14.4215870144
 20
-42.2603056786
 10
14.1939189677
 20
-42.1590252597
 10
13.9710437299
 20
-42.0918974796
 10
13.7527760543
 20
-42.0576023062
 10
13.5477753252
 20
-42.0575003397
  0
LWPOLYLINE
  5
381
100
AcDbEntity
  8
0
100
AcDbPolyline
 62
7
  6
CONTINUOUS
 90
19
 70
0
 10
16.5176238062
 20
19.5655333086
 10
16.5027566701
 20
19.8452287842
 10
16.4629558304
 20
20.1288419525
 10
16.3982212871
 20
20.4163728136
 10
16.3070171863
 20
20.7117797595
 10
16.1908793818
 20
21.0111043982
 10
16.054415436
 20
21.3024715534
 10
15.896808138
 20
21.5855612952
 10
15.7188746985
 20
21.8606935536
 10
15.5276743125
 20
22.1169529424
 10
15.3226735834
 20
22.3535806793
 10
15.1044059078
 20
22.5713355466
 10
14.88153067
 20
22.7615785047
 10
14.6538626233
 20
22.9232034394
 10
14.4215870144
 20
23.0573164649
 10
14.1939189677
 20
23.1585968838
 10
13.9710437299
 20
23.2257246638
 10
13.7527760543
 20
23.2600198372
 10
13.5477753252
 20
23.2601218037
  0
LWPOLYLINE
  5
382
100
AcDbEntity
  8
0
100
AcDbPolyline
 62
7
  6
CONTINUOUS
 90
5
 70
0
 10
16.7651111796
 20
-45.6091927272
 10
16.7517238109
 20
-45.3360610699
 10
16.7117427461
 20
-45.0511636519
 10
16.6457086606
 20
-44.7583532221
 10
16.577042627
 20
-44.5349003555
  0
LWPOLYLINE
  5
383
100
AcDbEntity
  8
0
100
AcDbPolyline
 62
7
  6
CONTINUOUS
 90
5
 70
0
 10
16.7651111796
 20
19.7084294162
 10
16.7517238109
 20
19.9815610736
 10
16.7117427461
 20
20.2664584915
 10
16.6457086606
 20
20.5592689213
 10
16.5770426791
 20
20.7827216185
  0
LWPOLYLINE
  5
384
100
AcDbEntity
  8
RACCORDO
100
AcDbPolyline
 62
253
  6
CONTINUOUS
 90
3
 70
0
 10
15.6320287619
 20
-45.1598774034
 10
15.6331261671
 20
-45.1836106955
 10
15.6338577676
 20
-45.2071385348
  0
LWPOLYLINE
  5
385
100
AcDbEntity
  8
RACCORDO
100
AcDbPolyline
 62
253
  6
CONTINUOUS
 90
3
 70
0
 10
15.6320287619
 20
20.1577447401
 10
15.6331261671
 20
20.134011448
 10
15.6338577676
 20
20.1104836086
  0
LWPOLYLINE
  5
386
100
AcDbEntity
  8
RACCORDO
100
AcDbPolyline
 62
253
  6
CONTINUOUS
 90
22
 70
0
 10
14.4484361901
 20
35.5579127872
 10
14.447178383
 20
35.5888341693
 10
14.443970176
 20
35.6207344639
 10
14.4388304432
 20
35.6534358629
 10
14.4317894029
 20
35.6867564003
 10
14.4228865311
 20
35.7205098555
 10
14.4121703377
 20
35.7545067918
 10
14.3997009746
 20
35.7885572671
 10
14.3855489113
 20
35.822471387
 10
14.3697926146
 20
35.8560592494
 10
14.3525200837
 20
35.8891330146
 10
14.3338283008
 20
35.9215080708
 10
14.3138216853
 20
35.9530035494
 10
14.2926115963
 20
35.9834431626
 10
14.2703167326
 20
36.0126567642
 10
14.2470623974
 20
36.040481413
 10
14.2229778543
 20
36.0667611295
 10
14.1981974887
 20
36.0913488575
 10
14.1728610671
 20
36.1141078552
 10
14.1471101135
 20
36.13491082
 10
14.1210871229
 20
36.1536406033
 10
14.0949366474
 20
36.170191955
  0
LWPOLYLINE
  5
387
100
AcDbEntity
  8
RACCORDO
100
AcDbPolyline
 62
253
  6
CONTINUOUS
 90
22
 70
0
 10
14.0279066446
 20
35.5600317448
 10
14.027492697
 20
35.5725917981
 10
14.0263096943
 20
35.5853930295
 10
14.0243576365
 20
35.5984354391
 10
14.0216168523
 20
35.6117948058
 10
14.018107013
 20
35.6253953506
 10
14.0138871325
 20
35.6390097365
 10
14.0089455224
 20
35.6526376992
 10
14.0032938712
 20
35.666279503
 10
13.9970262572
 20
35.6797086043
 10
13.990132421
 20
35.6929214295
 10
13.982622622
 20
35.7059215522
 10
13.9746217179
 20
35.7184931502
 10
13.9661215078
 20
35.7306289876
 10
13.9571301926
 20
35.7423363003
 10
13.9477972323
 20
35.7534209739
 10
13.9381138181
 20
35.7638746723
 10
13.9280887589
 20
35.7737057317
 10
13.9178979416
 20
35.7827450459
 10
13.907599995
 20
35.7909362464
 10
13.8971362904
 20
35.7983357017
 10
13.8865068275
 20
35.8049434119
  0
LWPOLYLINE
  5
388
100
AcDbEntity
  8
RACCORDO
100
AcDbPolyline
 62
7
  6
CONTINUOUS
 90
22
 70
0
 10
15.3155422782
 20
36.058567315
 10
15.3145620534
 20
36.0895757431
 10
15.3116093751
 20
36.1215889492
 10
15.3066951439
 20
36.1544332941
 10
15.2998322027
 20
36.1879750265
 10
15.2910572527
 20
36.2219845055
 10
15.2804552275
 20
36.2561325243
 10
15.2681432343
 20
36.2901157804
 10
15.254173067
 20
36.3238574494
 10
15.2385387172
 20
36.3573640009
 10
15.2212411226
 20
36.3905758855
 10
15.2024247204
 20
36.4231668501
 10
15.182311091
 20
36.454753106
 10
15.1611105617
 20
36.4850464365
 10
15.1388742366
 20
36.5140162519
 10
15.115599517
 20
36.5416709906
 10
15.0913270374
 20
36.5679273859
 10
15.0662609148
 20
36.5925323638
 10
15.0406437888
 20
36.6152477581
 10
15.0146561881
 20
36.6359269559
 10
14.988407527
 20
36.6544919534
 10
14.9620427355
 20
36.6708464828
  0
LWPOLYLINE
  5
389
100
AcDbEntity
  8
RACCORDO
100
AcDbPolyline
 62
7
  6
CONTINUOUS
 90
11
 70
0
 10
13.1749552315
 20
24.1661697737
 10
13.175289129
 20
24.153413986
 10
13.1775887035
 20
24.1298406172
 10
13.1819945721
 20
24.1059923702
 10
13.1884127771
 20
24.0821750418
 10
13.1967362279
 20
24.0584802831
 10
13.2068481034
 20
24.0349847721
 10
13.2186390632
 20
24.0119621574
 10
13.2319893716
 20
23.9895455137
 10
13.2467627956
 20
23.967725276
 10
13.2628231968
 20
23.9465509273
  0
LWPOLYLINE
  5
38A
100
AcDbEntity
  8
RACCORDO
100
AcDbPolyline
 62
7
  6
CONTINUOUS
 90
31
 70
0
 10
16.8358218577
 20
-45.88797989
 10
16.8328057675
 20
-45.7529521167
 10
16.8237302348
 20
-45.6141841479
 10
16.8085724321
 20
-45.4720920577
 10
16.7873356605
 20
-45.3271176069
 10
16.7600421628
 20
-45.1796800092
 10
16.7267229323
 20
-45.0301592584
 10
16.6874269435
 20
-44.8789602651
 10
16.6422429107
 20
-44.7265706789
 10
16.5912876556
 20
-44.5734876822
 10
16.5346869465
 20
-44.420166119
 10
16.4725870084
 20
-44.2670647711
 10
16.405170847
 20
-44.1146804298
 10
16.3326244464
 20
-43.9634653883
 10
16.2551526102
 20
-43.8138713799
 10
16.1729991155
 20
-43.666383241
 10
16.0864045756
 20
-43.5214377779
 10
15.9956241902
 20
-43.3794628126
 10
15.900953182
 20
-43.2409131644
 10
15.8026781824
 20
-43.1061943324
 10
15.7010966663
 20
-42.9756970656
 10
15.5965465485
 20
-42.8498321585
 10
15.489352755
 20
-42.7289610397
 10
15.37984458
 20
-42.6134224616
 10
15.2683901598
 20
-42.5035667355
 10
15.1553483268
 20
-42.3997026207
 10
15.0410650946
 20
-42.3020999255
 10
14.9259108059
 20
-42.2110233984
 10
14.8102586661
 20
-42.1267112728
 10
14.6944733759
 20
-42.0493680394
 10
14.5789282278
 20
-41.9791772956
  0
LWPOLYLINE
  5
38B
100
AcDbEntity
  8
RACCORDO
100
AcDbPolyline
 62
7
  6
CONTINUOUS
 90
31
 70
0
 10
16.8358218577
 20
19.4296423019
 10
16.8328058656
 20
19.5646678003
 10
16.8237304177
 20
19.7034358742
 10
16.8085726858
 20
19.8455280834
 10
16.7873359709
 20
19.9905026656
 10
16.7600425155
 20
20.1379404059
 10
16.7267233127
 20
20.2874613092
 10
16.6874273371
 20
20.438660464
 10
16.6422433028
 20
20.5910502187
 10
16.5912880319
 20
20.7441333893
 10
16.5346872928
 20
20.8974551303
 10
16.4725873111
 20
21.0505566583
 10
16.4051710929
 20
21.2029411802
 10
16.3326246229
 20
21.3541564013
 10
16.2551527053
 20
21.5037505865
 10
16.172999118
 20
21.651238898
 10
16.0864044752
 20
21.7961845278
 10
15.9956239776
 20
21.9381596524
 10
15.9009528487
 20
22.076709451
 10
15.8026777212
 20
22.2114284231
 10
15.7010960708
 20
22.3419258184
 10
15.5965458137
 20
22.4677908411
 10
15.4893518772
 20
22.5886620614
 10
15.3798435565
 20
22.7042007258
 10
15.2683889894
 20
22.8140565221
 10
15.1553470096
 20
22.9179206901
 10
15.0410636319
 20
23.0155234207
 10
14.9259092002
 20
23.106599965
 10
14.8102569213
 20
23.1909120892
 10
14.6944714972
 20
23.2682553021
 10
14.5789282695
 20
23.3384448237
  0
LWPOLYLINE
  5
38C
100
AcDbEntity
  8
RACCORDO
100
AcDbPolyline
 62
253
  6
CONTINUOUS
 90
10
 70
0
 10
14.6277717221
 20
-45.9227750569
 10
14.6276737222
 20
-45.9177191124
 10
14.6280551662
 20
-45.9124554771
 10
14.6289108969
 20
-45.9070553321
 10
14.6302293428
 20
-45.9015917044
 10
14.6319926754
 20
-45.8961384804
 10
14.6341770489
 20
-45.8907694066
 10
14.636752924
 20
-45.8855570911
 10
14.639685467
 20
-45.8805720217
 10
14.6429350206
 20
-45.8758816138
  0
LWPOLYLINE
  5
38D
100
AcDbEntity
  8
RACCORDO
100
AcDbPolyline
 62
253
  6
CONTINUOUS
 90
10
 70
0
 10
14.6277717221
 20
19.3948470866
 10
14.6276737222
 20
19.399903031
 10
14.6280551662
 20
19.4051666663
 10
14.6289108969
 20
19.4105668114
 10
14.6302293428
 20
19.416030439
 10
14.6319926754
 20
19.421483663
 10
14.6341770489
 20
19.4268527368
 10
14.636752924
 20
19.4320650523
 10
14.639685467
 20
19.4370501217
 10
14.6429350206
 20
19.4417405296
  0
LINE
  5
38E
100
AcDbEntity
  8
RACCORDO
100
AcDbLine
 62
253
  6
CONTINUOUS
 10
15.6338577676
 20
-45.2071385348
 11
15.6342235606
 21
-45.2304647987
  0
LINE
  5
38F
100
AcDbEntity
  8
RACCORDO
100
AcDbLine
 62
253
  6
CONTINUOUS
 10
15.6338577676
 20
20.1104836086
 11
15.6342235606
 21
20.0871573447
  0
LINE
  5
390
100
AcDbEntity
  8
RACCORDO
100
AcDbLine
 62
7
  6
CONTINUOUS
 10
13.1749552311
 20
26.6708488845
 11
13.1749552311
 21
24.1661913284
  0
LINE
  5
391
100
AcDbEntity
  8
RACCORDO
100
AcDbLine
 62
7
  6
CONTINUOUS
 10
13.1749552311
 20
18.9623177922
 11
13.1749552311
 21
16.4637446479
  0
LINE
  5
392
100
AcDbEntity
  8
RACCORDO
100
AcDbLine
 62
7
  6
CONTINUOUS
 10
13.1749552311
 20
-38.6467732589
 11
13.1749552311
 21
-41.151430815
  0
LINE
  5
393
100
AcDbEntity
  8
RACCORDO
100
AcDbLine
 62
7
  6
CONTINUOUS
 10
13.1749552311
 20
-46.3553043513
 11
13.1749552311
 21
-48.8538774955
  0
LINE
  5
394
100
AcDbEntity
  8
RACCORDO
100
AcDbLine
 62
253
  6
CONTINUOUS
 10
13.2628231968
 20
26.3862790781
 11
13.2628231968
 21
23.9465509273
  0
LINE
  5
395
100
AcDbEntity
  8
RACCORDO
100
AcDbLine
 62
253
  6
CONTINUOUS
 10
13.2628231968
 20
18.9430778492
 11
13.2628231968
 21
16.5033496983
  0
LINE
  5
396
100
AcDbEntity
  8
RACCORDO
100
AcDbLine
 62
253
  6
CONTINUOUS
 10
13.2628231968
 20
-38.9313430653
 11
13.2628231968
 21
-41.3710712162
  0
LINE
  5
397
100
AcDbEntity
  8
RACCORDO
100
AcDbLine
 62
253
  6
CONTINUOUS
 10
13.2628231968
 20
-46.3745442943
 11
13.2628231968
 21
-48.8142724452
  0
LINE
  5
398
100
AcDbEntity
  8
RACCORDO
100
AcDbLine
 62
253
  6
CONTINUOUS
 10
14.0279066446
 20
-57.0751160893
 11
14.0279066446
 21
-49.3326151613
  0
LINE
  5
399
100
AcDbEntity
  8
RACCORDO
100
AcDbLine
 62
253
  6
CONTINUOUS
 10
14.0279066446
 20
-38.2189242854
 11
14.0279066446
 21
15.9850069821
  0
LINE
  5
39A
100
AcDbEntity
  8
RACCORDO
100
AcDbLine
 62
253
  6
CONTINUOUS
 10
14.0279066446
 20
27.098697858
 11
14.0279066446
 21
35.5600317448
  0
LINE
  5
39B
100
AcDbEntity
  8
RACCORDO
100
AcDbLine
 62
253
  6
CONTINUOUS
 10
14.4484361901
 20
-57.0772350469
 11
14.4484361901
 21
-49.4991132712
  0
LINE
  5
39C
100
AcDbEntity
  8
RACCORDO
100
AcDbLine
 62
253
  6
CONTINUOUS
 10
14.4484361901
 20
-38.2102672208
 11
14.4484361901
 21
15.8185088723
  0
LINE
  5
39D
100
AcDbEntity
  8
RACCORDO
100
AcDbLine
 62
253
  6
CONTINUOUS
 10
14.4484361901
 20
27.1073549226
 11
14.4484361901
 21
35.5579127872
  0
LINE
  5
39E
100
AcDbEntity
  8
RACCORDO
100
AcDbLine
 62
7
  6
CONTINUOUS
 10
15.3155422782
 20
36.058567315
 11
15.3155422782
 21
27.608037774
  0
LINE
  5
39F
100
AcDbEntity
  8
DRAFT
100
AcDbLine
 62
7
  6
CONTINUOUS
 10
15.3155422782
 20
15.6267663581
 11
15.3155422782
 21
-37.7095843694
  0
LINE
  5
3A0
100
AcDbEntity
  8
RACCORDO
100
AcDbLine
 62
7
  6
CONTINUOUS
 10
15.3155422782
 20
-49.6908557853
 11
15.3155422782
 21
-56.6109334534
  0
LWPOLYLINE
  5
3A1
100
AcDbEntity
  8
RACCORDO
100
AcDbPolyline
 62
7
  6
CONTINUOUS
 90
5
 70
0
 10
15.6195803551
 20
-45.232762354
 10
15.6195800862
 20
-45.2104251187
 10
15.6192261435
 20
-45.1878668718
 10
15.6185180055
 20
-45.1650949754
 10
15.6174553216
 20
-45.142117899
  0
LWPOLYLINE
  5
3A2
100
AcDbEntity
  8
RACCORDO
100
AcDbPolyline
 62
7
  6
CONTINUOUS
 90
5
 70
0
 10
15.6195803551
 20
20.0848597894
 10
15.6195800862
 20
20.1071970247
 10
15.6192261435
 20
20.1297552716
 10
15.6185180055
 20
20.152527168
 10
15.6174553216
 20
20.1755042444
  0
LWPOLYLINE
  5
3A3
100
AcDbEntity
  8
RACCORDO
100
AcDbPolyline
 62
253
  6
CONTINUOUS
 90
5
 70
0
 10
15.6342235606
 20
20.0871573447
 10
15.634223549
 20
20.0640365335
 10
15.6338577419
 20
20.0411328071
 10
15.6331261421
 20
20.0184500428
 10
15.6320287468
 20
19.9959843633
  0
LWPOLYLINE
  5
3A4
100
AcDbEntity
  8
RACCORDO
100
AcDbPolyline
 62
253
  6
CONTINUOUS
 90
5
 70
0
 10
15.6342235606
 20
-45.2304647987
 10
15.634223549
 20
-45.2535856099
 10
15.6338577419
 20
-45.2764893363
 10
15.6331261421
 20
-45.2991721006
 10
15.6320287468
 20
-45.3216377801
  0
LINE
  5
3A5
100
AcDbEntity
  8
DRAFT
100
AcDbLine
 62
7
  6
CONTINUOUS
 10
15.8018772086
 20
-6.9236387942
 11
15.8018772086
 21
-13.0471658702
  0
LINE
  5
3A6
100
AcDbEntity
  8
RACCORDO
100
AcDbLine
 62
253
  6
CONTINUOUS
 10
15.8157485386
 20
-49.4925734606
 11
15.8157485386
 21
-47.846446639
  0
LINE
  5
3A7
100
AcDbEntity
  8
RACCORDO
100
AcDbLine
 62
253
  6
CONTINUOUS
 10
15.8157485386
 20
-42.8472230649
 11
15.8157485386
 21
-41.2010962433
  0
LINE
  5
3A8
100
AcDbEntity
  8
RACCORDO
100
AcDbLine
 62
253
  6
CONTINUOUS
 10
15.8157485386
 20
15.8250486828
 11
15.8157485386
 21
17.4711755045
  0
LINE
  5
3A9
100
AcDbEntity
  8
RACCORDO
100
AcDbLine
 62
253
  6
CONTINUOUS
 10
15.8157485386
 20
22.4703990786
 11
15.8157485386
 21
24.1165259002
  0
LINE
  5
3AA
100
AcDbEntity
  8
RACCORDO
100
AcDbLine
 62
253
  6
CONTINUOUS
 10
16.2362780841
 20
-49.625386163
 11
16.2362780841
 21
-47.9937902044
  0
LINE
  5
3AB
100
AcDbEntity
  8
RACCORDO
100
AcDbLine
 62
253
  6
CONTINUOUS
 10
16.2362780841
 20
-42.7132329391
 11
16.2362780841
 21
-41.072521456
  0
LINE
  5
3AC
100
AcDbEntity
  8
RACCORDO
100
AcDbLine
 62
253
  6
CONTINUOUS
 10
16.2362780841
 20
15.6922359804
 11
16.2362780841
 21
17.323831939
  0
LINE
  5
3AD
100
AcDbEntity
  8
RACCORDO
100
AcDbLine
 62
253
  6
CONTINUOUS
 10
16.2362780841
 20
22.6043892043
 11
16.2362780841
 21
24.2451006874
  0
LINE
  5
3AE
100
AcDbEntity
  8
RACCORDO
100
AcDbLine
 62
7
  6
CONTINUOUS
 10
16.496641395
 20
36.740521484
 11
16.496641395
 21
28.2899355154
  0
LINE
  5
3AF
100
AcDbEntity
  8
DRAFT
100
AcDbLine
 62
7
  6
CONTINUOUS
 10
16.496641395
 20
15.834699057
 11
16.496641395
 21
-6.4939861996
  0
LINE
  5
3B0
100
AcDbEntity
  8
DRAFT
100
AcDbLine
 62
7
  6
CONTINUOUS
 10
16.496641395
 20
-12.646016359
 11
16.496641395
 21
-37.0276866281
  0
LINE
  5
3B1
100
AcDbEntity
  8
RACCORDO
100
AcDbLine
 62
7
  6
CONTINUOUS
 10
16.496641395
 20
-49.4829230864
 11
16.496641395
 21
-55.8805240426
  0
LINE
  5
3B2
100
AcDbEntity
  8
0
100
AcDbLine
 62
7
  6
CONTINUOUS
 10
16.7651111796
 20
20.1105597622
 11
16.7651111796
 21
19.7084294162
  0
LINE
  5
3B3
100
AcDbEntity
  8
0
100
AcDbLine
 62
7
  6
CONTINUOUS
 10
16.7651111796
 20
-45.2070624892
 11
16.7651111796
 21
-45.6091927272
  0
LINE
  5
3B4
100
AcDbEntity
  8
RACCORDO
100
AcDbLine
 62
7
  6
CONTINUOUS
 10
16.8156044217
 20
-49.0124294875
 11
16.8156044217
 21
-47.7496381516
  0
LINE
  5
3B5
100
AcDbEntity
  8
RACCORDO
100
AcDbLine
 62
7
  6
CONTINUOUS
 10
16.8156044217
 20
-42.3840082331
 11
16.8156044217
 21
-41.0394405172
  0
LINE
  5
3B6
100
AcDbEntity
  8
RACCORDO
100
AcDbLine
 62
7
  6
CONTINUOUS
 10
16.8156044217
 20
16.3051926559
 11
16.8156044217
 21
17.5679839919
  0
LINE
  5
3B7
100
AcDbEntity
  8
RACCORDO
100
AcDbLine
 62
7
  6
CONTINUOUS
 10
16.8156044217
 20
22.9336139104
 11
16.8156044217
 21
24.2781816262
  0
LWPOLYLINE
  5
3B8
100
AcDbEntity
  8
RACCORDO
100
AcDbPolyline
 62
7
  6
CONTINUOUS
 90
12
 70
0
 10
13.1749552312
 20
-38.6467691614
 10
13.1751310285
 20
-38.6354434931
 10
13.1764537547
 20
-38.6143773533
 10
13.1791340138
 20
-38.593728724
 10
13.1832425478
 20
-38.5735709651
 10
13.1888784103
 20
-38.5541485522
 10
13.1961251235
 20
-38.5355034366
 10
13.2050505852
 20
-38.5177523405
 10
13.2157568556
 20
-38.5012710198
 10
13.2283222641
 20
-38.486259949
 10
13.2427793017
 20
-38.4727389985
 10
13.259153291
 20
-38.460830666
  0
LINE
  5
3B9
100
AcDbEntity
  8
RACCORDO
100
AcDbLine
 62
7
  6
CONTINUOUS
 10
15.6192275648
 20
20.0627499377
 11
15.6195803551
 21
20.0848597894
  0
LINE
  5
3BA
100
AcDbEntity
  8
RACCORDO
100
AcDbLine
 62
7
  6
CONTINUOUS
 10
15.6192275648
 20
-45.2548722057
 11
15.6195803551
 21
-45.232762354
  0
LWPOLYLINE
  5
3BB
100
AcDbEntity
  8
RACCORDO
100
AcDbPolyline
 62
253
  6
CONTINUOUS
 90
8
 70
0
 10
14.6277717225
 20
21.9185733451
 10
14.6276737235
 20
21.9141826701
 10
14.6280551705
 20
21.9101274318
 10
14.6289109051
 20
21.9064624704
 10
14.6302293551
 20
21.9032373484
 10
14.6319926909
 20
21.9004956802
 10
14.6341770665
 20
21.8982745426
 10
14.6352239085
 20
21.8974971201
  0
LWPOLYLINE
  5
3BC
100
AcDbEntity
  8
RACCORDO
100
AcDbPolyline
 62
253
  6
CONTINUOUS
 90
8
 70
0
 10
14.6277717225
 20
-43.3990487984
 10
14.6276737235
 20
-43.4034394733
 10
14.6280551705
 20
-43.4074947117
 10
14.6289109051
 20
-43.4111596731
 10
14.6302293551
 20
-43.4143847951
 10
14.6319926909
 20
-43.4171264632
 10
14.6341770665
 20
-43.4193476009
 10
14.6352239085
 20
-43.4201250233
  0
LWPOLYLINE
  5
3BD
100
AcDbEntity
  8
RACCORDO
100
AcDbPolyline
 62
253
  6
CONTINUOUS
 90
49
 70
0
 10
16.8358218577
 20
19.4296420621
 10
16.8325474019
 20
19.291213574
 10
16.8227330988
 20
19.1569636201
 10
16.8064067728
 20
19.0272822643
 10
16.783614815
 20
18.9025447813
 10
16.7544229044
 20
18.7831154852
 10
16.7189166524
 20
18.6693459576
 10
16.6771997973
 20
18.5615676818
 10
16.6293931242
 20
18.4600919329
 10
16.5756355691
 20
18.3652132694
 10
16.5160835678
 20
18.2772073332
 10
16.4509098644
 20
18.1963289928
 10
16.3803028508
 20
18.1228120098
 10
16.3044668458
 20
18.0568694705
 10
16.2236223582
 20
17.9986934391
 10
16.1380047165
 20
17.9484533013
 10
16.047862873
 20
17.9062949773
 10
15.9534581641
 20
17.8723405356
 10
15.8550642226
 20
17.8466883681
 10
15.7529664249
 20
17.8294129387
 10
15.6474613064
 20
17.8205644839
 10
15.5388553004
 20
17.8201687126
 10
15.4274637449
 20
17.8282267497
 10
15.3136098908
 20
17.8447151878
 10
15.197624159
 20
17.8695861675
 10
15.0798432186
 20
17.9027674948
 10
14.9606089415
 20
17.9441628557
 10
14.8402673482
 20
17.9936521259
 10
14.7191676561
 20
18.0510917143
 10
14.5976614627
 20
18.1163148738
 10
14.4761016518
 20
18.1891321747
 10
14.3548412892
 20
18.2693320778
 10
14.2342321254
 20
18.356681896
 10
14.1146237796
 20
18.4509284421
 10
13.9963629655
 20
18.5517986318
 10
13.8797934567
 20
18.6589993581
 10
13.7652545741
 20
18.7722185406
 10
13.653079484
 20
18.8911266413
 10
13.5435929789
 20
19.0153791579
 10
13.4371115896
 20
19.1446168789
 10
13.3339441083
 20
19.2784652218
 10
13.2343904195
 20
19.4165353286
 10
13.1387394203
 20
19.5584267215
 10
13.0472677966
 20
19.703729456
 10
12.9602423391
 20
19.8520200491
 10
12.877918471
 20
20.0028626141
 10
12.8005355817
 20
20.1558172701
 10
12.7283168894
 20
20.3104417248
 10
12.66147155
 20
20.4662871011
  0
LWPOLYLINE
  5
3BE
100
AcDbEntity
  8
RACCORDO
100
AcDbPolyline
 62
253
  6
CONTINUOUS
 90
12
 70
0
 10
12.5066459333
 20
-41.5202861368
 10
12.5062406005
 20
-41.5328278332
 10
12.50620942
 20
-41.5454401713
 10
12.5065492619
 20
-41.558106767
 10
12.5072566063
 20
-41.5708077276
 10
12.5083351299
 20
-41.5835211067
 10
12.5097779457
 20
-41.5962122083
 10
12.5115805358
 20
-41.6088805304
 10
12.5137545308
 20
-41.6215547689
 10
12.5162916859
 20
-41.6341814476
 10
12.5191938877
 20
-41.6467776743
 10
12.5225067988
 20
-41.6594721459
  0
LWPOLYLINE
  5
3BF
100
AcDbEntity
  8
RACCORDO
100
AcDbPolyline
 62
253
  6
CONTINUOUS
 90
4
 70
0
 10
13.4898770881
 20
-43.9497681341
 10
13.4905884531
 20
-43.9277087321
 10
13.4916552038
 20
-43.9058732807
 10
13.4930769842
 20
-43.8842690676
  0
LINE
  5
3C0
100
AcDbEntity
  8
RACCORDO
100
AcDbLine
 62
7
  6
CONTINUOUS
 10
15.6185224259
 20
20.0408747906
 11
15.6192275648
 21
20.0627499377
  0
LINE
  5
3C1
100
AcDbEntity
  8
RACCORDO
100
AcDbLine
 62
7
  6
CONTINUOUS
 10
15.6185224259
 20
-45.2767473528
 11
15.6192275648
 21
-45.2548722057
  0
LWPOLYLINE
  5
3C2
100
AcDbEntity
  8
RACCORDO
100
AcDbPolyline
 62
7
  6
CONTINUOUS
 90
6
 70
0
 10
12.4764960096
 20
-44.8042065282
 10
12.4768393483
 20
-44.7936265295
 10
12.4777424264
 20
-44.7830756185
 10
12.4792034969
 20
-44.7725824232
 10
12.4812217639
 20
-44.7621650812
 10
12.4828154691
 20
-44.7555090237
  0
LWPOLYLINE
  5
3C3
100
AcDbEntity
  8
RACCORDO
100
AcDbPolyline
 62
7
  6
CONTINUOUS
 90
12
 70
0
 10
15.3155422782
 20
-56.6109334534
 10
15.314554663
 20
-56.6408056753
 10
15.3116036008
 20
-56.6694101356
 10
15.3066951439
 20
-56.6965829836
 10
15.29983478
 20
-56.7222010516
 10
15.2910578696
 20
-56.7460763064
 10
15.2804552275
 20
-56.7679810162
 10
15.2681435042
 20
-56.7877468469
 10
15.2541722067
 20
-56.8053554642
 10
15.2385387172
 20
-56.8208083572
 10
15.2212433301
 20
-56.8340466878
 10
15.2163477682
 20
-56.8371934758
  0
LWPOLYLINE
  5
3C4
100
AcDbEntity
  8
RACCORDO
100
AcDbPolyline
 62
7
  6
CONTINUOUS
 90
19
 70
0
 10
16.8156044217
 20
24.2781816262
 10
16.8167141413
 20
24.3077745488
 10
16.8195126378
 20
24.3372675352
 10
16.823999911
 20
24.3666605853
 10
16.8303187293
 20
24.3962369984
 10
16.8383263243
 20
24.4257134752
 10
16.8475943917
 20
24.4542401181
 10
16.8580513078
 20
24.4815790127
 10
16.8697686962
 20
24.5079680734
 10
16.882533124
 20
24.5332711453
 10
16.8964078942
 20
24.5576100745
 10
16.9113297036
 20
24.580863015
 10
16.9268952103
 20
24.6025282727
 10
16.943167256
 20
24.6225712569
 10
16.9600829989
 20
24.6410265584
 10
16.9770505713
 20
24.6574962557
 10
16.9938726839
 20
24.6718477082
 10
17.010746626
 20
24.6842135565
 10
17.0276723976
 20
24.6945938006
  0
LINE
  5
3C5
100
AcDbEntity
  8
RACCORDO
100
AcDbLine
 62
7
  6
CONTINUOUS
 10
15.6174658214
 20
20.0192424928
 11
15.6185224259
 21
20.0408747906
  0
LWPOLYLINE
  5
3C6
100
AcDbEntity
  8
0
100
AcDbPolyline
 62
7
  6
CONTINUOUS
 90
8
 70
0
 10
16.7651111796
 20
19.7084294162
 10
16.7517238109
 20
19.4507571567
 10
16.7117427461
 20
19.2120288701
 10
16.6457086606
 20
18.9954729472
 10
16.5545145519
 20
18.8040179352
 10
16.439393664
 20
18.6402529347
 10
16.3019028094
 20
18.5063925865
 10
16.1852798407
 20
18.426766205
  0
LWPOLYLINE
  5
3C7
100
AcDbEntity
  8
0
100
AcDbPolyline
 62
7
  6
CONTINUOUS
 90
6
 70
0
 10
16.5176238062
 20
19.5655333086
 10
16.5027566701
 20
19.3030060291
 10
16.4629558304
 20
19.0653538727
 10
16.3982212871
 20
18.8525768395
 10
16.3070171863
 20
18.6624901032
 10
16.1908793818
 20
18.49727849
  0
LINE
  5
3C8
100
AcDbEntity
  8
RACCORDO
100
AcDbLine
 62
253
  6
CONTINUOUS
 10
15.6320287468
 20
19.9959843633
 11
15.6305655558
 21
19.9737357685
  0
LINE
  5
3C9
100
AcDbEntity
  8
RACCORDO
100
AcDbLine
 62
7
  6
CONTINUOUS
 10
15.616058778
 20
19.9978605942
 11
15.6174658214
 21
20.0192424928
  0
LINE
  5
3CA
100
AcDbEntity
  8
RACCORDO
100
AcDbLine
 62
7
  6
CONTINUOUS
 10
15.616058778
 20
19.9978605944
 11
15.6160637956
 21
19.9979264948
  0
LWPOLYLINE
  5
3CB
100
AcDbEntity
  8
RACCORDO
100
AcDbPolyline
 62
253
  6
CONTINUOUS
 90
6
 70
0
 10
14.8972263024
 20
20.8170266961
 10
14.8966974002
 20
20.8111609982
 10
14.8971875153
 20
20.8060415665
 10
14.8986827297
 20
20.8018137791
 10
14.9011405834
 20
20.798597694
 10
14.9018059057
 20
20.7980341561
  0
LWPOLYLINE
  5
3CC
100
AcDbEntity
  8
RACCORDO
100
AcDbPolyline
 62
253
  6
CONTINUOUS
 90
6
 70
0
 10
15.5633251063
 20
20.2968130106
 10
15.5627962043
 20
20.290947341
 10
15.5632863105
 20
20.2858279226
 10
15.5647815115
 20
20.2816001356
 10
15.5672393522
 20
20.2783840408
 10
15.5679047099
 20
20.2778204703
  0
LWPOLYLINE
  5
3CD
100
AcDbEntity
  8
RACCORDO
100
AcDbPolyline
 62
253
  6
CONTINUOUS
 90
8
 70
0
 10
15.6305655558
 20
19.9737357685
 10
15.6301978188
 20
19.9698986631
 10
15.6295926434
 20
19.9661533379
 10
15.6287500296
 20
19.962499793
 10
15.6276810571
 20
19.9589166452
 10
15.6263746462
 20
19.9554252776
 10
15.624797558
 20
19.9520898396
 10
15.6229488417
 20
19.9489074943
  0
LINE
  5
3CE
100
AcDbEntity
  8
RACCORDO
100
AcDbLine
 62
7
  6
CONTINUOUS
 10
15.6160638523
 20
19.9979264906
 11
15.6158879547
 21
19.9963558675
  0
LWPOLYLINE
  5
3CF
100
AcDbEntity
  8
RACCORDO
100
AcDbPolyline
 62
253
  6
CONTINUOUS
 90
3
 70
0
 10
10.9160268419
 20
37.5707546341
 10
10.8780672448
 20
37.564610963
 10
10.8423735708
 20
37.5584003574
  0
LWPOLYLINE
  5
3D0
100
AcDbEntity
  8
DRAFT
100
AcDbPolyline
 62
7
  6
CONTINUOUS
 90
3
 70
0
 10
14.8860996831
 20
23.1321126907
 10
14.7919952771
 20
23.1640402046
 10
14.6988422078
 20
23.1890551027
  0
LINE
  5
3D1
100
AcDbEntity
  8
DRAFT
100
AcDbLine
 62
7
  6
CONTINUOUS
 10
14.8970595598
 20
23.1276317552
 11
14.8860996831
 21
23.1321126907
  0
LWPOLYLINE
  5
3D2
100
AcDbEntity
  8
RACCORDO
100
AcDbPolyline
 62
253
  6
CONTINUOUS
 90
10
 70
0
 10
13.4448840895
 20
21.2357208506
 10
13.4492137796
 20
21.2338861851
 10
13.4539630403
 20
21.2323523886
 10
13.4590676469
 20
21.2311402037
 10
13.4644585694
 20
21.2302660237
 10
13.4700629052
 20
21.2297416713
 10
13.4758048646
 20
21.229574238
 10
13.4816067972
 20
21.2297659887
 10
13.4873902419
 20
21.230314331
 10
13.493076987
 20
21.2312118498
  0
LWPOLYLINE
  5
3D3
100
AcDbEntity
  8
RACCORDO
100
AcDbPolyline
 62
253
  6
CONTINUOUS
 90
19
 70
0
 10
13.5517604855
 20
21.1765449581
 10
13.545850343
 20
21.1791124298
 10
13.5402258031
 20
21.1818752177
 10
13.5348912027
 20
21.1847956079
 10
13.5298391991
 20
21.1878334028
 10
13.5250824882
 20
21.1909591253
 10
13.5206543452
 20
21.1941553485
 10
13.5165570226
 20
21.1974034782
 10
13.5127894985
 20
21.2006685785
 10
13.5093785991
 20
21.2039123207
 10
13.5063463202
 20
21.2070936908
 10
13.5036653022
 20
21.210213939
 10
13.5012890533
 20
21.2133014703
 10
13.4992122747
 20
21.2163273642
 10
13.497437392
 20
21.2192939819
 10
13.495935959
 20
21.2222745413
 10
13.4947023294
 20
21.2252804037
 10
13.4937485497
 20
21.2282655374
 10
13.4930769866
 20
21.2312118766
  0
LWPOLYLINE
  5
3D4
100
AcDbEntity
  8
0
100
AcDbPolyline
 62
7
  6
CONTINUOUS
 90
8
 70
0
 10
14.6700913044
 20
23.2003166627
 10
14.4414063411
 20
23.3014929914
 10
14.2173707623
 20
23.3695386969
 10
14.0010142646
 20
23.4035335777
 10
13.7952626986
 20
23.4030179114
 10
13.6028985013
 20
23.3679986714
 10
13.4265230684
 20
23.298949433
 10
13.3851445439
 20
23.2764303501
  0
LWPOLYLINE
  5
3D5
100
AcDbEntity
  8
RACCORDO
100
AcDbPolyline
 62
253
  6
CONTINUOUS
 90
6
 70
0
 10
14.8113077469
 20
20.9658419993
 10
14.8059632265
 20
20.9683172046
 10
14.8017744667
 20
20.9713018174
 10
14.798860419
 20
20.9747110835
 10
14.7973038366
 20
20.9784481896
 10
14.7971482809
 20
20.9793070548
  0
LWPOLYLINE
  5
3D6
100
AcDbEntity
  8
RACCORDO
100
AcDbPolyline
 62
253
  6
CONTINUOUS
 90
6
 70
0
 10
14.6938565545
 20
21.8027767243
 10
14.6885120223
 20
21.8052519422
 10
14.6843232586
 20
21.8082365663
 10
14.6814092131
 20
21.8116458411
 10
14.6798526371
 20
21.8153829524
 10
14.6796970862
 20
21.816241796
  0
LINE
  5
3D7
100
AcDbEntity
  8
RACCORDO
100
AcDbLine
 62
7
  6
CONTINUOUS
 10
14.4613145054
 20
21.9979343477
 11
14.4613586476
 21
21.9979131289
  0
LWPOLYLINE
  5
3D8
100
AcDbEntity
  8
RACCORDO
100
AcDbPolyline
 62
253
  6
CONTINUOUS
 90
10
 70
0
 10
14.6277717221
 20
19.3948470866
 10
14.6077711686
 20
19.4047056409
 10
14.5877656281
 20
19.4149894558
 10
14.5677551008
 20
19.4256985312
 10
14.547736227
 20
19.4368348103
 10
14.5277123663
 20
19.4483963498
 10
14.5076935971
 20
19.4603773204
 10
14.4876832789
 20
19.4727757787
 10
14.4676780522
 20
19.4855936681
 10
14.447677917
 20
19.4988309884
  0
LWPOLYLINE
  5
3D9
100
AcDbEntity
  8
RACCORDO
100
AcDbPolyline
 62
253
  6
CONTINUOUS
 90
10
 70
0
 10
14.642935022
 20
19.4417405289
 10
14.623513664
 20
19.4513125019
 10
14.6040695732
 20
19.4613075398
 10
14.5846092392
 20
19.4717223068
 10
14.5651391571
 20
19.482553327
 10
14.5456658249
 20
19.4937969854
 10
14.5261957409
 20
19.5054495284
 10
14.5067354031
 20
19.5175070668
 10
14.4872913066
 20
19.5299655766
 10
14.4678699409
 20
19.5428208997
  0
LWPOLYLINE
  5
3DA
100
AcDbEntity
  8
RACCORDO
100
AcDbPolyline
 62
253
  6
CONTINUOUS
 90
4
 70
0
 10
14.4476779139
 20
22.0225572495
 10
14.4676784678
 20
22.012698697
 10
14.4876840087
 20
22.0024148835
 10
14.5076945364
 20
21.9917058089
  0
LINE
  5
3DB
100
AcDbEntity
  8
0
100
AcDbLine
 62
7
  6
CONTINUOUS
 10
14.7850208491
 20
23.137825521
 11
14.6700913044
 21
23.2003166627
  0
LWPOLYLINE
  5
3DC
100
AcDbEntity
  8
RACCORDO
100
AcDbPolyline
 62
253
  6
CONTINUOUS
 90
8
 70
0
 10
15.6305655522
 20
20.1816834849
 10
15.6267139753
 20
20.1837942069
 10
15.6233926
 20
20.1861524465
 10
15.6206463433
 20
20.1887263131
 10
15.6185123446
 20
20.1914810002
 10
15.6170194641
 20
20.1943792555
 10
15.6161878918
 20
20.1973818849
 10
15.6160378855
 20
20.1986784267
  0
LWPOLYLINE
  5
3DD
100
AcDbEntity
  8
RACCORDO
100
AcDbPolyline
 62
7
  6
CONTINUOUS
 90
5
 70
0
 10
14.5384222779
 20
21.957479551
 10
14.5190971407
 20
21.9682302859
 10
14.4997992597
 20
21.9785584338
 10
14.4805360306
 20
21.9884607481
 10
14.4613145054
 20
21.9979343477
  0
LWPOLYLINE
  5
3DE
100
AcDbEntity
  8
RACCORDO
100
AcDbPolyline
 62
253
  6
CONTINUOUS
 90
3
 70
0
 10
14.5076945364
 20
21.9917058089
 10
14.5277134106
 20
21.9805695301
 10
14.5477372718
 20
21.9690079903
  0
LINE
  5
3DF
100
AcDbEntity
  8
0
100
AcDbLine
 62
7
  6
CONTINUOUS
 10
15.1332182675
 20
22.936819551
 11
14.7850208491
 21
23.137825521
  0
LWPOLYLINE
  5
3E0
100
AcDbEntity
  8
RACCORDO
100
AcDbPolyline
 62
253
  6
CONTINUOUS
 90
5
 70
0
 10
14.5477372718
 20
21.9690079903
 10
14.5677560414
 20
21.9570270189
 10
14.58776636
 20
21.9446285592
 10
14.607771587
 20
21.9318106679
 10
14.6277717225
 20
21.9185733451
  0
LWPOLYLINE
  5
3E1
100
AcDbEntity
  8
RACCORDO
100
AcDbPolyline
 62
253
  6
CONTINUOUS
 90
10
 70
0
 10
13.4448840864
 20
21.4436685707
 10
13.4492137875
 20
21.4410555264
 10
13.4539630583
 20
21.4387538795
 10
13.459067673
 20
21.4367947559
 10
13.4644586005
 20
21.4352046495
 10
13.4700629379
 20
21.434005064
 10
13.4758048957
 20
21.4332122218
 10
13.4816068239
 20
21.4328368449
 10
13.4873902611
 20
21.4328840098
 10
13.4930769961
 20
21.4333530786
  0
LWPOLYLINE
  5
3E2
100
AcDbEntity
  8
RACCORDO
100
AcDbPolyline
 62
253
  6
CONTINUOUS
 90
17
 70
0
 10
12.5350710831
 20
20.4305641519
 10
12.5279577523
 20
20.4348891321
 10
12.5212362191
 20
20.4394235707
 10
12.5149252702
 20
20.4441557655
 10
12.5090426111
 20
20.4490734816
 10
12.5036049509
 20
20.4541638696
 10
12.4986279172
 20
20.4594134851
 10
12.4941257417
 20
20.4648086061
 10
12.4901115687
 20
20.4703349084
 10
12.4865974119
 20
20.4759773531
 10
12.4835929844
 20
20.4817222961
 10
12.4811082113
 20
20.4875530441
 10
12.4791520626
 20
20.4934493089
 10
12.4777285343
 20
20.4994001579
 10
12.4768430359
 20
20.5053845082
 10
12.4764978938
 20
20.5113662287
 10
12.4764924428
 20
20.5121976526
  0
LINE
  5
3E3
100
AcDbEntity
  8
RACCORDO
100
AcDbLine
 62
253
  6
CONTINUOUS
 10
12.5279592737
 20
23.3037667122
 11
12.5350710831
 21
23.2994427063
  0
LWPOLYLINE
  5
3E4
100
AcDbEntity
  8
RACCORDO
100
AcDbPolyline
 62
7
  6
CONTINUOUS
 90
4
 70
0
 10
14.5964953523
 20
21.9227221726
 10
14.5771278134
 20
21.9347224263
 10
14.5577678766
 20
21.9463093211
 10
14.5384222779
 20
21.957479551
  0
LWPOLYLINE
  5
3E5
100
AcDbEntity
  8
RACCORDO
100
AcDbPolyline
 62
253
  6
CONTINUOUS
 90
8
 70
0
 10
12.5350710831
 20
20.110426718
 10
12.5196093624
 20
20.120458371
 10
12.5062691912
 20
20.1314586037
 10
12.4952309759
 20
20.1432786599
 10
12.486643994
 20
20.1557586956
 10
12.480624374
 20
20.1687299421
 10
12.4772535259
 20
20.1820169879
 10
12.4764924394
 20
20.1920816858
  0
LWPOLYLINE
  5
3E6
100
AcDbEntity
  8
RACCORDO
100
AcDbPolyline
 62
253
  6
CONTINUOUS
 90
8
 70
0
 10
12.5350710831
 20
23.6195919575
 10
12.5196093064
 20
23.6296236363
 10
12.5062691049
 20
23.6406238966
 10
12.495230882
 20
23.6524439786
 10
12.4866439107
 20
23.6649240361
 10
12.480624315
 20
23.6778952978
 10
12.4772534998
 20
23.6911823494
 10
12.4764925318
 20
23.701135848
  0
LWPOLYLINE
  5
3E7
100
AcDbEntity
  8
RACCORDO
100
AcDbPolyline
 62
7
  6
CONTINUOUS
 90
3
 70
0
 10
14.6352239085
 20
21.8974971201
 10
14.6158630822
 20
21.9103124466
 10
14.5964953523
 20
21.9227221726
  0
LWPOLYLINE
  5
3E8
100
AcDbEntity
  8
RACCORDO
100
AcDbPolyline
 62
253
  6
CONTINUOUS
 90
10
 70
0
 10
14.2641418908
 20
21.281768707
 10
14.2704904208
 20
21.2774924973
 10
14.2776626674
 20
21.2739174165
 10
14.2854549577
 20
21.2711449873
 10
14.2936460112
 20
21.2692539393
 10
14.3020032239
 20
21.2682979734
 10
14.310289273
 20
21.2683042365
 10
14.3182688566
 20
21.2692725506
 10
14.3257153758
 20
21.2711754183
 10
14.3324173692
 20
21.273958803
  0
LWPOLYLINE
  5
3E9
100
AcDbEntity
  8
RACCORDO
100
AcDbPolyline
 62
253
  6
CONTINUOUS
 90
10
 70
0
 10
14.3815930827
 20
21.9830737364
 10
14.3879415779
 20
21.9787975471
 10
14.3951137925
 20
21.9752224744
 10
14.4029060591
 20
21.9724500433
 10
14.4110971023
 20
21.9705589864
 10
14.4194543187
 20
21.9696030086
 10
14.4277403823
 20
21.9696092611
 10
14.4357199886
 20
21.970577569
 10
14.4431665368
 20
21.9724804374
 10
14.4498685612
 20
21.9752638324
  0
LWPOLYLINE
  5
3EA
100
AcDbEntity
  8
RACCORDO
100
AcDbPolyline
 62
253
  6
CONTINUOUS
 90
22
 70
0
 10
14.447677917
 20
19.4988309884
 10
14.4441708929
 20
19.5012805127
 10
14.4406246247
 20
19.5040268573
 10
14.4370391124
 20
19.5070700224
 10
14.4334013775
 20
19.5104047083
 10
14.4297243985
 20
19.5140362146
 10
14.4260471111
 20
19.5179804402
 10
14.4223665829
 20
19.5222401761
 10
14.4186857462
 20
19.5268126312
 10
14.4150523339
 20
19.5317053316
 10
14.4114661968
 20
19.536912605
 10
14.407927484
 20
19.5424401237
 10
14.4044843755
 20
19.5483124294
 10
14.4011212612
 20
19.5545506048
 10
14.3978537512
 20
19.5611335673
 10
14.3947768555
 20
19.5680226109
 10
14.3918820707
 20
19.5752448156
 10
14.3891779001
 20
19.5827731015
 10
14.3867848637
 20
19.590487522
 10
14.3847431347
 20
19.5983480951
 10
14.3830125398
 20
19.6063948029
 10
14.381593079
 20
19.6146276453
  0
LINE
  5
3EB
100
AcDbEntity
  8
RACCORDO
100
AcDbLine
 62
253
  6
CONTINUOUS
 10
14.6277717225
 20
21.9185733451
 11
14.631278746
 21
21.9161238194
  0
LWPOLYLINE
  5
3EC
100
AcDbEntity
  8
RACCORDO
100
AcDbPolyline
 62
7
  6
CONTINUOUS
 90
5
 70
0
 10
14.6353211335
 20
21.8974323776
 10
14.6377370279
 20
21.8956827367
 10
14.6433737732
 20
21.8907776869
 10
14.6496867323
 20
21.8839819787
 10
14.6561586015
 20
21.8755022307
  0
LWPOLYLINE
  5
3ED
100
AcDbEntity
  8
RACCORDO
100
AcDbPolyline
 62
253
  6
CONTINUOUS
 90
9
 70
0
 10
15.6305655558
 20
19.9737357685
 10
15.6267139713
 20
19.9766248689
 10
15.6233925922
 20
19.9797509605
 10
15.6206463349
 20
19.9830717684
 10
15.6185123379
 20
19.9865423845
 10
15.6170194601
 20
19.9901158745
 10
15.6161878905
 20
19.9937439132
 10
15.6160288748
 20
19.9973774374
 10
15.616058778
 20
19.9978605944
  0
LINE
  5
3EE
100
AcDbEntity
  8
RACCORDO
100
AcDbLine
 62
253
  6
CONTINUOUS
 10
14.1782233353
 20
20.6003776437
 11
13.5121245256
 21
21.1205913337
  0
LINE
  5
3EF
100
AcDbEntity
  8
RACCORDO
100
AcDbLine
 62
253
  6
CONTINUOUS
 10
14.2178592953
 20
20.6563312681
 11
13.551760485
 21
21.1765449585
  0
LINE
  5
3F0
100
AcDbEntity
  8
RACCORDO
100
AcDbLine
 62
7
  6
CONTINUOUS
 10
14.9018059057
 20
20.7980341561
 11
15.5679047099
 21
20.2778204703
  0
LINE
  5
3F1
100
AcDbEntity
  8
RACCORDO
100
AcDbLine
 62
253
  6
CONTINUOUS
 10
14.8972263024
 20
20.8170266961
 11
15.5633251063
 21
20.2968130106
  0
LWPOLYLINE
  5
3F2
100
AcDbEntity
  8
RACCORDO
100
AcDbPolyline
 62
7
  6
CONTINUOUS
 90
4
 70
0
 10
15.5681107327
 20
20.2776633893
 10
15.5709207379
 20
20.275382913
 10
15.5808769948
 20
20.2660789297
 10
15.5899131035
 20
20.2557789704
  0
LINE
  5
3F3
100
AcDbEntity
  8
RACCORDO
100
AcDbLine
 62
7
  6
CONTINUOUS
 10
14.8942993417
 20
20.8041520724
 11
14.9018518709
 21
20.7980002458
  0
LWPOLYLINE
  5
3F4
100
AcDbEntity
  8
RACCORDO
100
AcDbPolyline
 62
253
  6
CONTINUOUS
 90
19
 70
0
 10
13.5121245256
 20
21.1205913337
 10
13.5051710323
 20
21.1264085805
 10
13.4985766535
 20
21.1324460843
 10
13.4923413891
 20
21.1387038451
 10
13.4864521299
 20
21.1452358032
 10
13.4809219852
 20
21.1519880184
 10
13.4757902825
 20
21.1587986701
 10
13.4710618659
 20
21.1656715157
 10
13.4667318914
 20
21.1726027978
 10
13.4628251545
 20
21.1794194235
 10
13.4593700843
 20
21.1860655961
 10
13.4563382518
 20
21.1925971123
 10
13.4536691658
 20
21.1990082687
 10
13.4513525609
 20
21.2052681045
 10
13.4493987025
 20
21.2114075804
 10
13.4477778956
 20
21.2175138751
 10
13.446480242
 20
21.2236160481
 10
13.44551564
 20
21.22968504
 10
13.4448840895
 20
21.2357208506
  0
LWPOLYLINE
  5
3F5
100
AcDbEntity
  8
RACCORDO
100
AcDbPolyline
 62
253
  6
CONTINUOUS
 90
22
 70
0
 10
14.4678699616
 20
19.5428208674
 10
14.4662601039
 20
19.5442314675
 10
14.4646732537
 20
19.5458564248
 10
14.4631123208
 20
19.5476966199
 10
14.4615776064
 20
19.5497464212
 10
14.4600768483
 20
19.5520117405
 10
14.4586251928
 20
19.5545101807
 10
14.4572301352
 20
19.5572406261
 10
14.4558970874
 20
19.5602012747
 10
14.4546393839
 20
19.5634081783
 10
14.4534687617
 20
19.5668519309
 10
14.4523923028
 20
19.5705348823
 10
14.4514187295
 20
19.5744904823
 10
14.4505617069
 20
19.5787236603
 10
14.4498362908
 20
19.5832174307
 10
14.4492568988
 20
19.5879711199
 10
14.4488474663
 20
19.5929889337
 10
14.4486243047
 20
19.5982450185
 10
14.4485927159
 20
19.6036911791
 10
14.4487701363
 20
19.609300776
 10
14.4491868517
 20
19.6150685882
 10
14.4498685574
 20
19.6209761686
  0
LWPOLYLINE
  5
3F6
100
AcDbEntity
  8
RACCORDO
100
AcDbPolyline
 62
253
  6
CONTINUOUS
 90
7
 70
0
 10
14.693856556
 20
19.4343306095
 10
14.6885120484
 20
19.4391864887
 10
14.6843232918
 20
19.4444841726
 10
14.6814092399
 20
19.4500732237
 10
14.6798526489
 20
19.4557949302
 10
14.679697728
 20
19.4614868106
 10
14.6798869263
 20
19.4629322011
  0
LWPOLYLINE
  5
3F7
100
AcDbEntity
  8
RACCORDO
100
AcDbPolyline
 62
253
  6
CONTINUOUS
 90
7
 70
0
 10
14.8113077469
 20
20.1356356327
 10
14.8059632148
 20
20.1404915382
 10
14.801774451
 20
20.1457892447
 10
14.7988604056
 20
20.1513783113
 10
14.7973038295
 20
20.1571000234
 10
14.7971489254
 20
20.1627918995
 10
14.7973498706
 20
20.1643081024
  0
LWPOLYLINE
  5
3F8
100
AcDbEntity
  8
RACCORDO
100
AcDbPolyline
 62
7
  6
CONTINUOUS
 90
6
 70
0
 10
13.1786782651
 20
18.95739257
 10
13.1819945721
 20
18.9539947271
 10
13.1884127771
 20
18.9498225894
 10
13.1967362279
 20
18.9465199924
 10
13.2068481034
 20
18.9441700141
 10
13.2186390632
 20
18.9426122884
  0
LWPOLYLINE
  5
3F9
100
AcDbEntity
  8
RACCORDO
100
AcDbPolyline
 62
7
  6
CONTINUOUS
 90
17
 70
0
 10
15.8157485386
 20
15.8250486828
 10
15.8332948076
 20
15.8050260598
 10
15.8522377452
 20
15.7859194778
 10
15.8724851898
 20
15.7678063028
 10
15.8939225612
 20
15.7506927985
 10
15.9164389506
 20
15.7347165076
 10
15.9399307384
 20
15.7201497377
 10
15.9642553717
 20
15.707053995
 10
15.9892563826
 20
15.6954903232
 10
16.0147936996
 20
15.6857292005
 10
16.0406873815
 20
15.6778192179
 10
16.0667437521
 20
15.6717983363
 10
16.0927847438
 20
15.6679161264
 10
16.11859649
 20
15.6662019789
 10
16.1439526238
 20
15.6666599482
 10
16.1686399601
 20
15.6694913075
 10
16.1804110867
 20
15.6717725699
  0
LINE
  5
3FA
100
AcDbEntity
  8
RACCORDO
100
AcDbLine
 62
253
  6
CONTINUOUS
 10
13.2628231968
 20
18.9430778492
 11
13.1973324291
 21
19.0267279187
  0
LINE
  5
3FB
100
AcDbEntity
  8
RACCORDO
100
AcDbLine
 62
7
  6
CONTINUOUS
 10
13.1247874371
 20
19.0285122583
 11
13.1786773385
 21
18.9574066152
  0
LWPOLYLINE
  5
3FC
100
AcDbEntity
  8
RACCORDO
100
AcDbPolyline
 62
253
  6
CONTINUOUS
 90
11
 70
0
 10
13.1973324291
 20
19.0267279187
 10
13.1324084547
 20
19.1131298042
 10
13.0680512737
 20
19.2022835055
 10
13.0040703807
 20
19.2943363337
 10
12.940656281
 20
19.3891409778
 10
12.8783804906
 20
19.4862555045
 10
12.8172372998
 20
19.5857599904
 10
12.7572324183
 20
19.687574359
 10
12.6989544913
 20
19.7910164472
 10
12.642599734
 20
19.8958588673
 10
12.5879719313
 20
20.002329007
  0
LWPOLYLINE
  5
3FD
100
AcDbEntity
  8
RACCORDO
100
AcDbPolyline
 62
7
  6
CONTINUOUS
 90
8
 70
0
 10
12.5077151602
 20
20.0390280667
 10
12.5244689135
 20
20.005116546
 10
12.6123718117
 20
19.8349351837
 10
12.7054335567
 20
19.667211705
 10
12.8034258173
 20
19.5023462113
 10
12.9061413843
 20
19.3406868332
 10
13.0133487169
 20
19.1826089759
 10
13.1247874371
 20
19.0285122583
  0
LINE
  5
3FE
100
AcDbEntity
  8
RACCORDO
100
AcDbLine
 62
253
  6
CONTINUOUS
 10
12.5879719313
 20
20.002329007
 11
12.5350710831
 21
20.1104268664
  0
LINE
  5
3FF
100
AcDbEntity
  8
RACCORDO
100
AcDbLine
 62
7
  6
CONTINUOUS
 10
12.5076923208
 20
20.0390749457
 11
12.5077168336
 21
20.039024654
  0
LINE
  5
400
100
AcDbEntity
  8
RACCORDO
100
AcDbLine
 62
7
  6
CONTINUOUS
 10
12.5044725701
 20
20.0458923428
 11
12.5076902418
 21
20.0390781926
  0
LWPOLYLINE
  5
401
100
AcDbEntity
  8
RACCORDO
100
AcDbPolyline
 62
7
  6
CONTINUOUS
 90
3
 70
0
 10
13.1749552312
 20
16.4637334793
 10
13.1750914788
 20
16.4634216474
 10
13.1751655406
 20
16.463367034
  0
LINE
  5
402
100
AcDbEntity
  8
RACCORDO
100
AcDbLine
 62
7
  6
CONTINUOUS
 10
12.4955573214
 20
20.0680541974
 11
12.5044725701
 21
20.0458923428
  0
LWPOLYLINE
  5
403
100
AcDbEntity
  8
RACCORDO
100
AcDbPolyline
 62
253
  6
CONTINUOUS
 90
3
 70
0
 10
12.526258792
 20
23.6453336538
 10
12.5304443235
 20
23.6324716494
 10
12.5350710831
 20
23.6195919575
  0
LINE
  5
404
100
AcDbEntity
  8
RACCORDO
100
AcDbLine
 62
253
  6
CONTINUOUS
 10
12.5225067988
 20
23.6581499975
 11
12.526258792
 21
23.6453336538
  0
LWPOLYLINE
  5
405
100
AcDbEntity
  8
RACCORDO
100
AcDbPolyline
 62
253
  6
CONTINUOUS
 90
7
 70
0
 10
13.512124523
 20
21.4811505181
 10
13.5136574231
 20
21.4740943614
 10
13.5161507909
 20
21.4678182767
 10
13.5195338212
 20
21.4625004881
 10
13.523710445
 20
21.4582920067
 10
13.5285620572
 20
21.4553123423
 10
13.5299079642
 20
21.4547537536
  0
LWPOLYLINE
  5
406
100
AcDbEntity
  8
RACCORDO
100
AcDbPolyline
 62
253
  6
CONTINUOUS
 90
7
 70
0
 10
14.1782233353
 20
21.232169998
 10
14.179756236
 20
21.2251138546
 10
14.1822496004
 20
21.2188377764
 10
14.1856326256
 20
21.2135199881
 10
14.1898092444
 20
21.2093115023
 10
14.1946608533
 20
21.2063318306
 10
14.1960722426
 20
21.2057486463
  0
LWPOLYLINE
  5
407
100
AcDbEntity
  8
RACCORDO
100
AcDbPolyline
 62
253
  6
CONTINUOUS
 90
15
 70
0
 10
14.4498685612
 20
21.9752638324
 10
14.4491369217
 20
21.9789266792
 10
14.4487172431
 20
21.9822785466
 10
14.4485790329
 20
21.9853120755
 10
14.4486838074
 20
21.988022425
 10
14.4490123863
 20
21.990412063
 10
14.4495663142
 20
21.9924881132
 10
14.4503306138
 20
21.9942587166
 10
14.4512745185
 20
21.9957260911
 10
14.4523782468
 20
21.9968939189
 10
14.4536172768
 20
21.9977720159
 10
14.4549790105
 20
21.9983847255
 10
14.4564648014
 20
21.9987535363
 10
14.4580469537
 20
21.9988874158
 10
14.4590783922
 20
21.9988572749
  0
LWPOLYLINE
  5
408
100
AcDbEntity
  8
RACCORDO
100
AcDbPolyline
 62
253
  6
CONTINUOUS
 90
7
 70
0
 10
11.5965173707
 20
37.1271524697
 10
11.6024281697
 20
37.0968614778
 10
11.607300335
 20
37.0664768668
 10
11.6111338666
 20
37.0359986368
 10
11.6139287645
 20
37.0054267876
 10
11.6156850286
 20
36.9747613194
 10
11.616402659
 20
36.944002232
  0
LWPOLYLINE
  5
409
100
AcDbEntity
  8
RACCORDO
100
AcDbPolyline
 62
253
  6
CONTINUOUS
 90
13
 70
0
 10
14.3324173692
 20
20.4579108638
 10
14.3295040818
 20
20.4739941293
 10
14.3252911371
 20
20.490969737
 10
14.3197012713
 20
20.5087176671
 10
14.3126158277
 20
20.5272378745
 10
14.3040335253
 20
20.5461832767
 10
14.2941675288
 20
20.564877775
 10
14.2830909452
 20
20.5831021813
 10
14.2709199245
 20
20.6006330116
 10
14.2581029052
 20
20.6168646546
 10
14.2449306736
 20
20.6315501796
 10
14.2314644837
 20
20.6447289516
 10
14.2178592953
 20
20.6563312681
  0
LINE
  5
40A
100
AcDbEntity
  8
RACCORDO
100
AcDbLine
 62
253
  6
CONTINUOUS
 10
14.6924370941
 20
21.811009564
 11
14.6938565545
 21
21.8027767243
  0
LWPOLYLINE
  5
40B
100
AcDbEntity
  8
RACCORDO
100
AcDbPolyline
 62
253
  6
CONTINUOUS
 90
13
 70
0
 10
14.2641418908
 20
20.4515623405
 10
14.2621185505
 20
20.4638973333
 10
14.2590028835
 20
20.476676945
 10
14.2547948895
 20
20.4899011757
 10
14.249422977
 20
20.5038500402
 10
14.2429587377
 20
20.5182435237
 10
14.2356169465
 20
20.5322415816
 10
14.227296744
 20
20.545781542
 10
14.2180989896
 20
20.5589260768
 10
14.2085410362
 20
20.5710231573
 10
14.1987953349
 20
20.5818554404
 10
14.1886894346
 20
20.5916402693
 10
14.1782233353
 20
20.6003776437
  0
LWPOLYLINE
  5
40C
100
AcDbEntity
  8
RACCORDO
100
AcDbPolyline
 62
253
  6
CONTINUOUS
 90
3
 70
0
 10
14.8113077469
 20
20.9658419993
 10
14.8133310872
 20
20.9535070065
 10
14.8164467542
 20
20.9407273948
  0
LWPOLYLINE
  5
40D
100
AcDbEntity
  8
RACCORDO
100
AcDbPolyline
 62
7
  6
CONTINUOUS
 90
4
 70
0
 10
14.7971395259
 20
20.9793716437
 10
14.7984097731
 20
20.9713353168
 10
14.8045736481
 20
20.9448141876
 10
14.8136416116
 20
20.9184217521
  0
LINE
  5
40E
100
AcDbEntity
  8
RACCORDO
100
AcDbLine
 62
253
  6
CONTINUOUS
 10
14.381593079
 20
19.6146276453
 11
14.2641418908
 21
20.4515623405
  0
LINE
  5
40F
100
AcDbEntity
  8
RACCORDO
100
AcDbLine
 62
253
  6
CONTINUOUS
 10
14.4498685574
 20
19.6209761688
 11
14.3324173692
 21
20.4579108638
  0
LINE
  5
410
100
AcDbEntity
  8
RACCORDO
100
AcDbLine
 62
7
  6
CONTINUOUS
 10
14.6796970862
 20
21.816241796
 11
14.7971482809
 21
20.9793070548
  0
LINE
  5
411
100
AcDbEntity
  8
RACCORDO
100
AcDbLine
 62
253
  6
CONTINUOUS
 10
14.6938565545
 20
21.8027767243
 11
14.8113077469
 21
20.9658419993
  0
LWPOLYLINE
  5
412
100
AcDbEntity
  8
RACCORDO
100
AcDbPolyline
 62
253
  6
CONTINUOUS
 90
9
 70
0
 10
14.4476779139
 20
22.0225572495
 10
14.4482540269
 20
22.0177773615
 10
14.4493004682
 20
22.0133381693
 10
14.4508030875
 20
22.009299706
 10
14.4527415655
 20
22.0057165855
 10
14.4550896883
 20
22.0026372646
 10
14.4578157021
 20
22.0001033871
 10
14.4608827424
 20
21.9981492206
 10
14.4613145054
 20
21.9979343477
  0
LINE
  5
413
100
AcDbEntity
  8
RACCORDO
100
AcDbLine
 62
7
  6
CONTINUOUS
 10
15.6155117664
 20
20.2032017234
 11
15.6160300909
 21
20.198799644
  0
LWPOLYLINE
  5
414
100
AcDbEntity
  8
0
100
AcDbPolyline
 62
7
  6
CONTINUOUS
 90
7
 70
0
 10
20.5481324589
 20
23.1991771892
 10
20.5289692098
 20
23.4172903071
 10
20.4711167436
 20
23.6515021704
 10
20.3772690233
 20
23.8874684897
 10
20.251804556
 20
24.1141801518
 10
20.1031848457
 20
24.3179326611
 10
19.9313416052
 20
24.4978223325
  0
LWPOLYLINE
  5
415
100
AcDbEntity
  8
0
100
AcDbPolyline
 62
7
  6
CONTINUOUS
 90
12
 70
0
 10
20.7602644933
 20
23.0766948112
 10
20.7462819915
 20
23.2735887518
 10
20.7112691989
 20
23.4709312877
 10
20.6552261157
 20
23.6687224188
 10
20.5759937825
 20
23.8713346628
 10
20.4757311585
 20
24.0743955021
 10
20.3609151219
 20
24.2647873836
 10
20.2305848452
 20
24.4416738932
 10
20.0857011558
 20
24.6058914452
 10
19.9356234135
 20
24.7468317289
 10
19.7800087031
 20
24.8629579616
 10
19.7090502711
 20
24.903928471
  0
LWPOLYLINE
  5
416
100
AcDbEntity
  8
RACCORDO
100
AcDbPolyline
 62
253
  6
CONTINUOUS
 90
49
 70
0
 10
16.8358218577
 20
-45.8879800813
 10
16.832547398
 20
-46.0264086505
 10
16.8227330833
 20
-46.1606586802
 10
16.8064067379
 20
-46.2903401059
 10
16.7836147532
 20
-46.4150776524
 10
16.7544228083
 20
-46.5345070048
 10
16.7189165146
 20
-46.6482765809
 10
16.6771996111
 20
-46.756054897
 10
16.6293928827
 20
-46.8575306774
 10
16.575635266
 20
-46.9524093632
 10
16.5160831971
 20
-47.0404153122
 10
16.4509094204
 20
-47.1212936554
 10
16.3803023285
 20
-47.194810631
 10
16.3044662404
 20
-47.2607531525
 10
16.2236216656
 20
-47.3189291554
 10
16.1380039329
 20
-47.3691692541
 10
16.0478619954
 20
-47.4113275281
 10
15.95345719
 20
-47.445281909
 10
15.85506315
 20
-47.470934005
 10
15.7529652526
 20
-47.4882093522
 10
15.6474600337
 20
-47.4970577144
 10
15.5388539273
 20
-47.497453383
 10
15.427462272
 20
-47.4893952332
 10
15.3136083195
 20
-47.4729066729
 10
15.1976224914
 20
-47.4480355618
 10
15.0798414576
 20
-47.4148540945
 10
14.9606070906
 20
-47.3734585856
 10
14.8402654111
 20
-47.3239691597
 10
14.7191656369
 20
-47.2665294082
 10
14.5976593664
 20
-47.2013060791
 10
14.4760994854
 20
-47.1284886035
 10
14.3548390615
 20
-47.0482885224
 10
14.2342298446
 20
-46.9609385232
 10
14.1146214508
 20
-46.8666917911
 10
13.9963605905
 20
-46.7658214073
 10
13.8797910421
 20
-46.6586204825
 10
13.7652521364
 20
-46.545401107
 10
13.653077051
 20
-46.4264928331
 10
13.5435905664
 20
-46.3022401539
 10
13.4371091898
 20
-46.173002253
 10
13.3339416856
 20
-46.039153672
 10
13.2343879722
 20
-45.901083305
 10
13.1387370104
 20
-45.7591917231
 10
13.0472654491
 20
-45.6138888628
 10
12.9602401045
 20
-45.4655982246
 10
12.8779165354
 20
-45.3147558473
 10
12.8005341547
 20
-45.1618016781
 10
12.7283161066
 20
-45.0071779717
 10
12.6614715197
 20
-44.8513336112
  0
LWPOLYLINE
  5
417
100
AcDbEntity
  8
RACCORDO
100
AcDbPolyline
 62
7
  6
CONTINUOUS
 90
19
 70
0
 10
16.8156044217
 20
-41.0394405172
 10
16.8167141413
 20
-41.0098475946
 10
16.8195126378
 20
-40.9803546082
 10
16.823999911
 20
-40.9509615581
 10
16.8303187293
 20
-40.921385145
 10
16.8383263243
 20
-40.8919086682
 10
16.8475943917
 20
-40.8633820254
 10
16.8580513078
 20
-40.8360431307
 10
16.8697686962
 20
-40.80965407
 10
16.882533124
 20
-40.7843509982
 10
16.8964078942
 20
-40.7600120689
 10
16.9113297036
 20
-40.7367591285
 10
16.9268952103
 20
-40.7150938707
 10
16.943167256
 20
-40.6950508865
 10
16.9600829989
 20
-40.676595585
 10
16.9770505713
 20
-40.6601258878
 10
16.9938726839
 20
-40.6457744352
 10
17.010746626
 20
-40.6334085869
 10
17.0276723976
 20
-40.6230283428
  0
LINE
  5
418
100
AcDbEntity
  8
RACCORDO
100
AcDbLine
 62
7
  6
CONTINUOUS
 10
15.6174658214
 20
-45.2983796506
 11
15.6185224259
 21
-45.2767473528
  0
LWPOLYLINE
  5
419
100
AcDbEntity
  8
0
100
AcDbPolyline
 62
7
  6
CONTINUOUS
 90
8
 70
0
 10
16.7651111796
 20
-45.6091927272
 10
16.7517238109
 20
-45.8668649868
 10
16.7117427461
 20
-46.1055932733
 10
16.6457086606
 20
-46.3221491962
 10
16.5545145519
 20
-46.5136042082
 10
16.439393664
 20
-46.6773692087
 10
16.3019028094
 20
-46.8112295569
 10
16.1852798407
 20
-46.8908559384
  0
LWPOLYLINE
  5
41A
100
AcDbEntity
  8
0
100
AcDbPolyline
 62
7
  6
CONTINUOUS
 90
6
 70
0
 10
16.5176238062
 20
-45.7520888349
 10
16.5027566701
 20
-46.0146161143
 10
16.4629558304
 20
-46.2522682707
 10
16.3982212871
 20
-46.4650453039
 10
16.3070171863
 20
-46.6551320402
 10
16.1908793818
 20
-46.8203436534
  0
LINE
  5
41B
100
AcDbEntity
  8
RACCORDO
100
AcDbLine
 62
253
  6
CONTINUOUS
 10
15.6320287468
 20
-45.3216377801
 11
15.6305655558
 21
-45.3438863749
  0
LINE
  5
41C
100
AcDbEntity
  8
RACCORDO
100
AcDbLine
 62
7
  6
CONTINUOUS
 10
15.616058778
 20
-45.3197615492
 11
15.6174658214
 21
-45.2983796506
  0
LINE
  5
41D
100
AcDbEntity
  8
RACCORDO
100
AcDbLine
 62
7
  6
CONTINUOUS
 10
15.616058778
 20
-45.319761549
 11
15.6160637956
 21
-45.3196956486
  0
LWPOLYLINE
  5
41E
100
AcDbEntity
  8
0
100
AcDbPolyline
 62
7
  6
CONTINUOUS
 90
4
 70
0
 10
20.7602644933
 20
23.0766948112
 10
20.7462819915
 20
22.8959475132
 10
20.7112691989
 20
22.7390368725
 10
20.6793868836
 20
22.6633324955
  0
LWPOLYLINE
  5
41F
100
AcDbEntity
  8
RACCORDO
100
AcDbPolyline
 62
253
  6
CONTINUOUS
 90
6
 70
0
 10
14.8972263024
 20
-44.5005954474
 10
14.8966974002
 20
-44.5064611452
 10
14.8971875153
 20
-44.5115805769
 10
14.8986827297
 20
-44.5158083643
 10
14.9011405834
 20
-44.5190244494
 10
14.9018059057
 20
-44.5195879874
  0
LWPOLYLINE
  5
420
100
AcDbEntity
  8
RACCORDO
100
AcDbPolyline
 62
253
  6
CONTINUOUS
 90
6
 70
0
 10
15.5633251063
 20
-45.0208091329
 10
15.5627962043
 20
-45.0266748024
 10
15.5632863105
 20
-45.0317942208
 10
15.5647815115
 20
-45.0360220078
 10
15.5672393522
 20
-45.0392381026
 10
15.5679047099
 20
-45.0398016731
  0
LWPOLYLINE
  5
421
100
AcDbEntity
  8
RACCORDO
100
AcDbPolyline
 62
253
  6
CONTINUOUS
 90
22
 70
0
 10
13.4448840864
 20
-43.8739535727
 10
13.445251825
 20
-43.870116469
 10
13.4458570014
 20
-43.8663711451
 10
13.4466996155
 20
-43.8627176009
 10
13.4477685874
 20
-43.8591344534
 10
13.4490749972
 20
-43.8556430858
 10
13.4506520841
 20
-43.8523076475
 10
13.4525007993
 20
-43.8491253017
 10
13.4546201917
 20
-43.8460988852
 10
13.4570406479
 20
-43.8433010583
 10
13.459757181
 20
-43.8407287695
 10
13.4627747779
 20
-43.8383850702
 10
13.4661387853
 20
-43.8363517748
 10
13.4698596561
 20
-43.8346168945
 10
13.4739269375
 20
-43.8331924181
 10
13.4783546177
 20
-43.8321961267
 10
13.4831618975
 20
-43.8316292882
 10
13.4883295761
 20
-43.8314906347
 10
13.4938140394
 20
-43.8318941439
 10
13.4996007493
 20
-43.8328778084
 10
13.5057042438
 20
-43.8344036355
 10
13.512124523
 20
-43.8364716253
  0
LWPOLYLINE
  5
422
100
AcDbEntity
  8
RACCORDO
100
AcDbPolyline
 62
253
  6
CONTINUOUS
 90
8
 70
0
 10
15.6305655558
 20
-45.3438863749
 10
15.6301978188
 20
-45.3477234803
 10
15.6295926434
 20
-45.3514688055
 10
15.6287500296
 20
-45.3551223505
 10
15.6276810571
 20
-45.3587054982
 10
15.6263746462
 20
-45.3621968658
 10
15.624797558
 20
-45.3655323038
 10
15.6229488417
 20
-45.3687146491
  0
LWPOLYLINE
  5
423
100
AcDbEntity
  8
0
100
AcDbPolyline
 62
7
  6
CONTINUOUS
 90
7
 70
0
 10
20.5421820517
 20
23.0867847296
 10
20.5438044324
 20
23.1028449633
 10
20.5454118113
 20
23.1223525363
 10
20.5464679166
 20
23.1387991142
 10
20.5473947092
 20
23.1587558334
 10
20.547949633
 20
23.178945182
 10
20.5481324589
 20
23.1991771904
  0
LINE
  5
424
100
AcDbEntity
  8
RACCORDO
100
AcDbLine
 62
7
  6
CONTINUOUS
 10
15.6160638523
 20
-45.3196956528
 11
15.6158879547
 21
-45.3212662759
  0
LWPOLYLINE
  5
425
100
AcDbEntity
  8
RACCORDO
100
AcDbPolyline
 62
253
  6
CONTINUOUS
 90
10
 70
0
 10
14.447677917
 20
-45.818791155
 10
14.4482540304
 20
-45.8141244251
 10
14.4493004733
 20
-45.8092447432
 10
14.4508030947
 20
-45.8042180984
 10
14.4527415742
 20
-45.7991124675
 10
14.4550896973
 20
-45.7939968954
 10
14.4578157099
 20
-45.7889405617
 10
14.4608827473
 20
-45.7840118446
 10
14.4642493333
 20
-45.7792773967
 10
14.4678699404
 20
-45.7748012435
  0
LINE
  5
426
100
AcDbEntity
  8
RACCORDO
100
AcDbLine
 62
253
  6
CONTINUOUS
 10
14.2641418908
 20
-44.0358534364
 11
14.3815930827
 21
-43.3345484071
  0
LINE
  5
427
100
AcDbEntity
  8
RACCORDO
100
AcDbLine
 62
253
  6
CONTINUOUS
 10
14.3324173692
 20
-44.0436633404
 11
14.4498685613
 21
-43.3423583105
  0
LWPOLYLINE
  5
428
100
AcDbEntity
  8
RACCORDO
100
AcDbPolyline
 62
7
  6
CONTINUOUS
 90
6
 70
0
 10
12.6286547701
 20
-44.1008417648
 10
12.6162417373
 20
-44.1688176934
 10
12.584172832
 20
-44.3266043691
 10
12.548072814
 20
-44.4889711125
 10
12.5080625138
 20
-44.6557026711
 10
12.4828171033
 20
-44.7554948862
  0
LINE
  5
429
100
AcDbEntity
  8
RACCORDO
100
AcDbLine
 62
253
  6
CONTINUOUS
 10
12.4825157869
 20
-44.7571454229
 11
12.4828153874
 21
-44.7555093407
  0
LINE
  5
42A
100
AcDbEntity
  8
DRAFT
100
AcDbLine
 62
7
  6
CONTINUOUS
 10
16.496641395
 20
-12.646016359
 11
15.8018772086
 21
-13.0471658702
  0
LWPOLYLINE
  5
42B
100
AcDbEntity
  8
RACCORDO
100
AcDbPolyline
 62
7
  6
CONTINUOUS
 90
7
 70
0
 10
14.0279066446
 20
27.098697858
 10
13.9929754697
 20
27.1166758931
 10
13.9580631372
 20
27.134330298
 10
13.9231696473
 20
27.1516610726
 10
13.8882949998
 20
27.168668217
 10
13.8534391948
 20
27.1853517312
 10
13.8186022322
 20
27.2017116152
  0
LWPOLYLINE
  5
42C
100
AcDbEntity
  8
0
100
AcDbPolyline
 62
7
  6
CONTINUOUS
 90
16
 70
0
 10
-42.2140588804
 20
59.560054263
 10
-42.2774360941
 20
59.5972304417
 10
-42.3819548856
 20
59.6657102981
 10
-42.4794795925
 20
59.7371925604
 10
-42.5699460516
 20
59.8117047734
 10
-42.6534184261
 20
59.8892193924
 10
-42.7291332601
 20
59.9690274669
 10
-42.7970193861
 20
60.0511500376
 10
-42.8571479717
 20
60.1355660638
 10
-42.9089690636
 20
60.221503472
 10
-42.9524064487
 20
60.3089762202
 10
-42.9875363401
 20
60.3979703506
 10
-43.0140374243
 20
60.4876719159
 10
-43.03183054
 20
60.578087407
 10
-43.0409948484
 20
60.6692103332
 10
-43.0423266996
 20
60.7190047124
  0
LINE
  5
42D
100
AcDbEntity
  8
RACCORDO
100
AcDbLine
 62
253
  6
CONTINUOUS
 10
14.6062344612
 20
23.3891322074
 11
14.729088705
 21
23.3103921391
  0
LWPOLYLINE
  5
42E
100
AcDbEntity
  8
RACCORDO
100
AcDbPolyline
 62
253
  6
CONTINUOUS
 90
16
 70
0
 10
-42.0918042515
 20
62.7499398148
 10
-39.0680172332
 20
60.7514913127
 10
-36.0113943065
 20
58.7700923271
 10
-32.9222003507
 20
56.8059246783
 10
-29.8006388879
 20
54.8591287264
 10
-26.6470439694
 20
52.9299242226
 10
-23.4618866405
 20
51.0186067538
 10
-20.2454495209
 20
49.1253494595
 10
-16.9980181899
 20
47.2503233703
 10
-13.7200839267
 20
45.3938121367
 10
-10.4119435889
 20
43.5559810022
 10
-7.0738964276
 20
41.7369927774
 10
-3.7064525002
 20
39.9371183473
 10
-0.3099917766
 20
38.1565502239
 10
3.1152420119
 20
36.3954062754
 10
6.5689339574
 20
34.6538394353
  0
LWPOLYLINE
  5
42F
100
AcDbEntity
  8
RACCORDO
100
AcDbPolyline
 62
253
  6
CONTINUOUS
 90
16
 70
0
 10
-41.7202292379
 20
63.343690481
 10
-38.6991232022
 20
61.3470035685
 10
-35.6457461267
 20
59.3677080641
 10
-32.5600980112
 20
57.4058039677
 10
-29.4418366376
 20
55.4610750154
 10
-26.291304224
 20
53.5337374712
 10
-23.1095274253
 20
51.624440127
 10
-19.8964910372
 20
49.7331928825
 10
-16.6522102639
 20
47.8599858381
 10
-13.3777573735
 20
46.0054380867
 10
-10.0731162098
 20
44.1695589473
 10
-6.738302929
 20
42.3523391009
 10
-3.3744382678
 20
40.5543696847
 10
0.0181041949
 20
38.7758477442
 10
3.439698038
 20
37.0165762338
 10
6.8903432615
 20
35.2765551534
  0
LINE
  5
430
100
AcDbEntity
  8
RACCORDO
100
AcDbLine
 62
253
  6
CONTINUOUS
 10
14.729088705
 20
23.3103921391
 11
14.8514175907
 21
23.2245019542
  0
LWPOLYLINE
  5
431
100
AcDbEntity
  8
RACCORDO
100
AcDbPolyline
 62
253
  6
CONTINUOUS
 90
3
 70
0
 10
14.8514175907
 20
23.2245019542
 10
14.973225037
 20
23.1315198143
 10
15.0935174125
 20
23.0322041744
  0
LWPOLYLINE
  5
432
100
AcDbEntity
  8
RACCORDO
100
AcDbPolyline
 62
253
  6
CONTINUOUS
 90
15
 70
0
 10
14.631278746
 20
21.9161238194
 10
14.6348250135
 20
21.913377474
 10
14.6384105253
 20
21.9103343089
 10
14.6420482596
 20
21.9069996239
 10
14.6457252381
 20
21.9033681191
 10
14.6494025252
 20
21.8994238952
 10
14.6530830532
 20
21.8951641608
 10
14.6567638898
 20
21.8905917072
 10
14.6603973021
 20
21.8856990085
 10
14.6639834391
 20
21.8804917366
 10
14.6675221519
 20
21.8749642198
 10
14.6709652604
 20
21.8690919161
 10
14.6743283744
 20
21.862853743
 10
14.6775958842
 20
21.8562707832
 10
14.6806727797
 20
21.8493817423
  0
LWPOLYLINE
  5
433
100
AcDbEntity
  8
RACCORDO
100
AcDbPolyline
 62
253
  6
CONTINUOUS
 90
11
 70
0
 10
15.5633251063
 20
20.2968130106
 10
15.5702786004
 20
20.2909957633
 10
15.5768729801
 20
20.2849582589
 10
15.5831082454
 20
20.2787004976
 10
15.5889975055
 20
20.272168539
 10
15.5945276512
 20
20.2654163234
 10
15.5996593549
 20
20.2586056711
 10
15.6043877728
 20
20.2517328245
 10
15.6087177486
 20
20.2448015413
 10
15.6126244867
 20
20.2379849143
 10
15.6160795582
 20
20.23133874
  0
LWPOLYLINE
  5
434
100
AcDbEntity
  8
RACCORDO
100
AcDbPolyline
 62
253
  6
CONTINUOUS
 90
3
 70
0
 10
15.0935174125
 20
23.0322041744
 10
15.2122822203
 20
22.9265033123
 10
15.3295319573
 20
22.8144689503
  0
LINE
  5
435
100
AcDbEntity
  8
RACCORDO
100
AcDbLine
 62
253
  6
CONTINUOUS
 10
15.3295319573
 20
22.8144689503
 11
15.4443104834
 21
22.6970147105
  0
LINE
  5
436
100
AcDbEntity
  8
RACCORDO
100
AcDbLine
 62
253
  6
CONTINUOUS
 10
15.4443104834
 20
22.6970147105
 11
15.5565976198
 21
22.5740962475
  0
LWPOLYLINE
  5
437
100
AcDbEntity
  8
0
100
AcDbPolyline
 62
7
  6
CONTINUOUS
 90
6
 70
0
 10
15.6230108645
 20
22.435930334
 10
15.5694101199
 20
22.4979614674
 10
15.3530536223
 20
22.713809647
 10
15.1290180434
 20
22.9044746123
 10
14.9003330801
 20
23.067377947
 10
14.7850208491
 20
23.137825521
  0
LWPOLYLINE
  5
438
100
AcDbEntity
  8
RACCORDO
100
AcDbPolyline
 62
253
  6
CONTINUOUS
 90
15
 70
0
 10
15.5565976198
 20
22.5740962475
 10
15.6664135454
 20
22.4457579067
 10
15.7728626564
 20
22.3130463463
 10
15.8759174171
 20
22.175925805
 10
15.9756053633
 20
22.034432044
 10
16.0711134992
 20
21.8897190056
 10
16.1624076378
 20
21.7417603755
 10
16.2495219661
 20
21.5905824679
 10
16.3317460496
 20
21.4374181668
 10
16.4090399051
 20
21.2822512175
 10
16.4814435158
 20
21.1250978748
 10
16.5483663976
 20
20.9672397871
 10
16.6097637361
 20
20.8086711598
 10
16.6656803457
 20
20.6493977876
 10
16.7156601854
 20
20.4907187028
  0
LWPOLYLINE
  5
439
100
AcDbEntity
  8
RACCORDO
100
AcDbPolyline
 62
253
  6
CONTINUOUS
 90
10
 70
0
 10
12.5350710832
 20
23.2994424904
 10
12.5460820917
 20
23.2862048323
 10
12.5580859734
 20
23.2736886049
 10
12.5709915203
 20
23.2619891641
 10
12.584701016
 20
23.2511954079
 10
12.5991098857
 20
23.2413899425
 10
12.6141073186
 20
23.2326481839
 10
12.6295786915
 20
23.2250367501
 10
12.6454066074
 20
23.2186132271
 10
12.6614705814
 20
23.2134263893
  0
LWPOLYLINE
  5
43A
100
AcDbEntity
  8
RACCORDO
100
AcDbPolyline
 62
253
  6
CONTINUOUS
 90
12
 70
0
 10
15.8157485386
 20
22.4703990786
 10
15.9155838257
 20
22.3409693715
 10
16.0120135172
 20
22.2085881368
 10
16.1050376132
 20
22.0732553744
 10
16.1948410928
 20
21.9346671854
 10
16.2812389768
 20
21.7931274686
 10
16.3636763274
 20
21.6495479215
 10
16.4421282487
 20
21.5039158251
 10
16.5166196366
 20
21.3562438984
 10
16.5866702402
 20
21.2074819952
 10
16.6522534697
 20
21.0576185843
 10
16.7133959149
 20
20.9066651969
  0
LWPOLYLINE
  5
43B
100
AcDbEntity
  8
RACCORDO
100
AcDbPolyline
 62
253
  6
CONTINUOUS
 90
19
 70
0
 10
15.8157485386
 20
24.1165259002
 10
15.6886968825
 20
24.2816999342
 10
15.5597008824
 20
24.4424780359
 10
15.4287605383
 20
24.5988602054
 10
15.2955798026
 20
24.7510885421
 10
15.1604547229
 20
24.8989209467
 10
15.0242734425
 20
25.0416311203
 10
14.8874732734
 20
25.1788023607
 10
14.7496169037
 20
25.3108513702
 10
14.6102805413
 20
25.4383019572
 10
14.469646638
 20
25.5611698759
 10
14.3275327419
 20
25.6794393722
 10
14.1829677057
 20
25.7935869916
 10
14.0356032967
 20
25.9040155573
 10
13.8857877475
 20
26.0103222462
 10
13.7335946079
 20
26.1117751351
 10
13.5790483945
 20
26.2081302495
 10
13.4221245908
 20
26.2996315638
 10
13.2628231968
 20
26.3862790781
  0
LWPOLYLINE
  5
43C
100
AcDbEntity
  8
RACCORDO
100
AcDbPolyline
 62
253
  6
CONTINUOUS
 90
19
 70
0
 10
16.2362780841
 20
24.2451006874
 10
16.0914499391
 20
24.4392002622
 10
15.9433059157
 20
24.6284984583
 10
15.7920845514
 20
24.8127389386
 10
15.6378068038
 20
24.9919248847
 10
15.4809281883
 20
25.1655553366
 10
15.3223774327
 20
25.332701235
 10
15.1630274116
 20
25.4926364028
 10
15.0025672817
 20
25.6458625852
 10
14.8401367651
 20
25.7932646973
 10
14.6764441002
 20
25.9342174848
 10
14.5112429584
 20
26.0689503351
 10
14.3421451486
 20
26.1992188408
 10
14.1682433831
 20
26.3252769071
 10
13.9908497193
 20
26.4457228633
 10
13.8108893908
 20
26.5595949415
 10
13.6288646027
 20
26.6663010825
 10
13.4448469033
 20
26.7655223082
 10
13.259153291
 20
26.8567914774
  0
LWPOLYLINE
  5
43D
100
AcDbEntity
  8
RACCORDO
100
AcDbPolyline
 62
253
  6
CONTINUOUS
 90
39
 70
0
 10
16.2362780841
 20
22.6043892043
 10
16.3434634205
 20
22.4574310399
 10
16.4470101017
 20
22.3067694421
 10
16.5466826792
 20
22.1527476243
 10
16.6422530585
 20
21.995718938
 10
16.7335056307
 20
21.8360385628
 10
16.8202370595
 20
21.6740622973
 10
16.9022491484
 20
21.5101595893
 10
16.9793553703
 20
21.3447024808
 10
17.0513843397
 20
21.1780566785
 10
17.1181746661
 20
21.0105909089
 10
17.1795681846
 20
20.8426967128
 10
17.2354171457
 20
20.6747768488
 10
17.2855968971
 20
20.5072066613
 10
17.3299912086
 20
20.3403749072
 10
17.368490689
 20
20.1747025464
 10
17.4010085736
 20
20.0105884348
 10
17.4274817668
 20
19.8483811601
 10
17.4478581675
 20
19.6884206187
 10
17.462091743
 20
19.5310941344
 10
17.470155907
 20
19.3767327101
 10
17.4720336167
 20
19.2255896654
 10
17.4677096094
 20
19.0779926815
 10
17.4571830919
 20
18.9343063763
 10
17.4404641881
 20
18.7948372146
 10
17.4175473472
 20
18.6597594386
 10
17.3884874224
 20
18.5295577512
 10
17.3534626625
 20
18.4049426001
 10
17.3125744433
 20
18.2860924633
 10
17.2659786523
 20
18.1733050603
 10
17.2140990982
 20
18.0673066376
 10
17.1573594496
 20
17.9684882541
 10
17.0958576015
 20
17.8765947903
 10
17.0295595706
 20
17.7913388318
 10
16.9587684138
 20
17.7129435844
 10
16.8835916519
 20
17.6413736092
 10
16.8035310525
 20
17.5761760379
 10
16.718117216
 20
17.5172271257
 10
16.6498845752
 20
17.4769659401
  0
LWPOLYLINE
  5
43E
100
AcDbEntity
  8
RACCORDO
100
AcDbPolyline
 62
7
  6
CONTINUOUS
 90
3
 70
0
 10
15.5899131035
 20
20.2557789704
 10
15.5977372951
 20
20.2450174027
 10
15.6044035505
 20
20.2338652042
  0
LWPOLYLINE
  5
43F
100
AcDbEntity
  8
DRAFT
100
AcDbPolyline
 62
7
  6
CONTINUOUS
 90
37
 70
0
 10
16.8156044217
 20
22.9336139104
 10
16.9302430376
 20
22.7756850755
 10
17.0401996481
 20
22.6143743692
 10
17.1454742532
 20
22.4496817913
 10
17.2463416819
 20
22.2811105444
 10
17.3425271053
 20
22.109157426
 10
17.4332060357
 20
21.9353128284
 10
17.5182710071
 20
21.7597047867
 10
17.5978294856
 20
21.5822052657
 10
17.6713793823
 20
21.4039205529
 10
17.738947854
 20
21.2246452387
 10
17.800507744
 20
21.0445847327
 10
17.8554754924
 20
20.8654615508
 10
17.9037346177
 20
20.6875228122
 10
17.9454016014
 20
20.5105213978
 10
17.9802423282
 20
20.3354384659
 10
18.0082489155
 20
20.1620279558
 10
18.0294292458
 20
19.9905359283
 10
18.0435728513
 20
19.8226817244
 10
18.0506095761
 20
19.6587550624
 10
18.0506095761
 20
19.498466224
 10
18.0435728513
 20
19.3426653954
 10
18.0294292458
 20
19.1911438726
 10
18.0082489155
 20
19.0441103596
 10
17.9802423282
 20
18.9030411544
 10
17.9454016014
 20
18.7681914205
 10
17.9037346177
 20
18.6393059945
 10
17.8554754924
 20
18.5170956842
 10
17.800507744
 20
18.4014478803
 10
17.738947854
 20
18.2924751922
 10
17.6713793823
 20
18.1912262555
 10
17.5978294856
 20
18.0978751198
 10
17.5182710071
 20
18.0122477356
 10
17.4332060357
 20
17.9348705905
 10
17.3425271053
 20
17.8657397489
 10
17.2463416819
 20
17.8048591464
 10
17.2261906647
 20
17.7935412264
  0
LWPOLYLINE
  5
440
100
AcDbEntity
  8
RACCORDO
100
AcDbPolyline
 62
7
  6
CONTINUOUS
 90
4
 70
0
 10
14.839759403
 20
20.8675091742
 10
14.8562131782
 20
20.8441860924
 10
14.8744641367
 20
20.8229552583
 10
14.8942993417
 20
20.8041520724
  0
LWPOLYLINE
  5
441
100
AcDbEntity
  8
RACCORDO
100
AcDbPolyline
 62
7
  6
CONTINUOUS
 90
3
 70
0
 10
14.6561586015
 20
21.8755022307
 10
14.6623337596
 20
21.8657098236
 10
14.667817714
 20
21.8551469132
  0
LWPOLYLINE
  5
442
100
AcDbEntity
  8
RACCORDO
100
AcDbPolyline
 62
253
  6
CONTINUOUS
 90
7
 70
0
 10
14.8398326912
 20
20.8851627582
 10
14.8481528937
 20
20.8716227978
 10
14.8573506481
 20
20.858478263
 10
14.8669086015
 20
20.8463811825
 10
14.8766543028
 20
20.8355488993
 10
14.8867602031
 20
20.8257640705
 10
14.8972263024
 20
20.8170266961
  0
LWPOLYLINE
  5
443
100
AcDbEntity
  8
RACCORDO
100
AcDbPolyline
 62
7
  6
CONTINUOUS
 90
15
 70
0
 10
13.2628231968
 20
26.3862790781
 10
13.2517712732
 20
26.4055385475
 10
13.2412239982
 20
26.4252426502
 10
13.2312392
 20
26.4453834223
 10
13.2218768904
 20
26.4659936711
 10
13.213194246
 20
26.487016842
 10
13.2052466192
 20
26.5083073751
 10
13.1980972655
 20
26.5298440486
 10
13.1918014816
 20
26.5516080487
 10
13.1864085241
 20
26.5734545517
 10
13.1819834958
 20
26.5953551341
 10
13.1785842652
 20
26.6172809698
 10
13.1762639648
 20
26.6390837491
 10
13.1750914788
 20
26.6607321787
 10
13.1749552312
 20
26.670852982
  0
LINE
  5
444
100
AcDbEntity
  8
RACCORDO
100
AcDbLine
 62
7
  6
CONTINUOUS
 10
14.8254511693
 20
20.8924799646
 11
14.839759403
 21
20.8675091742
  0
LWPOLYLINE
  5
445
100
AcDbEntity
  8
RACCORDO
100
AcDbPolyline
 62
7
  6
CONTINUOUS
 90
4
 70
0
 10
15.6044035505
 20
20.2338652042
 10
15.6097480181
 20
20.2226359146
 10
15.6134706407
 20
20.2121344734
 10
15.6155117664
 20
20.2032017234
  0
LWPOLYLINE
  5
446
100
AcDbEntity
  8
RACCORDO
100
AcDbPolyline
 62
253
  6
CONTINUOUS
 90
7
 70
0
 10
12.6614706037
 20
23.2134264177
 10
12.6964939346
 20
23.1380236081
 10
12.7291286398
 20
23.0623295223
 10
12.7592697956
 20
22.9862502562
 10
12.7867102309
 20
22.9096442982
 10
12.8114781276
 20
22.8323996388
 10
12.8147875277
 20
22.8208565623
  0
LWPOLYLINE
  5
447
100
AcDbEntity
  8
RACCORDO
100
AcDbPolyline
 62
253
  6
CONTINUOUS
 90
8
 70
0
 10
15.6160795582
 20
20.23133874
 10
15.6191113919
 20
20.224807222
 10
15.6217804788
 20
20.2183960642
 10
15.6240970844
 20
20.2121362275
 10
15.6260509432
 20
20.2059967511
 10
15.6276717499
 20
20.1998904564
 10
15.6289694028
 20
20.1937882841
 10
15.6299340036
 20
20.1877192936
  0
LWPOLYLINE
  5
448
100
AcDbEntity
  8
RACCORDO
100
AcDbPolyline
 62
253
  6
CONTINUOUS
 90
25
 70
0
 10
12.4940034579
 20
23.2992577536
 10
12.495281487
 20
23.2964973376
 10
12.4988982228
 20
23.2894764109
 10
12.5029380494
 20
23.2826802861
 10
12.5073918011
 20
23.2761227878
 10
12.5122497166
 20
23.2698168559
 10
12.5174988373
 20
23.2637797739
 10
12.5231281426
 20
23.2580235628
 10
12.5291254369
 20
23.2525600321
 10
12.5354746642
 20
23.2474049626
 10
12.5421626041
 20
23.242568992
 10
12.5491750526
 20
23.2380621499
 10
12.5564928955
 20
23.2338978689
 10
12.564100594
 20
23.2300853334
 10
12.5719822122
 20
23.2266326127
 10
12.5801163929
 20
23.2235498395
 10
12.5884855265
 20
23.220844517
 10
12.5970720081
 20
23.2185228158
 10
12.6058529297
 20
23.2165911505
 10
12.6148089055
 20
23.2150551609
 10
12.6239206768
 20
23.2139190962
 10
12.6331641011
 20
23.2131854813
 10
12.6425170468
 20
23.2128568278
 10
12.6519598132
 20
23.212936225
 10
12.6614709766
 20
23.2134256892
  0
LINE
  5
449
100
AcDbEntity
  8
RACCORDO
100
AcDbLine
 62
7
  6
CONTINUOUS
 10
14.8136416116
 20
20.9184217521
 11
14.8254511693
 21
20.8924799646
  0
LINE
  5
44A
100
AcDbEntity
  8
RACCORDO
100
AcDbLine
 62
7
  6
CONTINUOUS
 10
12.493910707
 20
23.2994648854
 11
12.4940034579
 21
23.2992577536
  0
LWPOLYLINE
  5
44B
100
AcDbEntity
  8
RACCORDO
100
AcDbPolyline
 62
7
  6
CONTINUOUS
 90
9
 70
0
 10
12.4939109656
 20
23.2994640267
 10
12.5163481603
 20
23.2478817166
 10
12.5543750017
 20
23.1525255807
 10
12.5887712106
 20
23.0549570488
 10
12.6193798609
 20
22.9552619765
 10
12.6461138284
 20
22.853423195
 10
12.6689363912
 20
22.7493213967
 10
12.6877918107
 20
22.643113382
 10
12.6938072333
 20
22.599381053
  0
LWPOLYLINE
  5
44C
100
AcDbEntity
  8
RACCORDO
100
AcDbPolyline
 62
7
  6
CONTINUOUS
 90
5
 70
0
 10
14.667817714
 20
21.8551469132
 10
14.6725112002
 20
21.8439746468
 10
14.6763673925
 20
21.8320954977
 10
14.6791236872
 20
21.8198981293
 10
14.6796692355
 20
21.8164551198
  0
LWPOLYLINE
  5
44D
100
AcDbEntity
  8
RACCORDO
100
AcDbPolyline
 62
253
  6
CONTINUOUS
 90
6
 70
0
 10
14.6806727797
 20
21.8493817423
 10
14.6835675642
 20
21.8421595402
 10
14.6862717346
 20
21.8346312571
 10
14.6886647708
 20
21.8269168393
 10
14.6907064995
 20
21.8190562689
 10
14.6924370941
 20
21.811009564
  0
LINE
  5
44E
100
AcDbEntity
  8
RACCORDO
100
AcDbLine
 62
253
  6
CONTINUOUS
 10
16.7133959149
 20
20.9066651969
 11
16.769697095
 21
20.7556062809
  0
LWPOLYLINE
  5
44F
100
AcDbEntity
  8
RACCORDO
100
AcDbPolyline
 62
253
  6
CONTINUOUS
 90
34
 70
0
 10
16.769697095
 20
20.7556062809
 10
16.8211263603
 20
20.6044323012
 10
16.8677143604
 20
20.4531527928
 10
16.9091525636
 20
20.3027808094
 10
16.9454026642
 20
20.1533306423
 10
16.9765029678
 20
20.0047880002
 10
17.0022598599
 20
19.858123062
 10
17.0226386947
 20
19.7133710801
 10
17.0376741179
 20
19.5704968021
 10
17.0472764522
 20
19.4303646508
 10
17.0514207204
 20
19.2929910053
 10
17.0501318997
 20
19.1583594864
 10
17.0433952439
 20
19.0272853791
 10
17.0311638933
 20
18.8997243513
 10
17.0134847076
 20
18.7757207352
 10
16.9904835204
 20
18.6562228119
 10
16.9620438484
 20
18.5411906546
 10
16.9282821749
 20
18.4306641901
 10
16.8896737834
 20
18.3257114806
 10
16.8461561072
 20
18.2265146025
 10
16.7977917131
 20
18.1328914794
 10
16.7452435845
 20
18.045363944
 10
16.688691805
 20
17.9641803616
 10
16.627956291
 20
17.8890923669
 10
16.5631597743
 20
17.8198766969
 10
16.4943099628
 20
17.7563913451
 10
16.4213991488
 20
17.6987783179
 10
16.3445269409
 20
17.647240371
 10
16.2631545091
 20
17.6016532147
 10
16.1778206835
 20
17.5621411388
 10
16.0902415637
 20
17.5292797673
 10
16.0009891828
 20
17.5032609752
 10
15.9094915078
 20
17.4838928876
 10
15.8157485386
 20
17.4711755045
  0
LWPOLYLINE
  5
450
100
AcDbEntity
  8
RACCORDO
100
AcDbPolyline
 62
253
  6
CONTINUOUS
 90
5
 70
0
 10
14.8164467542
 20
20.9407273948
 10
14.8206547482
 20
20.9275031641
 10
14.8260266606
 20
20.9135542995
 10
14.8324909
 20
20.8991608161
 10
14.8398326912
 20
20.8851627582
  0
LWPOLYLINE
  5
451
100
AcDbEntity
  8
RACCORDO
100
AcDbPolyline
 62
253
  6
CONTINUOUS
 90
20
 70
0
 10
16.7156601854
 20
20.4907187028
 10
16.7596546776
 20
20.3326389677
 10
16.7977123998
 20
20.17515352
 10
16.8295230446
 20
20.0195462052
 10
16.8550356005
 20
19.8658321864
 10
16.8743010789
 20
19.7139963004
 10
16.8871622058
 20
19.5652769034
 10
16.8935665566
 20
19.4196992456
 10
16.8935665559
 20
19.2772380768
 10
16.8871622037
 20
19.1390560033
 10
16.8743010751
 20
19.0051883133
 10
16.855035595
 20
18.8755997186
 10
16.8295230379
 20
18.751346961
 10
16.7977123929
 20
18.6324737855
 10
16.759654671
 20
18.5189364471
 10
16.715660179
 20
18.4116604534
 10
16.6656803393
 20
18.3106968372
 10
16.6097637295
 20
18.2159945656
 10
16.5483663905
 20
18.1283260468
 10
16.4814435074
 20
18.047748826
  0
LWPOLYLINE
  5
452
100
AcDbEntity
  8
RACCORDO
100
AcDbPolyline
 62
253
  6
CONTINUOUS
 90
16
 70
0
 10
18.3473495637
 20
20.9255077736
 10
18.2893666932
 20
21.1533735469
 10
18.2243609652
 20
21.3826932042
 10
18.1526671615
 20
21.6122837025
 10
18.0742493984
 20
21.8421482582
 10
17.9891435595
 20
22.0722836549
 10
17.8977920773
 20
22.3014972009
 10
17.8001653053
 20
22.5297778363
 10
17.6962928902
 20
22.7571366209
 10
17.5867062046
 20
22.9824140432
 10
17.4713840298
 20
23.2055891293
 10
17.3503475847
 20
23.426682853
 10
17.2241918984
 20
23.6445986237
 10
17.093115314
 20
23.858970911
 10
16.9569194884
 20
24.0701652451
 10
16.8156044217
 20
24.2781816262
  0
LWPOLYLINE
  5
453
100
AcDbEntity
  8
0
100
AcDbPolyline
 62
7
  6
CONTINUOUS
 90
4
 70
0
 10
20.7602644933
 20
-42.2409273322
 10
20.7462819915
 20
-42.4216746303
 10
20.7112691989
 20
-42.5785852709
 10
20.6793868836
 20
-42.6542896479
  0
LWPOLYLINE
  5
454
100
AcDbEntity
  8
0
100
AcDbPolyline
 62
7
  6
CONTINUOUS
 90
7
 70
0
 10
20.5421820517
 20
-42.2308374138
 10
20.5438044324
 20
-42.2147771801
 10
20.5454118113
 20
-42.1952696071
 10
20.5464679166
 20
-42.1788230293
 10
20.5473947092
 20
-42.15886631
 10
20.547949633
 20
-42.1386769614
 10
20.5481324589
 20
-42.118444953
  0
LINE
  5
455
100
AcDbEntity
  8
RACCORDO
100
AcDbLine
 62
7
  6
CONTINUOUS
 10
14.7973498706
 20
-45.153314041
 11
14.6798986796
 21
-45.8546190645
  0
LINE
  5
456
100
AcDbEntity
  8
RACCORDO
100
AcDbLine
 62
253
  6
CONTINUOUS
 10
14.8113077469
 20
-45.1819865107
 11
14.693856556
 21
-45.8832915339
  0
LWPOLYLINE
  5
457
100
AcDbEntity
  8
RACCORDO
100
AcDbPolyline
 62
7
  6
CONTINUOUS
 90
4
 70
0
 10
15.6158879547
 20
-45.3212662759
 10
15.6157556246
 20
-45.3219577812
 10
15.6156545853
 20
-45.3223494174
 10
15.6157448441
 20
-45.3221475616
  0
LWPOLYLINE
  5
458
100
AcDbEntity
  8
RACCORDO
100
AcDbPolyline
 62
7
  6
CONTINUOUS
 90
5
 70
0
 10
14.6798869437
 20
-45.8546899468
 10
14.6794729096
 20
-45.8568062087
 10
14.6788897134
 20
-45.8590421023
 10
14.6782984317
 20
-45.8607594823
 10
14.6780262483
 20
-45.8614075891
  0
LWPOLYLINE
  5
459
100
AcDbEntity
  8
RACCORDO
100
AcDbPolyline
 62
253
  6
CONTINUOUS
 90
16
 70
0
 10
13.4930769813
 20
-43.8842690292
 10
13.4934936216
 20
-43.8823254779
 10
13.4941074041
 20
-43.8803907139
 10
13.4949205468
 20
-43.8784750833
 10
13.4959283232
 20
-43.8765913599
 10
13.4971397227
 20
-43.8747488867
 10
13.4985775649
 20
-43.8729539476
 10
13.5002446323
 20
-43.8712195702
 10
13.5021420702
 20
-43.8695581289
 10
13.5042904471
 20
-43.8679768384
 10
13.5066874865
 20
-43.8664929426
 10
13.5093387645
 20
-43.8651178211
 10
13.5122776109
 20
-43.8638554658
 10
13.5155151277
 20
-43.8627228425
 10
13.5190441336
 20
-43.8617428029
 10
13.5223646051
 20
-43.861027238
  0
LINE
  5
45A
100
AcDbEntity
  8
RACCORDO
100
AcDbLine
 62
253
  6
CONTINUOUS
 10
14.2618084141
 20
-44.0465909374
 11
14.2641418908
 21
-44.0358534364
  0
LINE
  5
45B
100
AcDbEntity
  8
RACCORDO
100
AcDbLine
 62
253
  6
CONTINUOUS
 10
14.8136412236
 20
-45.1712490097
 11
14.8113077469
 21
-45.1819865107
  0
LWPOLYLINE
  5
45C
100
AcDbEntity
  8
RACCORDO
100
AcDbPolyline
 62
253
  6
CONTINUOUS
 90
19
 70
0
 10
14.3815930827
 20
-43.3345484071
 10
14.3831540458
 20
-43.3274207439
 10
14.3850853379
 20
-43.3209215602
 10
14.3873869588
 20
-43.3150508561
 10
14.3900990686
 20
-43.3098166826
 10
14.3931815072
 20
-43.3052109887
 10
14.3965137953
 20
-43.3012096211
 10
14.4001016092
 20
-43.2978214505
 10
14.4039392724
 20
-43.2950376064
 10
14.4078892764
 20
-43.2928073234
 10
14.4119175141
 20
-43.2911437344
 10
14.4160580925
 20
-43.2900337067
 10
14.4202758237
 20
-43.289387076
 10
14.4245387608
 20
-43.2891735437
 10
14.4288788505
 20
-43.2894234084
 10
14.4333567455
 20
-43.2901374026
 10
14.4379926631
 20
-43.2913157703
 10
14.4427663859
 20
-43.2929582674
 10
14.4476779139
 20
-43.2950648939
  0
LWPOLYLINE
  5
45D
100
AcDbEntity
  8
RACCORDO
100
AcDbPolyline
 62
253
  6
CONTINUOUS
 90
4
 70
0
 10
14.693856556
 20
-45.8832915339
 10
14.6922955928
 20
-45.890419198
 10
14.6903643007
 20
-45.8969183826
 10
14.6880626798
 20
-45.9027890878
  0
LWPOLYLINE
  5
45E
100
AcDbEntity
  8
RACCORDO
100
AcDbPolyline
 62
253
  6
CONTINUOUS
 90
10
 70
0
 10
13.5121245256
 20
-44.1970308097
 10
13.5136574152
 20
-44.1905854503
 10
13.5161507669
 20
-44.1837434207
 10
13.5195337806
 20
-44.1766990136
 10
13.5237103921
 20
-44.1696522693
 10
13.5285619996
 20
-44.1628032976
 10
13.5339508305
 20
-44.1563465949
 10
13.5397238564
 20
-44.1504655173
 10
13.5457171394
 20
-44.1453270736
 10
13.5517604855
 20
-44.1410771853
  0
LWPOLYLINE
  5
45F
100
AcDbEntity
  8
RACCORDO
100
AcDbPolyline
 62
253
  6
CONTINUOUS
 90
10
 70
0
 10
14.1782233353
 20
-44.7172444997
 10
14.1797562354
 20
-44.7107991061
 10
14.1822496032
 20
-44.7039570487
 10
14.1856326335
 20
-44.6969126239
 10
14.1898092573
 20
-44.6898658747
 10
14.1946608695
 20
-44.6830169101
 10
14.2000496973
 20
-44.6765602224
 10
14.2058227121
 20
-44.6706791646
 10
14.2118159757
 20
-44.6655407431
 10
14.2178592953
 20
-44.6612908753
  0
LWPOLYLINE
  5
460
100
AcDbEntity
  8
RACCORDO
100
AcDbPolyline
 62
253
  6
CONTINUOUS
 90
4
 70
0
 10
12.744726157
 20
-44.535213691
 10
12.7317442821
 20
-44.5874114844
 10
12.6978946477
 20
-44.7169885179
 10
12.6614715197
 20
-44.8513336112
  0
LWPOLYLINE
  5
461
100
AcDbEntity
  8
RACCORDO
100
AcDbPolyline
 62
253
  6
CONTINUOUS
 90
19
 70
0
 10
6.5689339574
 20
34.6538394353
 10
6.601117118
 20
34.6390200848
 10
6.6353024884
 20
34.6257795082
 10
6.6712583587
 20
34.6142074508
 10
6.7087410185
 20
34.6043823483
 10
6.7474964088
 20
34.5963707958
 10
6.7872618439
 20
34.5902270958
 10
6.8277677921
 20
34.5859928907
 10
6.8687397024
 20
34.58369688
 10
6.9098998654
 20
34.5833546263
 10
6.9509692958
 20
34.5849684493
 10
6.9916696234
 20
34.5885274104
 10
7.0317249796
 20
34.5940073869
 10
7.0708638677
 20
34.6013712352
 10
7.1088210025
 20
34.610569043
 10
7.145339109
 20
34.621538467
 10
7.180170666
 20
34.634205156
 10
7.2130795837
 20
34.6484832548
 10
7.2438428042
 20
34.6642759857
  0
LWPOLYLINE
  5
462
100
AcDbEntity
  8
RACCORDO
100
AcDbPolyline
 62
253
  6
CONTINUOUS
 90
12
 70
0
 10
-41.7202292379
 20
63.343690481
 10
-41.7471234203
 20
63.3575523548
 10
-41.7738315078
 20
63.3690678443
 10
-41.800203795
 20
63.3781725872
 10
-41.8260917491
 20
63.3848155895
 10
-41.8513510677
 20
63.388960113
 10
-41.8758422913
 20
63.3905831637
 10
-41.8994305591
 20
63.3896749604
 10
-41.9219806608
 20
63.3862398326
 10
-41.9433607841
 20
63.3802983906
 10
-41.9634480121
 20
63.3718872278
 10
-41.9770416698
 20
63.3643331335
  0
LWPOLYLINE
  5
463
100
AcDbEntity
  8
RACCORDO
100
AcDbPolyline
 62
253
  6
CONTINUOUS
 90
22
 70
0
 10
-38.0326508364
 20
66.268007194
 10
-38.000801069
 20
66.2482886264
 10
-37.9714542666
 20
66.2271565313
 10
-37.9446104291
 20
66.2046109086
 10
-37.9201395011
 20
66.1806385796
 10
-37.8981715381
 20
66.155252723
 10
-37.8790967065
 20
66.1284928751
 10
-37.8629042034
 20
66.1002287544
 10
-37.8496048317
 20
66.0705906423
 10
-37.8396211669
 20
66.0400089192
 10
-37.8332319456
 20
66.008178196
 10
-37.8301584311
 20
65.9754038617
 10
-37.8299869892
 20
65.9430324637
 10
-37.8331212825
 20
65.9111098729
 10
-37.8391576483
 20
65.8795902184
 10
-37.8464714647
 20
65.8496824341
 10
-37.8548965112
 20
65.821888536
 10
-37.8645990083
 20
65.7957065081
 10
-37.8744529948
 20
65.7708392369
 10
-37.8840831505
 20
65.7471876844
 10
-37.8938647957
 20
65.7248508885
 10
-37.9037979304
 20
65.7038288492
  0
LINE
  5
464
100
AcDbEntity
  8
RACCORDO
100
AcDbLine
 62
253
  6
CONTINUOUS
 10
-38.2401753049
 20
65.7292531647
 11
-38.2609673788
 21
65.7425705817
  0
LWPOLYLINE
  5
465
100
AcDbEntity
  8
RACCORDO
100
AcDbPolyline
 62
253
  6
CONTINUOUS
 90
22
 70
0
 10
6.8903432615
 20
35.2765551534
 10
6.9163489463
 20
35.259873307
 10
6.9422427251
 20
35.2410171385
 10
6.9678794511
 20
35.2200925297
 10
6.9931147259
 20
35.1972176212
 10
7.0178078761
 20
35.1725202163
 10
7.0418225718
 20
35.1461365584
 10
7.0650266016
 20
35.1182110705
 10
7.0872869842
 20
35.0889029326
 10
7.108473585
 20
35.0583839993
 10
7.1284645265
 20
35.026832205
 10
7.1471527481
 20
34.9944190357
 10
7.1644398845
 20
34.9613153218
 10
7.1802337908
 20
34.9276942873
 10
7.1944388954
 20
34.8937558431
 10
7.2069663539
 20
34.8597149778
 10
7.2177509869
 20
34.8257555474
 10
7.2267328126
 20
34.7920742532
 10
7.233856517
 20
34.7589028478
 10
7.2390912371
 20
34.7264373417
 10
7.2424224571
 20
34.6948386168
 10
7.2438428042
 20
34.6642759857
  0
LWPOLYLINE
  5
466
100
AcDbEntity
  8
DRAFT
100
AcDbPolyline
 62
7
  6
CONTINUOUS
 90
26
 70
0
 10
20.5102154188
 20
23.1796024711
 10
20.4152949803
 20
23.4334899943
 10
20.3126877836
 20
23.6871695608
 10
20.2025455313
 20
23.9403730355
 10
20.0856883309
 20
24.1912217641
 10
19.9622196296
 20
24.4394108707
 10
19.8320359802
 20
24.6852452312
 10
19.6956471493
 20
24.9277608181
 10
19.5528500224
 20
25.1672280807
 10
19.403847714
 20
25.4033765698
 10
19.2497593335
 20
25.63443091
 10
19.0907368892
 20
25.8600950742
 10
18.9266283727
 20
26.0806650894
 10
18.7580968689
 20
26.2952536614
 10
18.5849377686
 20
26.5040534727
 10
18.4073556811
 20
26.7068718407
 10
18.2266275181
 20
26.9022434229
 10
18.0428949453
 20
27.0899510829
 10
17.8560162971
 20
27.270211957
 10
17.6668434892
 20
27.4422121123
 10
17.4752416682
 20
27.6060200364
 10
17.2813456875
 20
27.7615672418
 10
17.0864120223
 20
27.9078343319
 10
16.8908594977
 20
28.0444815082
 10
16.6942692886
 20
28.1718485693
 10
16.496641395
 20
28.2899355154
  0
LWPOLYLINE
  5
467
100
AcDbEntity
  8
RACCORDO
100
AcDbPolyline
 62
253
  6
CONTINUOUS
 90
16
 70
0
 10
14.0279066446
 20
35.5600317448
 10
14.0509712736
 20
35.5480268136
 10
14.0760616249
 20
35.5374627967
 10
14.1029088799
 20
35.5284528825
 10
14.1312253926
 20
35.5210936092
 10
14.1607077786
 20
35.515463829
 10
14.1910401659
 20
35.5116238639
 10
14.2218975702
 20
35.5096148617
 10
14.2529493745
 20
35.5094583534
 10
14.2838628782
 20
35.5111560211
 10
14.314306866
 20
35.514689681
 10
14.3439551454
 20
35.5200214774
 10
14.372490041
 20
35.5270942854
 10
14.3996058136
 20
35.5358323259
 10
14.4250119349
 20
35.5461419797
 10
14.4484361901
 20
35.5579127876
  0
LWPOLYLINE
  5
468
100
AcDbEntity
  8
RACCORDO
100
AcDbPolyline
 62
253
  6
CONTINUOUS
 90
19
 70
0
 10
11.8049465504
 20
37.4924035571
 10
11.7707191835
 20
37.5107877626
 10
11.7342844028
 20
37.5276480713
 10
11.6956422085
 20
37.542984483
 10
11.6547971419
 20
37.5568504315
 10
11.6117446616
 20
37.569192483
 10
11.5664711437
 20
37.5798503365
 10
11.5188835555
 20
37.5888521969
 10
11.4690749296
 20
37.5961698593
 10
11.4173107401
 20
37.6015584073
 10
11.3627781915
 20
37.6048705909
 10
11.3062900792
 20
37.6062536601
 10
11.2505502638
 20
37.6059044497
 10
11.1957556238
 20
37.6035550012
 10
11.1417092808
 20
37.5994732731
 10
11.0905244605
 20
37.594659975
 10
11.0431041048
 20
37.5892271317
 10
10.9985452719
 20
37.5830627185
 10
10.9160268419
 20
37.5707546341
  0
LINE
  5
469
100
AcDbEntity
  8
RACCORDO
100
AcDbLine
 62
253
  6
CONTINUOUS
 10
-39.4704113756
 20
66.6125592632
 11
-38.2410815256
 21
65.9027549021
  0
LINE
  5
46A
100
AcDbEntity
  8
RACCORDO
100
AcDbLine
 62
253
  6
CONTINUOUS
 10
13.8865068275
 20
35.8049434119
 11
11.5965173707
 21
37.1271524697
  0
LINE
  5
46B
100
AcDbEntity
  8
RACCORDO
100
AcDbLine
 62
253
  6
CONTINUOUS
 10
-39.2619815557
 20
66.9778078062
 11
-38.0326508364
 21
66.268007194
  0
LINE
  5
46C
100
AcDbEntity
  8
RACCORDO
100
AcDbLine
 62
253
  6
CONTINUOUS
 10
14.0949366474
 20
36.170191955
 11
11.8049465504
 21
37.4924035571
  0
LINE
  5
46D
100
AcDbEntity
  8
RACCORDO
100
AcDbLine
 62
7
  6
CONTINUOUS
 10
-38.4246269399
 20
67.4956404612
 11
14.9620427355
 21
36.6708464828
  0
LINE
  5
46E
100
AcDbEntity
  8
RACCORDO
100
AcDbLine
 62
7
  6
CONTINUOUS
 10
15.041339382
 20
37.1866699443
 11
-37.9210123767
 21
67.7664680757
  0
LINE
  5
46F
100
AcDbEntity
  8
RACCORDO
100
AcDbLine
 62
7
  6
CONTINUOUS
 10
15.760788758
 20
37.5735665364
 11
16.1431418524
 21
37.3528006518
  0
LWPOLYLINE
  5
470
100
AcDbEntity
  8
RACCORDO
100
AcDbPolyline
 62
253
  6
CONTINUOUS
 90
28
 70
0
 10
10.8423735708
 20
37.5584003574
 10
10.8651528141
 20
37.5446902232
 10
10.8878500317
 20
37.5293411295
 10
10.9103745206
 20
37.512410599
 10
10.9327283654
 20
37.4938835657
 10
10.9547249418
 20
37.4738990614
 10
10.9760052061
 20
37.4528064155
 10
10.9964860306
 20
37.4307440331
 10
11.0161199799
 20
37.4078297745
 10
11.034646946
 20
37.3844650687
 10
11.0519448829
 20
37.3609354518
 10
11.0681080198
 20
37.3372503183
 10
11.0832247939
 20
37.3134053188
 10
11.0972530968
 20
37.2895736528
 10
11.1102324381
 20
37.2657920163
 10
11.1223412814
 20
37.2418139037
 10
11.1335804549
 20
37.2176693738
 10
11.1439071583
 20
37.1934754603
 10
11.1533872563
 20
37.1690945001
 10
11.1619967352
 20
37.1445690822
 10
11.1696924508
 20
37.1199954636
 10
11.1764791371
 20
37.0953155495
 10
11.1822978979
 20
37.0706856653
 10
11.1871312955
 20
37.0461005512
 10
11.190989193
 20
37.0212781188
 10
11.1937984622
 20
36.9962024283
 10
11.1954539957
 20
36.9711091776
 10
11.1958731135
 20
36.9461211896
  0
LWPOLYLINE
  5
471
100
AcDbEntity
  8
RACCORDO
100
AcDbPolyline
 62
253
  6
CONTINUOUS
 90
16
 70
0
 10
11.464894816
 20
37.2192909331
 10
11.4370785926
 20
37.236482057
 10
11.4073554033
 20
37.2543583122
 10
11.3749597854
 20
37.2745711522
 10
11.3392265521
 20
37.2971881914
 10
11.3005842372
 20
37.321295884
 10
11.2597408448
 20
37.347059391
 10
11.216058024
 20
37.3751198465
 10
11.1696800442
 20
37.4042292326
 10
11.1226387753
 20
37.4322754931
 10
11.0752936828
 20
37.4592837177
 10
11.0272025911
 20
37.4850696437
 10
10.9795798728
 20
37.5079210286
 10
10.932995204
 20
37.5274814847
 10
10.8872104111
 20
37.5443139196
 10
10.842373609
 20
37.5583978622
  0
LWPOLYLINE
  5
472
100
AcDbEntity
  8
RACCORDO
100
AcDbPolyline
 62
253
  6
CONTINUOUS
 90
6
 70
0
 10
11.5965177799
 20
37.127150117
 10
11.57839063
 20
37.1416118519
 10
11.5586641568
 20
37.1566525918
 10
11.5373911784
 20
37.1720973355
 10
11.5148114984
 20
37.1873528535
 10
11.464894816
 20
37.2192909331
  0
LINE
  5
473
100
AcDbEntity
  8
RACCORDO
100
AcDbLine
 62
253
  6
CONTINUOUS
 10
15.590699098
 20
-45.3183347906
 11
15.619066375
 21
-45.2598727089
  0
LINE
  5
474
100
AcDbEntity
  8
RACCORDO
100
AcDbLine
 62
7
  6
CONTINUOUS
 10
15.615753668
 20
-45.3221299043
 11
15.6157143932
 21
-45.3222099348
  0
LWPOLYLINE
  5
475
100
AcDbEntity
  8
RACCORDO
100
AcDbPolyline
 62
253
  6
CONTINUOUS
 90
17
 70
0
 10
15.6157143932
 20
-45.3222099348
 10
15.6155325613
 20
-45.322563937
 10
15.614806067
 20
-45.3237552377
 10
15.6139632362
 20
-45.3248077603
 10
15.6130008708
 20
-45.3257042606
 10
15.6119169123
 20
-45.3264299978
 10
15.6107057993
 20
-45.3269735837
 10
15.6093561328
 20
-45.3273183638
 10
15.6078613338
 20
-45.3274447609
 10
15.6062202579
 20
-45.3273347303
 10
15.604427885
 20
-45.3269687258
 10
15.6024844899
 20
-45.326319268
 10
15.6003934127
 20
-45.3253694516
 10
15.5981580446
 20
-45.3241151149
 10
15.5957874495
 20
-45.3225413585
 10
15.5932956765
 20
-45.3206213228
 10
15.5906990981
 20
-45.3183347906
  0
LINE
  5
476
100
AcDbEntity
  8
RACCORDO
100
AcDbLine
 62
7
  6
CONTINUOUS
 10
14.6780262483
 20
-45.8614075891
 11
14.6775335627
 21
-45.8623587226
  0
LINE
  5
477
100
AcDbEntity
  8
RACCORDO
100
AcDbLine
 62
253
  6
CONTINUOUS
 10
14.6880626798
 20
-45.9027890878
 11
14.6853505701
 21
-45.9080232624
  0
LWPOLYLINE
  5
478
100
AcDbEntity
  8
RACCORDO
100
AcDbPolyline
 62
253
  6
CONTINUOUS
 90
3
 70
0
 10
14.2538796563
 20
-44.0649348886
 10
14.2583876693
 20
-44.0562847548
 10
14.2618084141
 20
-44.0465909374
  0
LWPOLYLINE
  5
479
100
AcDbEntity
  8
RACCORDO
100
AcDbPolyline
 62
253
  6
CONTINUOUS
 90
17
 70
0
 10
12.5350710831
 20
-45.2071954254
 10
12.5299066514
 20
-45.2151238173
 10
12.5253353906
 20
-45.2225219749
 10
12.5213330708
 20
-45.2294019521
 10
12.5178774661
 20
-45.2357674009
 10
12.5149345018
 20
-45.2416412483
 10
12.5124653831
 20
-45.247062565
 10
12.5104438271
 20
-45.252042721
 10
12.5088449946
 20
-45.2565932097
 10
12.5076416483
 20
-45.2607489336
 10
12.5068103198
 20
-45.2645213298
 10
12.5063287158
 20
-45.2679188793
 10
12.506178162
 20
-45.2709690817
 10
12.5063371999
 20
-45.2736829254
 10
12.5067850603
 20
-45.2760676123
 10
12.5075059173
 20
-45.2781443133
 10
12.5076923208
 20
-45.2785471977
  0
LWPOLYLINE
  5
47A
100
AcDbEntity
  8
RACCORDO
100
AcDbPolyline
 62
253
  6
CONTINUOUS
 90
15
 70
0
 10
14.6853505701
 20
-45.9080232624
 10
14.6822681316
 20
-45.9126289575
 10
14.6789358435
 20
-45.9166303263
 10
14.6753480294
 20
-45.9200184981
 10
14.6715103658
 20
-45.9228023437
 10
14.6675603614
 20
-45.9250326279
 10
14.6635321228
 20
-45.9266962178
 10
14.6593915434
 20
-45.9278062463
 10
14.6551738115
 20
-45.9284528776
 10
14.650910874
 20
-45.9286664105
 10
14.6465707839
 20
-45.928416546
 10
14.642092889
 20
-45.9277025517
 10
14.6374569716
 20
-45.9265241833
 10
14.6326832493
 20
-45.924881685
 10
14.6277717221
 20
-45.9227750569
  0
LINE
  5
47B
100
AcDbEntity
  8
RACCORDO
100
AcDbLine
 62
253
  6
CONTINUOUS
 10
15.6229488417
 20
-45.3687146491
 11
15.620829448
 21
-45.3717410649
  0
LINE
  5
47C
100
AcDbEntity
  8
RACCORDO
100
AcDbLine
 62
253
  6
CONTINUOUS
 10
15.1191306042
 20
-44.8855253069
 11
15.2093911461
 21
-44.7598076823
  0
LWPOLYLINE
  5
47D
100
AcDbEntity
  8
RACCORDO
100
AcDbPolyline
 62
253
  6
CONTINUOUS
 90
3
 70
0
 10
14.977068003
 20
-44.9830960851
 10
14.9995057496
 20
-44.9525037552
 10
15.1652760769
 20
-44.7253544412
  0
LINE
  5
47E
100
AcDbEntity
  8
RACCORDO
100
AcDbLine
 62
253
  6
CONTINUOUS
 10
14.4678699409
 20
-45.7748012437
 11
14.759544483
 21
-45.3790512859
  0
LINE
  5
47F
100
AcDbEntity
  8
RACCORDO
100
AcDbLine
 62
253
  6
CONTINUOUS
 10
14.4498685574
 20
-45.6966459746
 11
14.781317698
 21
-45.2490426844
  0
LINE
  5
480
100
AcDbEntity
  8
RACCORDO
100
AcDbLine
 62
7
  6
CONTINUOUS
 10
14.6775335627
 20
-45.8623587226
 11
14.6777110461
 21
-45.8621377732
  0
LWPOLYLINE
  5
481
100
AcDbEntity
  8
RACCORDO
100
AcDbPolyline
 62
7
  6
CONTINUOUS
 90
6
 70
0
 10
14.8288552286
 20
-45.0874122204
 10
14.8200794605
 20
-45.0977799636
 10
14.8124157464
 20
-45.1095727457
 10
14.8060189851
 20
-45.1226889436
 10
14.8010289883
 20
-45.1369774681
 10
14.7973560407
 20
-45.1532878852
  0
LWPOLYLINE
  5
482
100
AcDbEntity
  8
RACCORDO
100
AcDbPolyline
 62
253
  6
CONTINUOUS
 90
21
 70
0
 10
12.5350710831
 20
-42.018179653
 10
12.602590728
 20
-41.938495124
 10
12.6750838365
 20
-41.8663349705
 10
12.7525504087
 20
-41.8016991925
 10
12.8352714146
 20
-41.7444070855
 10
12.9229658841
 20
-41.6946393539
 10
13.0147909068
 20
-41.6529381114
 10
13.1107261302
 20
-41.6194189831
 10
13.2107919069
 20
-41.5939663439
 10
13.3142063846
 20
-41.5767754324
 10
13.4210145517
 20
-41.5679085177
 10
13.5311714199
 20
-41.5673033306
 10
13.6437601713
 20
-41.5749683023
 10
13.7587922943
 20
-41.5909721208
 10
13.8762563005
 20
-41.6152460981
 10
13.9952009067
 20
-41.6475926015
 10
14.115641236
 20
-41.6880779535
 10
14.2375621654
 20
-41.7366358316
 10
14.3599670423
 20
-41.7928696358
 10
14.482858778
 20
-41.8568418229
 10
14.6062344612
 20
-41.9284899361
  0
LWPOLYLINE
  5
483
100
AcDbEntity
  8
RACCORDO
100
AcDbPolyline
 62
253
  6
CONTINUOUS
 90
20
 70
0
 10
12.6614710625
 20
-42.104195005
 10
12.7283136552
 20
-42.0255416598
 10
12.800529985
 20
-41.9543136805
 10
12.8779109955
 20
-41.8907185516
 10
12.9602337387
 20
-41.8349409536
 10
13.047258739
 20
-41.7871444855
 10
13.1387300767
 20
-41.7474701167
 10
13.2343808569
 20
-41.7160332212
 10
13.3339345359
 20
-41.6929243329
 10
13.4371020154
 20
-41.678210384
 10
13.543583306
 20
-41.6719339271
 10
13.6530697033
 20
-41.6741129337
 10
13.765244748
 20
-41.6847410942
 10
13.8797836876
 20
-41.7037878647
 10
13.9963533183
 20
-41.7311980567
 10
14.1146142764
 20
-41.7668919043
 10
14.234222764
 20
-41.8107655234
 10
14.3548320865
 20
-41.8626916257
 10
14.4760926473
 20
-41.922519678
 10
14.5789280834
 20
-41.9791772123
  0
LWPOLYLINE
  5
484
100
AcDbEntity
  8
RACCORDO
100
AcDbPolyline
 62
253
  6
CONTINUOUS
 90
22
 70
0
 10
12.5852282116
 20
-41.3180720821
 10
12.5800625239
 20
-41.3234021469
 10
12.5748533497
 20
-41.3291857151
 10
12.5696102681
 20
-41.3354609266
 10
12.5643816557
 20
-41.3422220053
 10
12.5591949315
 20
-41.3494769601
 10
12.5540715898
 20
-41.3572491214
 10
12.5490522332
 20
-41.3655363225
 10
12.5441860395
 20
-41.3742993258
 10
12.5394952836
 20
-41.3835460788
 10
12.5350121698
 20
-41.3932707081
 10
12.5307860096
 20
-41.4034005949
 10
12.5268322604
 20
-41.4139313361
 10
12.5231733902
 20
-41.4248499536
 10
12.5198499449
 20
-41.4360591216
 10
12.5168708373
 20
-41.4475306585
 10
12.5142415244
 20
-41.4592602218
 10
12.5119809232
 20
-41.471179082
 10
12.5100907505
 20
-41.4832539888
 10
12.5085687682
 20
-41.4954806679
 10
12.5074211095
 20
-41.5078320121
 10
12.5066459333
 20
-41.5202861368
  0
LINE
  5
485
100
AcDbEntity
  8
RACCORDO
100
AcDbLine
 62
253
  6
CONTINUOUS
 10
12.5903862857
 20
-41.3131234085
 11
12.5852282116
 21
-41.3180720821
  0
LWPOLYLINE
  5
486
100
AcDbEntity
  8
RACCORDO
100
AcDbPolyline
 62
253
  6
CONTINUOUS
 90
13
 70
0
 10
12.5350710831
 20
-41.698030374
 10
12.5855243228
 20
-41.6529304254
 10
12.6379311164
 20
-41.6110222885
 10
12.6922914639
 20
-41.5723059633
 10
12.7486685851
 20
-41.5367449127
 10
12.8069992602
 20
-41.5043756739
 10
12.8670938299
 20
-41.4753078576
 10
12.9289446493
 20
-41.4495549947
 10
12.9925593632
 20
-41.4271035544
 10
13.0577712474
 20
-41.4080225546
 10
13.124524727
 20
-41.3923350013
 10
13.1928753768
 20
-41.3800178885
 10
13.2628231968
 20
-41.3710712162
  0
LINE
  5
487
100
AcDbEntity
  8
RACCORDO
100
AcDbLine
 62
253
  6
CONTINUOUS
 10
12.5956117031
 20
-41.3084628764
 11
12.5903862857
 21
-41.3131234085
  0
LWPOLYLINE
  5
488
100
AcDbEntity
  8
RACCORDO
100
AcDbPolyline
 62
7
  6
CONTINUOUS
 90
15
 70
0
 10
12.5958640691
 20
-41.3082471085
 10
12.5900273799
 20
-41.313401917
 10
12.5741397726
 20
-41.3291364531
 10
12.5594187824
 20
-41.3463102483
 10
12.5457729827
 20
-41.3650010099
 10
12.5332316673
 20
-41.3851727722
 10
12.5218760527
 20
-41.4066681213
 10
12.5117161339
 20
-41.4294164341
 10
12.5027149341
 20
-41.4534918374
 10
12.4949302498
 20
-41.4787783835
 10
12.4885003431
 20
-41.5047808004
 10
12.4834099431
 20
-41.531459317
 10
12.4796630113
 20
-41.5588804648
 10
12.4773444121
 20
-41.5866420445
 10
12.4764923753
 20
-41.6164862957
  0
LINE
  5
489
100
AcDbEntity
  8
RACCORDO
100
AcDbLine
 62
7
  6
CONTINUOUS
 10
12.5958695769
 20
-41.3082416403
 11
12.5956117031
 21
-41.3084628764
  0
LWPOLYLINE
  5
48A
100
AcDbEntity
  8
RACCORDO
100
AcDbPolyline
 62
7
  6
CONTINUOUS
 90
4
 70
0
 10
12.7948468066
 20
-41.1639650929
 10
12.6984294814
 20
-41.2276656235
 10
12.6062749813
 20
-41.2993967385
 10
12.5956082187
 20
-41.3084658661
  0
LINE
  5
48B
100
AcDbEntity
  8
RACCORDO
100
AcDbLine
 62
7
  6
CONTINUOUS
 10
13.8186022322
 20
-38.1159105282
 11
13.259153291
 21
-38.460830666
  0
LINE
  5
48C
100
AcDbEntity
  8
DRAFT
100
AcDbLine
 62
7
  6
CONTINUOUS
 10
13.1749552311
 20
-40.9335242135
 11
12.7948468066
 21
-41.1639650929
  0
LWPOLYLINE
  5
48D
100
AcDbEntity
  8
RACCORDO
100
AcDbPolyline
 62
253
  6
CONTINUOUS
 90
7
 70
0
 10
12.7948468066
 20
-41.1639650929
 10
12.812955805
 20
-41.1531885207
 10
12.8818414798
 20
-41.1157256158
 10
12.9530403085
 20
-41.0824473149
 10
13.0264634072
 20
-41.0533951297
 10
13.1020194517
 20
-41.0286050871
 10
13.1749552311
 20
-41.0093386561
  0
LINE
  5
48E
100
AcDbEntity
  8
DRAFT
100
AcDbLine
 62
7
  6
CONTINUOUS
 10
16.496641395
 20
-37.0276866281
 11
15.3155422782
 21
-37.7095843694
  0
LINE
  5
48F
100
AcDbEntity
  8
RACCORDO
100
AcDbLine
 62
7
  6
CONTINUOUS
 10
15.3155422782
 20
-37.7095843694
 11
14.4484361901
 21
-38.2102672208
  0
LWPOLYLINE
  5
490
100
AcDbEntity
  8
RACCORDO
100
AcDbPolyline
 62
7
  6
CONTINUOUS
 90
19
 70
0
 10
14.4484361901
 20
-38.2102672208
 10
14.4291936134
 20
-38.2204786235
 10
14.4084753898
 20
-38.2297458685
 10
14.3864188865
 20
-38.2379906605
 10
14.3631077022
 20
-38.2451547847
 10
14.3387666827
 20
-38.2511528543
 10
14.3137846238
 20
-38.2559073295
 10
14.2884603102
 20
-38.2593889899
 10
14.2628912113
 20
-38.2616150722
 10
14.2371814331
 20
-38.2626106455
 10
14.2115433201
 20
-38.2623772362
 10
14.1861411503
 20
-38.2609258385
 10
14.1610077563
 20
-38.2582736373
 10
14.1362141688
 20
-38.2544081435
 10
14.1120851951
 20
-38.249350972
 10
14.0890181948
 20
-38.2431947011
 10
14.0672381361
 20
-38.2360311182
 10
14.0468227459
 20
-38.2279145847
 10
14.0279066446
 20
-38.2189242854
  0
LWPOLYLINE
  5
491
100
AcDbEntity
  8
RACCORDO
100
AcDbPolyline
 62
253
  6
CONTINUOUS
 90
22
 70
0
 10
-38.2410832762
 20
65.9027502986
 10
-38.2241804015
 20
65.8969551137
 10
-38.2079836162
 20
65.8912712331
 10
-38.1925754213
 20
65.8855779192
 10
-38.1781761226
 20
65.8795048574
 10
-38.1647080355
 20
65.8732525778
 10
-38.1517961898
 20
65.8673975901
 10
-38.1395197594
 20
65.861486087
 10
-38.1279041126
 20
65.8555014717
 10
-38.1163407691
 20
65.8502637996
 10
-38.1044900066
 20
65.8453496434
 10
-38.0923648805
 20
65.8401506393
 10
-38.0794592953
 20
65.8348917137
 10
-38.0647942696
 20
65.8292542048
 10
-38.0483046335
 20
65.8220857278
 10
-38.0306873294
 20
65.8128350844
 10
-38.0115015842
 20
65.8014304551
 10
-37.9905175717
 20
65.7873093378
 10
-37.969088828
 20
65.7702764815
 10
-37.9477333058
 20
65.750610583
 10
-37.9259561769
 20
65.7284326991
 10
-37.9037978935
 20
65.7038264272
  0
LINE
  5
492
100
AcDbEntity
  8
RACCORDO
100
AcDbLine
 62
253
  6
CONTINUOUS
 10
14.642935022
 20
-45.8758816145
 11
14.6843949634
 21
-45.827771602
  0
LWPOLYLINE
  5
493
100
AcDbEntity
  8
RACCORDO
100
AcDbPolyline
 62
253
  6
CONTINUOUS
 90
14
 70
0
 10
15.620829448
 20
-45.3717410649
 10
15.6184089905
 20
-45.3745388911
 10
15.6156924559
 20
-45.3771111792
 10
15.6126748575
 20
-45.3794548776
 10
15.6093108484
 20
-45.3814881721
 10
15.6055899756
 20
-45.3832230515
 10
15.6015226921
 20
-45.384647527
 10
15.5970950097
 20
-45.3856438174
 10
15.5922877277
 20
-45.3862106549
 10
15.5871200468
 20
-45.3863493073
 10
15.5816355813
 20
-45.385945797
 10
15.5758488691
 20
-45.3849621316
 10
15.5697453724
 20
-45.3834363036
 10
15.5633250909
 20
-45.3813683129
  0
LWPOLYLINE
  5
494
100
AcDbEntity
  8
RACCORDO
100
AcDbPolyline
 62
253
  6
CONTINUOUS
 90
14
 70
0
 10
14.6777088762
 20
-45.8621400448
 10
14.6765539431
 20
-45.86344934
 10
14.6736080492
 20
-45.8664795701
 10
14.6706395401
 20
-45.8691159272
 10
14.6676883194
 20
-45.8713504751
 10
14.6647971431
 20
-45.8731825016
 10
14.6619660333
 20
-45.8746436112
 10
14.6591664334
 20
-45.8757709995
 10
14.6564146578
 20
-45.8765802053
 10
14.6537209012
 20
-45.8770743133
 10
14.6510301348
 20
-45.877254396
 10
14.6483218124
 20
-45.8771151104
 10
14.6456216242
 20
-45.8766573807
 10
14.6429350508
 20
-45.8758816392
  0
LWPOLYLINE
  5
495
100
AcDbEntity
  8
RACCORDO
100
AcDbPolyline
 62
253
  6
CONTINUOUS
 90
39
 70
0
 10
16.4814435074
 20
-47.2698733175
 10
16.4090398951
 20
-47.3434167855
 10
16.3317460385
 20
-47.4093267277
 10
16.2495219548
 20
-47.4675407169
 10
16.1624076269
 20
-47.5181211802
 10
16.0711134884
 20
-47.560655626
 10
15.975605352
 20
-47.5950782621
 10
15.875917405
 20
-47.6214548807
 10
15.7728626437
 20
-47.6395703666
 10
15.6664135323
 20
-47.6493571608
 10
15.5565976065
 20
-47.6508828225
 10
15.4443104698
 20
-47.6441349139
 10
15.3295319432
 20
-47.6290457877
 10
15.2122822057
 20
-47.6056830913
 10
15.0935173975
 20
-47.5742373293
 10
14.9732250215
 20
-47.534642348
 10
14.8514175747
 20
-47.4869643011
 10
14.7290886886
 20
-47.4315921538
 10
14.6062344445
 20
-47.3684632197
 10
14.4828587609
 20
-47.2976401852
 10
14.359967025
 20
-47.2197000751
 10
14.2375621481
 20
-47.1345837945
 10
14.1156412188
 20
-47.0423504384
 10
13.9952008896
 20
-46.9437543161
 10
13.8762562837
 20
-46.8387465689
 10
13.7587922779
 20
-46.7273760555
 10
13.6437601553
 20
-46.610543661
 10
13.5311714043
 20
-46.488193964
 10
13.4210145366
 20
-46.3603823861
 10
13.3142063698
 20
-46.2281760764
 10
13.2107918923
 20
-46.0915647172
 10
13.1107261158
 20
-45.9505586263
 10
13.0147908929
 20
-45.806255906
 10
12.9229658707
 20
-45.6585174283
 10
12.8352714021
 20
-45.5074823214
 10
12.752550398
 20
-45.3546660722
 10
12.6750838286
 20
-45.2005738431
 10
12.6025907236
 20
-45.0447004719
 10
12.5350710831
 20
-44.8870459584
  0
LWPOLYLINE
  5
496
100
AcDbEntity
  8
RACCORDO
100
AcDbPolyline
 62
253
  6
CONTINUOUS
 90
3
 70
0
 10
14.2413978322
 20
-44.079384568
 10
14.2481823784
 20
-44.0726815701
 10
14.2538796563
 20
-44.0649348886
  0
LWPOLYLINE
  5
497
100
AcDbEntity
  8
0
100
AcDbPolyline
 62
7
  6
CONTINUOUS
 90
3
 70
0
 10
16.1908793818
 20
-46.8203436534
 10
16.054415436
 20
-46.9541256646
 10
15.9375201314
 20
-47.0332785167
  0
LWPOLYLINE
  5
498
100
AcDbEntity
  8
RACCORDO
100
AcDbPolyline
 62
7
  6
CONTINUOUS
 90
3
 70
0
 10
14.8445191242
 20
-45.0741344365
 10
14.8386132903
 20
-45.0785091007
 10
14.8288552286
 20
-45.0874122204
  0
LINE
  5
499
100
AcDbEntity
  8
RACCORDO
100
AcDbLine
 62
7
  6
CONTINUOUS
 10
15.2528066302
 20
-44.7937145575
 11
14.8444555835
 21
-45.0741763333
  0
LINE
  5
49A
100
AcDbEntity
  8
RACCORDO
100
AcDbLine
 62
253
  6
CONTINUOUS
 10
15.2870228293
 20
-44.820436922
 11
14.9246003096
 21
-45.0693542795
  0
LWPOLYLINE
  5
49B
100
AcDbEntity
  8
0
100
AcDbPolyline
 62
7
  6
CONTINUOUS
 90
8
 70
0
 10
13.1379295063
 20
-42.1845614304
 10
13.0210342017
 20
-42.2637142825
 10
12.8845702559
 20
-42.3974962937
 10
12.7684324514
 20
-42.5627079069
 10
12.6772283506
 20
-42.7527946432
 10
12.6124938073
 20
-42.9655716764
 10
12.5726929676
 20
-43.2032238327
 10
12.5578258315
 20
-43.4657511122
  0
LINE
  5
49C
100
AcDbEntity
  8
0
100
AcDbLine
 62
7
  6
CONTINUOUS
 10
13.3851445439
 20
-42.0411917934
 11
13.1376571705
 21
-42.184087901
  0
LINE
  5
49D
100
AcDbEntity
  8
RACCORDO
100
AcDbLine
 62
253
  6
CONTINUOUS
 10
14.7921703938
 20
-44.3296936187
 11
14.2178592953
 21
-44.6612908753
  0
LINE
  5
49E
100
AcDbEntity
  8
RACCORDO
100
AcDbLine
 62
253
  6
CONTINUOUS
 10
14.9067484239
 20
-44.5281025007
 11
14.3324173692
 21
-44.8597112796
  0
LINE
  5
49F
100
AcDbEntity
  8
RACCORDO
100
AcDbLine
 62
7
  6
CONTINUOUS
 10
16.8156044217
 20
-42.3840082331
 11
16.2362780841
 21
-42.7132329391
  0
LINE
  5
4A0
100
AcDbEntity
  8
RACCORDO
100
AcDbLine
 62
7
  6
CONTINUOUS
 10
16.2362780841
 20
-41.072521456
 11
17.0276723976
 21
-40.6230283428
  0
LWPOLYLINE
  5
4A1
100
AcDbEntity
  8
RACCORDO
100
AcDbPolyline
 62
7
  6
CONTINUOUS
 90
19
 70
0
 10
16.2362780841
 20
-42.7132329391
 10
16.2148779564
 20
-42.725000939
 10
16.1920740546
 20
-42.7364782423
 10
16.1681222808
 20
-42.7476251327
 10
16.1432828147
 20
-42.7584854426
 10
16.1177966521
 20
-42.7689836216
 10
16.0918808454
 20
-42.7789199776
 10
16.0657653232
 20
-42.788315057
 10
16.0396666613
 20
-42.7971900843
 10
16.0137634433
 20
-42.8053566164
 10
15.9882492392
 20
-42.8128580934
 10
15.9633028727
 20
-42.819745826
 10
15.9390617433
 20
-42.8258477819
 10
15.9156791766
 20
-42.8312225522
 10
15.8932935988
 20
-42.8359406799
 10
15.8720032935
 20
-42.8398485601
 10
15.8519136142
 20
-42.8429430595
 10
15.8331334097
 20
-42.8453750324
 10
15.8157485386
 20
-42.8472230649
  0
LWPOLYLINE
  5
4A2
100
AcDbEntity
  8
RACCORDO
100
AcDbPolyline
 62
7
  6
CONTINUOUS
 90
19
 70
0
 10
16.2362780841
 20
-41.072521456
 10
16.2150520245
 20
-41.084167283
 10
16.1924237084
 20
-41.0955095387
 10
16.1686399601
 20
-41.1065062161
 10
16.1439526238
 20
-41.1171946591
 10
16.11859649
 20
-41.1274991772
 10
16.0927847438
 20
-41.1372266712
 10
16.0667437521
 20
-41.1463944713
 10
16.0406873815
 20
-41.1550186925
 10
16.0147936996
 20
-41.1629147049
 10
15.9892563826
 20
-41.1701224005
 10
15.9642553717
 20
-41.1766884393
 10
15.9399307384
 20
-41.1824433056
 10
15.9164389506
 20
-41.1874425138
 10
15.8939225612
 20
-41.1917530994
 10
15.8724851898
 20
-41.1952239644
 10
15.8522377452
 20
-41.1978515162
 10
15.8332948076
 20
-41.1997831539
 10
15.8157485386
 20
-41.2010962433
  0
LWPOLYLINE
  5
4A3
100
AcDbEntity
  8
RACCORDO
100
AcDbPolyline
 62
253
  6
CONTINUOUS
 90
8
 70
0
 10
14.2885584662
 20
-44.1104634614
 10
14.291371613
 20
-44.1090148042
 10
14.3016160928
 20
-44.1021292084
 10
14.3107126244
 20
-44.0932498429
 10
14.3183609572
 20
-44.0827151758
 10
14.3244926436
 20
-44.0708393235
 10
14.329172407
 20
-44.0577525185
 10
14.3324173692
 20
-44.0436633404
  0
LINE
  5
4A4
100
AcDbEntity
  8
RACCORDO
100
AcDbLine
 62
253
  6
CONTINUOUS
 10
14.7292128896
 20
-43.8542204889
 11
14.3324173692
 21
-44.0436633404
  0
LINE
  5
4A5
100
AcDbEntity
  8
RACCORDO
100
AcDbLine
 62
7
  6
CONTINUOUS
 10
14.7352447892
 20
-43.8972026509
 11
14.2881745387
 21
-44.1106482639
  0
LWPOLYLINE
  5
4A6
100
AcDbEntity
  8
0
100
AcDbPolyline
 62
7
  6
CONTINUOUS
 90
3
 70
0
 10
13.3565749392
 20
-42.0929663153
 10
13.1786414997
 20
-42.1626254979
 10
13.1379295063
 20
-42.1845614304
  0
LWPOLYLINE
  5
4A7
100
AcDbEntity
  8
RACCORDO
100
AcDbPolyline
 62
7
  6
CONTINUOUS
 90
3
 70
0
 10
14.2686620241
 20
-44.1175951691
 10
14.2814593053
 20
-44.1135416341
 10
14.2886121806
 20
-44.1104252629
  0
LWPOLYLINE
  5
4A8
100
AcDbEntity
  8
DRAFT
100
AcDbPolyline
 62
7
  6
CONTINUOUS
 90
30
 70
0
 10
19.7420132444
 20
-47.73459551
 10
19.8320359802
 20
-47.6768778521
 10
19.9622196296
 20
-47.5813763068
 10
20.0856883309
 20
-47.4757657616
 10
20.2025455313
 20
-47.3598607989
 10
20.3126877836
 20
-47.2338468364
 10
20.4152949803
 20
-47.0986554887
 10
20.5102154188
 20
-46.9543797085
 10
20.5976008015
 20
-46.8009265432
 10
20.6770861291
 20
-46.6389487506
 10
20.7486989641
 20
-46.4682532696
 10
20.8124117439
 20
-46.2890331613
 10
20.8677767806
 20
-46.1025203661
 10
20.9147057425
 20
-45.9087918754
 10
20.9532869614
 20
-45.7077706979
 10
20.9833377453
 20
-45.5004577999
 10
21.0048268332
 20
-45.2867484969
 10
21.0177854861
 20
-45.0667474733
 10
21.0221247946
 20
-44.8417697483
 10
21.0177854861
 20
-44.6117810986
 10
21.0048268332
 20
-44.3768157475
 10
20.9833377453
 20
-44.1382913844
 10
20.9532869614
 20
-43.8962765944
 10
20.9147057425
 20
-43.6507027924
 10
20.8677767806
 20
-43.4027819129
 10
20.8124117439
 20
-43.152334961
 10
20.7486989641
 20
-42.8995409316
 10
20.6770861291
 20
-42.6461487438
 10
20.5976008015
 20
-42.3923832873
 10
20.5102154188
 20
-42.1380196723
  0
LWPOLYLINE
  5
4A9
100
AcDbEntity
  8
DRAFT
100
AcDbPolyline
 62
7
  6
CONTINUOUS
 90
53
 70
0
 10
18.5549456484
 20
-48.4542428384
 10
18.623179385
 20
-48.4110917666
 10
18.7602111535
 20
-48.3128458414
 10
18.8900296024
 20
-48.2035515599
 10
19.0125512504
 20
-48.0832775557
 10
19.127615977
 20
-47.9521132083
 10
19.2348419141
 20
-47.8104214148
 10
19.3338412355
 20
-47.6587164136
 10
19.4243362783
 20
-47.4975140418
 10
19.5062697765
 20
-47.3270148527
 10
19.5796066813
 20
-47.1472902141
 10
19.6442404105
 20
-46.9584737614
 10
19.6999272625
 20
-46.7611322278
 10
19.7464568975
 20
-46.5560126978
 10
19.7837188119
 20
-46.3438106012
 10
19.8117188663
 20
-46.1247518083
 10
19.8304480983
 20
-45.8989049071
 10
19.8398486025
 20
-45.6664445991
 10
19.8398486025
 20
-45.4280992203
 10
19.8304480983
 20
-45.1847834457
 10
19.8117188663
 20
-44.9373084967
 10
19.7837188119
 20
-44.6859159429
 10
19.7464568975
 20
-44.4306847216
 10
19.6999272625
 20
-44.1718339354
 10
19.6442404105
 20
-43.910186621
 10
19.5796066813
 20
-43.6467327579
 10
19.5062697765
 20
-43.3823204999
 10
19.4243362783
 20
-43.1172065608
 10
19.3338412355
 20
-42.8515027819
 10
19.2348419141
 20
-42.5854758458
 10
19.127615977
 20
-42.3199622278
 10
19.0125512504
 20
-42.0559240185
 10
18.8900296024
 20
-41.7941650863
 10
18.7602111535
 20
-41.534959714
 10
18.623179385
 20
-41.2784729373
 10
18.4790703732
 20
-41.0250147595
 10
18.3282902348
 20
-40.7753521804
 10
18.171344036
 20
-40.5303233599
 10
18.0087003621
 20
-40.2906173223
 10
17.8405838049
 20
-40.0565241124
 10
17.6671567222
 20
-39.8282680202
 10
17.4886490943
 20
-39.6061842654
 10
17.3055388382
 20
-39.3908990959
 10
17.1183707829
 20
-39.1830551245
 10
16.9276396319
 20
-38.9831780639
 10
16.7336469758
 20
-38.7915608038
 10
16.5366635328
 20
-38.6084687579
 10
16.3370212872
 20
-38.4342262669
 10
16.1352040097
 20
-38.2692711276
 10
15.9317150244
 20
-38.1140170544
 10
15.7270059085
 20
-37.9688016215
 10
15.5214729252
 20
-37.8338990112
 10
15.3155422782
 20
-37.7095843694
  0
LINE
  5
4AA
100
AcDbEntity
  8
DRAFT
100
AcDbLine
 62
7
  6
CONTINUOUS
 10
19.7420076774
 20
-47.7345860242
 11
18.5549456484
 21
-48.4542428384
  0
LWPOLYLINE
  5
4AB
100
AcDbEntity
  8
RACCORDO
100
AcDbPolyline
 62
253
  6
CONTINUOUS
 90
42
 70
0
 10
17.6133416989
 20
-48.9736226413
 10
17.7592666391
 20
-48.8856919377
 10
17.8884131959
 20
-48.7936161436
 10
18.0112450526
 20
-48.6916473218
 10
18.1275372365
 20
-48.5799721124
 10
18.2370720952
 20
-48.4587997981
 10
18.3396466745
 20
-48.3283562955
 10
18.4350739689
 20
-48.1888809131
 10
18.5231797575
 20
-48.0406290413
 10
18.6038018465
 20
-47.8838739112
 10
18.6767916542
 20
-47.7189047566
 10
18.7420154693
 20
-47.5460237743
 10
18.7993531796
 20
-47.3655486326
 10
18.8486986351
 20
-47.1778126522
 10
18.8899606403
 20
-46.9831622715
 10
18.9230630994
 20
-46.7819559251
 10
18.9479448465
 20
-46.5745647202
 10
18.964559848
 20
-46.3613723976
 10
18.9728775616
 20
-46.1427723886
 10
18.9728827835
 20
-45.9191673302
 10
18.964575618
 20
-45.6909698459
 10
18.9479716107
 20
-45.4586017405
 10
18.9231014821
 20
-45.2224903233
 10
18.8900107471
 20
-44.9830678715
 10
18.848760219
 20
-44.740775579
 10
18.7994257708
 20
-44.4960600534
 10
18.742097455
 20
-44.2493694322
 10
18.6768794783
 20
-44.0011546654
 10
18.6038924226
 20
-43.7518769082
 10
18.5232731807
 20
-43.5020038726
 10
18.4351700458
 20
-43.2519944478
 10
18.3397462911
 20
-43.0023112816
 10
18.2371838605
 20
-42.7534280386
 10
18.1276783837
 20
-42.5058145005
 10
18.0114285393
 20
-42.2599152899
 10
17.8886394515
 20
-42.0161630137
 10
17.7595434744
 20
-41.7750184896
 10
17.6243724086
 20
-41.5369142945
 10
17.4833422858
 20
-41.3022362634
 10
17.336697606
 20
-41.0714023287
 10
17.1847154014
 20
-40.8448592281
 10
17.0276723976
 20
-40.6230283428
  0
LINE
  5
4AC
100
AcDbEntity
  8
0
100
AcDbLine
 62
7
  6
CONTINUOUS
 10
16.1852798407
 20
-46.8908559384
 11
15.9377924672
 21
-47.0337520461
  0
LINE
  5
4AD
100
AcDbEntity
  8
DRAFT
100
AcDbLine
 62
7
  6
CONTINUOUS
 10
18.4759606759
 20
-48.4998477716
 11
18.5549456484
 21
-48.4542428384
  0
LINE
  5
4AE
100
AcDbEntity
  8
DRAFT
100
AcDbLine
 62
7
  6
CONTINUOUS
 10
17.2262130079
 20
-47.5241202409
 11
16.6498845752
 21
-47.8406562033
  0
LINE
  5
4AF
100
AcDbEntity
  8
DRAFT
100
AcDbLine
 62
7
  6
CONTINUOUS
 10
18.4759606759
 20
-48.4998477716
 11
17.6133416989
 21
-48.9736226413
  0
LINE
  5
4B0
100
AcDbEntity
  8
RACCORDO
100
AcDbLine
 62
7
  6
CONTINUOUS
 10
17.0039015104
 20
-49.2053604761
 11
16.2362780841
 21
-49.625386163
  0
LWPOLYLINE
  5
4B1
100
AcDbEntity
  8
0
100
AcDbPolyline
 62
7
  6
CONTINUOUS
 90
22
 70
0
 10
15.9375201314
 20
-47.0332785167
 10
15.896808138
 20
-47.0552144492
 10
15.7188746985
 20
-47.1248736318
 10
15.5276743125
 20
-47.1603396074
 10
15.3226735834
 20
-47.1602376409
 10
15.1044059078
 20
-47.1259424674
 10
14.88153067
 20
-47.0588146874
 10
14.6538626233
 20
-46.9575342685
 10
14.4215870144
 20
-46.823421243
 10
14.1939189677
 20
-46.6617963083
 10
13.9710437299
 20
-46.4715533503
 10
13.7527760543
 20
-46.253798483
 10
13.5477753252
 20
-46.0171707461
 10
13.3565749392
 20
-45.7609113573
 10
13.1786414997
 20
-45.4857790989
 10
13.0210342017
 20
-45.2026893571
 10
12.8845702559
 20
-44.9113222018
 10
12.7684324514
 20
-44.6119975632
 10
12.6772283506
 20
-44.3165906173
 10
12.6124938073
 20
-44.0290597562
 10
12.5726929676
 20
-43.7454465878
 10
12.5578258315
 20
-43.4657511122
  0
LWPOLYLINE
  5
4B2
100
AcDbEntity
  8
RACCORDO
100
AcDbPolyline
 62
7
  6
CONTINUOUS
 90
3
 70
0
 10
13.2412239982
 20
-48.8254478977
 10
13.2517712732
 20
-48.8200669057
 10
13.2628231968
 20
-48.8142724452
  0
LWPOLYLINE
  5
4B3
100
AcDbEntity
  8
RACCORDO
100
AcDbPolyline
 62
253
  6
CONTINUOUS
 90
31
 70
0
 10
16.8156044217
 20
-49.0124294875
 10
16.9568564813
 20
-48.9676334604
 10
17.0930147632
 20
-48.9137343873
 10
17.2240792674
 20
-48.8507322682
 10
17.3502585195
 20
-48.778487174
 10
17.4713439939
 20
-48.6971390337
 10
17.5867101135
 20
-48.6071076349
 10
17.6963267799
 20
-48.5083475464
 10
17.8002240913
 20
-48.4009041993
 10
17.8978667659
 20
-48.2853336741
 10
17.9892212745
 20
-48.1615956016
 10
18.0743211461
 20
-48.029730351
 10
18.1527316863
 20
-47.8904151101
 10
18.2244189065
 20
-47.7436117612
 10
18.2894167953
 20
-47.5893584219
 10
18.3473926237
 20
-47.4284466333
 10
18.3983105922
 20
-47.2608416967
 10
18.4422065005
 20
-47.0865783108
 10
18.4788550185
 20
-46.9065521124
 10
18.5082188262
 20
-46.7207331772
 10
18.5303352437
 20
-46.5291514296
 10
18.5450909014
 20
-46.3327922794
 10
18.5524478576
 20
-46.1316315075
 10
18.5524440539
 20
-45.9256933329
 10
18.5450799457
 20
-45.7160358225
 10
18.530317916
 20
-45.5026407936
 10
18.5081955818
 20
-45.2855264288
 10
18.4788262489
 20
-45.0658053425
 10
18.4421729721
 20
-44.8434641272
 10
18.3982726966
 20
-44.6185161905
 10
18.3473495637
 20
-44.3921143698
  0
LINE
  5
4B4
100
AcDbEntity
  8
RACCORDO
100
AcDbLine
 62
253
  6
CONTINUOUS
 10
16.496641395
 20
-55.8805240426
 11
15.3155422782
 21
-56.6109334534
  0
LINE
  5
4B5
100
AcDbEntity
  8
RACCORDO
100
AcDbLine
 62
7
  6
CONTINUOUS
 10
16.3974456684
 20
-56.1067848175
 11
15.2163465515
 21
-56.8371942282
  0
LWPOLYLINE
  5
4B6
100
AcDbEntity
  8
RACCORDO
100
AcDbPolyline
 62
253
  6
CONTINUOUS
 90
12
 70
0
 10
7.133326611
 20
-58.0301914177
 10
7.1471527494
 20
-58.0218699311
 10
7.1644398858
 20
-58.0086145963
 10
7.1802337921
 20
-57.993005316
 10
7.1944388968
 20
-57.9751328812
 10
7.2069663553
 20
-57.9551118961
 10
7.217750988
 20
-57.9330535164
 10
7.2267328134
 20
-57.9090885354
 10
7.2338565174
 20
-57.8833897484
 10
7.2390912373
 20
-57.8561226833
 10
7.2424224571
 20
-57.8274363701
 10
7.2438428041
 20
-57.7974972706
  0
LWPOLYLINE
  5
4B7
100
AcDbEntity
  8
RACCORDO
100
AcDbPolyline
 62
253
  6
CONTINUOUS
 90
12
 70
0
 10
14.3391135382
 20
-57.3092872409
 10
14.3525200837
 20
-57.3012258072
 10
14.3697926146
 20
-57.2880299091
 10
14.3855489113
 20
-57.2725023908
 10
14.3997009746
 20
-57.2547299983
 10
14.4121703377
 20
-57.2348117005
 10
14.4228865311
 20
-57.2128592197
 10
14.4317894029
 20
-57.1889953885
 10
14.4388304432
 20
-57.1633529148
 10
14.443970176
 20
-57.1360751889
 10
14.447178383
 20
-57.1073154788
 10
14.4484361901
 20
-57.0772350469
  0
LINE
  5
4B8
100
AcDbEntity
  8
RACCORDO
100
AcDbLine
 62
7
  6
CONTINUOUS
 10
15.2163477682
 20
-56.8371934758
 11
15.2076250656
 21
-56.8422298546
  0
LINE
  5
4B9
100
AcDbEntity
  8
RACCORDO
100
AcDbLine
 62
253
  6
CONTINUOUS
 10
11.0978033821
 20
-55.897912502
 11
11.0896309809
 21
-55.9026188969
  0
LINE
  5
4BA
100
AcDbEntity
  8
RACCORDO
100
AcDbLine
 62
253
  6
CONTINUOUS
 10
11.1958731135
 20
-55.6722232629
 11
7.2438428042
 21
-57.7974972705
  0
LINE
  5
4BB
100
AcDbEntity
  8
RACCORDO
100
AcDbLine
 62
7
  6
CONTINUOUS
 10
11.0896309809
 20
-55.9026188969
 11
7.133326611
 21
-58.0301914177
  0
LINE
  5
4BC
100
AcDbEntity
  8
RACCORDO
100
AcDbLine
 62
253
  6
CONTINUOUS
 10
15.3155422782
 20
-56.6109334534
 11
14.4484361901
 21
-57.0772350469
  0
LINE
  5
4BD
100
AcDbEntity
  8
RACCORDO
100
AcDbLine
 62
7
  6
CONTINUOUS
 10
15.2076238478
 20
-56.8422306077
 11
14.3389590594
 21
-57.3093704198
  0
LWPOLYLINE
  5
4BE
100
AcDbEntity
  8
RACCORDO
100
AcDbPolyline
 62
253
  6
CONTINUOUS
 90
19
 70
0
 10
7.2438428042
 20
-57.7974972705
 10
7.2130795837
 20
-57.8132900014
 10
7.180170666
 20
-57.8275681002
 10
7.145339109
 20
-57.8402347892
 10
7.1088210025
 20
-57.8512042132
 10
7.0708638677
 20
-57.860402021
 10
7.0317249796
 20
-57.8677658693
 10
6.9916696234
 20
-57.8732458458
 10
6.9509692958
 20
-57.8768048069
 10
6.9098998654
 20
-57.8784186299
 10
6.8687397024
 20
-57.8780763762
 10
6.8277677921
 20
-57.8757803655
 10
6.7872618439
 20
-57.8715461604
 10
6.7474964088
 20
-57.8654024605
 10
6.7087410185
 20
-57.8573909079
 10
6.6712583587
 20
-57.8475658054
 10
6.6353024884
 20
-57.835993748
 10
6.601117118
 20
-57.8227531714
 10
6.5689339574
 20
-57.8079338209
  0
LWPOLYLINE
  5
4BF
100
AcDbEntity
  8
RACCORDO
100
AcDbPolyline
 62
253
  6
CONTINUOUS
 90
16
 70
0
 10
11.1958731135
 20
-55.6722232629
 10
11.2192969603
 20
-55.6604526416
 10
11.2447026564
 20
-55.650143107
 10
11.2718180095
 20
-55.6414051217
 10
11.3003525015
 20
-55.6343323121
 10
11.3300004204
 20
-55.6290004611
 10
11.3604441371
 20
-55.6254666993
 10
11.3913574772
 20
-55.6237688979
 10
11.4224092276
 20
-55.6239252578
 10
11.4532667064
 20
-55.625934115
 10
11.4835992962
 20
-55.6297739592
 10
11.5130819955
 20
-55.635403661
 10
11.5413989147
 20
-55.6427629157
 10
11.5682466451
 20
-55.6517728867
 10
11.5933375108
 20
-55.662337048
 10
11.616402659
 20
-55.6743422204
  0
LWPOLYLINE
  5
4C0
100
AcDbEntity
  8
RACCORDO
100
AcDbPolyline
 62
7
  6
CONTINUOUS
 90
13
 70
0
 10
7.1333216148
 20
-58.0301941044
 10
7.1061664464
 20
-58.0437509393
 10
7.0686175409
 20
-58.0592751161
 10
7.0298244204
 20
-58.0717290214
 10
6.9900205038
 20
-58.0810070241
 10
6.949481015
 20
-58.0870149173
 10
6.9084654416
 20
-58.0896855114
 10
6.8672452933
 20
-58.0889710079
 10
6.8261053132
 20
-58.0848462265
 10
6.7853324982
 20
-58.0773104375
 10
6.74519759
 20
-58.0663821098
 10
6.7060018781
 20
-58.0521110581
 10
6.6720418502
 20
-58.0366084413
  0
LWPOLYLINE
  5
4C1
100
AcDbEntity
  8
RACCORDO
100
AcDbPolyline
 62
7
  6
CONTINUOUS
 90
10
 70
0
 10
-38.6448952955
 20
67.5339074603
 10
-38.6236947662
 20
67.5397179575
 10
-38.6014584411
 20
67.5430111272
 10
-38.5781837215
 20
67.5437884914
 10
-38.5539112418
 20
67.5420163479
 10
-38.5288451193
 20
67.5376778596
 10
-38.5032279933
 20
67.5308082627
 10
-38.4772403926
 20
67.5214709627
 10
-38.4509917314
 20
67.509722798
 10
-38.4246269399
 20
67.4956404612
  0
ELLIPSE
  5
4C2
100
AcDbEntity
  8
RACCORDO
100
AcDbEllipse
 62
7
  6
CONTINUOUS
 10
-37.9209046728
 20
67.3581085647
 30
0.0
 11
-0.2500882309
 21
0.4331376414
 31
0.0
 40
0.5771558487
 41
-0.7852941622
 42
-0.0174471532
  0
ELLIPSE
  5
4C3
100
AcDbEntity
  8
RACCORDO
100
AcDbEllipse
 62
7
  6
CONTINUOUS
 10
16.1430341484
 20
36.9445655146
 30
0.0
 11
-0.2500120911
 21
0.4330057209
 31
0.0
 40
0.5775075436
 41
-2.3560905478
 42
-0.7855988075
  0
ELLIPSE
  5
4C4
100
AcDbEntity
  8
RACCORDO
100
AcDbEllipse
 62
7
  6
CONTINUOUS
 10
16.1430341484
 20
-55.6762312883
 30
0.0
 11
-0.2500882309
 21
0.4331376414
 31
0.0
 40
0.5771558487
 41
-3.1241455003
 42
-2.3563950755
  0
ENDSEC
  0
SECTION
  2
OBJECTS
  0
DICTIONARY
  5
C
100
AcDbDictionary
280
0
281
1
  3
ACAD_GROUP
350
D
  3
ACAD_MLINESTYLE
350
17
  3
ACAD_LAYOUT
350
1A
  3
ACAD_PLOTSETTINGS
350
19
  3
ACAD_PLOTSTYLENAME
350
E
  0
DICTIONARY
  5
D
102
{ACAD_REACTORS
330
C
102
}
100
AcDbDictionary
280
0
281
1
  0
ACDBDICTIONARYWDFLT
  5
E
102
{ACAD_REACTORS
330
C
102
}
100
AcDbDictionary
281
1
  3
Normal
350
F
100
AcDbDictionaryWithDefault
340
F
  0
DICTIONARY
  5
17
102
{ACAD_REACTORS
330
C
102
}
100
AcDbDictionary
280
0
281
1
  3
Standard
350
18
  0
DICTIONARY
  5
19
102
{ACAD_REACTORS
330
C
102
}
100
AcDbDictionary
281
1
  0
DICTIONARY
  5
1A
102
{ACAD_REACTORS
330
C
102
}
100
AcDbDictionary
281
1
  3
Model
350
4C5
  3
Layout1
350
4C6
  0
ACDBPLACEHOLDER
  5
F
102
{ACAD_REACTORS
330
E
102
}
  0
MLINESTYLE
  5
18
102
{ACAD_REACTORS
330
17
102
}
100
AcDbMlineStyle
  2
STANDARD
 70
0
  3

 62
256
 51
90.0
 52
90.0
 71
2
 49
0.5
 62
256
  6
BYLAYER
 49
-0.5
 62
256
  6
BYLAYER
  0
LAYOUT
  5
4C5
102
{ACAD_REACTORS
330
1A
102
}
100
AcDbPlotSettings
  1

  2
none_device
  4
ISO_A4_(297.00_x_210.00_MM)
  6

 40
0.0
 41
0.0
 42
0.0
 43
0.0
 44
297.0
 45
210.0
 46
0.0
 47
0.0
 48
0.0
 49
0.0
140
0.0
141
0.0
142
1.0
143
1.0
 70
1024
 72
1
 73
0
 74
0
  7

 75
0
147
1.0
148
0.0
149
0.0
100
AcDbLayout
  1
Model
 70
0
 71
0
 10
0.0
 20
0.0
 11
297.0
 21
210.0
 12
0.0
 22
0.0
 32
0.0
 14
0.0
 24
0.0
 34
0.0
 15
0.0
 25
0.0
 35
0.0
146
0.0
 13
0.0
 23
0.0
 33
0.0
 16
1.0
 26
0.0
 36
0.0
 17
0.0
 27
1.0
 37
0.0
 76
0
330
20F
345
0
346
0
  0
LAYOUT
  5
4C6
102
{ACAD_REACTORS
330
1A
102
}
100
AcDbPlotSettings
  1

  2
none_device
  4
ISO_A4_(297.00_x_210.00_MM)
  6

 40
0.0
 41
0.0
 42
0.0
 43
0.0
 44
297.0
 45
210.0
 46
0.0
 47
0.0
 48
0.0
 49
0.0
140
0.0
141
0.0
142
1.0
143
1.0
 70
0
 72
1
 73
0
 74
0
  7

 75
0
147
1.0
148
0.0
149
0.0
100
AcDbLayout
  1
Layout1
 70
0
 71
1
 10
0.0
 20
0.0
 11
297.0
 21
210.0
 12
0.0
 22
0.0
 32
0.0
 14
0.0
 24
0.0
 34
0.0
 15
0.0
 25
0.0
 35
0.0
146
0.0
 13
0.0
 23
0.0
 33
0.0
 16
1.0
 26
0.0
 36
0.0
 17
0.0
 27
1.0
 37
0.0
 76
0
330
210
345
0
346
0
  0
ENDSEC
  0
EOF
