  0
SECTION
  2
HEADER
  9
$ACADVER
  1
AC1021
  9
$DWGCODEPAGE
  3
ANSI_1252
  9
$EXTMAX
 10
297.0
 20
210.0
 30
0.0
  9
$EXTMIN
 10
0.0
 20
0.0
 30
0.0
  9
$LIMMIN
 10
0.0
 20
0.0
  9
$LIMMAX
 10
297.0
 20
210.0
  9
$VIEWCTR
 10
148.5
 20
105.0
  9
$VIEWSIZE
 40
210.0
  9
$CLAYER
  8
0
  9
$LTSCALE
 40
16.335
  9
$CELTYPE
  6
BYLAYER
  9
$DIMSCALE
 40
1.0
  9
$DIMASZ
 40
3.0
  9
$DIMEXO
 40
0.5
  9
$DIMDLI
 40
11.286
  9
$DIMEXE
 40
1.5
  9
$DIMCEN
 40
2.673
  9
$DIMLFAC
 40
1.0
  9
$DIMBLK
  1
_FILLED
  9
$DIMALT
 70
0
  9
$DIMALTF
 40
0.0393700787
  9
$DIMTXT
 40
3.0
  9
$DIMTOL
 70
1
  9
$DIMLIM
 70
0
  9
$DIMTFAC
 40
1.0
  9
$DIMTP
 40
0.01
  9
$DIMTM
 40
0.01
  9
$DIMGAP
 40
0.625
  9
$DIMDSEP
 70
44
  9
$AUNITS
 70
0
  9
$PDMODE
 70
3
  9
$PDSIZE
 40
3.0
  9
$HANDSEED
  5
58A
  9
$TILEMODE
 70
1
  9
$MEASUREMENT
 70
1
  9
$INSUNITS
 70
4
  0
ENDSEC
  0
SECTION
  2
CLASSES
  0
CLASS
  1
ACDBDICTIONARYWDFLT
  2
AcDbDictionaryWithDefault
  3
AutoCAD 2000
 90
0
 91
1
280
0
281
0
  0
CLASS
  1
ACDBPLACEHOLDER
  2
AcDbPlaceHolder
  3
AutoCAD 2000
 90
0
 91
1
280
0
281
0
  0
CLASS
  1
LAYOUT
  2
AcDbLayout
  3
AutoCAD 2000
 90
0
 91
0
280
0
281
0
  0
ENDSEC
  0
SECTION
  2
TABLES
  0
TABLE
  2
VPORT
  5
8
100
AcDbSymbolTable
 70
2
  0
VPORT
  5
1F4
100
AcDbSymbolTableRecord
100
AcDbViewportTableRecord
  2
*ACTIVE
 70
0
 10
0.0
 20
0.0
 11
1.0
 21
1.0
 12
148.5
 22
105.0
 13
0.0
 23
0.0
 14
1.0
 24
1.0
 15
0.0
 25
0.0
 16
0.0
 26
0.0
 36
1.0
 17
0.0
 27
0.0
 37
0.0
 40
210.0
 41
1.4142857143
 42
50.0
 43
0.0
 44
0.0
 50
0.0
 51
0.0
 71
0
 72
100
 73
1
 74
1
 75
0
 76
0
 77
0
 78
0
  0
ENDTAB
  0
TABLE
  2
LTYPE
  5
5
100
AcDbSymbolTable
 70
6
  0
LTYPE
  5
14
100
AcDbSymbolTableRecord
100
AcDbLinetypeTableRecord
  2
BYBLOCK
 70
0
  3

 72
65
 73
0
 40
0.0
  0
LTYPE
  5
15
100
AcDbSymbolTableRecord
100
AcDbLinetypeTableRecord
  2
BYLAYER
 70
0
  3

 72
65
 73
0
 40
0.0
  0
LTYPE
  5
16
100
AcDbSymbolTableRecord
100
AcDbLinetypeTableRecord
  2
CONTINUOUS
 70
64
  3
Solid line
 72
65
 73
0
 40
0.0
  0
LTYPE
  5
1F5
100
AcDbSymbolTableRecord
100
AcDbLinetypeTableRecord
  2
CENTER
 70
64
  3
____ _ ____ _ ____ _ ____ _ ____ _ ____ _ ____
 72
65
 73
4
 40
0.6
 49
0.375
 74
0
 49
-0.075
 74
0
 49
0.075
 74
0
 49
-0.075
 74
0
  0
LTYPE
  5
1F6
100
AcDbSymbolTableRecord
100
AcDbLinetypeTableRecord
  2
HIDDEN
 70
64
  3
- - - - - - - - - - - - - - - - - - - -
 72
65
 73
2
 40
0.2
 49
0.1
 74
0
 49
-0.1
 74
0
  0
LTYPE
  5
1F7
100
AcDbSymbolTableRecord
100
AcDbLinetypeTableRecord
  2
PHANTOM
 70
64
  3
_____ _ _ _____ _ _ _____ _ _ _____
 72
65
 73
6
 40
0.8
 49
0.45
 74
0
 49
-0.05
 74
0
 49
0.1
 74
0
 49
-0.05
 74
0
 49
0.1
 74
0
 49
-0.05
 74
0
  0
LTYPE
  5
1F8
100
AcDbSymbolTableRecord
100
AcDbLinetypeTableRecord
  2
DOT
 70
64
  3
. . . . . . . . . . . . . . . . . . . .
 72
65
 73
2
 40
0.2
 49
0.1
 74
0
 49
-0.1
 74
0
  0
LTYPE
  5
1F9
100
AcDbSymbolTableRecord
100
AcDbLinetypeTableRecord
  2
DASHED
 70
64
  3
- - - - - - - - - - - - - - - - - - - -
 72
65
 73
2
 40
0.2
 49
0.1
 74
0
 49
-0.1
 74
0
  0
ENDTAB
  0
TABLE
  2
LAYER
  5
2
100
AcDbSymbolTable
 70
36
  0
LAYER
  5
10
100
AcDbSymbolTableRecord
100
AcDbLayerTableRecord
  2
0
 70
0
 62
7
  6
CONTINUOUS
370
-3
390
F
  0
LAYER
  5
1FA
100
AcDbSymbolTableRecord
100
AcDbLayerTableRecord
  2
DEFAULT_1
 70
0
 62
7
  6
CENTER
370
-3
390
F
  0
LAYER
  5
1FB
100
AcDbSymbolTableRecord
100
AcDbLayerTableRecord
  2
DEFAULT_2
 70
0
 62
7
  6
HIDDEN
370
-3
390
F
  0
LAYER
  5
1FC
100
AcDbSymbolTableRecord
100
AcDbLayerTableRecord
  2
DEFAULT_3
 70
0
 62
7
  6
PHANTOM
370
-3
390
F
  0
LAYER
  5
1FD
100
AcDbSymbolTableRecord
100
AcDbLayerTableRecord
  2
ASSI
 70
0
 62
7
  6
CONTINUOUS
370
-3
390
F
  0
LAYER
  5
1FE
100
AcDbSymbolTableRecord
100
AcDbLayerTableRecord
  2
COLOR1
 70
0
 62
7
  6
CONTINUOUS
370
-3
390
F
  0
LAYER
  5
1FF
100
AcDbSymbolTableRecord
100
AcDbLayerTableRecord
  2
COLOR15
 70
0
 62
7
  6
CONTINUOUS
370
-3
390
F
  0
LAYER
  5
200
100
AcDbSymbolTableRecord
100
AcDbLayerTableRecord
  2
COORDINATE
 70
0
 62
7
  6
CONTINUOUS
370
-3
390
F
  0
LAYER
  5
201
100
AcDbSymbolTableRecord
100
AcDbLayerTableRecord
  2
COPY_PUBLISH
 70
0
 62
7
  6
CONTINUOUS
370
-3
390
F
  0
LAYER
  5
202
100
AcDbSymbolTableRecord
100
AcDbLayerTableRecord
  2
COSMETICI
 70
0
 62
7
  6
CONTINUOUS
370
-3
390
F
  0
LAYER
  5
203
100
AcDbSymbolTableRecord
100
AcDbLayerTableRecord
  2
CURVE
 70
0
 62
7
  6
CONTINUOUS
370
-3
390
F
  0
LAYER
  5
204
100
AcDbSymbolTableRecord
100
AcDbLayerTableRecord
  2
DRAFT
 70
0
 62
7
  6
CONTINUOUS
370
-3
390
F
  0
LAYER
  5
205
100
AcDbSymbolTableRecord
100
AcDbLayerTableRecord
  2
IMPORT_IGES
 70
0
 62
7
  6
CONTINUOUS
370
-3
390
F
  0
LAYER
  5
206
100
AcDbSymbolTableRecord
100
AcDbLayerTableRecord
  2
INTF_11
 70
0
 62
7
  6
CONTINUOUS
370
-3
390
F
  0
LAYER
  5
207
100
AcDbSymbolTableRecord
100
AcDbLayerTableRecord
  2
INTF_2
 70
0
 62
7
  6
CONTINUOUS
370
-3
390
F
  0
LAYER
  5
208
100
AcDbSymbolTableRecord
100
AcDbLayerTableRecord
  2
INTF_5
 70
0
 62
7
  6
CONTINUOUS
370
-3
390
F
  0
LAYER
  5
209
100
AcDbSymbolTableRecord
100
AcDbLayerTableRecord
  2
INTF_YELLOW
 70
0
 62
7
  6
CONTINUOUS
370
-3
390
F
  0
LAYER
  5
20A
100
AcDbSymbolTableRecord
100
AcDbLayerTableRecord
  2
NOTE
 70
0
 62
7
  6
CONTINUOUS
370
-3
390
F
  0
LAYER
  5
20B
100
AcDbSymbolTableRecord
100
AcDbLayerTableRecord
  2
PIANI
 70
0
 62
7
  6
CONTINUOUS
370
-3
390
F
  0
LAYER
  5
20C
100
AcDbSymbolTableRecord
100
AcDbLayerTableRecord
  2
PUNTI
 70
0
 62
7
  6
CONTINUOUS
370
-3
390
F
  0
LAYER
  5
20D
100
AcDbSymbolTableRecord
100
AcDbLayerTableRecord
  2
RACCORDO
 70
0
 62
7
  6
CONTINUOUS
370
-3
390
F
  0
LAYER
  5
20E
100
AcDbSymbolTableRecord
100
AcDbLayerTableRecord
  2
SIMBOLI
 70
0
 62
7
  6
CONTINUOUS
370
-3
390
F
  0
LAYER
  5
20F
100
AcDbSymbolTableRecord
100
AcDbLayerTableRecord
  2
SMUSSO
 70
0
 62
7
  6
CONTINUOUS
370
-3
390
F
  0
LAYER
  5
210
100
AcDbSymbolTableRecord
100
AcDbLayerTableRecord
  2
SNAPLINE
 70
0
 62
7
  6
CONTINUOUS
370
-3
390
F
  0
LAYER
  5
211
100
AcDbSymbolTableRecord
100
AcDbLayerTableRecord
  2
SUPERFICI
 70
0
 62
7
  6
CONTINUOUS
370
-3
390
F
  0
LAYER
  5
212
100
AcDbSymbolTableRecord
100
AcDbLayerTableRecord
  2
TRASH
 70
0
 62
7
  6
CONTINUOUS
370
-3
390
F
  0
LAYER
  5
213
100
AcDbSymbolTableRecord
100
AcDbLayerTableRecord
  2
WHITE
 70
0
 62
7
  6
CONTINUOUS
370
-3
390
F
  0
LAYER
  5
214
100
AcDbSymbolTableRecord
100
AcDbLayerTableRecord
  2
XSEC_DATUMS
 70
0
 62
7
  6
CONTINUOUS
370
-3
390
F
  0
ENDTAB
  0
TABLE
  2
STYLE
  5
3
100
AcDbSymbolTable
 70
1
  0
STYLE
  5
11
100
AcDbSymbolTableRecord
100
AcDbTextStyleTableRecord
  2
STANDARD
 70
0
 40
0.0
 41
0.8
 50
0.0
 71
0
 42
0.2
  3
txt
  4

  0
STYLE
  5
215
100
AcDbSymbolTableRecord
100
AcDbTextStyleTableRecord
  2
TEXTSTYLE_1
 70
0
 40
0.0
 41
0.8
 50
0.0
 71
0
 42
0.2
  3
gdt
  4

  0
ENDTAB
  0
TABLE
  2
VIEW
  5
6
100
AcDbSymbolTable
 70
0
  0
ENDTAB
  0
TABLE
  2
UCS
  5
7
100
AcDbSymbolTable
 70
0
  0
ENDTAB
  0
TABLE
  2
APPID
  5
9
100
AcDbSymbolTable
 70
1
  0
APPID
  5
216
100
AcDbSymbolTableRecord
100
AcDbRegAppTableRecord
  2
ACAD
 70
0
  0
ENDTAB
  0
TABLE
  2
BLOCK_RECORD
  5
1
100
AcDbSymbolTable
 70
0
  0
BLOCK_RECORD
  5
217
100
AcDbSymbolTableRecord
100
AcDbBlockTableRecord
  2
*Model_Space
  0
BLOCK_RECORD
  5
218
100
AcDbSymbolTableRecord
100
AcDbBlockTableRecord
  2
*Paper_Space
  0
ENDTAB
  0
TABLE
  2
DIMSTYLE
  5
A
100
AcDbSymbolTable
 70
1
100
AcDbDimStyleTable
 71
0
  0
DIMSTYLE
105
219
100
AcDbSymbolTableRecord
100
AcDbDimStyleTableRecord
  2
STANDARD
 70
0
  3

  4

 40
1.0
 41
3.0
 42
0.5
 43
0.38
 44
1.5
 45
0.0
 46
0.0
 47
0.01
 48
0.01
140
3.0
141
0.09
142
0.0
143
25.4
144
1.0
145
0.0
146
1.0
147
0.625
 71
1.0
 72
0.0
 73
0
 74
0
 75
0
 76
0
 77
1
 78
8
170
0
171
2
172
0
173
0
174
0
175
0
176
0
177
0
178
0
270
2
271
2
272
2
273
2
274
2
275
0
280
0
281
0
282
0
283
1
284
8
285
0
286
0
287
3
288
0
340
11
278
44
  0
ENDTAB
  0
ENDSEC
  0
SECTION
  2
BLOCKS
  0
BLOCK
  5
20
100
AcDbEntity
  8
0
100
AcDbBlockBegin
  2
*Model_Space
 70
0
 10
0.0
 20
0.0
 30
0.0
  3
*Model_Space
  1

  0
ENDBLK
  5
21
100
AcDbEntity
  8
0
100
AcDbBlockEnd
  0
BLOCK
  5
1C
100
AcDbEntity
  8
0
100
AcDbBlockBegin
  2
*Paper_Space
 70
0
 10
0.0
 20
0.0
 30
0.0
  3
*Paper_Space
  1

  0
ENDBLK
  5
1D
100
AcDbEntity
  8
0
100
AcDbBlockEnd
  0
ENDSEC
  0
SECTION
  2
ENTITIES
  0
LWPOLYLINE
  5
21A
100
AcDbEntity
  8
RACCORDO
100
AcDbPolyline
 62
7
  6
CONTINUOUS
 90
13
 70
0
 10
-27.4675246009
 20
73.0950059835
 10
-27.4884455009
 20
73.0810673688
 10
-27.5140539939
 20
73.0609354113
 10
-27.538172995
 20
73.0382241151
 10
-27.5605242479
 20
73.0130257429
 10
-27.5808298223
 20
72.9854928249
 10
-27.5988387379
 20
72.9558089064
 10
-27.6143617904
 20
72.9241160731
 10
-27.6272014897
 20
72.8906646598
 10
-27.6372012981
 20
72.8557574221
 10
-27.6442821012
 20
72.8195806484
 10
-27.6483990465
 20
72.7822936057
 10
-27.649536223
 20
72.7493153807
  0
LWPOLYLINE
  5
21B
100
AcDbEntity
  8
RACCORDO
100
AcDbPolyline
 62
253
  6
CONTINUOUS
 90
16
 70
0
 10
-27.211838628
 20
73.073669275
 10
-27.2337438011
 20
73.0592676233
 10
-27.2553746087
 20
73.0424192041
 10
-27.2764992916
 20
73.0233045365
 10
-27.2968915137
 20
73.0021284209
 10
-27.3163327862
 20
72.9791177447
 10
-27.3346148096
 20
72.9545190514
 10
-27.3515417046
 20
72.928595899
 10
-27.3669321114
 20
72.901626036
 10
-27.3806211323
 20
72.8738984259
 10
-27.392462099
 20
72.8457101508
 10
-27.4023281437
 20
72.8173632286
 10
-27.4101135586
 20
72.7891613768
 10
-27.4157349284
 20
72.7614067587
 10
-27.419132024
 20
72.7343967459
 10
-27.4202684478
 20
72.7084207319
  0
LINE
  5
21C
100
AcDbEntity
  8
RACCORDO
100
AcDbLine
 62
7
  6
CONTINUOUS
 10
-26.6287878282
 20
73.6136959482
 11
-27.4676476719
 21
73.0949324377
  0
LINE
  5
21D
100
AcDbEntity
  8
RACCORDO
100
AcDbLine
 62
253
  6
CONTINUOUS
 10
-26.3744840122
 20
73.5915019299
 11
-27.211838628
 21
73.073669275
  0
LINE
  5
21E
100
AcDbEntity
  8
0
100
AcDbLine
 62
7
  6
CONTINUOUS
 10
-30.0081694651
 20
69.6152897186
 11
-26.1830240831
 21
71.8971219792
  0
LINE
  5
21F
100
AcDbEntity
  8
RACCORDO
100
AcDbLine
 62
7
  6
CONTINUOUS
 10
-26.6200663424
 20
73.6187315745
 11
-26.628789045
 21
73.6136951957
  0
LWPOLYLINE
  5
220
100
AcDbEntity
  8
RACCORDO
100
AcDbPolyline
 62
253
  6
CONTINUOUS
 90
12
 70
0
 10
-27.4675258362
 20
73.0950077106
 10
-27.4587549487
 20
73.1000601426
 10
-27.4395658903
 20
73.1088483752
 10
-27.4190854455
 20
73.1153129317
 10
-27.3973728024
 20
73.119402761
 10
-27.3742546435
 20
73.1210655299
 10
-27.3496918999
 20
73.1201580568
 10
-27.3238933901
 20
73.1165452482
 10
-27.2970519471
 20
73.110141984
 10
-27.2693339386
 20
73.100891477
 10
-27.2408718635
 20
73.0887423998
 10
-27.211838628
 20
73.073669275
  0
LINE
  5
221
100
AcDbEntity
  8
RACCORDO
100
AcDbLine
 62
7
  6
CONTINUOUS
 10
-26.1164505613
 20
73.8895599421
 11
-26.6200651245
 21
73.6187323277
  0
LINE
  5
222
100
AcDbEntity
  8
RACCORDO
100
AcDbLine
 62
253
  6
CONTINUOUS
 10
-25.870869449
 20
73.8623295444
 11
-26.3744840122
 21
73.5915019299
  0
LINE
  5
223
100
AcDbEntity
  8
0
100
AcDbLine
 62
253
  6
CONTINUOUS
 10
-29.6488972116
 20
69.4145087183
 11
-30.0266270834
 21
69.2253580082
  0
LWPOLYLINE
  5
224
100
AcDbEntity
  8
RACCORDO
100
AcDbPolyline
 62
253
  6
CONTINUOUS
 90
5
 70
0
 10
-28.815486211
 20
69.7143557036
 10
-28.8447964739
 20
69.6950020242
 10
-28.8718017855
 20
69.6749190904
 10
-28.8965021458
 20
69.6541069022
 10
-28.918922089
 20
69.632520511
  0
LWPOLYLINE
  5
225
100
AcDbEntity
  8
RACCORDO
100
AcDbPolyline
 62
7
  6
CONTINUOUS
 90
15
 70
0
 10
-28.9695846477
 20
69.7267345055
 10
-29.0029627987
 20
69.7050930512
 10
-29.0484340128
 20
69.6720328765
 10
-29.0901777877
 20
69.637295911
 10
-29.1281381022
 20
69.6010902879
 10
-29.1623946344
 20
69.5635227806
 10
-29.1930701446
 20
69.5246070668
 10
-29.2201394567
 20
69.4844920155
 10
-29.2435869681
 20
69.4433435158
 10
-29.2634502598
 20
69.4012235
 10
-29.2796859568
 20
69.3583278391
 10
-29.2922708453
 20
69.314870274
 10
-29.3012237608
 20
69.2709810325
 10
-29.3065410536
 20
69.2269047154
 10
-29.3080210373
 20
69.1897306608
  0
LINE
  5
226
100
AcDbEntity
  8
RACCORDO
100
AcDbLine
 62
7
  6
CONTINUOUS
 10
-25.5332826471
 20
71.8517952092
 11
-28.9695736654
 21
69.7267412981
  0
LINE
  5
227
100
AcDbEntity
  8
RACCORDO
100
AcDbLine
 62
253
  6
CONTINUOUS
 10
-25.2319181015
 20
71.9304879772
 11
-28.815486211
 21
69.7143557036
  0
LINE
  5
228
100
AcDbEntity
  8
0
100
AcDbLine
 62
7
  6
CONTINUOUS
 10
-29.6488972116
 20
69.4145087183
 11
-25.8237518296
 21
71.6963409789
  0
LWPOLYLINE
  5
229
100
AcDbEntity
  8
RACCORDO
100
AcDbPolyline
 62
253
  6
CONTINUOUS
 90
10
 70
0
 10
-28.839922945
 20
69.1584426402
 10
-28.8632909204
 20
69.1449463531
 10
-28.8863688421
 20
69.1289934664
 10
-28.9089094329
 20
69.1107549136
 10
-28.930671173
 20
69.0904261184
 10
-28.9514208879
 20
69.0682249014
 10
-28.9709362469
 20
69.0443891461
 10
-28.9890081452
 20
69.0191742498
 10
-29.0054429445
 20
68.9928503869
 10
-29.0064935097
 20
68.9908995983
  0
LWPOLYLINE
  5
22A
100
AcDbEntity
  8
RACCORDO
100
AcDbPolyline
 62
253
  6
CONTINUOUS
 90
21
 70
0
 10
-28.918922089
 20
69.632520511
 10
-28.9390370809
 20
69.6102048654
 10
-28.9567735184
 20
69.5872948119
 10
-28.9721635432
 20
69.5637351522
 10
-28.9851750136
 20
69.5395810846
 10
-28.9956379013
 20
69.5151330501
 10
-29.0035131206
 20
69.4904009253
 10
-29.0088397572
 20
69.4653748337
 10
-29.0115650396
 20
69.4403255874
 10
-29.0116874728
 20
69.4152937524
 10
-29.0092085518
 20
69.3902387628
 10
-29.0040799896
 20
69.365309733
 10
-28.9962867842
 20
69.3404549327
 10
-28.9858439376
 20
69.3157260923
 10
-28.9727481692
 20
69.2914275172
 10
-28.9569440408
 20
69.2675435173
 10
-28.9384869906
 20
69.2440897828
 10
-28.9175400525
 20
69.2214176902
 10
-28.8941575712
 20
69.199644365
 10
-28.868285202
 20
69.1786526817
 10
-28.839922945
 20
69.1584426402
  0
LINE
  5
22B
100
AcDbEntity
  8
RACCORDO
100
AcDbLine
 62
7
  6
CONTINUOUS
 10
21.8563957238
 20
-47.4360110911
 11
20.581739889
 21
-47.716324762
  0
LWPOLYLINE
  5
22C
100
AcDbEntity
  8
RACCORDO
100
AcDbPolyline
 62
253
  6
CONTINUOUS
 90
16
 70
0
 10
27.7978606092
 20
-43.4075512395
 10
27.8055045999
 20
-43.4060240116
 10
27.8127350307
 20
-43.4037806909
 10
27.8195519015
 20
-43.4008212775
 10
27.8259609311
 20
-43.397154282
 10
27.8319564007
 20
-43.3927711937
 10
27.8375211538
 20
-43.387646481
 10
27.8426808132
 20
-43.3817873655
 10
27.847409756
 20
-43.3751866257
 10
27.8516139576
 20
-43.3677970651
 10
27.8553102663
 20
-43.3595781537
 10
27.8584818338
 20
-43.3505704216
 10
27.8609840896
 20
-43.3408482615
 10
27.8627688438
 20
-43.3304364713
 10
27.8638842865
 20
-43.3193102532
 10
27.8643304175
 20
-43.3074696073
  0
LINE
  5
22D
100
AcDbEntity
  8
RACCORDO
100
AcDbLine
 62
7
  6
CONTINUOUS
 10
21.8563957238
 20
-43.0520215629
 11
20.9223732983
 21
-43.2838821492
  0
LWPOLYLINE
  5
22E
100
AcDbEntity
  8
RACCORDO
100
AcDbPolyline
 62
7
  6
CONTINUOUS
 90
10
 70
0
 10
28.9133862271
 20
-43.1383264857
 10
28.9431654926
 20
-43.1329617467
 10
29.0394423956
 20
-43.1131099547
 10
29.1340190647
 20
-43.0897447329
 10
29.2268110057
 20
-43.0629143653
 10
29.3177951804
 20
-43.0326536275
 10
29.4070035269
 20
-42.9989730539
 10
29.4944061965
 20
-42.9618980293
 10
29.5799181382
 20
-42.9214795296
 10
29.6634846266
 20
-42.8777611726
  0
LWPOLYLINE
  5
22F
100
AcDbEntity
  8
RACCORDO
100
AcDbPolyline
 62
7
  6
CONTINUOUS
 90
7
 70
0
 10
28.0527402918
 20
-43.5820076385
 10
28.0616430065
 20
-43.5806165167
 10
28.0906815575
 20
-43.5745281549
 10
28.1190973217
 20
-43.5661621814
 10
28.1467020905
 20
-43.5555704148
 10
28.1732991677
 20
-43.5428305571
 10
28.1775390239
 20
-43.5405498986
  0
LINE
  5
230
100
AcDbEntity
  8
RACCORDO
100
AcDbLine
 62
7
  6
CONTINUOUS
 10
28.052740292
 20
-43.5820076385
 11
28.0527864593
 21
-43.5820009906
  0
LINE
  5
231
100
AcDbEntity
  8
RACCORDO
100
AcDbLine
 62
253
  6
CONTINUOUS
 10
28.0480445558
 20
-43.5826235439
 11
28.052740292
 21
-43.5820076385
  0
LINE
  5
232
100
AcDbEntity
  8
RACCORDO
100
AcDbLine
 62
253
  6
CONTINUOUS
 10
25.543219912
 20
-37.7884075989
 11
25.6056036333
 21
-37.7765583757
  0
LINE
  5
233
100
AcDbEntity
  8
0
100
AcDbLine
 62
7
  6
CONTINUOUS
 10
25.5979182529
 20
-35.961638871
 11
25.4067178669
 21
-35.9971048466
  0
LWPOLYLINE
  5
234
100
AcDbEntity
  8
RACCORDO
100
AcDbPolyline
 62
253
  6
CONTINUOUS
 90
10
 70
0
 10
24.5852140109
 20
-38.7911918945
 10
24.5961494436
 20
-38.7893168268
 10
24.6081663968
 20
-38.7869664067
 10
24.6211340711
 20
-38.7840904624
 10
24.6348592234
 20
-38.7805810054
 10
24.6492340875
 20
-38.7764669193
 10
24.6642477823
 20
-38.7719074696
 10
24.6797879391
 20
-38.7669355153
 10
24.6956337316
 20
-38.7614653728
 10
24.7116106067
 20
-38.7554821867
  0
LWPOLYLINE
  5
235
100
AcDbEntity
  8
RACCORDO
100
AcDbPolyline
 62
7
  6
CONTINUOUS
 90
6
 70
0
 10
25.5723368353
 20
-37.7651946265
 10
25.572225121
 20
-37.7652090622
 10
25.5727262815
 20
-37.765213667
 10
25.5739210804
 20
-37.7653350982
 10
25.57565266
 20
-37.7656633239
 10
25.5778242189
 20
-37.7662491044
  0
LINE
  5
236
100
AcDbEntity
  8
RACCORDO
100
AcDbLine
 62
253
  6
CONTINUOUS
 10
25.6019034127
 20
-38.0452157162
 11
26.1551595647
 21
-37.9819764294
  0
LINE
  5
237
100
AcDbEntity
  8
RACCORDO
100
AcDbLine
 62
253
  6
CONTINUOUS
 10
25.5432199149
 20
-37.9905488267
 11
26.0316974355
 21
-37.935827623
  0
LWPOLYLINE
  5
238
100
AcDbEntity
  8
RACCORDO
100
AcDbPolyline
 62
253
  6
CONTINUOUS
 90
3
 70
0
 10
26.4836898473
 20
-37.9453813786
 10
26.7797461041
 20
-37.9134830224
 10
26.8008153038
 20
-37.9112752144
  0
LINE
  5
239
100
AcDbEntity
  8
RACCORDO
100
AcDbLine
 62
253
  6
CONTINUOUS
 10
26.6391944102
 20
-37.8711385349
 11
26.7930363352
 21
-37.8558437729
  0
LWPOLYLINE
  5
23A
100
AcDbEntity
  8
RACCORDO
100
AcDbPolyline
 62
7
  6
CONTINUOUS
 90
3
 70
0
 10
26.2908397042
 20
-38.0248435261
 10
26.3051873463
 20
-38.0241625701
 10
26.3188049518
 20
-38.0217337004
  0
LWPOLYLINE
  5
23B
100
AcDbEntity
  8
0
100
AcDbPolyline
 62
7
  6
CONTINUOUS
 90
16
 70
0
 10
18.6017411225
 20
-52.092957947
 10
18.6413554747
 20
-52.1107776416
 10
18.6829394683
 20
-52.1260351536
 10
18.7264931032
 20
-52.138730483
 10
18.7724775382
 20
-52.1489371443
 10
18.8204316145
 20
-52.156581623
 10
18.8689718557
 20
-52.1614433757
 10
18.918115337
 20
-52.1634413412
 10
18.9678449831
 20
-52.1626565806
 10
19.0167260925
 20
-52.1591117344
 10
19.0647339471
 20
-52.1527264007
 10
19.1118932649
 20
-52.1435809815
 10
19.1568434984
 20
-52.1319393222
 10
19.1991311317
 20
-52.1178893713
 10
19.2392096806
 20
-52.1013431804
 10
19.2770791452
 20
-52.0823007495
  0
LWPOLYLINE
  5
23C
100
AcDbEntity
  8
0
100
AcDbPolyline
 62
7
  6
CONTINUOUS
 90
9
 70
0
 10
-30.0266270834
 20
-24.0155476015
 10
-30.0574897114
 20
-23.992674771
 10
-30.0839147949
 20
-23.9686646943
 10
-30.1059023338
 20
-23.9435173714
 10
-30.1235796508
 20
-23.9169665349
 10
-30.1368194233
 20
-23.8892784522
 10
-30.1452396835
 20
-23.8612519253
 10
-30.1487000382
 20
-23.8328770952
 10
-30.1488130049
 20
-23.8263969331
  0
LWPOLYLINE
  5
23D
100
AcDbEntity
  8
0
100
AcDbPolyline
 62
7
  6
CONTINUOUS
 90
16
 70
0
 10
-30.9921837718
 20
66.8148661811
 10
-30.9913035916
 20
66.8560687438
 10
-30.9829626947
 20
66.9469385463
 10
-30.9659091603
 20
67.0376823645
 10
-30.94029895
 20
67.1274702447
 10
-30.9060535639
 20
67.2162934175
 10
-30.8632515018
 20
67.3041606523
 10
-30.8122842252
 20
67.3902683028
 10
-30.7530768251
 20
67.4746002271
 10
-30.6857042106
 20
67.5571725671
 10
-30.6107825696
 20
67.6372301028
 10
-30.5282426461
 20
67.7147497637
 10
-30.4381536962
 20
67.7897546203
 10
-30.3413396765
 20
67.8615586643
 10
-30.2377388897
 20
67.9301325314
 10
-30.1488972116
 20
67.9827752394
  0
LWPOLYLINE
  5
23E
100
AcDbEntity
  8
0
100
AcDbPolyline
 62
7
  6
CONTINUOUS
 90
9
 70
0
 10
-30.1488130049
 20
69.4145086766
 10
-30.1473408806
 20
69.436741789
 10
-30.1412014224
 20
69.4649651289
 10
-30.1301424126
 20
69.4926842625
 10
-30.1143031023
 20
69.5199134616
 10
-30.0941404559
 20
69.545867163
 10
-30.069806795
 20
69.5702835125
 10
-30.0411497981
 20
69.5934243643
 10
-30.0081694651
 20
69.6152897186
  0
LWPOLYLINE
  5
23F
100
AcDbEntity
  8
RACCORDO
100
AcDbPolyline
 62
253
  6
CONTINUOUS
 90
6
 70
0
 10
26.2475470973
 20
-37.9947316266
 10
26.2568957857
 20
-37.9952706258
 10
26.26629003
 20
-37.9944919944
 10
26.2755231219
 20
-37.9923590458
 10
26.2839749358
 20
-37.98876172
 10
26.2915407599
 20
-37.9835230992
  0
LINE
  5
240
100
AcDbEntity
  8
RACCORDO
100
AcDbLine
 62
253
  6
CONTINUOUS
 10
26.500011489
 20
-37.2464968418
 11
26.5647982957
 21
-37.25115317
  0
LINE
  5
241
100
AcDbEntity
  8
RACCORDO
100
AcDbLine
 62
7
  6
CONTINUOUS
 10
26.2759386437
 20
-38.0236700804
 11
26.2908397042
 21
-38.0248435261
  0
LWPOLYLINE
  5
242
100
AcDbEntity
  8
RACCORDO
100
AcDbPolyline
 62
7
  6
CONTINUOUS
 90
5
 70
0
 10
26.5092305966
 20
-37.2229043905
 10
26.5090513776
 20
-37.222886824
 10
26.5092898547
 20
-37.222956403
 10
26.5106829592
 20
-37.2234722154
 10
26.51150155
 20
-37.2238475996
  0
LWPOLYLINE
  5
243
100
AcDbEntity
  8
RACCORDO
100
AcDbPolyline
 62
253
  6
CONTINUOUS
 90
16
 70
0
 10
26.0780495724
 20
-50.9792546206
 10
26.1011143421
 20
-50.9912596158
 10
26.1262048366
 20
-51.001823672
 10
26.1530522286
 20
-51.0108336027
 10
26.1813688668
 20
-51.0181928726
 10
26.2108513581
 20
-51.0238226324
 10
26.241183818
 20
-51.0276625631
 10
26.2720412553
 20
-51.0296715224
 10
26.3030930539
 20
-51.0298279857
 10
26.3340065153
 20
-51.0281302767
 10
26.3644504231
 20
-51.0245965852
 10
26.3940985921
 20
-51.0192647721
 10
26.4226333625
 20
-51.0121919641
 10
26.4497490042
 20
-51.0034539414
 10
26.4751549919
 20
-50.993144326
 10
26.4985791178
 20
-50.9813735781
  0
LWPOLYLINE
  5
244
100
AcDbEntity
  8
RACCORDO
100
AcDbPolyline
 62
253
  6
CONTINUOUS
 90
22
 70
0
 10
25.9366497553
 20
-51.0608813232
 10
25.9473148116
 20
-51.0665402237
 10
25.9577601426
 20
-51.0712183139
 10
25.9679857481
 20
-51.0749155936
 10
25.9780227972
 20
-51.0776328588
 10
25.987840121
 20
-51.0793693135
 10
25.997344212
 20
-51.0801225707
 10
26.0065593546
 20
-51.0798848619
 10
26.0154612644
 20
-51.0786639555
 10
26.0238835812
 20
-51.076480769
 10
26.0318039019
 20
-51.0733258457
 10
26.0392446296
 20
-51.0692086423
 10
26.0461066134
 20
-51.0641784473
 10
26.0523849971
 20
-51.0582480368
 10
26.0580846369
 20
-51.0514046348
 10
26.0631209506
 20
-51.043659201
 10
26.0675098272
 20
-51.0349787676
 10
26.0712353776
 20
-51.0253963025
 10
26.0741653522
 20
-51.0150216689
 10
26.076255668
 20
-51.0038914879
 10
26.077550408
 20
-50.9919691385
 10
26.0780495724
 20
-50.9792546206
  0
LWPOLYLINE
  5
245
100
AcDbEntity
  8
RACCORDO
100
AcDbPolyline
 62
7
  6
CONTINUOUS
 90
13
 70
0
 10
25.9988081033
 20
-51.198221751
 10
26.027910479
 20
-51.2137142467
 10
26.062233447
 20
-51.2287856171
 10
26.0970770764
 20
-51.2407405434
 10
26.1322809407
 20
-51.2495374763
 10
26.1676445541
 20
-51.2551517813
 10
26.2028283491
 20
-51.2575679173
 10
26.2375176571
 20
-51.2568308841
 10
26.2714954267
 20
-51.2530329099
 10
26.3044776498
 20
-51.2462995095
 10
26.3361937314
 20
-51.2367948402
 10
26.3664244942
 20
-51.2247121421
 10
26.3892132353
 20
-51.2134464734
  0
LWPOLYLINE
  5
246
100
AcDbEntity
  8
0
100
AcDbPolyline
 62
7
  6
CONTINUOUS
 90
16
 70
0
 10
-30.0266270834
 20
-24.0155476015
 10
-27.003400872
 20
-26.0091033968
 10
-23.9482008752
 20
-27.9857065664
 10
-20.8610270931
 20
-29.9453571104
 10
-17.7415974871
 20
-31.8882273909
 10
-14.5901940958
 20
-33.8141450458
 10
-11.4076630346
 20
-35.7225929884
 10
-8.1939959453
 20
-37.6135665279
 10
-4.9492011861
 20
-39.487070355
 10
-1.674149947
 20
-41.3426014556
 10
1.6311658963
 20
-43.1801550039
 10
4.9667382196
 20
-44.9997358257
 10
8.3316714601
 20
-46.8008553845
 10
11.725667097
 20
-48.583350835
 10
15.1490236511
 20
-50.3473850224
 10
18.6017411225
 20
-52.092957947
  0
LWPOLYLINE
  5
247
100
AcDbEntity
  8
0
100
AcDbPolyline
 62
7
  6
CONTINUOUS
 90
16
 70
0
 10
-30.9921837718
 20
-3.401577623
 10
-30.9908519206
 20
-3.4513720023
 10
-30.9816876123
 20
-3.5424949284
 10
-30.9638944966
 20
-3.6329104195
 10
-30.9373934124
 20
-3.7226119849
 10
-30.9022635209
 20
-3.8116061152
 10
-30.8588261358
 20
-3.8990788635
 10
-30.8070050439
 20
-3.9850162717
 10
-30.7468764584
 20
-4.0694322979
 10
-30.6789903324
 20
-4.1515548686
 10
-30.6032754983
 20
-4.231362943
 10
-30.5198031238
 20
-4.308877562
 10
-30.4293366648
 20
-4.3833897751
 10
-30.3318119579
 20
-4.4548720374
 10
-30.2272931664
 20
-4.5233518937
 10
-30.1488972116
 20
-4.569337854
  0
LWPOLYLINE
  5
248
100
AcDbEntity
  8
0
100
AcDbPolyline
 62
7
  6
CONTINUOUS
 90
16
 70
0
 10
-30.9921837718
 20
63.548985074
 10
-30.9908519206
 20
63.4991906947
 10
-30.9816876123
 20
63.4080677686
 10
-30.9638944966
 20
63.3176522775
 10
-30.9373934124
 20
63.2279507121
 10
-30.9022635209
 20
63.1389565818
 10
-30.8588261358
 20
63.0514838335
 10
-30.8070050439
 20
62.9655464253
 10
-30.7468764584
 20
62.8811303992
 10
-30.6789903324
 20
62.7990078284
 10
-30.6032754983
 20
62.719199754
 10
-30.5198031238
 20
62.641685135
 10
-30.4293366648
 20
62.5671729219
 10
-30.3318119579
 20
62.4956906596
 10
-30.2272931664
 20
62.4272108033
 10
-30.1488972116
 20
62.381224843
  0
LINE
  5
249
100
AcDbEntity
  8
0
100
AcDbLine
 62
7
  6
CONTINUOUS
 10
-30.9921971173
 20
66.8148661788
 11
-30.9921971173
 21
63.5489850716
  0
LINE
  5
24A
100
AcDbEntity
  8
0
100
AcDbLine
 62
7
  6
CONTINUOUS
 10
-30.9921971173
 20
-0.1356965182
 11
-30.9921971173
 21
-3.4015776254
  0
LINE
  5
24B
100
AcDbEntity
  8
0
100
AcDbLine
 62
7
  6
CONTINUOUS
 10
-30.1488972116
 20
69.4145087183
 11
-30.1488972116
 21
-23.8263968915
  0
LINE
  5
24C
100
AcDbEntity
  8
0
100
AcDbLine
 62
253
  6
CONTINUOUS
 10
-30.0266270834
 20
69.2253580082
 11
-30.0266270834
 21
-24.0155476015
  0
LINE
  5
24D
100
AcDbEntity
  8
RACCORDO
100
AcDbLine
 62
7
  6
CONTINUOUS
 10
-27.6495362306
 20
71.0222964773
 11
-27.6495362306
 21
72.7492763959
  0
LINE
  5
24E
100
AcDbEntity
  8
RACCORDO
100
AcDbLine
 62
253
  6
CONTINUOUS
 10
-27.5616682649
 20
71.0747127749
 11
-27.5616682649
 21
72.6267940292
  0
LWPOLYLINE
  5
24F
100
AcDbEntity
  8
0
100
AcDbPolyline
 62
7
  6
CONTINUOUS
 90
16
 70
0
 10
-30.9921837718
 20
-0.1356965159
 10
-30.9913035916
 20
-0.0944939533
 10
-30.9829626947
 20
-0.0036241508
 10
-30.9659091603
 20
0.0871196675
 10
-30.94029895
 20
0.1769075477
 10
-30.9060535639
 20
0.2657307205
 10
-30.8632515018
 20
0.3535979553
 10
-30.8122842252
 20
0.4397056058
 10
-30.7530768251
 20
0.52403753
 10
-30.6857042106
 20
0.6066098701
 10
-30.6107825696
 20
0.6866674058
 10
-30.5282426461
 20
0.7641870667
 10
-30.4381536962
 20
0.8391919233
 10
-30.3413396765
 20
0.9109959672
 10
-30.2377388897
 20
0.9795698343
 10
-30.1488972116
 20
1.0322125424
  0
LWPOLYLINE
  5
250
100
AcDbEntity
  8
RACCORDO
100
AcDbPolyline
 62
253
  6
CONTINUOUS
 90
22
 70
0
 10
-27.5616682649
 20
72.6267940292
 10
-27.5612454615
 20
72.6387386031
 10
-27.5600969725
 20
72.6500177803
 10
-27.5582227982
 20
72.6606315609
 10
-27.555608878
 20
72.6706064239
 10
-27.5522692724
 20
72.6799158903
 10
-27.5482461623
 20
72.6884805227
 10
-27.5435192673
 20
72.6963185932
 10
-27.5381088679
 20
72.7034118297
 10
-27.532117986
 20
72.7096259781
 10
-27.5255608449
 20
72.714934478
 10
-27.5184232213
 20
72.7193638897
 10
-27.5107654673
 20
72.7228596397
 10
-27.5026065278
 20
72.7254375934
 10
-27.493927458
 20
72.7270818855
 10
-27.4847317745
 20
72.7276903457
 10
-27.4749631452
 20
72.7272646053
 10
-27.4646779022
 20
72.7258030331
 10
-27.4540485596
 20
72.723198566
 10
-27.443132622
 20
72.7194155162
 10
-27.4318725847
 20
72.7144895715
 10
-27.4202684478
 20
72.7084207319
  0
LWPOLYLINE
  5
251
100
AcDbEntity
  8
0
100
AcDbPolyline
 62
7
  6
CONTINUOUS
 90
12
 70
0
 10
-13.2065613451
 20
27.4611258093
 10
-13.2249552854
 20
27.4499015871
 10
-13.2521404761
 20
27.429058499
 10
-13.2767396335
 20
27.4044434524
 10
-13.2988549988
 20
27.3761244412
 10
-13.3181551795
 20
27.3446495329
 10
-13.3345848821
 20
27.3100383302
 10
-13.3482003399
 20
27.2722707087
 10
-13.3588374294
 20
27.2318351573
 10
-13.3664416198
 20
27.1888944073
 10
-13.3710679496
 20
27.1432854457
 10
-13.3727165469
 20
27.0950082013
  0
LINE
  5
252
100
AcDbEntity
  8
RACCORDO
100
AcDbLine
 62
253
  6
CONTINUOUS
 10
19.393605468
 20
41.87903037
 11
23.1044988769
 21
44.0216466115
  0
LINE
  5
253
100
AcDbEntity
  8
0
100
AcDbLine
 62
7
  6
CONTINUOUS
 10
18.9293386559
 20
41.3660441567
 11
22.8813334442
 21
43.5746351599
  0
LINE
  5
254
100
AcDbEntity
  8
0
100
AcDbLine
 62
7
  6
CONTINUOUS
 10
19.2770791452
 20
41.1586048602
 11
23.2290739335
 21
43.3671958634
  0
LINE
  5
255
100
AcDbEntity
  8
0
100
AcDbLine
 62
253
  6
CONTINUOUS
 10
-13.012155655
 20
27.2950176228
 11
-13.3727165469
 21
27.0950082013
  0
LWPOLYLINE
  5
256
100
AcDbEntity
  8
RACCORDO
100
AcDbPolyline
 62
7
  6
CONTINUOUS
 90
3
 70
0
 10
26.0780495724
 20
-32.1521435638
 10
26.0938296553
 20
-32.1533208388
 10
26.1109499556
 20
-32.1548123752
  0
LWPOLYLINE
  5
257
100
AcDbEntity
  8
RACCORDO
100
AcDbPolyline
 62
7
  6
CONTINUOUS
 90
5
 70
0
 10
26.1700935201
 20
-32.1604162581
 10
26.1918850237
 20
-32.1622522307
 10
26.2142965706
 20
-32.1638809807
 10
26.2372877279
 20
-32.1653015913
 10
26.2607229271
 20
-32.1664803295
  0
LINE
  5
258
100
AcDbEntity
  8
RACCORDO
100
AcDbLine
 62
7
  6
CONTINUOUS
 10
26.1109499556
 20
-32.1548123752
 11
26.1700935201
 21
-32.1604162581
  0
LWPOLYLINE
  5
259
100
AcDbEntity
  8
RACCORDO
100
AcDbPolyline
 62
253
  6
CONTINUOUS
 90
32
 70
0
 10
24.7116106067
 20
-38.7554821867
 10
24.7021791044
 20
-38.7529529103
 10
24.6928081449
 20
-38.7503244978
 10
24.6835188677
 20
-38.7476008552
 10
24.6743311866
 20
-38.7447844221
 10
24.6652667542
 20
-38.7418814695
 10
24.6563485839
 20
-38.7389023029
 10
24.6475958413
 20
-38.7358528243
 10
24.639028475
 20
-38.7327380169
 10
24.6306694442
 20
-38.7295676482
 10
24.6225368002
 20
-38.726348812
 10
24.614648775
 20
-38.7230874049
 10
24.6070271679
 20
-38.7197922537
 10
24.5996885722
 20
-38.7164715132
 10
24.5926494729
 20
-38.7131320116
 10
24.5859299263
 20
-38.7097813952
 10
24.5795447027
 20
-38.7064287399
 10
24.5735084708
 20
-38.7030818097
 10
24.5678393578
 20
-38.6997470285
 10
24.5625501672
 20
-38.6964344172
 10
24.5576531432
 20
-38.6931524864
 10
24.5531636014
 20
-38.6899060321
 10
24.5490917337
 20
-38.6867056673
 10
24.5454472925
 20
-38.6835606775
 10
24.5422427098
 20
-38.6804743555
 10
24.5394840406
 20
-38.6774566543
 10
24.5371793371
 20
-38.6745184572
 10
24.535339601
 20
-38.6716647288
 10
24.5339665401
 20
-38.6689069461
 10
24.5330610025
 20
-38.6662545077
 10
24.5326262209
 20
-38.6637090354
 10
24.5326576966
 20
-38.6612853075
  0
LWPOLYLINE
  5
25A
100
AcDbEntity
  8
RACCORDO
100
AcDbPolyline
 62
253
  6
CONTINUOUS
 90
10
 70
0
 10
26.4317360067
 20
-39.6071330294
 10
26.4380845368
 20
-39.6090285515
 10
26.4452567834
 20
-39.6102905499
 10
26.4530490736
 20
-39.6108831874
 10
26.4612401272
 20
-39.6107896345
 10
26.4695973399
 20
-39.6100125479
 10
26.4778833889
 20
-39.6085739948
 10
26.4858629726
 20
-39.6065148263
 10
26.4933094918
 20
-39.6038935173
 10
26.5000114852
 20
-39.6007845061
  0
LWPOLYLINE
  5
25B
100
AcDbEntity
  8
RACCORDO
100
AcDbPolyline
 62
253
  6
CONTINUOUS
 90
10
 70
0
 10
26.3142848185
 20
-38.7701983342
 10
26.3206333323
 20
-38.7720938463
 10
26.3278055638
 20
-38.7733558399
 10
26.3355978425
 20
-38.7739484766
 10
26.3437888898
 20
-38.7738549258
 10
26.3521461023
 20
-38.773077843
 10
26.3604321574
 20
-38.7716392942
 10
26.3684117523
 20
-38.7695801292
 10
26.3758582867
 20
-38.7669588223
 10
26.3825602969
 20
-38.763849811
  0
LWPOLYLINE
  5
25C
100
AcDbEntity
  8
RACCORDO
100
AcDbPolyline
 62
253
  6
CONTINUOUS
 90
8
 70
0
 10
26.9747432373
 20
-38.9734928108
 10
26.962078951
 20
-38.9695444875
 10
26.9492848368
 20
-38.9670218702
 10
26.936525345
 20
-38.9661091229
 10
26.9238911827
 20
-38.9669956256
 10
26.9117000552
 20
-38.9698662954
 10
26.9004164797
 20
-38.9747432063
 10
26.8946936553
 20
-38.9782496458
  0
LWPOLYLINE
  5
25D
100
AcDbEntity
  8
RACCORDO
100
AcDbPolyline
 62
7
  6
CONTINUOUS
 90
3
 70
0
 10
26.2462362654
 20
-38.0160197382
 10
26.260715494
 20
-38.0206125192
 10
26.2759386437
 20
-38.0236700804
  0
LWPOLYLINE
  5
25E
100
AcDbEntity
  8
RACCORDO
100
AcDbPolyline
 62
253
  6
CONTINUOUS
 90
12
 70
0
 10
26.9473692301
 20
-39.036526333
 10
26.9376982368
 20
-39.0332786994
 10
26.9281883959
 20
-39.031385383
 10
26.9188397075
 20
-39.0308463838
 10
26.9094454631
 20
-39.0316250152
 10
26.9002123712
 20
-39.0337579639
 10
26.8917605573
 20
-39.0373552896
 10
26.8841947332
 20
-39.0425939104
 10
26.8774101871
 20
-39.0492969083
 10
26.8717129091
 20
-39.0570435898
 10
26.8672048961
 20
-39.0656937236
 10
26.8637841513
 20
-39.075387541
  0
LWPOLYLINE
  5
25F
100
AcDbEntity
  8
RACCORDO
100
AcDbPolyline
 62
253
  6
CONTINUOUS
 90
3
 70
0
 10
26.228366263
 20
-37.9895906767
 10
26.2380372564
 20
-37.9928383103
 10
26.2475470973
 20
-37.9947316266
  0
LINE
  5
260
100
AcDbEntity
  8
RACCORDO
100
AcDbLine
 62
7
  6
CONTINUOUS
 10
25.5778242189
 20
-37.7662491044
 11
25.580050886
 21
-37.7670069346
  0
LINE
  5
261
100
AcDbEntity
  8
RACCORDO
100
AcDbLine
 62
253
  6
CONTINUOUS
 10
27.6134680187
 20
-39.2855068441
 11
26.9473692301
 21
-39.036526333
  0
LINE
  5
262
100
AcDbEntity
  8
RACCORDO
100
AcDbLine
 62
253
  6
CONTINUOUS
 10
27.6408420257
 20
-39.2224733219
 11
26.9747432373
 21
-38.9734928108
  0
LINE
  5
263
100
AcDbEntity
  8
RACCORDO
100
AcDbLine
 62
7
  6
CONTINUOUS
 10
25.5801163455
 20
-37.7670315036
 11
26.2462151703
 21
-38.0160120284
  0
LINE
  5
264
100
AcDbEntity
  8
RACCORDO
100
AcDbLine
 62
253
  6
CONTINUOUS
 10
25.5622674507
 20
-37.7406101566
 11
26.228366263
 21
-37.9895906767
  0
LINE
  5
265
100
AcDbEntity
  8
RACCORDO
100
AcDbLine
 62
7
  6
CONTINUOUS
 10
23.2290739335
 20
-49.5990119629
 11
25.9987745299
 21
-51.1982023748
  0
LINE
  5
266
100
AcDbEntity
  8
RACCORDO
100
AcDbLine
 62
253
  6
CONTINUOUS
 10
23.2290739335
 20
-49.4975609776
 11
25.9366497553
 21
-51.0608813232
  0
LINE
  5
267
100
AcDbEntity
  8
0
100
AcDbLine
 62
7
  6
CONTINUOUS
 10
22.0508794144
 20
-47.359962624
 11
22.2171178958
 21
-47.4591296601
  0
LWPOLYLINE
  5
268
100
AcDbEntity
  8
RACCORDO
100
AcDbPolyline
 62
253
  6
CONTINUOUS
 90
9
 70
0
 10
-27.6495362306
 20
72.7492763959
 10
-27.6489871141
 20
72.7388008571
 10
-27.6455074602
 20
72.7209842262
 10
-27.6388567285
 20
72.7034707913
 10
-27.629106208
 20
72.6864481838
 10
-27.6163603868
 20
72.6700987664
 10
-27.6007558427
 20
72.6545976971
 10
-27.5824597877
 20
72.6401110513
 10
-27.5616682649
 20
72.6267940292
  0
LINE
  5
269
100
AcDbEntity
  8
0
100
AcDbLine
 62
7
  6
CONTINUOUS
 10
-25.8237518296
 20
71.6963409789
 11
-25.8237518296
 21
71.6721647096
  0
LWPOLYLINE
  5
26A
100
AcDbEntity
  8
0
100
AcDbPolyline
 62
7
  6
CONTINUOUS
 90
6
 70
0
 10
-12.9832867174
 20
27.4844546188
 10
-12.9876647225
 20
27.4722953187
 10
-12.9982908459
 20
27.4318531776
 10
-13.0058871969
 20
27.3889077165
 10
-13.0105087573
 20
27.3432958886
 10
-13.012155655
 20
27.2950176228
  0
LWPOLYLINE
  5
26B
100
AcDbEntity
  8
RACCORDO
100
AcDbPolyline
 62
253
  6
CONTINUOUS
 90
9
 70
0
 10
18.4477330032
 20
41.8551427493
 10
18.4273946825
 20
41.8398978764
 10
18.4073138676
 20
41.8222151916
 10
18.3877057168
 20
41.8022841289
 10
18.3687803301
 20
41.7803182184
 10
18.3507404918
 20
41.7565527928
 10
18.333779499
 20
41.7312424651
 10
18.318079094
 20
41.7046584048
 10
18.3059431109
 20
41.6812114436
  0
LINE
  5
26C
100
AcDbEntity
  8
0
100
AcDbLine
 62
253
  6
CONTINUOUS
 10
18.9293386559
 20
41.3660441567
 11
18.6017411225
 21
41.1479476627
  0
LINE
  5
26D
100
AcDbEntity
  8
RACCORDO
100
AcDbLine
 62
253
  6
CONTINUOUS
 10
23.0275715306
 20
43.4873990552
 11
23.1045306266
 21
43.5318341253
  0
LINE
  5
26E
100
AcDbEntity
  8
RACCORDO
100
AcDbLine
 62
253
  6
CONTINUOUS
 10
26.1450795751
 20
42.2660534237
 11
28.1932847801
 21
43.4486621205
  0
LINE
  5
26F
100
AcDbEntity
  8
RACCORDO
100
AcDbLine
 62
7
  6
CONTINUOUS
 10
22.1984304795
 20
39.4977628395
 11
22.0158723547
 21
39.3923564157
  0
LINE
  5
270
100
AcDbEntity
  8
RACCORDO
100
AcDbLine
 62
253
  6
CONTINUOUS
 10
26.4985791178
 20
41.6537742559
 11
28.5467843228
 21
42.8363829527
  0
LINE
  5
271
100
AcDbEntity
  8
0
100
AcDbLine
 62
7
  6
CONTINUOUS
 10
20.4923817057
 20
38.8576659413
 11
22.2171178958
 21
39.8215429291
  0
LINE
  5
272
100
AcDbEntity
  8
DRAFT
100
AcDbLine
 62
7
  6
CONTINUOUS
 10
27.8022918694
 20
43.6744165268
 11
27.0828424934
 21
43.2875199347
  0
LWPOLYLINE
  5
273
100
AcDbEntity
  8
RACCORDO
100
AcDbPolyline
 62
253
  6
CONTINUOUS
 90
5
 70
0
 10
25.165688235
 20
30.3888021656
 10
25.0751274139
 20
30.359552997
 10
24.9876211549
 20
30.3242083788
 10
24.9033247544
 20
30.2828310385
 10
24.8449897343
 20
30.2495185193
  0
LWPOLYLINE
  5
274
100
AcDbEntity
  8
RACCORDO
100
AcDbPolyline
 62
253
  6
CONTINUOUS
 90
10
 70
0
 10
25.0841299797
 20
29.9989448852
 10
25.0220115701
 20
29.979501336
 10
24.961526021
 20
29.9570236098
 10
24.9026733323
 20
29.9315117067
 10
24.8454028841
 20
29.9029385582
 10
24.7897652963
 20
29.8713312327
 10
24.7359124291
 20
29.8367709352
 10
24.6838949025
 20
29.799284734
 10
24.6336620964
 20
29.7588455608
 10
24.5852140109
 20
29.7154534156
  0
LWPOLYLINE
  5
275
100
AcDbEntity
  8
DRAFT
100
AcDbPolyline
 62
7
  6
CONTINUOUS
 90
3
 70
0
 10
26.9362426108
 20
-36.089647984
 10
26.8421382048
 20
-36.0577204701
 10
26.7489851355
 20
-36.032705572
  0
LINE
  5
276
100
AcDbEntity
  8
DRAFT
100
AcDbLine
 62
7
  6
CONTINUOUS
 10
26.9472024217
 20
-36.0941288926
 11
26.9362426108
 21
-36.089647984
  0
LWPOLYLINE
  5
277
100
AcDbEntity
  8
RACCORDO
100
AcDbPolyline
 62
253
  6
CONTINUOUS
 90
10
 70
0
 10
25.4950270172
 20
-37.9860398241
 10
25.4993567073
 20
-37.9878744896
 10
25.504105968
 20
-37.9894082861
 10
25.5092105746
 20
-37.990620471
 10
25.5146014972
 20
-37.991494651
 10
25.5202058329
 20
-37.9920190034
 10
25.5259477923
 20
-37.9921864367
 10
25.5317497249
 20
-37.991994686
 10
25.5375331696
 20
-37.9914463438
 10
25.5432199147
 20
-37.9905488249
  0
LWPOLYLINE
  5
278
100
AcDbEntity
  8
RACCORDO
100
AcDbPolyline
 62
253
  6
CONTINUOUS
 90
19
 70
0
 10
25.6019034132
 20
-38.0452157166
 10
25.5959932707
 20
-38.0426482449
 10
25.5903687308
 20
-38.039885457
 10
25.5850341304
 20
-38.0369650668
 10
25.5799821268
 20
-38.0339272719
 10
25.575225416
 20
-38.0308015494
 10
25.5707972729
 20
-38.0276053262
 10
25.5666999503
 20
-38.0243571965
 10
25.5629324263
 20
-38.0210920962
 10
25.5595215269
 20
-38.017848354
 10
25.556489248
 20
-38.0146669839
 10
25.5538082299
 20
-38.0115467357
 10
25.551431981
 20
-38.0084592044
 10
25.5493552025
 20
-38.0054333105
 10
25.5475803197
 20
-38.0024666928
 10
25.5460788867
 20
-37.9994861334
 10
25.5448452571
 20
-37.996480271
 10
25.5438914774
 20
-37.9934951373
 10
25.5432199143
 20
-37.9905487981
  0
LWPOLYLINE
  5
279
100
AcDbEntity
  8
0
100
AcDbPolyline
 62
7
  6
CONTINUOUS
 90
8
 70
0
 10
26.7202342321
 20
-36.021444012
 10
26.4915492689
 20
-35.9202676833
 10
26.26751369
 20
-35.8522219778
 10
26.0511571923
 20
-35.818227097
 10
25.8454056263
 20
-35.8187427633
 10
25.653041429
 20
-35.8537620033
 10
25.4766659961
 20
-35.9228112417
 10
25.4352874716
 20
-35.9453303246
  0
LWPOLYLINE
  5
27A
100
AcDbEntity
  8
RACCORDO
100
AcDbPolyline
 62
253
  6
CONTINUOUS
 90
6
 70
0
 10
26.8614506747
 20
-38.2559186754
 10
26.8561061542
 20
-38.2534434701
 10
26.8519173945
 20
-38.2504588574
 10
26.8490033467
 20
-38.2470495912
 10
26.8474467643
 20
-38.2433124851
 10
26.8472912086
 20
-38.2424536199
  0
LWPOLYLINE
  5
27B
100
AcDbEntity
  8
RACCORDO
100
AcDbPolyline
 62
253
  6
CONTINUOUS
 90
6
 70
0
 10
26.7439994822
 20
-37.4189839504
 10
26.7386549501
 20
-37.4165087325
 10
26.7344661863
 20
-37.4135241084
 10
26.7315521409
 20
-37.4101148336
 10
26.7299955648
 20
-37.4063777223
 10
26.7298400139
 20
-37.4055188787
  0
LINE
  5
27C
100
AcDbEntity
  8
RACCORDO
100
AcDbLine
 62
7
  6
CONTINUOUS
 10
26.5114574332
 20
-37.2238263271
 11
26.5115015753
 21
-37.2238475458
  0
LWPOLYLINE
  5
27D
100
AcDbEntity
  8
RACCORDO
100
AcDbPolyline
 62
253
  6
CONTINUOUS
 90
10
 70
0
 10
26.6779146499
 20
-39.8269135881
 10
26.6579140963
 20
-39.8170550338
 10
26.6379085559
 20
-39.8067712189
 10
26.6178980285
 20
-39.7960621435
 10
26.5978791547
 20
-39.7849258645
 10
26.577855294
 20
-39.7733643249
 10
26.5578365248
 20
-39.7613833543
 10
26.5378262066
 20
-39.748984896
 10
26.5178209799
 20
-39.7361670066
 10
26.4978208447
 20
-39.7229296863
  0
LWPOLYLINE
  5
27E
100
AcDbEntity
  8
RACCORDO
100
AcDbPolyline
 62
253
  6
CONTINUOUS
 90
10
 70
0
 10
26.6930779497
 20
-39.7800201458
 10
26.6736565918
 20
-39.7704481728
 10
26.654212501
 20
-39.7604531349
 10
26.6347521669
 20
-39.750038368
 10
26.6152820848
 20
-39.7392073477
 10
26.5958087526
 20
-39.7279636893
 10
26.5763386687
 20
-39.7163111463
 10
26.5568783308
 20
-39.7042536079
 10
26.5374342343
 20
-39.6917950981
 10
26.5180128687
 20
-39.678939775
  0
LWPOLYLINE
  5
27F
100
AcDbEntity
  8
RACCORDO
100
AcDbPolyline
 62
253
  6
CONTINUOUS
 90
4
 70
0
 10
26.4978208416
 20
-37.1992034252
 10
26.5178213955
 20
-37.2090619777
 10
26.5378269364
 20
-37.2193457913
 10
26.5578374642
 20
-37.2300548658
  0
LWPOLYLINE
  5
280
100
AcDbEntity
  8
RACCORDO
100
AcDbPolyline
 62
253
  6
CONTINUOUS
 90
16
 70
0
 10
27.8643304175
 20
-43.3074696073
 10
27.8873951873
 20
-43.3194746025
 10
27.9124856818
 20
-43.3300386587
 10
27.9393330737
 20
-43.3390485893
 10
27.9676497119
 20
-43.3464078593
 10
27.9971322032
 20
-43.3520376191
 10
28.0274646632
 20
-43.3558775497
 10
28.0583221005
 20
-43.357886509
 10
28.089373899
 20
-43.3580429723
 10
28.1202873604
 20
-43.3563452632
 10
28.1507312683
 20
-43.3528115716
 10
28.1803794372
 20
-43.3474797584
 10
28.2089142077
 20
-43.3404069505
 10
28.2360298494
 20
-43.3316689279
 10
28.261435837
 20
-43.3213593125
 10
28.284859963
 20
-43.3095885648
  0
LWPOLYLINE
  5
281
100
AcDbEntity
  8
RACCORDO
100
AcDbPolyline
 62
253
  6
CONTINUOUS
 90
16
 70
0
 10
27.8643304175
 20
-42.0995698614
 10
27.887395178
 20
-42.1115748523
 10
27.9124856634
 20
-42.1221389059
 10
27.9393330471
 20
-42.1311488356
 10
27.9676496784
 20
-42.1385081059
 10
27.9971321646
 20
-42.1441378671
 10
28.0274646214
 20
-42.1479777999
 10
28.0583220577
 20
-42.1499867617
 10
28.0893738575
 20
-42.1501432275
 10
28.1202873218
 20
-42.1484455207
 10
28.1507312344
 20
-42.1449118308
 10
28.1803794094
 20
-42.1395800186
 10
28.2089141867
 20
-42.1325072106
 10
28.2360298355
 20
-42.1237691871
 10
28.2614358302
 20
-42.1134595698
 10
28.284859963
 20
-42.101688819
  0
LWPOLYLINE
  5
282
100
AcDbEntity
  8
RACCORDO
100
AcDbPolyline
 62
253
  6
CONTINUOUS
 90
8
 70
0
 10
27.68070848
 20
-39.0400771898
 10
27.676856903
 20
-39.0379664678
 10
27.6735355277
 20
-39.0356082282
 10
27.670789271
 20
-39.0330343616
 10
27.6686552723
 20
-39.0302796746
 10
27.6671623918
 20
-39.0273814192
 10
27.6663308195
 20
-39.0243787898
 10
27.6661808133
 20
-39.023082248
  0
LWPOLYLINE
  5
283
100
AcDbEntity
  8
RACCORDO
100
AcDbPolyline
 62
7
  6
CONTINUOUS
 90
16
 70
0
 10
25.5084044026
 20
-42.9380548703
 10
25.6852882805
 20
-43.0398460527
 10
25.8623424467
 20
-43.1337178546
 10
26.0393363026
 20
-43.2195279452
 10
26.2161143313
 20
-43.2971724782
 10
26.392366516
 20
-43.3664839027
 10
26.5676382916
 20
-43.4272699909
 10
26.7417432448
 20
-43.479462564
 10
26.9144191398
 20
-43.5229764528
 10
27.0851180943
 20
-43.5576906447
 10
27.2536225643
 20
-43.5835998117
 10
27.4197270902
 20
-43.6007091417
 10
27.5829236149
 20
-43.6090241829
 10
27.7429143385
 20
-43.6086181631
 10
27.8996009353
 20
-43.5995797501
 10
28.0527864593
 20
-43.5820009906
  0
LWPOLYLINE
  5
284
100
AcDbEntity
  8
RACCORDO
100
AcDbPolyline
 62
253
  6
CONTINUOUS
 90
16
 70
0
 10
25.4502658687
 20
-42.8030765681
 10
25.6149185225
 20
-42.8979136668
 10
25.779112691
 20
-42.9852060479
 10
25.9428483744
 20
-43.0649537115
 10
26.1064285436
 20
-43.1372853117
 10
26.2695502276
 20
-43.2020721944
 10
26.4313045135
 20
-43.2589283969
 10
26.5916023833
 20
-43.3077804294
 10
26.7505328551
 20
-43.3487017818
 10
26.9074540692
 20
-43.3815269614
 10
27.0624351324
 20
-43.4062221441
 10
27.215406938
 20
-43.4228211541
 10
27.3655203064
 20
-43.4312599706
 10
27.5124921778
 20
-43.4315172536
 10
27.6566056121
 20
-43.4236143432
 10
27.7978606092
 20
-43.4075512395
  0
LINE
  5
285
100
AcDbEntity
  8
DRAFT
100
AcDbLine
 62
7
  6
CONTINUOUS
 10
21.9226648569
 20
-42.7248644746
 11
22.1984304795
 21
-42.8840880889
  0
LINE
  5
286
100
AcDbEntity
  8
RACCORDO
100
AcDbLine
 62
7
  6
CONTINUOUS
 10
25.5084044026
 20
-42.9380548703
 11
25.5085090541
 21
-42.938117375
  0
LWPOLYLINE
  5
287
100
AcDbEntity
  8
RACCORDO
100
AcDbPolyline
 62
253
  6
CONTINUOUS
 90
9
 70
0
 10
25.3114050757
 20
-42.5596572253
 10
25.2906132161
 20
-42.546339959
 10
25.2723169505
 20
-42.5318530646
 10
25.2567123133
 20
-42.5163517566
 10
25.2439665007
 20
-42.5000021186
 10
25.2342160791
 20
-42.4829793241
 10
25.2275655217
 20
-42.4654657594
 10
25.224086089
 20
-42.4476490691
 10
25.22353711
 20
-42.4371748402
  0
LINE
  5
288
100
AcDbEntity
  8
DRAFT
100
AcDbLine
 62
7
  6
CONTINUOUS
 10
28.5467843228
 20
34.3857969841
 11
27.3656852059
 21
33.7038992427
  0
LINE
  5
289
100
AcDbEntity
  8
RACCORDO
100
AcDbLine
 62
7
  6
CONTINUOUS
 10
27.3656852059
 20
33.7038992427
 11
26.4985791178
 21
33.2032163913
  0
LINE
  5
28A
100
AcDbEntity
  8
0
100
AcDbLine
 62
7
  6
CONTINUOUS
 10
22.2171178958
 20
34.9227212683
 11
20.4923817057
 21
33.9588442805
  0
LWPOLYLINE
  5
28B
100
AcDbEntity
  8
RACCORDO
100
AcDbPolyline
 62
7
  6
CONTINUOUS
 90
13
 70
0
 10
26.4985791178
 20
33.2032163913
 10
26.4825999935
 20
33.1946168345
 10
26.4655615319
 20
33.1866629788
 10
26.447540045
 20
33.1794031133
 10
26.4285776702
 20
33.1728720084
 10
26.4088025316
 20
33.1671262101
 10
26.3884428892
 20
33.1622260888
 10
26.3676509301
 20
33.1581982002
 10
26.3465006764
 20
33.1550444028
 10
26.3251186858
 20
33.1527633002
 10
26.3036227675
 20
33.1513534706
 10
26.2821206509
 20
33.1508153989
 10
26.2607229271
 20
33.1511418139
  0
LINE
  5
28C
100
AcDbEntity
  8
RACCORDO
100
AcDbLine
 62
7
  6
CONTINUOUS
 10
22.1984304795
 20
35.1012364923
 11
22.0158723547
 21
35.0030626405
  0
LWPOLYLINE
  5
28D
100
AcDbEntity
  8
RACCORDO
100
AcDbPolyline
 62
7
  6
CONTINUOUS
 90
6
 70
0
 10
25.9664185579
 20
33.1400440917
 10
25.9877653065
 20
33.1511713676
 10
26.0086216419
 20
33.1586702818
 10
26.0305684077
 20
33.1635422355
 10
26.0537110512
 20
33.1658116681
 10
26.0780495724
 20
33.1654785796
  0
LWPOLYLINE
  5
28E
100
AcDbEntity
  8
0
100
AcDbPolyline
 62
7
  6
CONTINUOUS
 90
3
 70
0
 10
25.4067178669
 20
29.3205172968
 10
25.2287844275
 20
29.2508581142
 10
25.188072434
 20
29.2289221818
  0
LINE
  5
28F
100
AcDbEntity
  8
RACCORDO
100
AcDbLine
 62
253
  6
CONTINUOUS
 10
25.1830674242
 20
30.39473014
 11
25.1656882787
 21
30.3888021921
  0
LWPOLYLINE
  5
290
100
AcDbEntity
  8
RACCORDO
100
AcDbPolyline
 62
7
  6
CONTINUOUS
 90
3
 70
0
 10
26.3188049518
 20
27.2958884431
 10
26.331602233
 20
27.299941978
 10
26.3387551083
 20
27.3030583492
  0
LWPOLYLINE
  5
291
100
AcDbEntity
  8
RACCORDO
100
AcDbPolyline
 62
253
  6
CONTINUOUS
 90
12
 70
0
 10
25.654887128
 20
-32.5419582644
 10
25.6290149446
 20
-32.5289234212
 10
25.6033409469
 20
-32.5181198585
 10
25.5780007219
 20
-32.509601237
 10
25.5531357721
 20
-32.5034103372
 10
25.5288683499
 20
-32.4995738721
 10
25.5053028091
 20
-32.4981095295
 10
25.4825435102
 20
-32.4990304608
 10
25.4607348248
 20
-32.5023375196
 10
25.4400308844
 20
-32.5080042883
 10
25.4205916217
 20
-32.5159642409
 10
25.4055636127
 20
-32.5242093838
  0
LWPOLYLINE
  5
292
100
AcDbEntity
  8
RACCORDO
100
AcDbPolyline
 62
253
  6
CONTINUOUS
 90
22
 70
0
 10
25.4502658687
 20
-32.9093663079
 10
25.4399286457
 20
-32.9040626049
 10
25.4297685059
 20
-32.8996918565
 10
25.4197854492
 20
-32.8962540627
 10
25.4099318406
 20
-32.8937413004
 10
25.4002553151
 20
-32.8921614926
 10
25.3908987784
 20
-32.891538409
 10
25.3818596904
 20
-32.8918887949
 10
25.3731405913
 20
-32.8931959049
 10
25.3648920067
 20
-32.8954332724
 10
25.3571391342
 20
-32.8985986682
 10
25.3498567763
 20
-32.9026943214
 10
25.3431198662
 20
-32.9077004527
 10
25.3369178298
 20
-32.9136118824
 10
25.3312612411
 20
-32.9204337903
 10
25.3262567552
 20
-32.9281619361
 10
25.3218929695
 20
-32.9368364119
 10
25.3181812866
 20
-32.9464171256
 10
25.3152625695
 20
-32.9567795617
 10
25.3131837724
 20
-32.9678822147
 10
25.3118979411
 20
-32.9797665901
 10
25.3114050757
 20
-32.9924326877
  0
LWPOLYLINE
  5
293
100
AcDbEntity
  8
RACCORDO
100
AcDbPolyline
 62
253
  6
CONTINUOUS
 90
16
 70
0
 10
27.8643304175
 20
-36.4005742449
 10
27.8873951873
 20
-36.4125792401
 10
27.9124856818
 20
-36.4231432963
 10
27.9393330737
 20
-36.432153227
 10
27.9676497119
 20
-36.4395124969
 10
27.9971322032
 20
-36.4451422567
 10
28.0274646632
 20
-36.4489821873
 10
28.0583221005
 20
-36.4509911466
 10
28.089373899
 20
-36.4511476099
 10
28.1202873604
 20
-36.4494499009
 10
28.1507312683
 20
-36.4459162092
 10
28.1803794372
 20
-36.4405843961
 10
28.2089142077
 20
-36.4335115881
 10
28.2360298494
 20
-36.4247735655
 10
28.261435837
 20
-36.4144639502
 10
28.284859963
 20
-36.4026932025
  0
LWPOLYLINE
  5
294
100
AcDbEntity
  8
RACCORDO
100
AcDbPolyline
 62
253
  6
CONTINUOUS
 90
16
 70
0
 10
27.8643304175
 20
-35.1926744991
 10
27.8873949194
 20
-35.2046793721
 10
27.912485148
 20
-35.2152433556
 10
27.9393322934
 20
-35.2242532584
 10
27.9676487203
 20
-35.231612539
 10
27.9971310475
 20
-35.2372423402
 10
28.0274633989
 20
-35.2410823339
 10
28.058320791
 20
-35.2430913687
 10
28.0893726092
 20
-35.2432479099
 10
28.1202861481
 20
-35.2415502715
 10
28.1507301892
 20
-35.2380166346
 10
28.1803785393
 20
-35.2326848521
 10
28.20891352
 20
-35.225612046
 10
28.2360293877
 20
-35.2168739929
 10
28.261435609
 20
-35.2065643103
 10
28.284859963
 20
-35.194793456
  0
LINE
  5
295
100
AcDbEntity
  8
0
100
AcDbLine
 62
7
  6
CONTINUOUS
 10
26.8351637768
 20
-36.0839351537
 11
26.7202342321
 21
-36.021444012
  0
LWPOLYLINE
  5
296
100
AcDbEntity
  8
RACCORDO
100
AcDbPolyline
 62
7
  6
CONTINUOUS
 90
5
 70
0
 10
26.5885652057
 20
-37.2642811237
 10
26.5692400685
 20
-37.2535303888
 10
26.5499421874
 20
-37.2432022409
 10
26.5306789584
 20
-37.2332999267
 10
26.5114574332
 20
-37.2238263271
  0
LWPOLYLINE
  5
297
100
AcDbEntity
  8
RACCORDO
100
AcDbPolyline
 62
253
  6
CONTINUOUS
 90
3
 70
0
 10
26.5578374642
 20
-37.2300548658
 10
26.5778563384
 20
-37.2411911446
 10
26.5978801995
 20
-37.2527526844
  0
LINE
  5
298
100
AcDbEntity
  8
0
100
AcDbLine
 62
7
  6
CONTINUOUS
 10
27.1833611146
 20
-36.2849410772
 11
26.8351637768
 21
-36.0839351537
  0
LWPOLYLINE
  5
299
100
AcDbEntity
  8
0
100
AcDbPolyline
 62
7
  6
CONTINUOUS
 90
16
 70
0
 10
-30.1488972116
 20
-1.3034567468
 10
-30.2272931664
 20
-1.2574707866
 10
-30.3318119579
 20
-1.1889909302
 10
-30.4293366648
 20
-1.1175086679
 10
-30.5198031238
 20
-1.0429964549
 10
-30.6032754983
 20
-0.9654818358
 10
-30.6789903324
 20
-0.8856737614
 10
-30.7468764584
 20
-0.8035511907
 10
-30.8070050439
 20
-0.7191351645
 10
-30.8588261358
 20
-0.6331977563
 10
-30.9022635209
 20
-0.5457250081
 10
-30.9373934124
 20
-0.4567308777
 10
-30.9638944966
 20
-0.3670293124
 10
-30.9816876123
 20
-0.2766138213
 10
-30.9908519206
 20
-0.1854908951
 10
-30.9921837718
 20
-0.1356965159
  0
LWPOLYLINE
  5
29A
100
AcDbEntity
  8
RACCORDO
100
AcDbPolyline
 62
253
  6
CONTINUOUS
 90
5
 70
0
 10
26.5978801995
 20
-37.2527526844
 10
26.6178989691
 20
-37.2647336558
 10
26.6379092877
 20
-37.2771321155
 10
26.6579145147
 20
-37.2899500068
 10
26.6779146502
 20
-37.3031873296
  0
LWPOLYLINE
  5
29B
100
AcDbEntity
  8
RACCORDO
100
AcDbPolyline
 62
253
  6
CONTINUOUS
 90
10
 70
0
 10
25.4950270141
 20
-37.778092104
 10
25.4993567152
 20
-37.7807051483
 10
25.504105986
 20
-37.7830067952
 10
25.5092106007
 20
-37.7849659188
 10
25.5146015283
 20
-37.7865560252
 10
25.5202058656
 20
-37.7877556107
 10
25.5259478235
 20
-37.7885484529
 10
25.5317497516
 20
-37.7889238298
 10
25.5375331889
 20
-37.7888766649
 10
25.5432199239
 20
-37.7884075961
  0
LWPOLYLINE
  5
29C
100
AcDbEntity
  8
RACCORDO
100
AcDbPolyline
 62
253
  6
CONTINUOUS
 90
17
 70
0
 10
24.5852140109
 20
-38.7911918945
 10
24.5781006285
 20
-38.7868668813
 10
24.5713790514
 20
-38.7823324077
 10
24.5650680663
 20
-38.7776001767
 10
24.5591853776
 20
-38.7726824224
 10
24.5537476959
 20
-38.7675919954
 10
24.5487706513
 20
-38.7623423438
 10
24.5442684733
 20
-38.7569471887
 10
24.5402543066
 20
-38.7514208564
 10
24.5367401682
 20
-38.7457783938
 10
24.533735757
 20
-38.7400334232
 10
24.5312510097
 20
-38.7342026607
 10
24.529294915
 20
-38.7283064735
 10
24.5278714624
 20
-38.7223558902
 10
24.5269860009
 20
-38.7163719011
 10
24.5266408294
 20
-38.7103904318
 10
24.5266353705
 20
-38.7095583778
  0
LINE
  5
29D
100
AcDbEntity
  8
RACCORDO
100
AcDbLine
 62
253
  6
CONTINUOUS
 10
24.5781022158
 20
-35.9179941575
 11
24.5852140109
 21
-35.9223181543
  0
LWPOLYLINE
  5
29E
100
AcDbEntity
  8
RACCORDO
100
AcDbPolyline
 62
7
  6
CONTINUOUS
 90
4
 70
0
 10
26.64663828
 20
-37.2990385021
 10
26.6272707411
 20
-37.2870382484
 10
26.6079108043
 20
-37.2754513536
 10
26.5885652057
 20
-37.2642811237
  0
LWPOLYLINE
  5
29F
100
AcDbEntity
  8
RACCORDO
100
AcDbPolyline
 62
253
  6
CONTINUOUS
 90
9
 70
0
 10
25.3114050757
 20
-40.6255427647
 10
25.2906131536
 20
-40.6122254557
 10
25.2723168503
 20
-40.5977385187
 10
25.256712198
 20
-40.582237171
 10
25.2439663898
 20
-40.565887499
 10
25.234215988
 20
-40.5488646781
 10
25.2275654615
 20
-40.5313510958
 10
25.2240860662
 20
-40.5135343983
 10
25.22353711
 20
-40.5030603867
  0
LWPOLYLINE
  5
2A0
100
AcDbEntity
  8
RACCORDO
100
AcDbPolyline
 62
253
  6
CONTINUOUS
 90
9
 70
0
 10
25.3114050757
 20
-34.9265471482
 10
25.2906131611
 20
-34.9132298445
 10
25.2723168623
 20
-34.8987429127
 10
25.2567122117
 20
-34.8832415699
 10
25.2439664028
 20
-34.8668919018
 10
25.2342159986
 20
-34.8498690838
 10
25.2275654685
 20
-34.8323555034
 10
25.2240860688
 20
-34.8145388064
 10
25.223537116
 20
-34.804099496
  0
LINE
  5
2A1
100
AcDbEntity
  8
RACCORDO
100
AcDbLine
 62
253
  6
CONTINUOUS
 10
26.656377389
 20
-35.8326284673
 11
26.7792316327
 21
-35.9113685356
  0
LWPOLYLINE
  5
2A2
100
AcDbEntity
  8
RACCORDO
100
AcDbPolyline
 62
253
  6
CONTINUOUS
 90
8
 70
0
 10
24.5852140109
 20
-39.1113339567
 10
24.56975229
 20
-39.1013023037
 10
24.5564121188
 20
-39.0903020709
 10
24.5453739035
 20
-39.0784820146
 10
24.5367869216
 20
-39.0660019789
 10
24.5307673016
 20
-39.0530307325
 10
24.5273964535
 20
-39.0397436867
 10
24.5266353671
 20
-39.029678989
  0
LWPOLYLINE
  5
2A3
100
AcDbEntity
  8
RACCORDO
100
AcDbPolyline
 62
253
  6
CONTINUOUS
 90
8
 70
0
 10
24.5852140109
 20
-35.6021687172
 10
24.5697522341
 20
-35.5921370384
 10
24.5564120326
 20
-35.5811367782
 10
24.5453738097
 20
-35.5693166961
 10
24.5367868384
 20
-35.5568366386
 10
24.5307672428
 20
-35.5438653769
 10
24.5273964275
 20
-35.5305783253
 10
24.5266353711
 20
-35.5205368211
  0
LWPOLYLINE
  5
2A4
100
AcDbEntity
  8
RACCORDO
100
AcDbPolyline
 62
7
  6
CONTINUOUS
 90
3
 70
0
 10
26.6853668362
 20
-37.3242635546
 10
26.6660060099
 20
-37.3114482281
 10
26.64663828
 20
-37.2990385021
  0
LWPOLYLINE
  5
2A5
100
AcDbEntity
  8
RACCORDO
100
AcDbPolyline
 62
253
  6
CONTINUOUS
 90
10
 70
0
 10
26.3142848185
 20
-37.9399919677
 10
26.3206333486
 20
-37.9442681774
 10
26.3278055951
 20
-37.9478432582
 10
26.3355978854
 20
-37.9506156875
 10
26.343788939
 20
-37.9525067354
 10
26.3521461516
 20
-37.9534627013
 10
26.3604322007
 20
-37.9534564382
 10
26.3684117844
 20
-37.9524881241
 10
26.3758583036
 20
-37.9505852565
 10
26.3825602969
 20
-37.9478018717
  0
LWPOLYLINE
  5
2A6
100
AcDbEntity
  8
RACCORDO
100
AcDbPolyline
 62
253
  6
CONTINUOUS
 90
10
 70
0
 10
26.4317360105
 20
-37.2386869383
 10
26.4380845056
 20
-37.2429631276
 10
26.4452567202
 20
-37.2465382003
 10
26.4530489868
 20
-37.2493106314
 10
26.46124003
 20
-37.2512016884
 10
26.4695972464
 20
-37.2521576661
 10
26.47788331
 20
-37.2521514136
 10
26.4858629164
 20
-37.2511831057
 10
26.4933094645
 20
-37.2492802373
 10
26.5000114889
 20
-37.2464968423
  0
LWPOLYLINE
  5
2A7
100
AcDbEntity
  8
RACCORDO
100
AcDbPolyline
 62
253
  6
CONTINUOUS
 90
22
 70
0
 10
26.4978208447
 20
-39.7229296863
 10
26.4943138206
 20
-39.720480162
 10
26.4907675524
 20
-39.7177338174
 10
26.4871820401
 20
-39.7146906523
 10
26.4835443052
 20
-39.7113559664
 10
26.4798673263
 20
-39.7077244601
 10
26.4761900389
 20
-39.7037802345
 10
26.4725095106
 20
-39.6995204986
 10
26.468828674
 20
-39.6949480435
 10
26.4651952616
 20
-39.6900553432
 10
26.4616091245
 20
-39.6848480697
 10
26.4580704117
 20
-39.679320551
 10
26.4546273032
 20
-39.6734482453
 10
26.4512641889
 20
-39.6672100699
 10
26.4479966789
 20
-39.6606271074
 10
26.4449197832
 20
-39.6537380638
 10
26.4420249984
 20
-39.6465158591
 10
26.4393208279
 20
-39.6389875732
 10
26.4369277914
 20
-39.6312731527
 10
26.4348860624
 20
-39.6234125796
 10
26.4331554675
 20
-39.6153658718
 10
26.4317360067
 20
-39.6071330294
  0
LWPOLYLINE
  5
2A8
100
AcDbEntity
  8
RACCORDO
100
AcDbPolyline
 62
7
  6
CONTINUOUS
 90
3
 70
0
 10
25.4390621084
 20
-42.8883117263
 10
25.4723426649
 20
-42.9143243731
 10
25.5085090541
 20
-42.938117375
  0
LWPOLYLINE
  5
2A9
100
AcDbEntity
  8
0
100
AcDbPolyline
 62
7
  6
CONTINUOUS
 90
22
 70
0
 10
-13.3727165469
 20
-2.9510979847
 10
-13.3711091065
 20
-3.0012845805
 10
-13.3664709967
 20
-3.0525219795
 10
-13.358802087
 20
-3.1048101094
 10
-13.3480101958
 20
-3.1584993085
 10
-13.3341869796
 20
-3.213238947
 10
-13.3176079713
 20
-3.2679774493
 10
-13.2982791647
 20
-3.3225870134
 10
-13.2761936479
 20
-3.3771949316
 10
-13.2516075778
 20
-3.4311322602
 10
-13.2244003863
 20
-3.4845491586
 10
-13.194691421
 20
-3.5372947895
 10
-13.163096848
 20
-3.5882487888
 10
-13.1296098898
 20
-3.6372950287
 10
-13.0942361867
 20
-3.6845490046
 10
-13.0576108599
 20
-3.7292379691
 10
-13.0197789966
 20
-3.771268751
 10
-12.98069466
 20
-3.8107340482
 10
-12.9408568019
 20
-3.8471401212
 10
-12.9004316349
 20
-3.8803223313
 10
-12.8592524324
 20
-3.91044503
 10
-12.8173189097
 20
-3.9375080581
  0
LWPOLYLINE
  5
2AA
100
AcDbEntity
  8
0
100
AcDbPolyline
 62
7
  6
CONTINUOUS
 90
22
 70
0
 10
-13.012155655
 20
-2.7510885632
 10
-13.0105498718
 20
-2.801274163
 10
-13.0059165436
 20
-2.8525086885
 10
-12.9982555399
 20
-2.9047920673
 10
-12.9874747744
 20
-2.9584745808
 10
-12.9736658089
 20
-3.0132056564
 10
-12.9571038924
 20
-3.0679338898
 10
-12.9377950124
 20
-3.1225314829
 10
-12.9157322642
 20
-3.1771257245
 10
-12.8911715405
 20
-3.2310478301
 10
-12.8639923976
 20
-3.2844478853
 10
-12.8343140601
 20
-3.3371751272
 10
-12.8027520589
 20
-3.388109574
 10
-12.7692996233
 20
-3.4371350943
 10
-12.733962388
 20
-3.4843671877
 10
-12.6973748192
 20
-3.5290335003
 10
-12.6595819578
 20
-3.5710408892
 10
-12.6205379144
 20
-3.6104820246
 10
-12.5807411262
 20
-3.6468634756
 10
-12.5403576347
 20
-3.6800207068
 10
-12.499220885
 20
-3.7101179668
 10
-12.4573305927
 20
-3.7371550966
  0
LINE
  5
2AB
100
AcDbEntity
  8
0
100
AcDbLine
 62
7
  6
CONTINUOUS
 10
-13.3727165469
 20
27.0950082013
 11
-13.3727165469
 21
-2.9510979847
  0
LINE
  5
2AC
100
AcDbEntity
  8
0
100
AcDbLine
 62
7
  6
CONTINUOUS
 10
-13.012155655
 20
27.2950176228
 11
-13.012155655
 21
-2.7510885632
  0
LWPOLYLINE
  5
2AD
100
AcDbEntity
  8
0
100
AcDbPolyline
 62
7
  6
CONTINUOUS
 90
8
 70
0
 10
25.188072434
 20
29.2289221818
 10
25.0711771294
 20
29.1497693296
 10
24.9347131836
 20
29.0159873185
 10
24.8185753792
 20
28.8507757053
 10
24.7273712783
 20
28.6606889689
 10
24.662636735
 20
28.4479119358
 10
24.6228358954
 20
28.2102597794
 10
24.6079687593
 20
27.9477324999
  0
LWPOLYLINE
  5
2AE
100
AcDbEntity
  8
RACCORDO
100
AcDbPolyline
 62
7
  6
CONTINUOUS
 90
13
 70
0
 10
25.4055556361
 20
32.7934056421
 10
25.3824741394
 20
32.7779077691
 10
25.3572135962
 20
32.7577663495
 10
25.3334300184
 20
32.7350945926
 10
25.3113926881
 20
32.7099854584
 10
25.2913738978
 20
32.6825868451
 10
25.2736201475
 20
32.6530767015
 10
25.2583142163
 20
32.6215949
 10
25.2456466785
 20
32.5883844585
 10
25.2357721273
 20
32.5537351077
 10
25.2287700025
 20
32.5178279599
 10
25.2246843023
 20
32.4808240944
 10
25.2235371162
 20
32.447707086
  0
LWPOLYLINE
  5
2AF
100
AcDbEntity
  8
RACCORDO
100
AcDbPolyline
 62
7
  6
CONTINUOUS
 90
3
 70
0
 10
24.8449897343
 20
30.2495185193
 10
24.7460855351
 20
30.1840289815
 10
24.6457354754
 20
30.1050042755
  0
LINE
  5
2B0
100
AcDbEntity
  8
RACCORDO
100
AcDbLine
 62
253
  6
CONTINUOUS
 10
25.6548871524
 20
32.7756638942
 11
26.2607229271
 21
33.1511418139
  0
LINE
  5
2B1
100
AcDbEntity
  8
RACCORDO
100
AcDbLine
 62
7
  6
CONTINUOUS
 10
25.9664221606
 20
33.1400379884
 11
25.4055080714
 21
32.7933784473
  0
LINE
  5
2B2
100
AcDbEntity
  8
RACCORDO
100
AcDbLine
 62
253
  6
CONTINUOUS
 10
25.2051553222
 20
30.4127950699
 11
25.165688235
 21
30.3888021656
  0
LINE
  5
2B3
100
AcDbEntity
  8
DRAFT
100
AcDbLine
 62
7
  6
CONTINUOUS
 10
25.2220230432
 20
30.4780951086
 11
24.8449897343
 21
30.2495185193
  0
LINE
  5
2B4
100
AcDbEntity
  8
RACCORDO
100
AcDbLine
 62
7
  6
CONTINUOUS
 10
25.2072377801
 20
30.4068405488
 11
25.2068011473
 21
30.4065759177
  0
LINE
  5
2B5
100
AcDbEntity
  8
0
100
AcDbLine
 62
7
  6
CONTINUOUS
 10
25.4352874716
 20
29.3722918188
 11
25.1878000982
 21
29.2293957111
  0
LWPOLYLINE
  5
2B6
100
AcDbEntity
  8
RACCORDO
100
AcDbPolyline
 62
253
  6
CONTINUOUS
 90
3
 70
0
 10
25.2068011473
 20
30.4065759177
 10
25.1995305212
 20
30.4024327685
 10
25.1830674242
 20
30.39473014
  0
LINE
  5
2B7
100
AcDbEntity
  8
RACCORDO
100
AcDbLine
 62
253
  6
CONTINUOUS
 10
28.4269068979
 20
28.5058153822
 11
29.0057762716
 21
28.8352410804
  0
LINE
  5
2B8
100
AcDbEntity
  8
RACCORDO
100
AcDbLine
 62
253
  6
CONTINUOUS
 10
28.8710650512
 20
30.4561145553
 11
28.284859963
 21
30.1228286868
  0
LINE
  5
2B9
100
AcDbEntity
  8
RACCORDO
100
AcDbLine
 62
253
  6
CONTINUOUS
 10
28.284859963
 20
28.9149289409
 11
28.8641863006
 21
29.2436962824
  0
LINE
  5
2BA
100
AcDbEntity
  8
RACCORDO
100
AcDbLine
 62
253
  6
CONTINUOUS
 10
28.9106224713
 20
31.0141646554
 11
28.1186854422
 21
30.5649269385
  0
LWPOLYLINE
  5
2BB
100
AcDbEntity
  8
RACCORDO
100
AcDbPolyline
 62
253
  6
CONTINUOUS
 90
8
 70
0
 10
26.3387013939
 20
27.3030201508
 10
26.3415145407
 20
27.3044688079
 10
26.3517590205
 20
27.3113544038
 10
26.3608555522
 20
27.3202337692
 10
26.3685038849
 20
27.3307684364
 10
26.3746355713
 20
27.3426442887
 10
26.3793153347
 20
27.3557310936
 10
26.3825602969
 20
27.3698202717
  0
LINE
  5
2BC
100
AcDbEntity
  8
RACCORDO
100
AcDbLine
 62
253
  6
CONTINUOUS
 10
26.7793558173
 20
27.5592631233
 11
26.3825602969
 21
27.3698202717
  0
LINE
  5
2BD
100
AcDbEntity
  8
RACCORDO
100
AcDbLine
 62
7
  6
CONTINUOUS
 10
26.7853877169
 20
27.5162809612
 11
26.3383174664
 21
27.3028353483
  0
LWPOLYLINE
  5
2BE
100
AcDbEntity
  8
RACCORDO
100
AcDbPolyline
 62
253
  6
CONTINUOUS
 90
28
 70
0
 10
28.0916055134
 20
23.610182392
 10
28.1936589702
 20
23.6440592314
 10
28.2910452634
 20
23.6861526923
 10
28.383764393
 20
23.7364627746
 10
28.4720836072
 20
23.7951862361
 10
28.5557356578
 20
23.8621263191
 10
28.6339188009
 20
23.9366927506
 10
28.7065362965
 20
24.0189194467
 10
28.7736848848
 20
24.1087724915
 10
28.8348530413
 20
24.2055598638
 10
28.890003741
 20
24.3093493747
 10
28.939174009
 20
24.4200732132
 10
28.9819633966
 20
24.5368359253
 10
29.0183174226
 20
24.6596797453
 10
29.0482905682
 20
24.7885624389
 10
29.0716458273
 20
24.9224618493
 10
29.0883311332
 20
25.0614203408
 10
29.0983985528
 20
25.205395549
 10
29.1017672803
 20
25.3532382243
 10
29.098383402
 20
25.5049796819
 10
29.0883008317
 20
25.6605886065
 10
29.0716005059
 20
25.8188218022
 10
29.0482306076
 20
25.9796960526
 10
29.0182429537
 20
26.1431945742
 10
28.9818739318
 20
26.3080238199
 10
28.9390680347
 20
26.4742074574
 10
28.8898807696
 20
26.6417218191
 10
28.8347150453
 20
26.8092023551
  0
LWPOLYLINE
  5
2BF
100
AcDbEntity
  8
RACCORDO
100
AcDbPolyline
 62
7
  6
CONTINUOUS
 90
9
 70
0
 10
28.4225603325
 20
23.4550560701
 10
28.4588540272
 20
23.4668525305
 10
28.4946992042
 20
23.4794967509
 10
28.5300783378
 20
23.4929779954
 10
28.5649901999
 20
23.5072911246
 10
28.5994487901
 20
23.522438471
 10
28.6334516948
 20
23.5384168497
 10
28.6669811688
 20
23.5552156867
 10
28.7000275029
 20
23.5728274088
  0
LWPOLYLINE
  5
2C0
100
AcDbEntity
  8
RACCORDO
100
AcDbPolyline
 62
253
  6
CONTINUOUS
 90
31
 70
0
 10
28.8641863006
 20
22.4006191872
 10
29.0055545718
 20
22.4453365741
 10
29.1418265444
 20
22.4991670503
 10
29.2730022183
 20
22.5621106157
 10
29.3992906149
 20
22.634307298
 10
29.5204827129
 20
22.7156170695
 10
29.6359514484
 20
22.805619848
 10
29.7456665782
 20
22.9043611567
 10
29.8496583455
 20
23.0117954723
 10
29.9473904161
 20
23.127366143
 10
30.0388291674
 20
23.2511135859
 10
30.1240082219
 20
23.3829973838
 10
30.2024921129
 20
23.5223396329
 10
30.2742468024
 20
23.6691785269
 10
30.3393063283
 20
23.8234758721
 10
30.3973373382
 20
23.9844391834
 10
30.4483039746
 20
24.152103252
 10
30.4922420949
 20
24.3264332868
 10
30.528925919
 20
24.5065324288
 10
30.5583180512
 20
24.6924306776
 10
30.5804558871
 20
24.8840980337
 10
30.5952258341
 20
25.0805476398
 10
30.6025898713
 20
25.2818037523
 10
30.6025860195
 20
25.4878421149
 10
30.5952147484
 20
25.6976031009
 10
30.5804383746
 20
25.911104893
 10
30.5582945814
 20
26.1283293085
 10
30.5288968888
 20
26.3481621726
 10
30.4922082896
 20
26.5706169177
 10
30.4482657909
 20
26.7956801115
 10
30.3972939345
 20
27.0221972822
  0
LINE
  5
2C1
100
AcDbEntity
  8
RACCORDO
100
AcDbLine
 62
7
  6
CONTINUOUS
 10
28.3858278253
 20
23.4441146247
 11
28.4225603325
 21
23.4550560701
  0
LINE
  5
2C2
100
AcDbEntity
  8
RACCORDO
100
AcDbLine
 62
7
  6
CONTINUOUS
 10
28.3858278253
 20
23.4441146247
 11
28.385857252
 21
23.4441229989
  0
LINE
  5
2C3
100
AcDbEntity
  8
RACCORDO
100
AcDbLine
 62
7
  6
CONTINUOUS
 10
21.8563957238
 20
-5.5352123443
 11
20.581739889
 21
-5.8516313522
  0
LINE
  5
2C4
100
AcDbEntity
  8
RACCORDO
100
AcDbLine
 62
7
  6
CONTINUOUS
 10
21.8563957238
 20
-9.9192018725
 11
20.581739889
 21
-10.1995155434
  0
LWPOLYLINE
  5
2C5
100
AcDbEntity
  8
0
100
AcDbPolyline
 62
7
  6
CONTINUOUS
 90
12
 70
0
 10
-0.2178290398
 20
-11.2122956003
 10
-0.1743615431
 20
-11.2345912015
 10
-0.1315707812
 20
-11.2529365608
 10
-0.0894569962
 20
-11.2673318225
 10
-0.0477598754
 20
-11.2778135536
 10
-0.0067401454
 20
-11.2843454338
 10
0.0328201347
 20
-11.2868184318
 10
0.0708112689
 20
-11.285179796
 10
0.1073419906
 20
-11.2794828542
 10
0.1419575104
 20
-11.2697779189
 10
0.1747266216
 20
-11.2559626304
 10
0.1945498568
 20
-11.2451063783
  0
LINE
  5
2C6
100
AcDbEntity
  8
RACCORDO
100
AcDbLine
 62
7
  6
CONTINUOUS
 10
20.4131022979
 20
-26.0242602996
 11
20.6315510265
 21
-26.1503898577
  0
LINE
  5
2C7
100
AcDbEntity
  8
RACCORDO
100
AcDbLine
 62
253
  6
CONTINUOUS
 10
20.6812705746
 20
-25.3746304311
 11
20.8355423984
 21
-25.4637050487
  0
LWPOLYLINE
  5
2C8
100
AcDbEntity
  8
RACCORDO
100
AcDbPolyline
 62
253
  6
CONTINUOUS
 90
9
 70
0
 10
25.3114050757
 20
-32.9924326877
 10
25.2906131536
 20
-32.9791153787
 10
25.2723168503
 20
-32.9646284416
 10
25.256712198
 20
-32.949127094
 10
25.2439663898
 20
-32.932777422
 10
25.234215988
 20
-32.915754601
 10
25.2275654615
 20
-32.8982410188
 10
25.2240860662
 20
-32.8804243212
 10
25.22353711
 20
-32.8699503097
  0
LINE
  5
2C9
100
AcDbEntity
  8
RACCORDO
100
AcDbLine
 62
253
  6
CONTINUOUS
 10
26.6779146502
 20
-37.3031873296
 11
26.6814216737
 21
-37.3056368553
  0
LINE
  5
2CA
100
AcDbEntity
  8
RACCORDO
100
AcDbLine
 62
253
  6
CONTINUOUS
 10
26.7792316327
 20
-35.9113685356
 11
26.9015605184
 21
-35.9972587205
  0
LWPOLYLINE
  5
2CB
100
AcDbEntity
  8
RACCORDO
100
AcDbPolyline
 62
7
  6
CONTINUOUS
 90
5
 70
0
 10
26.6854640612
 20
-37.3243282971
 10
26.6878799556
 20
-37.326077938
 10
26.693516701
 20
-37.3309829878
 10
26.69982966
 20
-37.337778696
 10
26.7063015293
 20
-37.346258444
  0
LWPOLYLINE
  5
2CC
100
AcDbEntity
  8
RACCORDO
100
AcDbPolyline
 62
253
  6
CONTINUOUS
 90
9
 70
0
 10
27.6807084836
 20
-39.2480249062
 10
27.676856899
 20
-39.2451358058
 10
27.67353552
 20
-39.2420097142
 10
27.6707892626
 20
-39.2386889063
 10
27.6686552656
 20
-39.2352182903
 10
27.6671623879
 20
-39.2316448002
 10
27.6663308182
 20
-39.2280167615
 10
27.6661718025
 20
-39.2243832373
 10
27.6662017057
 20
-39.2239000803
  0
LWPOLYLINE
  5
2CD
100
AcDbEntity
  8
RACCORDO
100
AcDbPolyline
 62
253
  6
CONTINUOUS
 90
3
 70
0
 10
26.9015605184
 20
-35.9972587205
 10
27.0233679647
 20
-36.0902408604
 10
27.1436603402
 20
-36.1895565003
  0
LWPOLYLINE
  5
2CE
100
AcDbEntity
  8
RACCORDO
100
AcDbPolyline
 62
253
  6
CONTINUOUS
 90
15
 70
0
 10
26.6814216737
 20
-37.3056368553
 10
26.6849679413
 20
-37.3083832007
 10
26.688553453
 20
-37.3114263659
 10
26.6921911874
 20
-37.3147610509
 10
26.6958681659
 20
-37.3183925556
 10
26.6995454529
 20
-37.3223367795
 10
26.7032259809
 20
-37.3265965139
 10
26.7069068175
 20
-37.3311689675
 10
26.7105402298
 20
-37.3360616663
 10
26.7141263669
 20
-37.3412689381
 10
26.7176650797
 20
-37.3467964549
 10
26.7211081881
 20
-37.3526687586
 10
26.7244713022
 20
-37.3589069317
 10
26.7277388119
 20
-37.3654898915
 10
26.7308157074
 20
-37.3723789324
  0
LINE
  5
2CF
100
AcDbEntity
  8
RACCORDO
100
AcDbLine
 62
253
  6
CONTINUOUS
 10
26.228366263
 20
-38.621383031
 11
25.5622674533
 21
-38.101169341
  0
LINE
  5
2D0
100
AcDbEntity
  8
RACCORDO
100
AcDbLine
 62
253
  6
CONTINUOUS
 10
26.268002223
 20
-38.5654294066
 11
25.6019034127
 21
-38.0452157162
  0
LINE
  5
2D1
100
AcDbEntity
  8
RACCORDO
100
AcDbLine
 62
7
  6
CONTINUOUS
 10
26.9519488334
 20
-38.4237265187
 11
27.6180476376
 21
-38.9439402044
  0
LINE
  5
2D2
100
AcDbEntity
  8
RACCORDO
100
AcDbLine
 62
253
  6
CONTINUOUS
 10
26.9473692301
 20
-38.4047339787
 11
27.6134680341
 21
-38.9249476641
  0
LWPOLYLINE
  5
2D3
100
AcDbEntity
  8
RACCORDO
100
AcDbPolyline
 62
7
  6
CONTINUOUS
 90
4
 70
0
 10
27.6182536604
 20
-38.9440972854
 10
27.6210636656
 20
-38.9463777617
 10
27.6310199226
 20
-38.955681745
 10
27.6400560312
 20
-38.9659817043
  0
LINE
  5
2D4
100
AcDbEntity
  8
RACCORDO
100
AcDbLine
 62
7
  6
CONTINUOUS
 10
26.9444422694
 20
-38.4176086023
 11
26.9519947986
 21
-38.4237604289
  0
LWPOLYLINE
  5
2D5
100
AcDbEntity
  8
RACCORDO
100
AcDbPolyline
 62
253
  6
CONTINUOUS
 90
19
 70
0
 10
25.5622674533
 20
-38.101169341
 10
25.55531396
 20
-38.0953520942
 10
25.5487195812
 20
-38.0893145905
 10
25.5424843168
 20
-38.0830568296
 10
25.5365950576
 20
-38.0765248715
 10
25.5310649129
 20
-38.0697726563
 10
25.5259332102
 20
-38.0629620046
 10
25.5212047936
 20
-38.056089159
 10
25.5168748191
 20
-38.0491578769
 10
25.5129680823
 20
-38.0423412513
 10
25.5095130121
 20
-38.0356950786
 10
25.5064811795
 20
-38.0291635624
 10
25.5038120935
 20
-38.022752406
 10
25.5014954886
 20
-38.0164925702
 10
25.4995416302
 20
-38.0103530943
 10
25.4979208233
 20
-38.0042467996
 10
25.4966231697
 20
-37.9981446266
 10
25.4956585677
 20
-37.9920756347
 10
25.4950270172
 20
-37.9860398241
  0
LWPOLYLINE
  5
2D6
100
AcDbEntity
  8
RACCORDO
100
AcDbPolyline
 62
253
  6
CONTINUOUS
 90
11
 70
0
 10
27.6134680341
 20
-38.9249476641
 10
27.6204215281
 20
-38.9307649114
 10
27.6270159078
 20
-38.9368024158
 10
27.6332511731
 20
-38.9430601772
 10
27.6391404332
 20
-38.9495921357
 10
27.6446705789
 20
-38.9563443513
 10
27.6498022827
 20
-38.9631550036
 10
27.6545307005
 20
-38.9700278502
 10
27.6588606763
 20
-38.9769591334
 10
27.6627674144
 20
-38.9837757604
 10
27.6662224859
 20
-38.9904219347
  0
LWPOLYLINE
  5
2D7
100
AcDbEntity
  8
RACCORDO
100
AcDbPolyline
 62
253
  6
CONTINUOUS
 90
22
 70
0
 10
26.5180128893
 20
-39.6789398073
 10
26.5164030316
 20
-39.6775292072
 10
26.5148161814
 20
-39.6759042499
 10
26.5132552485
 20
-39.6740640548
 10
26.5117205342
 20
-39.6720142535
 10
26.5102197761
 20
-39.6697489342
 10
26.5087681206
 20
-39.667250494
 10
26.5073730629
 20
-39.6645200487
 10
26.5060400152
 20
-39.6615594
 10
26.5047823116
 20
-39.6583524964
 10
26.5036116894
 20
-39.6549087438
 10
26.5025352305
 20
-39.6512257924
 10
26.5015616572
 20
-39.6472701924
 10
26.5007046347
 20
-39.6430370144
 10
26.4999792186
 20
-39.638543244
 10
26.4993998265
 20
-39.6337895548
 10
26.498990394
 20
-39.628771741
 10
26.4987672325
 20
-39.6235156562
 10
26.4987356437
 20
-39.6180694957
 10
26.498913064
 20
-39.6124598987
 10
26.4993297794
 20
-39.6066920865
 10
26.5000114852
 20
-39.6007845061
  0
LWPOLYLINE
  5
2D8
100
AcDbEntity
  8
RACCORDO
100
AcDbPolyline
 62
253
  6
CONTINUOUS
 90
7
 70
0
 10
26.7439994837
 20
-39.7874300652
 10
26.7386549762
 20
-39.7825741861
 10
26.7344662196
 20
-39.7772765022
 10
26.7315521676
 20
-39.771687451
 10
26.7299955767
 20
-39.7659657445
 10
26.7298406558
 20
-39.7602738641
 10
26.730029854
 20
-39.7588284736
  0
LWPOLYLINE
  5
2D9
100
AcDbEntity
  8
RACCORDO
100
AcDbPolyline
 62
253
  6
CONTINUOUS
 90
7
 70
0
 10
26.8614506747
 20
-39.086125042
 10
26.8561061425
 20
-39.0812691365
 10
26.8519173788
 20
-39.07597143
 10
26.8490033333
 20
-39.0703823634
 10
26.8474467572
 20
-39.0646606513
 10
26.8472918532
 20
-39.0589687752
 10
26.8474927983
 20
-39.0574525723
  0
LWPOLYLINE
  5
2DA
100
AcDbEntity
  8
RACCORDO
100
AcDbPolyline
 62
7
  6
CONTINUOUS
 90
15
 70
0
 10
24.645729707
 20
30.104998558
 10
24.6318964306
 20
30.0922157138
 10
24.6159963916
 20
30.0750235765
 10
24.6012439793
 20
30.0561385055
 10
24.5876977537
 20
30.0356363104
 10
24.5754354084
 20
30.0136631188
 10
24.564520608
 20
29.9904144698
 10
24.5549053393
 20
29.9658726475
 10
24.5466026146
 20
29.9401032624
 10
24.5397342901
 20
29.9135755432
 10
24.5342798161
 20
29.8863520929
 10
24.5302298413
 20
29.8583334772
 10
24.527669055
 20
29.8298706218
 10
24.5266506452
 20
29.8010750326
 10
24.5266353671
 20
29.4769605782
  0
LINE
  5
2DB
100
AcDbEntity
  8
RACCORDO
100
AcDbLine
 62
253
  6
CONTINUOUS
 10
24.6457378934
 20
30.1050063488
 11
24.6437846308
 21
30.1033037667
  0
LWPOLYLINE
  5
2DC
100
AcDbEntity
  8
RACCORDO
100
AcDbPolyline
 62
7
  6
CONTINUOUS
 90
3
 70
0
 10
26.894662052
 20
26.3393491756
 10
26.888756218
 20
26.3349745114
 10
26.8789981564
 20
26.3260713917
  0
LINE
  5
2DD
100
AcDbEntity
  8
RACCORDO
100
AcDbLine
 62
7
  6
CONTINUOUS
 10
27.3029495579
 20
26.6197690547
 11
26.8945985112
 21
26.3393072789
  0
LINE
  5
2DE
100
AcDbEntity
  8
RACCORDO
100
AcDbLine
 62
253
  6
CONTINUOUS
 10
27.337165757
 20
26.5930466901
 11
26.9747432373
 21
26.3441293327
  0
LINE
  5
2DF
100
AcDbEntity
  8
RACCORDO
100
AcDbLine
 62
253
  6
CONTINUOUS
 10
26.8423133216
 20
27.0837899934
 11
26.268002223
 21
26.7521927368
  0
LINE
  5
2E0
100
AcDbEntity
  8
RACCORDO
100
AcDbLine
 62
253
  6
CONTINUOUS
 10
26.9568913516
 20
26.8853811114
 11
26.3825602969
 21
26.5537723325
  0
LINE
  5
2E1
100
AcDbEntity
  8
0
100
AcDbLine
 62
7
  6
CONTINUOUS
 10
28.2354227684
 20
24.5226276737
 11
27.987935395
 21
24.3797315661
  0
LWPOLYLINE
  5
2E2
100
AcDbEntity
  8
RACCORDO
100
AcDbPolyline
 62
253
  6
CONTINUOUS
 90
38
 70
0
 10
28.7000275029
 20
23.5728274088
 10
28.7216123287
 20
23.5849544654
 10
28.8113868942
 20
23.6415878102
 10
28.8965830086
 20
23.705681143
 10
28.9770070957
 20
23.7770888368
 10
29.0524764229
 20
23.8556486453
 10
29.1228195196
 20
23.941182076
 10
29.1878765637
 20
24.0334947958
 10
29.2474997559
 20
24.1323770942
 10
29.3015536054
 20
24.2376042768
 10
29.3499152577
 20
24.3489371632
 10
29.392474825
 20
24.466122724
 10
29.4291356469
 20
24.5888947434
 10
29.4598144576
 20
24.7169743404
 10
29.4844415575
 20
24.8500705188
 10
29.502960992
 20
24.9878808599
 10
29.5153306895
 20
25.1300922928
 10
29.5215225425
 20
25.276381723
 10
29.5215224781
 20
25.4264167541
 10
29.5153304938
 20
25.5798564879
 10
29.5029606562
 20
25.7363523022
 10
29.4844410687
 20
25.8955486237
 10
29.4598138112
 20
26.0570837249
 10
29.4291348409
 20
26.2205905778
 10
29.3924738624
 20
26.3856976893
 10
29.3499141727
 20
26.5520299242
 10
29.3015524717
 20
26.7192093611
 10
29.247498641
 20
26.886856157
 10
29.1878754937
 20
27.0545894103
 10
29.122818498
 20
27.2220280191
 10
29.0524754686
 20
27.3887915491
 10
28.9770062291
 20
27.5545011033
 10
28.8965822506
 20
27.7187801781
 10
28.8113862629
 20
27.8812555175
 10
28.7216118384
 20
28.0415579635
 10
28.6274629517
 20
28.1993232963
 10
28.529153516
 20
28.3541930612
 10
28.4096572191
 20
28.5313996506
  0
LINE
  5
2E3
100
AcDbEntity
  8
0
100
AcDbLine
 62
7
  6
CONTINUOUS
 10
20.4131022979
 20
16.9319568507
 11
23.2290739335
 21
18.5056759351
  0
LINE
  5
2E4
100
AcDbEntity
  8
DRAFT
100
AcDbLine
 62
7
  6
CONTINUOUS
 10
29.2763559356
 20
23.8893633713
 11
28.7000275029
 21
23.5728274088
  0
LINE
  5
2E5
100
AcDbEntity
  8
DRAFT
100
AcDbLine
 62
7
  6
CONTINUOUS
 10
30.5261036036
 20
22.9136358405
 11
29.6634846266
 21
22.4398609708
  0
LINE
  5
2E6
100
AcDbEntity
  8
RACCORDO
100
AcDbLine
 62
253
  6
CONTINUOUS
 10
28.8641863006
 20
23.5332035971
 11
28.284859963
 21
23.2159333244
  0
LINE
  5
2E7
100
AcDbEntity
  8
RACCORDO
100
AcDbLine
 62
253
  6
CONTINUOUS
 10
28.284859963
 20
22.0080335786
 11
28.8710650512
 21
22.3284561849
  0
LINE
  5
2E8
100
AcDbEntity
  8
RACCORDO
100
AcDbLine
 62
7
  6
CONTINUOUS
 10
28.177580618
 20
21.7770954174
 11
28.9134049455
 21
22.1793022765
  0
LWPOLYLINE
  5
2E9
100
AcDbEntity
  8
0
100
AcDbPolyline
 62
7
  6
CONTINUOUS
 90
22
 70
0
 10
27.9876630591
 20
24.3802050955
 10
27.9469510657
 20
24.358269163
 10
27.7690176262
 20
24.2886099804
 10
27.5778172402
 20
24.2531440048
 10
27.3728165112
 20
24.2532459712
 10
27.1545488355
 20
24.2875411447
 10
26.9316735977
 20
24.3546689247
 10
26.704005551
 20
24.4559493436
 10
26.4717299421
 20
24.5900623691
 10
26.2440618955
 20
24.7516873038
 10
26.0211866576
 20
24.9419302619
 10
25.802918982
 20
25.1596851291
 10
25.5979182529
 20
25.3963128661
 10
25.4067178669
 20
25.6525722548
 10
25.2287844275
 20
25.9277045133
 10
25.0711771294
 20
26.2107942551
 10
24.9347131836
 20
26.5021614103
 10
24.8185753792
 20
26.8014860489
 10
24.7273712783
 20
27.0968929948
 10
24.662636735
 20
27.3844238559
 10
24.6228358954
 20
27.6680370243
 10
24.6079687593
 20
27.9477324999
  0
LWPOLYLINE
  5
2EA
100
AcDbEntity
  8
0
100
AcDbPolyline
 62
7
  6
CONTINUOUS
 90
6
 70
0
 10
0.1291701124
 20
-11.0044428578
 10
0.1725927972
 20
-11.0267135219
 10
0.2153394449
 20
-11.0450343384
 10
0.2574098137
 20
-11.0594054515
 10
0.2990639477
 20
-11.0698632786
 10
0.3275638066
 20
-11.0743898576
  0
LWPOLYLINE
  5
2EB
100
AcDbEntity
  8
0
100
AcDbPolyline
 62
7
  6
CONTINUOUS
 90
10
 70
0
 10
-0.2178290398
 20
-11.2122956003
 10
-1.6405559547
 20
-10.4172298354
 10
-3.0576062382
 20
-9.6188419551
 10
-4.4689798904
 20
-8.8171319594
 10
-5.8747026015
 20
-8.0120850151
 10
-7.2747486811
 20
-7.2037159554
 10
-8.6690410588
 20
-6.3920692799
 10
-10.0575540444
 20
-5.5771598218
 10
-11.440313328
 20
-4.7589727478
 10
-12.8173189097
 20
-3.9375080581
  0
LWPOLYLINE
  5
2EC
100
AcDbEntity
  8
0
100
AcDbPolyline
 62
7
  6
CONTINUOUS
 90
10
 70
0
 10
0.1291701124
 20
-11.0044428578
 10
-1.2920900737
 20
-10.2101967483
 10
-2.7076794807
 20
-9.4126319483
 10
-4.1175981085
 20
-8.6117484577
 10
-5.5218716209
 20
-7.8075314587
 10
-6.9204743541
 20
-6.9999957692
 10
-8.3133293169
 20
-6.1891858428
 10
-9.7004108458
 20
-5.3751164976
 10
-11.0817446044
 20
-4.5577729155
 10
-12.4573305927
 20
-3.7371550966
  0
LINE
  5
2ED
100
AcDbEntity
  8
DRAFT
100
AcDbLine
 62
7
  6
CONTINUOUS
 10
23.2290739335
 20
-23.8580872465
 11
23.4227286781
 21
-23.9699010689
  0
LINE
  5
2EE
100
AcDbEntity
  8
RACCORDO
100
AcDbLine
 62
7
  6
CONTINUOUS
 10
20.4131022979
 20
-21.1254386389
 11
20.6315510265
 21
-21.251568197
  0
LINE
  5
2EF
100
AcDbEntity
  8
RACCORDO
100
AcDbLine
 62
253
  6
CONTINUOUS
 10
20.6812705746
 20
-20.4758087703
 11
20.8355423984
 21
-20.5648833879
  0
LINE
  5
2F0
100
AcDbEntity
  8
DRAFT
100
AcDbLine
 62
7
  6
CONTINUOUS
 10
23.2290739335
 20
-18.9592655857
 11
23.4227286781
 21
-19.0710794082
  0
LINE
  5
2F1
100
AcDbEntity
  8
0
100
AcDbLine
 62
7
  6
CONTINUOUS
 10
23.0841109679
 20
-24.9257143671
 11
23.2290739335
 21
-25.012189818
  0
LINE
  5
2F2
100
AcDbEntity
  8
0
100
AcDbLine
 62
7
  6
CONTINUOUS
 10
23.0841109679
 20
-20.0268927063
 11
23.2290739335
 21
-20.1133681572
  0
LWPOLYLINE
  5
2F3
100
AcDbEntity
  8
RACCORDO
100
AcDbPolyline
 62
253
  6
CONTINUOUS
 90
3
 70
0
 10
27.1436603402
 20
-36.1895565003
 10
27.262425148
 20
-36.2952573624
 10
27.379674885
 20
-36.4072917244
  0
LINE
  5
2F4
100
AcDbEntity
  8
RACCORDO
100
AcDbLine
 62
253
  6
CONTINUOUS
 10
27.379674885
 20
-36.4072917244
 11
27.4944534112
 21
-36.5247459642
  0
LINE
  5
2F5
100
AcDbEntity
  8
0
100
AcDbLine
 62
7
  6
CONTINUOUS
 10
0.3593117383
 20
19.1663071721
 11
0.3593117383
 21
-10.8797990138
  0
LWPOLYLINE
  5
2F6
100
AcDbEntity
  8
RACCORDO
100
AcDbPolyline
 62
253
  6
CONTINUOUS
 90
21
 70
0
 10
24.5852140109
 20
29.3953039592
 10
24.6527336558
 20
29.4749884881
 10
24.7252267643
 20
29.5471486416
 10
24.8026933364
 20
29.6117844196
 10
24.8854143423
 20
29.6690765267
 10
24.9731088118
 20
29.7188442583
 10
25.0649338346
 20
29.7605455007
 10
25.1608690579
 20
29.794064629
 10
25.2609348346
 20
29.8195172682
 10
25.3643493123
 20
29.8367081797
 10
25.4711574795
 20
29.8455750945
 10
25.5813143477
 20
29.8461802816
 10
25.693903099
 20
29.8385153098
 10
25.808935222
 20
29.8225114914
 10
25.9263992282
 20
29.7982375141
 10
26.0453438344
 20
29.7658910106
 10
26.1657841638
 20
29.7254056586
 10
26.2877050931
 20
29.6768477805
 10
26.41010997
 20
29.6206139763
 10
26.5330017058
 20
29.5566417892
 10
26.656377389
 20
29.4849936761
  0
LWPOLYLINE
  5
2F7
100
AcDbEntity
  8
RACCORDO
100
AcDbPolyline
 62
253
  6
CONTINUOUS
 90
20
 70
0
 10
24.7116132481
 20
29.3092889686
 10
24.7784571169
 20
29.3879431626
 10
24.8506745374
 20
29.4591716177
 10
24.9280564047
 20
29.5227669154
 10
25.0103796389
 20
29.5785444197
 10
25.0974048064
 20
29.6263406403
 10
25.1888762282
 20
29.6660147206
 10
25.2845270555
 20
29.6974513049
 10
25.3840806789
 20
29.7205598791
 10
25.4872481103
 20
29.7352735453
 10
25.5937294192
 20
29.7415497454
 10
25.7032158529
 20
29.7393704923
 10
25.8153909104
 20
29.7287420945
 10
25.9299298189
 20
29.7096951035
 10
26.0464993936
 20
29.6822847097
 10
26.1647602879
 20
29.6465906763
 10
26.2843687123
 20
29.6027168842
 10
26.4049779656
 20
29.5507906228
 10
26.5262384462
 20
29.4909624279
 10
26.6290710111
 20
29.4343063999
  0
LWPOLYLINE
  5
2F8
100
AcDbEntity
  8
RACCORDO
100
AcDbPolyline
 62
253
  6
CONTINUOUS
 90
3
 70
0
 10
24.6268061289
 20
30.0863554452
 10
24.6210902549
 20
30.0796675951
 10
24.6159963916
 20
30.0750235765
  0
LWPOLYLINE
  5
2F9
100
AcDbEntity
  8
RACCORDO
100
AcDbPolyline
 62
253
  6
CONTINUOUS
 90
7
 70
0
 10
25.0841299797
 20
25.3466610726
 10
25.07214933
 20
25.3345999581
 10
25.0625700112
 20
25.3239804705
 10
25.0554946392
 20
25.3149163798
 10
25.050999
 20
25.3075047895
 10
25.0491312368
 20
25.3018250943
 10
25.0498918447
 20
25.2979659415
  0
LINE
  5
2FA
100
AcDbEntity
  8
RACCORDO
100
AcDbLine
 62
253
  6
CONTINUOUS
 10
24.6381760554
 20
30.0981469678
 11
24.6325012923
 21
30.0924989417
  0
LWPOLYLINE
  5
2FB
100
AcDbEntity
  8
RACCORDO
100
AcDbPolyline
 62
253
  6
CONTINUOUS
 90
3
 70
0
 10
26.2915407599
 20
27.3340990442
 10
26.2983253061
 20
27.3408020421
 10
26.304022584
 20
27.3485487235
  0
LWPOLYLINE
  5
2FC
100
AcDbEntity
  8
RACCORDO
100
AcDbPolyline
 62
253
  6
CONTINUOUS
 90
16
 70
0
 10
28.0916055134
 20
28.2624662046
 10
28.1058590984
 20
28.2758396835
 10
28.1222328408
 20
28.2903821861
 10
28.1405512825
 20
28.3059378844
 10
28.1606181292
 20
28.3223400947
 10
28.1822183609
 20
28.3394130699
 10
28.2051205375
 20
28.356973883
 10
28.2290792639
 20
28.3748343757
 10
28.2538378328
 20
28.3928031848
 10
28.2791309841
 20
28.4106877982
 10
28.3046877169
 20
28.4282965962
 10
28.330234213
 20
28.445440919
 10
28.3554967856
 20
28.4619370971
 10
28.3802047775
 20
28.477608396
 10
28.4040934616
 20
28.4922869118
 10
28.4269068977
 20
28.5058153826
  0
LWPOLYLINE
  5
2FD
100
AcDbEntity
  8
DRAFT
100
AcDbPolyline
 62
7
  6
CONTINUOUS
 90
30
 70
0
 10
31.7921561721
 20
23.6788881022
 10
31.8821789079
 20
23.73660576
 10
32.0123625573
 20
23.8321073053
 10
32.1358312587
 20
23.9377178505
 10
32.252688459
 20
24.0536228132
 10
32.3628307114
 20
24.1796367758
 10
32.4654379081
 20
24.3148281234
 10
32.5603583465
 20
24.4591039036
 10
32.6477437293
 20
24.6125570689
 10
32.7272290568
 20
24.7745348616
 10
32.7988418918
 20
24.9452303425
 10
32.8625546716
 20
25.1244504509
 10
32.9179197084
 20
25.3109632461
 10
32.9648486702
 20
25.5046917367
 10
33.0034298891
 20
25.7057129142
 10
33.033480673
 20
25.9130258123
 10
33.0549697609
 20
26.1267351153
 10
33.0679284138
 20
26.3467361389
 10
33.0722677224
 20
26.5717138638
 10
33.0679284138
 20
26.8017025135
 10
33.0549697609
 20
27.0366678647
 10
33.033480673
 20
27.2751922277
 10
33.0034298891
 20
27.5172070178
 10
32.9648486702
 20
27.7627808197
 10
32.9179197084
 20
28.0107016993
 10
32.8625546716
 20
28.2611486512
 10
32.7988418918
 20
28.5139426806
 10
32.7272290568
 20
28.7673348684
 10
32.6477437293
 20
29.0211003249
 10
32.5603583465
 20
29.2754639398
  0
LWPOLYLINE
  5
2FE
100
AcDbEntity
  8
DRAFT
100
AcDbPolyline
 62
7
  6
CONTINUOUS
 90
53
 70
0
 10
30.6050885761
 20
22.9592407737
 10
30.6733223127
 20
23.0023918455
 10
30.8103540813
 20
23.1006377708
 10
30.9401725302
 20
23.2099320523
 10
31.0626941781
 20
23.3302060565
 10
31.1777589047
 20
23.4613704038
 10
31.2849848418
 20
23.6030621973
 10
31.3839841632
 20
23.7547671986
 10
31.474479206
 20
23.9159695704
 10
31.5564127043
 20
24.0864687594
 10
31.6297496091
 20
24.266193398
 10
31.6943833382
 20
24.4550098508
 10
31.7500701902
 20
24.6523513843
 10
31.7965998252
 20
24.8574709143
 10
31.8338617396
 20
25.0696730109
 10
31.861861794
 20
25.2887318038
 10
31.880591026
 20
25.5145787051
 10
31.8899915302
 20
25.7470390131
 10
31.8899915302
 20
25.9853843918
 10
31.880591026
 20
26.2287001664
 10
31.861861794
 20
26.4761751154
 10
31.8338617396
 20
26.7275676693
 10
31.7965998252
 20
26.9827988906
 10
31.7500701902
 20
27.2416496768
 10
31.6943833382
 20
27.5032969911
 10
31.6297496091
 20
27.7667508542
 10
31.5564127043
 20
28.0311631122
 10
31.474479206
 20
28.2962770514
 10
31.3839841632
 20
28.5619808302
 10
31.2849848418
 20
28.8280077663
 10
31.1777589047
 20
29.0935213843
 10
31.0626941781
 20
29.3575595937
 10
30.9401725302
 20
29.6193185258
 10
30.8103540813
 20
29.8785238981
 10
30.6733223127
 20
30.1350106749
 10
30.5292133009
 20
30.3884688527
 10
30.3784331625
 20
30.6381314317
 10
30.2214869637
 20
30.8831602522
 10
30.0588432898
 20
31.1228662899
 10
29.8907267327
 20
31.3569594998
 10
29.7172996499
 20
31.5852155919
 10
29.538792022
 20
31.8072993468
 10
29.3556817659
 20
32.0225845163
 10
29.1685137106
 20
32.2304284877
 10
28.9777825596
 20
32.4303055482
 10
28.7837899035
 20
32.6219228084
 10
28.5868064606
 20
32.8050148542
 10
28.3871642149
 20
32.9792573452
 10
28.1853469374
 20
33.1442124845
 10
27.9818579521
 20
33.2994665578
 10
27.7771488362
 20
33.4446819907
 10
27.5716158529
 20
33.5795846009
 10
27.3656852059
 20
33.7038992427
  0
LINE
  5
2FF
100
AcDbEntity
  8
DRAFT
100
AcDbLine
 62
7
  6
CONTINUOUS
 10
31.7921506051
 20
23.6788975879
 11
30.6050885761
 21
22.9592407737
  0
LWPOLYLINE
  5
300
100
AcDbEntity
  8
RACCORDO
100
AcDbPolyline
 62
253
  6
CONTINUOUS
 90
13
 70
0
 10
28.1775806177
 20
21.7770954172
 10
28.188529929
 20
21.7836416712
 10
28.2034070849
 20
21.7945498149
 10
28.2173278607
 20
21.8073132078
 10
28.2302176228
 20
21.8219564682
 10
28.2419611706
 20
21.8384518254
 10
28.2525423664
 20
21.85692718
 10
28.2618703336
 20
21.8774658727
 10
28.2697803602
 20
21.8999907113
 10
28.2761319265
 20
21.9243889562
 10
28.280820096
 20
21.9505701681
 10
28.2837587204
 20
21.9784834108
 10
28.2848599526
 20
22.0080335729
  0
LINE
  5
301
100
AcDbEntity
  8
DRAFT
100
AcDbLine
 62
7
  6
CONTINUOUS
 10
30.5261036036
 20
22.9136358405
 11
30.6050885761
 21
22.9592407737
  0
LINE
  5
302
100
AcDbEntity
  8
RACCORDO
100
AcDbLine
 62
7
  6
CONTINUOUS
 10
23.4227286781
 20
18.4865533243
 11
20.8355423984
 21
16.9927493446
  0
LINE
  5
303
100
AcDbEntity
  8
RACCORDO
100
AcDbLine
 62
7
  6
CONTINUOUS
 10
23.4227286781
 20
13.5877316635
 11
20.8355423984
 21
12.0939276838
  0
LINE
  5
304
100
AcDbEntity
  8
0
100
AcDbLine
 62
7
  6
CONTINUOUS
 10
23.2290739335
 20
17.4442645753
 11
20.4131022979
 21
15.8705454909
  0
LINE
  5
305
100
AcDbEntity
  8
0
100
AcDbLine
 62
7
  6
CONTINUOUS
 10
20.4131022979
 20
12.03313519
 11
23.2290739335
 21
13.6068542743
  0
LINE
  5
306
100
AcDbEntity
  8
0
100
AcDbLine
 62
7
  6
CONTINUOUS
 10
23.2290739335
 20
12.5454429145
 11
20.4131022979
 21
10.9717238302
  0
LINE
  5
307
100
AcDbEntity
  8
0
100
AcDbLine
 62
253
  6
CONTINUOUS
 10
-12.4573305927
 20
-3.7371550966
 11
-12.8173189097
 21
-3.9375080581
  0
LINE
  5
308
100
AcDbEntity
  8
0
100
AcDbLine
 62
253
  6
CONTINUOUS
 10
-13.012155655
 20
-2.7510885632
 11
-13.3727165469
 21
-2.9510979847
  0
LINE
  5
309
100
AcDbEntity
  8
RACCORDO
100
AcDbLine
 62
7
  6
CONTINUOUS
 10
23.4227286781
 20
17.7128376726
 11
20.8355423984
 21
16.321532616
  0
LINE
  5
30A
100
AcDbEntity
  8
RACCORDO
100
AcDbLine
 62
7
  6
CONTINUOUS
 10
23.4227286781
 20
12.8140160118
 11
20.8355423984
 21
11.4227109552
  0
LINE
  5
30B
100
AcDbEntity
  8
RACCORDO
100
AcDbLine
 62
253
  6
CONTINUOUS
 10
27.4944534112
 20
-36.5247459642
 11
27.6067405476
 21
-36.6476644272
  0
LWPOLYLINE
  5
30C
100
AcDbEntity
  8
0
100
AcDbPolyline
 62
7
  6
CONTINUOUS
 90
6
 70
0
 10
27.673154082
 20
-36.7858306762
 10
27.6195530477
 20
-36.7237992073
 10
27.40319655
 20
-36.5079510277
 10
27.1791609711
 20
-36.3172860624
 10
26.9504760079
 20
-36.1543827278
 10
26.8351637768
 20
-36.0839351537
  0
LWPOLYLINE
  5
30D
100
AcDbEntity
  8
RACCORDO
100
AcDbPolyline
 62
253
  6
CONTINUOUS
 90
15
 70
0
 10
27.6067405476
 20
-36.6476644272
 10
27.7165564731
 20
-36.776002768
 10
27.8230055842
 20
-36.9087143284
 10
27.9260603448
 20
-37.0458348697
 10
28.025748291
 20
-37.1873286307
 10
28.121256427
 20
-37.3320416691
 10
28.2125505655
 20
-37.4800002992
 10
28.2996648938
 20
-37.6311782068
 10
28.3818889774
 20
-37.7843425079
 10
28.4591828328
 20
-37.9395094572
 10
28.5315864435
 20
-38.0966627999
 10
28.5985093253
 20
-38.2545208877
 10
28.6599066638
 20
-38.4130895149
 10
28.7158232734
 20
-38.5723628871
 10
28.7658031132
 20
-38.7310419719
  0
LWPOLYLINE
  5
30E
100
AcDbEntity
  8
RACCORDO
100
AcDbPolyline
 62
253
  6
CONTINUOUS
 90
10
 70
0
 10
24.5852140109
 20
-35.9223181843
 10
24.5962249256
 20
-35.9355558142
 10
24.6082286921
 20
-35.9480719921
 10
24.6211341
 20
-35.9597713678
 10
24.634843385
 20
-35.9705650317
 10
24.6492520148
 20
-35.980370408
 10
24.6642493282
 20
-35.9891121256
 10
24.6797207651
 20
-35.9967235555
 10
24.6955488883
 20
-36.0031470733
 10
24.7116132155
 20
-36.0083338795
  0
LWPOLYLINE
  5
30F
100
AcDbEntity
  8
RACCORDO
100
AcDbPolyline
 62
253
  6
CONTINUOUS
 90
16
 70
0
 10
27.7978606092
 20
-35.0158351984
 10
27.6566036805
 20
-34.8366521526
 10
27.5124889426
 20
-34.6623291931
 10
27.3655163956
 20
-34.4928663198
 10
27.2154033289
 20
-34.3279583867
 10
27.062432453
 20
-34.1679105399
 10
26.9074518993
 20
-34.0136382175
 10
26.7505303437
 20
-33.8652545464
 10
26.5915991104
 20
-33.7226463997
 10
26.4313003022
 20
-33.5863898344
 10
26.2695444988
 20
-33.4564553681
 10
26.1064211206
 20
-33.3328724834
 10
25.942840532
 20
-33.2163056845
 10
25.7791061879
 20
-33.1069764731
 10
25.6149146335
 20
-33.0046633475
 10
25.4502658687
 20
-32.9093663079
  0
LWPOLYLINE
  5
310
100
AcDbEntity
  8
RACCORDO
100
AcDbPolyline
 62
253
  6
CONTINUOUS
 90
16
 70
0
 10
28.1186854422
 20
-34.7526952049
 10
27.9703989563
 20
-34.564607614
 10
27.8188123364
 20
-34.3812687278
 10
27.6641494347
 20
-34.202949288
 10
27.5066386468
 20
-34.0299126245
 10
27.3465125727
 20
-33.8624142646
 10
27.1840076727
 20
-33.7007015553
 10
27.0193639196
 20
-33.5450133005
 10
26.8528244498
 20
-33.3955794118
 10
26.6846352018
 20
-33.2526205669
 10
26.5150445478
 20
-33.1163478787
 10
26.3443029247
 20
-32.9869625823
 10
26.1726624688
 20
-32.8646557424
 10
26.0003766452
 20
-32.7496079722
 10
25.8276998743
 20
-32.6419891666
 10
25.6548871524
 20
-32.5419582492
  0
LWPOLYLINE
  5
311
100
AcDbEntity
  8
RACCORDO
100
AcDbPolyline
 62
7
  6
CONTINUOUS
 90
3
 70
0
 10
27.6400560312
 20
-38.9659817043
 10
27.6478802228
 20
-38.9767432721
 10
27.6545464783
 20
-38.9878954705
  0
LWPOLYLINE
  5
312
100
AcDbEntity
  8
RACCORDO
100
AcDbPolyline
 62
7
  6
CONTINUOUS
 90
4
 70
0
 10
26.8899023308
 20
-38.3542515005
 10
26.9063561059
 20
-38.3775745823
 10
26.9246070645
 20
-38.3988054164
 10
26.9444422694
 20
-38.4176086023
  0
LINE
  5
313
100
AcDbEntity
  8
RACCORDO
100
AcDbLine
 62
7
  6
CONTINUOUS
 10
25.0498920825
 20
-40.0196565441
 11
25.0499113375
 21
-40.0196840123
  0
LINE
  5
314
100
AcDbEntity
  8
RACCORDO
100
AcDbLine
 62
7
  6
CONTINUOUS
 10
24.9404837534
 20
-39.8568885744
 11
25.0720045362
 21
-40.0527886433
  0
LWPOLYLINE
  5
315
100
AcDbEntity
  8
RACCORDO
100
AcDbPolyline
 62
253
  6
CONTINUOUS
 90
3
 70
0
 10
25.0841299797
 20
-39.9709610708
 10
25.1116608869
 20
-40.0122858479
 10
25.1375091028
 20
-40.0541160355
  0
LWPOLYLINE
  5
316
100
AcDbEntity
  8
RACCORDO
100
AcDbPolyline
 62
7
  6
CONTINUOUS
 90
14
 70
0
 10
25.0720045362
 20
-40.0527886433
 10
25.094174094
 20
-40.0889233684
 10
25.1150466477
 20
-40.1261449358
 10
25.1343603179
 20
-40.1640129782
 10
25.1519891246
 20
-40.2022665025
 10
25.1678153048
 20
-40.2406142164
 10
25.1816710974
 20
-40.2785483403
 10
25.1935210979
 20
-40.3157910001
 10
25.2033441637
 20
-40.352034234
 10
25.2110994523
 20
-40.3867266192
 10
25.2168729245
 20
-40.4196336955
 10
25.2207726651
 20
-40.4505206713
 10
25.2229221668
 20
-40.4788779155
 10
25.2235371198
 20
-40.5030161147
  0
LWPOLYLINE
  5
317
100
AcDbEntity
  8
0
100
AcDbPolyline
 62
7
  6
CONTINUOUS
 90
22
 70
0
 10
0.3593117383
 20
19.1663071721
 10
0.3576386136
 20
19.2164558426
 10
0.352811068
 20
19.2675838638
 10
0.3448292271
 20
19.3196913112
 10
0.3335975886
 20
19.3731266056
 10
0.3192121593
 20
19.4275416293
 10
0.3019604173
 20
19.4818917037
 10
0.2818494479
 20
19.5360496567
 10
0.2588730484
 20
19.5901431905
 10
0.2332987829
 20
19.6435099473
 10
0.2050024079
 20
19.6962979649
 10
0.1741093409
 20
19.7483599103
 10
0.1412615067
 20
19.7985902923
 10
0.1064529655
 20
19.8468734667
 10
0.0696907523
 20
19.8933257343
 10
0.03163594
 20
19.9371893318
 10
-0.0076637926
 20
19.9783725843
 10
-0.0482553048
 20
20.0169676573
 10
-0.0896196841
 20
20.052492336
 10
-0.1315838581
 20
20.0847859428
 10
-0.1743204019
 20
20.1140094522
 10
-0.2178290398
 20
20.1401630285
  0
LWPOLYLINE
  5
318
100
AcDbEntity
  8
RACCORDO
100
AcDbPolyline
 62
253
  6
CONTINUOUS
 90
27
 70
0
 10
24.6153709668
 20
30.072393671
 10
24.609705578
 20
30.0645388441
 10
24.6041512924
 20
30.0561311876
 10
24.5987343532
 20
30.0471526293
 10
24.593498191
 20
30.0376075941
 10
24.5885091583
 20
30.0275745056
 10
24.5837885345
 20
30.0170556222
 10
24.5793657476
 20
30.0060619048
 10
24.5752956785
 20
29.9947017628
 10
24.5715917347
 20
29.9830041643
 10
24.5682632858
 20
29.9709750295
 10
24.5653380075
 20
29.9586990772
 10
24.562820186
 20
29.9462153854
 10
24.5607081593
 20
29.9335284743
 10
24.5590107225
 20
29.9206746043
 10
24.5577264878
 20
29.9076782809
 10
24.5568534885
 20
29.8945587385
 10
24.5563973169
 20
29.8813444326
 10
24.5563541335
 20
29.8680655786
 10
24.5567189651
 20
29.8547348094
 10
24.5574972818
 20
29.8413539064
 10
24.5586810553
 20
29.8280024676
 10
24.5602668246
 20
29.8146423832
 10
24.5622893516
 20
29.8011017318
 10
24.5647648145
 20
29.7874139914
 10
24.5677049692
 20
29.7735980298
 10
24.5711796664
 20
29.7594721382
  0
LINE
  5
319
100
AcDbEntity
  8
RACCORDO
100
AcDbLine
 62
253
  6
CONTINUOUS
 10
26.5180128687
 20
25.6386823684
 11
26.6073600917
 21
25.7596233461
  0
LINE
  5
31A
100
AcDbEntity
  8
RACCORDO
100
AcDbLine
 62
253
  6
CONTINUOUS
 10
26.5000114851
 20
25.7168376375
 11
26.8314606257
 21
26.1644409278
  0
LINE
  5
31B
100
AcDbEntity
  8
RACCORDO
100
AcDbLine
 62
7
  6
CONTINUOUS
 10
26.7276764904
 20
25.5511248895
 11
26.7278539738
 21
25.551345839
  0
LWPOLYLINE
  5
31C
100
AcDbEntity
  8
RACCORDO
100
AcDbPolyline
 62
253
  6
CONTINUOUS
 90
16
 70
0
 10
27.7978606092
 20
30.301786945
 10
27.810617113
 20
30.3172061522
 10
27.8255097758
 20
30.3337724708
 10
27.842379042
 20
30.35130841
 10
27.8610441784
 20
30.3696260901
 10
27.8813052078
 20
30.3885292529
 10
27.9029450507
 20
30.4078153644
 10
27.925731857
 20
30.4272777897
 10
27.9494214842
 20
30.4467080018
 10
27.9737601102
 20
30.4658978138
 10
27.9984869648
 20
30.4846416195
 10
28.0233371154
 20
30.5027385889
 10
28.0480442991
 20
30.5199948164
 10
28.0723437905
 20
30.5362254091
 10
28.0959752376
 20
30.5512564666
 10
28.1186854423
 20
30.5649269385
  0
LWPOLYLINE
  5
31D
100
AcDbEntity
  8
RACCORDO
100
AcDbPolyline
 62
7
  6
CONTINUOUS
 90
6
 70
0
 10
26.8789981564
 20
26.3260713917
 10
26.8702223883
 20
26.3157036485
 10
26.8625586741
 20
26.3039108664
 10
26.8561619129
 20
26.2907946686
 10
26.851171916
 20
26.276506144
 10
26.8474989684
 20
26.2601957269
  0
LINE
  5
31E
100
AcDbEntity
  8
RACCORDO
100
AcDbLine
 62
253
  6
CONTINUOUS
 10
26.6930779497
 20
25.5376019976
 11
26.7345378912
 21
25.5857120102
  0
LWPOLYLINE
  5
31F
100
AcDbEntity
  8
RACCORDO
100
AcDbPolyline
 62
253
  6
CONTINUOUS
 90
14
 70
0
 10
27.6709723757
 20
26.0417425472
 10
27.6685519182
 20
26.038944721
 10
27.6658353836
 20
26.036372433
 10
27.6628177853
 20
26.0340287345
 10
27.6594537761
 20
26.03199544
 10
27.6557329033
 20
26.0302605606
 10
27.6516656198
 20
26.0288360851
 10
27.6472379374
 20
26.0278397948
 10
27.6424306554
 20
26.0272729573
 10
27.6372629745
 20
26.0271343049
 10
27.631778509
 20
26.0275378151
 10
27.6259917969
 20
26.0285214805
 10
27.6198883001
 20
26.0300473086
 10
27.6134680187
 20
26.0321152993
  0
LWPOLYLINE
  5
320
100
AcDbEntity
  8
RACCORDO
100
AcDbPolyline
 62
253
  6
CONTINUOUS
 90
14
 70
0
 10
26.7278518039
 20
25.5513435674
 10
26.7266968709
 20
25.5500342721
 10
26.7237509769
 20
25.5470040421
 10
26.7207824678
 20
25.5443676849
 10
26.7178312471
 20
25.542133137
 10
26.7149400709
 20
25.5403011105
 10
26.712108961
 20
25.5388400009
 10
26.7093093611
 20
25.5377126126
 10
26.7065575856
 20
25.5369034068
 10
26.703863829
 20
25.5364092988
 10
26.7011730625
 20
25.5362292162
 10
26.6984647401
 20
25.5363685018
 10
26.695764552
 20
25.5368262314
 10
26.6930779785
 20
25.5376019729
  0
LWPOLYLINE
  5
321
100
AcDbEntity
  8
RACCORDO
100
AcDbPolyline
 62
253
  6
CONTINUOUS
 90
39
 70
0
 10
28.5315864352
 20
24.1436102947
 10
28.4591828228
 20
24.0700668266
 10
28.3818889663
 20
24.0041568844
 10
28.2996648825
 20
23.9459428952
 10
28.2125505546
 20
23.8953624319
 10
28.1212564162
 20
23.8528279861
 10
28.0257482797
 20
23.81840535
 10
27.9260603328
 20
23.7920287315
 10
27.8230055715
 20
23.7739132455
 10
27.71655646
 20
23.7641264513
 10
27.6067405343
 20
23.7626007897
 10
27.4944533976
 20
23.7693486982
 10
27.379674871
 20
23.7844378244
 10
27.2624251334
 20
23.8078005208
 10
27.1436603252
 20
23.8392462829
 10
27.0233679492
 20
23.8788412641
 10
26.9015605025
 20
23.926519311
 10
26.7792316163
 20
23.9818914583
 10
26.6563773722
 20
24.0450203925
 10
26.5330016887
 20
24.115843427
 10
26.4101099527
 20
24.1937835371
 10
26.2877050758
 20
24.2788998176
 10
26.1657841465
 20
24.3711331737
 10
26.0453438173
 20
24.469729296
 10
25.9263992114
 20
24.5747370432
 10
25.8089352056
 20
24.6861075567
 10
25.693903083
 20
24.8029399512
 10
25.581314332
 20
24.9252896481
 10
25.4711574643
 20
25.0531012261
 10
25.3643492975
 20
25.1853075358
 10
25.26093482
 20
25.3219188949
 10
25.1608690435
 20
25.4629249859
 10
25.0649338206
 20
25.6072277061
 10
24.9731087984
 20
25.7549661838
 10
24.8854143299
 20
25.9060012908
 10
24.8026933257
 20
26.05881754
 10
24.7252267563
 20
26.212909769
 10
24.6527336514
 20
26.3687831403
 10
24.5852140109
 20
26.5264376537
  0
LWPOLYLINE
  5
322
100
AcDbEntity
  8
0
100
AcDbPolyline
 62
7
  6
CONTINUOUS
 90
3
 70
0
 10
28.2410223096
 20
24.5931399588
 10
28.1045583638
 20
24.4593579476
 10
27.9876630591
 20
24.3802050955
  0
LINE
  5
323
100
AcDbEntity
  8
0
100
AcDbLine
 62
7
  6
CONTINUOUS
 10
22.0508794144
 20
-9.8431534054
 11
22.2171178958
 21
-9.9423204414
  0
LWPOLYLINE
  5
324
100
AcDbEntity
  8
RACCORDO
100
AcDbPolyline
 62
253
  6
CONTINUOUS
 90
42
 70
0
 10
28.9106224713
 20
-34.3034574881
 10
29.0797431717
 20
-34.5298191594
 10
29.2436888103
 20
-34.7618299688
 10
29.4021287817
 20
-34.9990220539
 10
29.5547435833
 20
-35.2409171044
 10
29.7012254587
 20
-35.4870273248
 10
29.8412790181
 20
-35.7368564187
 10
29.9746218345
 20
-35.9899005892
 10
30.1009850166
 20
-36.2456495613
 10
30.2201137486
 20
-36.5035876087
 10
30.3317678022
 20
-36.7631945891
 10
30.4357220188
 20
-37.0239469869
 10
30.5317667664
 20
-37.2853189745
 10
30.6197083645
 20
-37.5467834772
 10
30.6993694757
 20
-37.8078132411
 10
30.7705894604
 20
-38.0678818895
 10
30.8332247
 20
-38.3264649826
 10
30.887148886
 20
-38.5830410704
 10
30.9322532765
 20
-38.8370927485
 10
30.9684469156
 20
-39.0881077024
 10
30.9956568181
 20
-39.3355797523
 10
31.0138281148
 20
-39.5790098686
 10
31.0229241616
 20
-39.8179071774
 10
31.0229266132
 20
-40.051789911
 10
31.0138354659
 20
-40.2801863939
 10
30.9956690619
 20
-40.5026359991
 10
30.968464037
 20
-40.7186902056
 10
30.9322752311
 20
-40.9279134528
 10
30.8871755659
 20
-41.129883992
 10
30.8332560025
 20
-41.3241943435
 10
30.7706253951
 20
-41.5104522932
 10
30.6994102898
 20
-41.6882818006
 10
30.6197541732
 20
-41.8573248309
 10
30.531817135
 20
-42.01724152
 10
30.4357755971
 20
-42.1677104071
 10
30.3318237862
 20
-42.3084266188
 10
30.2201732362
 20
-42.4391040526
 10
30.1010516096
 20
-42.5594774916
 10
29.974697437
 20
-42.6693070629
 10
29.8413607288
 20
-42.7683751636
 10
29.7013086835
 20
-42.8564819149
 10
29.6634846266
 20
-42.8777611726
  0
LWPOLYLINE
  5
325
100
AcDbEntity
  8
RACCORDO
100
AcDbPolyline
 62
253
  6
CONTINUOUS
 90
16
 70
0
 10
28.529153516
 20
-36.9634290822
 10
28.4096572191
 20
-36.7862224928
 10
28.3933925946
 20
-36.7600953378
 10
28.378158553
 20
-36.73353573
 10
28.3640366723
 20
-36.7067358404
 10
28.3510141536
 20
-36.6797215295
 10
28.3390147124
 20
-36.6523426722
 10
28.3280798141
 20
-36.6246668092
 10
28.3182755782
 20
-36.5968259708
 10
28.3096056539
 20
-36.5687622782
 10
28.3021143223
 20
-36.540497313
 10
28.2958932823
 20
-36.5122350008
 10
28.2910187388
 20
-36.4841950919
 10
28.2875354521
 20
-36.456528554
 10
28.2854722625
 20
-36.4293211244
 10
28.2848600086
 20
-36.4026931766
  0
LWPOLYLINE
  5
326
100
AcDbEntity
  8
RACCORDO
100
AcDbPolyline
 62
7
  6
CONTINUOUS
 90
38
 70
0
 10
29.0057762716
 20
-36.482381063
 10
29.1082622915
 20
-36.6346923046
 10
29.2064322067
 20
-36.7896183824
 10
29.3002860172
 20
-36.9471592963
 10
29.3900433393
 20
-37.107730027
 10
29.4754845567
 20
-37.2709155938
 10
29.555950821
 20
-37.4354710548
 10
29.6313619341
 20
-37.6013057529
 10
29.701798094
 20
-37.7685103452
 10
29.7668410461
 20
-37.9361118606
 10
29.8264993116
 20
-38.1042521996
 10
29.8807643693
 20
-38.2727894618
 10
29.929192401
 20
-38.4403249753
 10
29.9716953909
 20
-38.6066525798
 10
30.0083613548
 20
-38.7719784356
 10
30.039010522
 20
-38.9355223511
 10
30.063639109
 20
-39.0975132331
 10
30.0822508993
 20
-39.2577221748
 10
30.0946774729
 20
-39.4146822641
 10
30.1008626897
 20
-39.5681194731
 10
30.1008626897
 20
-39.7183078298
 10
30.0946774729
 20
-39.8646025055
 10
30.0822508993
 20
-40.0072126992
 10
30.063639109
 20
-40.1459292119
 10
30.039010522
 20
-40.279479619
 10
30.0083613548
 20
-40.4076306444
 10
29.9716953909
 20
-40.5306155642
 10
29.929192401
 20
-40.6478617814
 10
29.8807643693
 20
-40.7594738177
 10
29.8264993116
 20
-40.8653471515
 10
29.7668410461
 20
-40.9645956209
 10
29.701798094
 20
-41.0570871656
 10
29.6313619341
 20
-41.1429538459
 10
29.555950821
 20
-41.2217056809
 10
29.4754845567
 20
-41.2933407169
 10
29.3900433393
 20
-41.3578609074
 10
29.3002860172
 20
-41.4147821324
 10
29.2763581279
 20
-41.428262632
  0
LWPOLYLINE
  5
327
100
AcDbEntity
  8
RACCORDO
100
AcDbPolyline
 62
253
  6
CONTINUOUS
 90
16
 70
0
 10
28.0916055134
 20
-37.0551559388
 10
28.0640746063
 20
-37.0138311618
 10
28.0382263904
 20
-36.9720009741
 10
28.0140608656
 20
-36.9296653759
 10
27.9915702589
 20
-36.8867927121
 10
27.9707623434
 20
-36.8434146376
 10
27.9516604385
 20
-36.7996261176
 10
27.9342083472
 20
-36.7553755464
 10
27.9184622664
 20
-36.7107145296
 10
27.9046141064
 20
-36.6658928494
 10
27.8926328331
 20
-36.6207535499
 10
27.8825494805
 20
-36.5754535869
 10
27.8746490614
 20
-36.53071361
 10
27.8690265799
 20
-36.4867738356
 10
27.865587032
 20
-36.4433940472
 10
27.8643304175
 20
-36.4005742449
  0
LWPOLYLINE
  5
328
100
AcDbEntity
  8
RACCORDO
100
AcDbPolyline
 62
7
  6
CONTINUOUS
 90
3
 70
0
 10
26.7063015293
 20
-37.346258444
 10
26.7124766873
 20
-37.3560508512
 10
26.7179606417
 20
-37.3666137615
  0
LWPOLYLINE
  5
329
100
AcDbEntity
  8
RACCORDO
100
AcDbPolyline
 62
253
  6
CONTINUOUS
 90
7
 70
0
 10
26.8899756189
 20
-38.3365979165
 10
26.8982958214
 20
-38.3501378769
 10
26.9074935758
 20
-38.3632824117
 10
26.9170515292
 20
-38.3753794922
 10
26.9267972306
 20
-38.3862117754
 10
26.9369031309
 20
-38.3959966042
 10
26.9473692301
 20
-38.4047339787
  0
LINE
  5
32A
100
AcDbEntity
  8
RACCORDO
100
AcDbLine
 62
7
  6
CONTINUOUS
 10
26.8755940971
 20
-38.3292807101
 11
26.8899023308
 21
-38.3542515005
  0
LWPOLYLINE
  5
32B
100
AcDbEntity
  8
RACCORDO
100
AcDbPolyline
 62
253
  6
CONTINUOUS
 90
9
 70
0
 10
25.1375091028
 20
-40.0541160355
 10
25.1616746275
 20
-40.0964516337
 10
25.1841652342
 20
-40.1393242976
 10
25.2049731497
 20
-40.182702372
 10
25.2240750547
 20
-40.226490892
 10
25.241527146
 20
-40.2707414632
 10
25.2572732267
 20
-40.31540248
 10
25.2711213867
 20
-40.3602241603
 10
25.2831026601
 20
-40.4053634598
  0
LWPOLYLINE
  5
32C
100
AcDbEntity
  8
RACCORDO
100
AcDbPolyline
 62
253
  6
CONTINUOUS
 90
15
 70
0
 10
28.0916055134
 20
-41.7074397514
 10
28.1058587205
 20
-41.7346475322
 10
28.1222320547
 20
-41.7602515259
 10
28.1405500943
 20
-41.7839774012
 10
28.160616581
 20
-41.805570949
 10
28.1822165214
 20
-41.8248008038
 10
28.2051184894
 20
-41.8414609236
 10
28.2290771101
 20
-41.8553728014
 10
28.2538356853
 20
-41.8663873737
 10
28.2791289403
 20
-41.8743866187
 10
28.3046858761
 20
-41.8792848243
 10
28.3302326663
 20
-41.8810295037
 10
28.3554955866
 20
-41.8796019589
 10
28.3802039581
 20
-41.8750174825
 10
28.3858278253
 20
-41.8735075187
  0
LWPOLYLINE
  5
32D
100
AcDbEntity
  8
RACCORDO
100
AcDbPolyline
 62
7
  6
CONTINUOUS
 90
5
 70
0
 10
24.5578606131
 20
-39.1827377574
 10
24.6417400583
 20
-39.3477119438
 10
24.7361443935
 20
-39.5204825558
 10
24.8358133245
 20
-39.6903567825
 10
24.9404837534
 20
-39.8568885744
  0
LWPOLYLINE
  5
32E
100
AcDbEntity
  8
RACCORDO
100
AcDbPolyline
 62
253
  6
CONTINUOUS
 90
10
 70
0
 10
24.5852140109
 20
-39.1113339474
 10
24.6336425306
 20
-39.2106353095
 10
24.6838593842
 20
-39.3090527901
 10
24.7358645719
 20
-39.4065863891
 10
24.7897070096
 20
-39.5033200105
 10
24.8453377812
 20
-39.5991697504
 10
24.9026101389
 20
-39.6938838975
 10
24.9614751665
 20
-39.7873785481
 10
25.0219817801
 20
-39.8797376058
 10
25.0841299797
 20
-39.9709610708
  0
LINE
  5
32F
100
AcDbEntity
  8
RACCORDO
100
AcDbLine
 62
7
  6
CONTINUOUS
 10
24.557836698
 20
-39.1826887319
 11
24.5578589606
 21
-39.1827343876
  0
LINE
  5
330
100
AcDbEntity
  8
RACCORDO
100
AcDbLine
 62
7
  6
CONTINUOUS
 10
24.5540035424
 20
-39.1745116644
 11
24.5578389935
 21
-39.1826938458
  0
LWPOLYLINE
  5
331
100
AcDbEntity
  8
RACCORDO
100
AcDbPolyline
 62
7
  6
CONTINUOUS
 90
4
 70
0
 10
25.2064587171
 20
30.4106510527
 10
25.2051143035
 20
30.4079619435
 10
25.2029766452
 20
30.404256601
 10
25.2019170905
 20
30.4027257387
  0
LWPOLYLINE
  5
332
100
AcDbEntity
  8
RACCORDO
100
AcDbPolyline
 62
253
  6
CONTINUOUS
 90
3
 70
0
 10
26.304022584
 20
27.3485487235
 10
26.308530597
 20
27.3571988574
 10
26.3119513419
 20
27.3668926748
  0
LWPOLYLINE
  5
333
100
AcDbEntity
  8
RACCORDO
100
AcDbPolyline
 62
253
  6
CONTINUOUS
 90
17
 70
0
 10
24.5852140109
 20
26.2062881867
 10
24.5802382001
 20
26.1986534314
 10
24.5758118532
 20
26.1915107368
 10
24.5719133701
 20
26.1848493489
 10
24.5685239352
 20
26.1786677466
 10
24.565612129
 20
26.172943694
 10
24.5631412595
 20
26.1676374724
 10
24.5610882478
 20
26.1627366456
 10
24.5594329603
 20
26.1582342546
 10
24.5581515697
 20
26.1541027265
 10
24.5572229197
 20
26.1503320959
 10
24.5566276034
 20
26.1469146483
 10
24.556348732
 20
26.1438280796
 10
24.5563660064
 20
26.1410627327
 10
24.5566601918
 20
26.1386112068
 10
24.5572163407
 20
26.1364546005
 10
24.557836698
 20
26.1349334116
  0
LWPOLYLINE
  5
334
100
AcDbEntity
  8
RACCORDO
100
AcDbPolyline
 62
253
  6
CONTINUOUS
 90
15
 70
0
 10
26.7354934978
 20
25.5054603498
 10
26.7324110593
 20
25.5008546546
 10
26.7290787712
 20
25.4968532858
 10
26.7254909572
 20
25.493465114
 10
26.7216532936
 20
25.4906812685
 10
26.7177032891
 20
25.4884509843
 10
26.7136750506
 20
25.4867873944
 10
26.7095344712
 20
25.4856773658
 10
26.7053167392
 20
25.4850307345
 10
26.7010538017
 20
25.4848172017
 10
26.6967137117
 20
25.4850670661
 10
26.6922358167
 20
25.4857810605
 10
26.6875998993
 20
25.4869594289
 10
26.6828261771
 20
25.4886019271
 10
26.6779146499
 20
25.4907085553
  0
LINE
  5
335
100
AcDbEntity
  8
RACCORDO
100
AcDbLine
 62
253
  6
CONTINUOUS
 10
27.6730917694
 20
26.044768963
 11
27.6709723757
 21
26.0417425472
  0
LINE
  5
336
100
AcDbEntity
  8
RACCORDO
100
AcDbLine
 62
253
  6
CONTINUOUS
 10
27.169273532
 20
26.5279583053
 11
27.2595340738
 21
26.6536759298
  0
LWPOLYLINE
  5
337
100
AcDbEntity
  8
RACCORDO
100
AcDbPolyline
 62
253
  6
CONTINUOUS
 90
3
 70
0
 10
27.0272109307
 20
26.430387527
 10
27.0496486773
 20
26.4609798569
 10
27.2154190047
 20
26.6881291709
  0
LINE
  5
338
100
AcDbEntity
  8
RACCORDO
100
AcDbLine
 62
253
  6
CONTINUOUS
 10
26.6073600917
 20
25.7596233461
 11
26.8096874107
 21
26.0344323262
  0
LWPOLYLINE
  5
339
100
AcDbEntity
  8
0
100
AcDbPolyline
 62
7
  6
CONTINUOUS
 90
12
 70
0
 10
0.1945498568
 20
-11.2451063783
 10
0.2055794755
 20
-11.238139981
 10
0.2338530603
 20
-11.2166684678
 10
0.2594410216
 20
-11.1914824983
 10
0.2824485504
 20
-11.162648363
 10
0.3025298026
 20
-11.1307224738
 10
0.3196262285
 20
-11.0957263134
 10
0.3337954744
 20
-11.0576389417
 10
0.3448660109
 20
-11.0169531234
 10
0.3527804916
 20
-10.9738332156
 10
0.3575957751
 20
-10.9281151545
 10
0.3593117383
 20
-10.8797990138
  0
LINE
  5
33A
100
AcDbEntity
  8
0
100
AcDbLine
 62
253
  6
CONTINUOUS
 10
0.1291701124
 20
-11.0044428578
 11
-0.2178290398
 21
-11.2122956003
  0
LINE
  5
33B
100
AcDbEntity
  8
DRAFT
100
AcDbLine
 62
7
  6
CONTINUOUS
 10
21.8095217499
 20
-5.142727844
 11
22.1984304795
 21
-5.3672788703
  0
LINE
  5
33C
100
AcDbEntity
  8
DRAFT
100
AcDbLine
 62
7
  6
CONTINUOUS
 10
27.8520201364
 20
-6.1490067565
 11
28.5467843228
 21
-6.5501548903
  0
LWPOLYLINE
  5
33D
100
AcDbEntity
  8
RACCORDO
100
AcDbPolyline
 62
7
  6
CONTINUOUS
 90
4
 70
0
 10
27.6545464783
 20
-38.9878954705
 10
27.6598909458
 20
-38.9991247601
 10
27.6636135684
 20
-39.0096262013
 10
27.6656546942
 20
-39.0185589513
  0
LWPOLYLINE
  5
33E
100
AcDbEntity
  8
RACCORDO
100
AcDbPolyline
 62
253
  6
CONTINUOUS
 90
10
 70
0
 10
24.711613212
 20
-36.0083338842
 10
24.7336329821
 20
-36.0552818834
 10
24.754556445
 20
-36.1014936934
 10
24.7742796561
 20
-36.1469630482
 10
24.7925538891
 20
-36.191684765
 10
24.8094341627
 20
-36.2356725276
 10
24.825277637
 20
-36.278941864
 10
24.8400133023
 20
-36.3214903733
 10
24.853541755
 20
-36.3633259268
 10
24.8650410642
 20
-36.4007467661
  0
LWPOLYLINE
  5
33F
100
AcDbEntity
  8
RACCORDO
100
AcDbPolyline
 62
253
  6
CONTINUOUS
 90
8
 70
0
 10
27.6662224859
 20
-38.9904219347
 10
27.6692543196
 20
-38.9969534527
 10
27.6719234066
 20
-39.0033646105
 10
27.6742400121
 20
-39.0096244472
 10
27.676193871
 20
-39.0157639237
 10
27.6778146777
 20
-39.0218702183
 10
27.6791123305
 20
-39.0279723906
 10
27.6800769313
 20
-39.0340413811
  0
LWPOLYLINE
  5
340
100
AcDbEntity
  8
RACCORDO
100
AcDbPolyline
 62
253
  6
CONTINUOUS
 90
13
 70
0
 10
27.7978606092
 20
-43.4075512395
 10
27.8106171928
 20
-43.4350769029
 10
27.8255099438
 20
-43.4609953434
 10
27.8423792984
 20
-43.4850288625
 10
27.8610445145
 20
-43.5069199568
 10
27.8813056087
 20
-43.5264340776
 10
27.9029454982
 20
-43.543362143
 10
27.9257323278
 20
-43.5575227793
 10
27.9494219529
 20
-43.5687642632
 10
27.9737605554
 20
-43.5769661482
 10
27.9984873642
 20
-43.582040555
 10
28.0233374486
 20
-43.5839331133
 10
28.0467749793
 20
-43.5826908362
  0
LWPOLYLINE
  5
341
100
AcDbEntity
  8
RACCORDO
100
AcDbPolyline
 62
253
  6
CONTINUOUS
 90
25
 70
0
 10
24.5441452729
 20
-35.9225006259
 10
24.5454241115
 20
-35.9252628352
 10
24.5490408491
 20
-35.9322837276
 10
24.5530806803
 20
-35.9390798104
 10
24.5575344266
 20
-35.9456372434
 10
24.5623923344
 20
-35.9519431039
 10
24.5676414467
 20
-35.9579801129
 10
24.5732707426
 20
-35.9637362503
 10
24.5792680248
 20
-35.9691997062
 10
24.5856172376
 20
-35.974354702
 10
24.5923051591
 20
-35.9791906002
 10
24.5993175849
 20
-35.9836973718
 10
24.6066354033
 20
-35.9878615876
 10
24.6142430752
 20
-35.9916740636
 10
24.6221246637
 20
-35.9951267308
 10
24.6302588141
 20
-35.9982094584
 10
24.6386279161
 20
-36.0009147436
 10
24.6472143643
 20
-36.0032364159
 10
24.6559952531
 20
-36.005168062
 10
24.6649511971
 20
-36.0067040427
 10
24.6740629363
 20
-36.0078401086
 10
24.683306328
 20
-36.0085737352
 10
24.6926592403
 20
-36.0089024115
 10
24.7021019722
 20
-36.0088230484
 10
24.7116130998
 20
-36.0083336302
  0
LINE
  5
342
100
AcDbEntity
  8
RACCORDO
100
AcDbLine
 62
7
  6
CONTINUOUS
 10
26.8637845394
 20
-38.3033389226
 11
26.8755940971
 21
-38.3292807101
  0
LINE
  5
343
100
AcDbEntity
  8
RACCORDO
100
AcDbLine
 62
7
  6
CONTINUOUS
 10
24.5440543671
 20
-35.9222976163
 11
24.5441452729
 21
-35.9225006259
  0
LWPOLYLINE
  5
344
100
AcDbEntity
  8
RACCORDO
100
AcDbPolyline
 62
7
  6
CONTINUOUS
 90
9
 70
0
 10
24.5440547291
 20
-35.9222984318
 10
24.5664865459
 20
-35.9738704101
 10
24.604513322
 20
-36.0692266518
 10
24.6389117966
 20
-36.1667950436
 10
24.6695208927
 20
-36.2664911015
 10
24.6962562302
 20
-36.3683362046
 10
24.7190808665
 20
-36.4724347719
 10
24.7379360232
 20
-36.5786500495
 10
24.7439509453
 20
-36.6223779872
  0
LWPOLYLINE
  5
345
100
AcDbEntity
  8
RACCORDO
100
AcDbPolyline
 62
7
  6
CONTINUOUS
 90
5
 70
0
 10
26.7179606417
 20
-37.3666137615
 10
26.7226541279
 20
-37.3777860279
 10
26.7265103203
 20
-37.389665177
 10
26.729266615
 20
-37.4018625454
 10
26.7298121632
 20
-37.4053055549
  0
LWPOLYLINE
  5
346
100
AcDbEntity
  8
RACCORDO
100
AcDbPolyline
 62
253
  6
CONTINUOUS
 90
16
 70
0
 10
25.0841299797
 20
-35.3186772582
 10
25.0721496465
 20
-35.2901573133
 10
25.0625704603
 20
-35.2606305975
 10
25.0554950656
 20
-35.2304134597
 10
25.0509992817
 20
-35.1998296475
 10
25.0491312903
 20
-35.169206842
 10
25.049911118
 20
-35.1388731475
 10
25.0533304218
 20
-35.109153567
 10
25.0593525782
 20
-35.0803665307
 10
25.067913072
 20
-35.0528204862
 10
25.0789201924
 20
-35.026810575
 10
25.0922560131
 20
-35.0026154848
 10
25.1077776478
 20
-34.9804944693
 10
25.1253187924
 20
-34.9606845496
 10
25.1446915096
 20
-34.9433979788
 10
25.1656882349
 20
-34.9288199779
  0
LWPOLYLINE
  5
347
100
AcDbEntity
  8
RACCORDO
100
AcDbPolyline
 62
253
  6
CONTINUOUS
 90
6
 70
0
 10
26.7308157074
 20
-37.3723789324
 10
26.733710492
 20
-37.3796011345
 10
26.7364146623
 20
-37.3871294177
 10
26.7388076985
 20
-37.3948438354
 10
26.7408494272
 20
-37.4027044058
 10
26.7425800218
 20
-37.4107511108
  0
LINE
  5
348
100
AcDbEntity
  8
RACCORDO
100
AcDbLine
 62
7
  6
CONTINUOUS
 10
24.5452176527
 20
-39.1523270063
 11
24.5540035424
 21
-39.1745116644
  0
LINE
  5
349
100
AcDbEntity
  8
RACCORDO
100
AcDbLine
 62
253
  6
CONTINUOUS
 10
27.6408420257
 20
26.0951488215
 11
27.6692093028
 21
26.1536109033
  0
LINE
  5
34A
100
AcDbEntity
  8
RACCORDO
100
AcDbLine
 62
7
  6
CONTINUOUS
 10
27.6658965957
 20
26.0913537079
 11
27.6658573209
 21
26.0912736773
  0
LWPOLYLINE
  5
34B
100
AcDbEntity
  8
RACCORDO
100
AcDbPolyline
 62
7
  6
CONTINUOUS
 90
7
 70
0
 10
28.894014873
 20
23.6793707882
 10
28.8903144689
 20
23.6720541497
 10
28.8809452871
 20
23.6476210615
 10
28.8736307036
 20
23.6214725103
 10
28.868427971
 20
23.5937650024
 10
28.8652798367
 20
23.5643420313
 10
28.8641863006
 20
23.5332035971
  0
LWPOLYLINE
  5
34C
100
AcDbEntity
  8
RACCORDO
100
AcDbPolyline
 62
253
  6
CONTINUOUS
 90
17
 70
0
 10
27.6658573209
 20
26.0912736773
 10
27.665675489
 20
26.0909196751
 10
27.6649489947
 20
26.0897283744
 10
27.6641061639
 20
26.0886758518
 10
27.6631437985
 20
26.0877793516
 10
27.66205984
 20
26.0870536143
 10
27.660848727
 20
26.0865100285
 10
27.6594990605
 20
26.0861652483
 10
27.6580042615
 20
26.0860388512
 10
27.6563631856
 20
26.0861488818
 10
27.6545708127
 20
26.0865148863
 10
27.6526274176
 20
26.0871643442
 10
27.6505363404
 20
26.0881141606
 10
27.6483009723
 20
26.0893684972
 10
27.6459303773
 20
26.0909422536
 10
27.6434386043
 20
26.0928622894
 10
27.6408420259
 20
26.0951488215
  0
LINE
  5
34D
100
AcDbEntity
  8
RACCORDO
100
AcDbLine
 62
7
  6
CONTINUOUS
 10
26.728169176
 20
25.552076023
 11
26.7276764904
 21
25.5511248895
  0
LINE
  5
34E
100
AcDbEntity
  8
RACCORDO
100
AcDbLine
 62
253
  6
CONTINUOUS
 10
26.7382056075
 20
25.5106945244
 11
26.7354934978
 21
25.5054603498
  0
LINE
  5
34F
100
AcDbEntity
  8
DRAFT
100
AcDbLine
 62
7
  6
CONTINUOUS
 10
28.5467843228
 20
-0.3981247309
 11
27.8520201364
 21
-0.8277773255
  0
LINE
  5
350
100
AcDbEntity
  8
DRAFT
100
AcDbLine
 62
7
  6
CONTINUOUS
 10
21.8095217499
 20
-5.142727844
 11
20.581739889
 21
-5.8516313522
  0
LINE
  5
351
100
AcDbEntity
  8
RACCORDO
100
AcDbLine
 62
7
  6
CONTINUOUS
 10
22.1984304795
 20
-5.3672788703
 11
22.0158723547
 21
-5.4726852941
  0
LINE
  5
352
100
AcDbEntity
  8
0
100
AcDbLine
 62
7
  6
CONTINUOUS
 10
20.4923817057
 20
-2.3332595229
 11
22.2171178958
 21
-1.3693825351
  0
LWPOLYLINE
  5
353
100
AcDbEntity
  8
RACCORDO
100
AcDbPolyline
 62
253
  6
CONTINUOUS
 90
16
 70
0
 10
27.7978606092
 20
21.910070904
 10
27.8055045999
 20
21.9115981319
 10
27.8127350307
 20
21.9138414525
 10
27.8195519015
 20
21.9168008659
 10
27.8259609311
 20
21.9204678614
 10
27.8319564007
 20
21.9248509498
 10
27.8375211538
 20
21.9299756624
 10
27.8426808132
 20
21.9358347779
 10
27.847409756
 20
21.9424355177
 10
27.8516139576
 20
21.9498250784
 10
27.8553102663
 20
21.9580439897
 10
27.8584818338
 20
21.9670517218
 10
27.8609840896
 20
21.9767738819
 10
27.8627688438
 20
21.9871856721
 10
27.8638842865
 20
21.9983118902
 10
27.8643304175
 20
22.0101525362
  0
LWPOLYLINE
  5
354
100
AcDbEntity
  8
RACCORDO
100
AcDbPolyline
 62
7
  6
CONTINUOUS
 90
10
 70
0
 10
28.9133862271
 20
22.1792956577
 10
28.9431654926
 20
22.1846603968
 10
29.0394423956
 20
22.2045121887
 10
29.1340190647
 20
22.2278774105
 10
29.2268110057
 20
22.2547077781
 10
29.3177951804
 20
22.284968516
 10
29.4070035269
 20
22.3186490895
 10
29.4944061965
 20
22.3557241141
 10
29.5799181382
 20
22.3961426139
 10
29.6634846266
 20
22.4398609708
  0
LWPOLYLINE
  5
355
100
AcDbEntity
  8
RACCORDO
100
AcDbPolyline
 62
253
  6
CONTINUOUS
 90
10
 70
0
 10
28.8347150453
 20
-38.5084197883
 10
28.7735349585
 20
-38.3410018354
 10
28.7063764127
 20
-38.1736177082
 10
28.633750027
 20
-38.0075456851
 10
28.5555512968
 20
-37.8426958719
 10
28.4718847269
 20
-37.6791581627
 10
28.3835744502
 20
-37.5184805187
 10
28.2908951779
 20
-37.3611789269
 10
28.193572199
 20
-37.2067374003
 10
28.0916055134
 20
-37.0551559388
  0
LWPOLYLINE
  5
356
100
AcDbEntity
  8
RACCORDO
100
AcDbPolyline
 62
253
  6
CONTINUOUS
 90
5
 70
0
 10
26.866589682
 20
-38.28103328
 10
26.8707976759
 20
-38.2942575107
 10
26.8761695884
 20
-38.3082063752
 10
26.8826338277
 20
-38.3225998586
 10
26.8899756189
 20
-38.3365979165
  0
LWPOLYLINE
  5
357
100
AcDbEntity
  8
RACCORDO
100
AcDbPolyline
 62
253
  6
CONTINUOUS
 90
3
 70
0
 10
24.5752439875
 20
-35.5726153547
 10
24.5799125169
 20
-35.5873046067
 10
24.5852140109
 20
-35.6021687172
  0
LINE
  5
358
100
AcDbEntity
  8
RACCORDO
100
AcDbLine
 62
253
  6
CONTINUOUS
 10
24.5711796664
 20
-35.5581500052
 11
24.5752439875
 21
-35.5726153547
  0
LWPOLYLINE
  5
359
100
AcDbEntity
  8
RACCORDO
100
AcDbPolyline
 62
253
  6
CONTINUOUS
 90
6
 70
0
 10
25.2831026601
 20
-40.4053634598
 10
25.2931860127
 20
-40.4506634227
 10
25.3010864318
 20
-40.4954033997
 10
25.3067089132
 20
-40.5393431741
 10
25.3101484612
 20
-40.5827229624
 10
25.3114050757
 20
-40.6255427647
  0
LWPOLYLINE
  5
35A
100
AcDbEntity
  8
RACCORDO
100
AcDbPolyline
 62
7
  6
CONTINUOUS
 90
12
 70
0
 10
25.224655483
 20
-42.4704243911
 10
25.2291328205
 20
-42.5121813205
 10
25.2370585518
 20
-42.5544558608
 10
25.248244791
 20
-42.5963514651
 10
25.2626631175
 20
-42.6379245873
 10
25.2803092612
 20
-42.6790784283
 10
25.3007151311
 20
-42.7187437468
 10
25.3237984723
 20
-42.7568859352
 10
25.3495775894
 20
-42.7934704822
 10
25.3774142137
 20
-42.8275965981
 10
25.4072214354
 20
-42.8592070079
 10
25.4390621084
 20
-42.8883117263
  0
LINE
  5
35B
100
AcDbEntity
  8
0
100
AcDbLine
 62
253
  6
CONTINUOUS
 10
18.6017411225
 20
-52.092957947
 11
18.6017411225
 21
41.1479476627
  0
LINE
  5
35C
100
AcDbEntity
  8
0
100
AcDbLine
 62
253
  6
CONTINUOUS
 10
19.2770791452
 20
-52.0823007495
 11
19.2770791452
 21
41.1586048602
  0
LINE
  5
35D
100
AcDbEntity
  8
0
100
AcDbLine
 62
7
  6
CONTINUOUS
 10
20.4131022979
 20
-26.5859089023
 11
20.4131022979
 21
-25.5244975425
  0
LINE
  5
35E
100
AcDbEntity
  8
0
100
AcDbLine
 62
7
  6
CONTINUOUS
 10
20.4131022979
 20
-21.6870872416
 11
20.4131022979
 21
-20.6256758817
  0
LINE
  5
35F
100
AcDbEntity
  8
0
100
AcDbLine
 62
7
  6
CONTINUOUS
 10
20.4131022979
 20
10.9717238302
 11
20.4131022979
 21
12.03313519
  0
LINE
  5
360
100
AcDbEntity
  8
0
100
AcDbLine
 62
7
  6
CONTINUOUS
 10
20.4131022979
 20
15.8705454909
 11
20.4131022979
 21
16.9319568507
  0
LINE
  5
361
100
AcDbEntity
  8
0
100
AcDbLine
 62
7
  6
CONTINUOUS
 10
20.4923817057
 20
-48.4230066479
 11
20.4923817057
 21
-43.5241849871
  0
LINE
  5
362
100
AcDbEntity
  8
0
100
AcDbLine
 62
7
  6
CONTINUOUS
 10
20.4923817057
 20
-10.9061974293
 11
20.4923817057
 21
-2.3332595229
  0
LINE
  5
363
100
AcDbEntity
  8
0
100
AcDbLine
 62
7
  6
CONTINUOUS
 10
20.4923817057
 20
33.9588442805
 11
20.4923817057
 21
38.8576659413
  0
LINE
  5
364
100
AcDbEntity
  8
DRAFT
100
AcDbLine
 62
7
  6
CONTINUOUS
 10
20.581739889
 20
38.9076041852
 11
20.581739889
 21
34.6655261664
  0
LINE
  5
365
100
AcDbEntity
  8
DRAFT
100
AcDbLine
 62
7
  6
CONTINUOUS
 10
20.581739889
 20
-5.8516313522
 11
20.581739889
 21
-10.1995155434
  0
LINE
  5
366
100
AcDbEntity
  8
DRAFT
100
AcDbLine
 62
7
  6
CONTINUOUS
 10
20.581739889
 20
-43.4742467432
 11
20.581739889
 21
-47.716324762
  0
LINE
  5
367
100
AcDbEntity
  8
RACCORDO
100
AcDbLine
 62
253
  6
CONTINUOUS
 10
21.8563957238
 20
-47.4360110911
 11
21.8563957238
 21
-43.0520215629
  0
LINE
  5
368
100
AcDbEntity
  8
RACCORDO
100
AcDbLine
 62
253
  6
CONTINUOUS
 10
21.8563957238
 20
-9.9192018725
 11
21.8563957238
 21
-5.5352123443
  0
LINE
  5
369
100
AcDbEntity
  8
RACCORDO
100
AcDbLine
 62
253
  6
CONTINUOUS
 10
21.8563957238
 20
34.9458398373
 11
21.8563957238
 21
39.3298293655
  0
LINE
  5
36A
100
AcDbEntity
  8
RACCORDO
100
AcDbLine
 62
253
  6
CONTINUOUS
 10
22.0158723547
 20
-47.3787882879
 11
22.0158723547
 21
-42.9894945127
  0
LINE
  5
36B
100
AcDbEntity
  8
RACCORDO
100
AcDbLine
 62
253
  6
CONTINUOUS
 10
22.0158723547
 20
-9.8619790692
 11
22.0158723547
 21
-5.4726852941
  0
LINE
  5
36C
100
AcDbEntity
  8
RACCORDO
100
AcDbLine
 62
253
  6
CONTINUOUS
 10
22.0158723547
 20
35.0030626405
 11
22.0158723547
 21
39.3923564157
  0
LINE
  5
36D
100
AcDbEntity
  8
DRAFT
100
AcDbLine
 62
7
  6
CONTINUOUS
 10
22.1984304795
 20
39.4977628395
 11
22.1984304795
 21
35.1012364923
  0
LINE
  5
36E
100
AcDbEntity
  8
DRAFT
100
AcDbLine
 62
7
  6
CONTINUOUS
 10
22.1984304795
 20
-5.3672788703
 11
22.1984304795
 21
-9.7638052175
  0
LINE
  5
36F
100
AcDbEntity
  8
DRAFT
100
AcDbLine
 62
7
  6
CONTINUOUS
 10
22.1984304795
 20
-42.8840880889
 11
22.1984304795
 21
-47.2806144361
  0
LINE
  5
370
100
AcDbEntity
  8
0
100
AcDbLine
 62
7
  6
CONTINUOUS
 10
22.2171178958
 20
39.8215429291
 11
22.2171178958
 21
34.9227212683
  0
LINE
  5
371
100
AcDbEntity
  8
0
100
AcDbLine
 62
7
  6
CONTINUOUS
 10
22.2171178958
 20
-1.3693825351
 11
22.2171178958
 21
-9.9423204414
  0
LINE
  5
372
100
AcDbEntity
  8
0
100
AcDbLine
 62
7
  6
CONTINUOUS
 10
22.2171178958
 20
-42.5603079993
 11
22.2171178958
 21
-47.4591296601
  0
LINE
  5
373
100
AcDbEntity
  8
RACCORDO
100
AcDbLine
 62
253
  6
CONTINUOUS
 10
26.3142848185
 20
27.3776301758
 11
26.4317360105
 21
28.0789352051
  0
LINE
  5
374
100
AcDbEntity
  8
RACCORDO
100
AcDbLine
 62
253
  6
CONTINUOUS
 10
26.3825602969
 20
27.3698202717
 11
26.500011489
 21
28.0711253017
  0
LINE
  5
375
100
AcDbEntity
  8
RACCORDO
100
AcDbLine
 62
7
  6
CONTINUOUS
 10
26.8474927983
 20
26.2601695712
 11
26.7300416073
 21
25.5588645477
  0
LINE
  5
376
100
AcDbEntity
  8
RACCORDO
100
AcDbLine
 62
253
  6
CONTINUOUS
 10
26.8614506747
 20
26.2314971014
 11
26.7439994837
 21
25.5301920782
  0
LWPOLYLINE
  5
377
100
AcDbEntity
  8
RACCORDO
100
AcDbPolyline
 62
7
  6
CONTINUOUS
 90
6
 70
0
 10
24.6787970064
 20
27.3126449185
 10
24.6663824272
 20
27.2446575907
 10
24.6343147674
 20
27.0868687105
 10
24.5982150165
 20
26.9245101132
 10
24.5582004168
 20
26.7577656022
 10
24.5329603279
 20
26.6579891644
  0
LINE
  5
378
100
AcDbEntity
  8
RACCORDO
100
AcDbLine
 62
253
  6
CONTINUOUS
 10
24.5326576652
 20
26.6563379743
 11
24.5329573834
 21
26.6579746999
  0
LWPOLYLINE
  5
379
100
AcDbEntity
  8
RACCORDO
100
AcDbPolyline
 62
7
  6
CONTINUOUS
 90
4
 70
0
 10
27.6660308824
 20
26.0922173362
 10
27.6658985523
 20
26.091525831
 10
27.6657975131
 20
26.0911341947
 10
27.6658877718
 20
26.0913360506
  0
LWPOLYLINE
  5
37A
100
AcDbEntity
  8
RACCORDO
100
AcDbPolyline
 62
7
  6
CONTINUOUS
 90
5
 70
0
 10
26.7300298715
 20
25.5587936653
 10
26.7296158374
 20
25.5566774034
 10
26.7290326411
 20
25.5544415099
 10
26.7284413594
 20
25.5527241298
 10
26.728169176
 20
25.552076023
  0
LWPOLYLINE
  5
37B
100
AcDbEntity
  8
RACCORDO
100
AcDbPolyline
 62
253
  6
CONTINUOUS
 90
16
 70
0
 10
25.5432199091
 20
27.5292145829
 10
25.5436365493
 20
27.5311581343
 10
25.5442503318
 20
27.5330928982
 10
25.5450634745
 20
27.5350085288
 10
25.5460712509
 20
27.5368922523
 10
25.5472826504
 20
27.5387347254
 10
25.5487204927
 20
27.5405296646
 10
25.5503875601
 20
27.542264042
 10
25.5522849979
 20
27.5439254833
 10
25.5544333749
 20
27.5455067737
 10
25.5568304142
 20
27.5469906696
 10
25.5594816922
 20
27.548365791
 10
25.5624205386
 20
27.5496281463
 10
25.5656580554
 20
27.5507607697
 10
25.5691870614
 20
27.5517408093
 10
25.5725075328
 20
27.5524563741
  0
LINE
  5
37C
100
AcDbEntity
  8
RACCORDO
100
AcDbLine
 62
253
  6
CONTINUOUS
 10
26.3119513419
 20
27.3668926748
 11
26.3142848185
 21
27.3776301758
  0
LINE
  5
37D
100
AcDbEntity
  8
RACCORDO
100
AcDbLine
 62
253
  6
CONTINUOUS
 10
26.8637841513
 20
26.2422346024
 11
26.8614506747
 21
26.2314971014
  0
LWPOLYLINE
  5
37E
100
AcDbEntity
  8
RACCORDO
100
AcDbPolyline
 62
253
  6
CONTINUOUS
 90
19
 70
0
 10
26.4317360105
 20
28.0789352051
 10
26.4332969736
 20
28.0860628683
 10
26.4352282656
 20
28.0925620519
 10
26.4375298866
 20
28.098432756
 10
26.4402419963
 20
28.1036669295
 10
26.443324435
 20
28.1082726235
 10
26.446656723
 20
28.1122739911
 10
26.4502445369
 20
28.1156621616
 10
26.4540822002
 20
28.1184460058
 10
26.4580322041
 20
28.1206762888
 10
26.4620604418
 20
28.1223398777
 10
26.4662010203
 20
28.1234499055
 10
26.4704187514
 20
28.1240965361
 10
26.4746816885
 20
28.1243100685
 10
26.4790217783
 20
28.1240602037
 10
26.4834996732
 20
28.1233462095
 10
26.4881355908
 20
28.1221678418
 10
26.4929093137
 20
28.1205253447
 10
26.4978208416
 20
28.1184187182
  0
LWPOLYLINE
  5
37F
100
AcDbEntity
  8
RACCORDO
100
AcDbPolyline
 62
253
  6
CONTINUOUS
 90
4
 70
0
 10
26.7439994837
 20
25.5301920782
 10
26.7424385205
 20
25.5230644141
 10
26.7405072285
 20
25.5165652295
 10
26.7382056075
 20
25.5106945244
  0
LWPOLYLINE
  5
380
100
AcDbEntity
  8
RACCORDO
100
AcDbPolyline
 62
253
  6
CONTINUOUS
 90
10
 70
0
 10
25.5622674533
 20
27.2164528025
 10
25.5638003429
 20
27.2228981619
 10
25.5662936947
 20
27.2297401915
 10
25.5696767084
 20
27.2367845986
 10
25.5738533199
 20
27.2438313429
 10
25.5787049274
 20
27.2506803146
 10
25.5840937582
 20
27.2571370172
 10
25.5898667841
 20
27.2630180949
 10
25.5958600671
 20
27.2681565386
 10
25.6019034132
 20
27.2724064268
  0
LWPOLYLINE
  5
381
100
AcDbEntity
  8
RACCORDO
100
AcDbPolyline
 62
253
  6
CONTINUOUS
 90
10
 70
0
 10
26.228366263
 20
26.6962391124
 10
26.2298991632
 20
26.7026845061
 10
26.2323925309
 20
26.7095265634
 10
26.2357755612
 20
26.7165709882
 10
26.239952185
 20
26.7236177374
 10
26.2448037972
 20
26.7304667021
 10
26.250192625
 20
26.7369233897
 10
26.2559656398
 20
26.7428044475
 10
26.2619589034
 20
26.7479428691
 10
26.268002223
 20
26.7521927368
  0
LWPOLYLINE
  5
382
100
AcDbEntity
  8
RACCORDO
100
AcDbPolyline
 62
253
  6
CONTINUOUS
 90
4
 70
0
 10
24.7948984432
 20
26.8781748302
 10
24.7798694042
 20
26.8179751356
 10
24.7469555487
 20
26.6922761474
 10
24.7116126334
 20
26.5621489282
  0
LINE
  5
383
100
AcDbEntity
  8
DRAFT
100
AcDbLine
 62
7
  6
CONTINUOUS
 10
28.5467843228
 20
-6.5501548903
 11
27.8520201364
 21
-6.9513044014
  0
LINE
  5
384
100
AcDbEntity
  8
0
100
AcDbLine
 62
7
  6
CONTINUOUS
 10
22.2171178958
 20
-9.9423204414
 11
20.4923817057
 21
-10.9061974293
  0
LINE
  5
385
100
AcDbEntity
  8
RACCORDO
100
AcDbLine
 62
7
  6
CONTINUOUS
 10
22.1984304795
 20
-9.7638052175
 11
22.0158723547
 21
-9.8619790692
  0
LINE
  5
386
100
AcDbEntity
  8
RACCORDO
100
AcDbLine
 62
253
  6
CONTINUOUS
 10
25.543219912
 20
27.5292145445
 11
25.6056036333
 21
27.5410637677
  0
LWPOLYLINE
  5
387
100
AcDbEntity
  8
RACCORDO
100
AcDbPolyline
 62
253
  6
CONTINUOUS
 90
10
 70
0
 10
24.5852140109
 20
26.5264315236
 10
24.5961493787
 20
26.5283065716
 10
24.6081662691
 20
26.5306569707
 10
24.6211338886
 20
26.5335328931
 10
24.6348589942
 20
26.5370423268
 10
24.6492338284
 20
26.5411563912
 10
24.6642475301
 20
26.5457158302
 10
24.6797877396
 20
26.5506877914
 10
24.6956336256
 20
26.5561579606
 10
24.711610633
 20
26.5621411975
  0
LWPOLYLINE
  5
388
100
AcDbEntity
  8
RACCORDO
100
AcDbPolyline
 62
7
  6
CONTINUOUS
 90
7
 70
0
 10
28.0527402918
 20
21.7356145049
 10
28.0616430065
 20
21.7370056267
 10
28.0906815575
 20
21.7430939885
 10
28.1190973217
 20
21.751459962
 10
28.1467020905
 20
21.7620517286
 10
28.1732991677
 20
21.7747915864
 10
28.1775390239
 20
21.7770722448
  0
LINE
  5
389
100
AcDbEntity
  8
RACCORDO
100
AcDbLine
 62
7
  6
CONTINUOUS
 10
28.052740292
 20
21.7356145049
 11
28.0527864593
 21
21.7356211528
  0
LINE
  5
38A
100
AcDbEntity
  8
RACCORDO
100
AcDbLine
 62
253
  6
CONTINUOUS
 10
28.0480445558
 20
21.7349985995
 11
28.052740292
 21
21.7356145049
  0
LWPOLYLINE
  5
38B
100
AcDbEntity
  8
0
100
AcDbPolyline
 62
7
  6
CONTINUOUS
 90
12
 70
0
 10
-12.8173189097
 20
27.4149505707
 10
-12.8592127855
 20
27.4381547609
 10
-12.9004442338
 20
27.4574004483
 10
-12.9410135044
 20
27.4726874933
 10
-12.9811717487
 20
27.4840577523
 10
-13.0206682427
 20
27.49146913
 10
-13.058750692
 20
27.4947954089
 10
-13.0953144914
 20
27.4939808983
 10
-13.1304652442
 20
27.4890807332
 10
-13.1637663583
 20
27.4801347194
 10
-13.1952850933
 20
27.4670413823
 10
-13.2065613451
 20
27.4611258093
  0
LWPOLYLINE
  5
38C
100
AcDbEntity
  8
0
100
AcDbPolyline
 62
7
  6
CONTINUOUS
 90
10
 70
0
 10
-0.2178290398
 20
20.1401630285
 10
-1.6405559547
 20
20.9352287934
 10
-3.0576062382
 20
21.7336166737
 10
-4.4689798904
 20
22.5353266695
 10
-5.8747026015
 20
23.3403736138
 10
-7.2747486811
 20
24.1487426735
 10
-8.6690410588
 20
24.960389349
 10
-10.0575540444
 20
25.7752988071
 10
-11.440313328
 20
26.593485881
 10
-12.8173189097
 20
27.4149505707
  0
LINE
  5
38D
100
AcDbEntity
  8
RACCORDO
100
AcDbLine
 62
7
  6
CONTINUOUS
 10
20.4131022979
 20
11.5333724328
 11
20.6315510265
 21
11.4072428747
  0
LINE
  5
38E
100
AcDbEntity
  8
RACCORDO
100
AcDbLine
 62
253
  6
CONTINUOUS
 10
20.6812705746
 20
12.1830023014
 11
20.8355423984
 21
12.0939276838
  0
LWPOLYLINE
  5
38F
100
AcDbEntity
  8
DRAFT
100
AcDbPolyline
 62
7
  6
CONTINUOUS
 90
26
 70
0
 10
32.5603583465
 20
-36.0421582036
 10
32.4654379081
 20
-35.7882706804
 10
32.3628307114
 20
-35.5345911139
 10
32.252688459
 20
-35.2813876392
 10
32.1358312587
 20
-35.0305389106
 10
32.0123625573
 20
-34.782349804
 10
31.8821789079
 20
-34.5365154435
 10
31.745790077
 20
-34.2939998567
 10
31.6029929501
 20
-34.054532594
 10
31.4539906417
 20
-33.8183841049
 10
31.2999022612
 20
-33.5873297648
 10
31.1408798169
 20
-33.3616656005
 10
30.9767713004
 20
-33.1410955853
 10
30.8082397966
 20
-32.9265070133
 10
30.6350806964
 20
-32.717707202
 10
30.4574986088
 20
-32.514888834
 10
30.2767704458
 20
-32.3195172518
 10
30.093037873
 20
-32.1318095918
 10
29.9061592248
 20
-31.9515487177
 10
29.7169864169
 20
-31.7795485624
 10
29.525384596
 20
-31.6157406383
 10
29.3314886153
 20
-31.460193433
 10
29.1365549501
 20
-31.3139263428
 10
28.9410024255
 20
-31.1772791665
 10
28.7444122164
 20
-31.0499121054
 10
28.5467843228
 20
-30.9318251593
  0
LWPOLYLINE
  5
390
100
AcDbEntity
  8
RACCORDO
100
AcDbPolyline
 62
253
  6
CONTINUOUS
 90
20
 70
0
 10
28.7658031132
 20
-38.7310419719
 10
28.8097976053
 20
-38.889121707
 10
28.8478553276
 20
-39.0466071547
 10
28.8796659723
 20
-39.2022144695
 10
28.9051785282
 20
-39.3559284883
 10
28.9244440066
 20
-39.5077643743
 10
28.9373051335
 20
-39.6564837713
 10
28.9437094843
 20
-39.8020614291
 10
28.9437094836
 20
-39.9445225979
 10
28.9373051314
 20
-40.0827046714
 10
28.9244440028
 20
-40.2165723614
 10
28.9051785227
 20
-40.3461609561
 10
28.8796659656
 20
-40.4704137137
 10
28.8478553206
 20
-40.5892868892
 10
28.8097975987
 20
-40.7028242276
 10
28.7658031068
 20
-40.8101002213
 10
28.715823267
 20
-40.9110638375
 10
28.6599066572
 20
-41.0057661091
 10
28.5985093182
 20
-41.0934346279
 10
28.5315864352
 20
-41.1740118487
  0
LWPOLYLINE
  5
391
100
AcDbEntity
  8
RACCORDO
100
AcDbPolyline
 62
253
  6
CONTINUOUS
 90
16
 70
0
 10
30.3972939345
 20
-38.2954248612
 10
30.3392557383
 20
-38.067443536
 10
30.2741881845
 20
-37.8380082338
 10
30.2024267612
 20
-37.6083039591
 10
30.1239354701
 20
-37.3783274546
 10
30.0387503096
 20
-37.1480819775
 10
29.9473147638
 20
-36.9187623037
 10
29.849599239
 20
-36.6903797776
 10
29.745633329
 20
-36.4629230547
 10
29.6359492995
 20
-36.2375528769
 10
29.5205261594
 20
-36.0142905759
 10
29.3993848999
 20
-35.79311482
 10
29.2731207604
 20
-35.575122355
 10
29.1419321539
 20
-35.3606787628
 10
29.0056206673
 20
-35.1494184615
 10
28.8641863006
 20
-34.9413414511
  0
LWPOLYLINE
  5
392
100
AcDbEntity
  8
RACCORDO
100
AcDbPolyline
 62
253
  6
CONTINUOUS
 90
7
 70
0
 10
25.5622674507
 20
-37.7406101566
 10
25.5638003509
 20
-37.7476663133
 10
25.5662937186
 20
-37.753942398
 10
25.5696767489
 20
-37.7592601866
 10
25.5738533727
 20
-37.763468668
 10
25.5787049849
 20
-37.7664483324
 10
25.5800508919
 20
-37.7670069211
  0
LWPOLYLINE
  5
393
100
AcDbEntity
  8
RACCORDO
100
AcDbPolyline
 62
253
  6
CONTINUOUS
 90
7
 70
0
 10
26.228366263
 20
-37.9895906767
 10
26.2298991637
 20
-37.9966468201
 10
26.2323925281
 20
-38.0029228983
 10
26.2357755534
 20
-38.0082406866
 10
26.2399521722
 20
-38.0124491724
 10
26.244803781
 20
-38.0154288441
 10
26.2462151703
 20
-38.0160120284
  0
LWPOLYLINE
  5
394
100
AcDbEntity
  8
RACCORDO
100
AcDbPolyline
 62
7
  6
CONTINUOUS
 90
16
 70
0
 10
28.8710650512
 20
-42.9891659585
 10
28.8747074051
 20
-43.0062623837
 10
28.8784590642
 20
-43.0227050994
 10
28.8822694721
 20
-43.0384047221
 10
28.8860712712
 20
-43.0532844078
 10
28.8898167605
 20
-43.0672440193
 10
28.8934762064
 20
-43.080167985
 10
28.8969623303
 20
-43.0919557943
 10
28.9002179737
 20
-43.1025674985
 10
28.9032570232
 20
-43.1119683892
 10
28.9059983335
 20
-43.1200647813
 10
28.9083664965
 20
-43.1267857123
 10
28.9103831554
 20
-43.1320748037
 10
28.9119455899
 20
-43.1358214399
 10
28.912963297
 20
-43.1379149644
 10
28.9133679931
 20
-43.1383296615
  0
LWPOLYLINE
  5
395
100
AcDbEntity
  8
RACCORDO
100
AcDbPolyline
 62
253
  6
CONTINUOUS
 90
15
 70
0
 10
26.5000114889
 20
-37.2464968424
 10
26.4992798494
 20
-37.2428339955
 10
26.4988601708
 20
-37.2394821281
 10
26.4987219606
 20
-37.2364485992
 10
26.4988267351
 20
-37.2337382497
 10
26.4991553141
 20
-37.2313486117
 10
26.499709242
 20
-37.2292725615
 10
26.5004735416
 20
-37.2275019581
 10
26.5014174462
 20
-37.2260345836
 10
26.5025211746
 20
-37.2248667558
 10
26.5037602045
 20
-37.2239886588
 10
26.5051219382
 20
-37.2233759493
 10
26.5066077291
 20
-37.2230071384
 10
26.5081898814
 20
-37.2228732589
 10
26.5092213199
 20
-37.2229033998
  0
LWPOLYLINE
  5
396
100
AcDbEntity
  8
RACCORDO
100
AcDbPolyline
 62
7
  6
CONTINUOUS
 90
7
 70
0
 10
28.8710650512
 20
-42.9891659585
 10
28.8689959619
 20
-42.9781892649
 10
28.867295925
 20
-42.9667923819
 10
28.8659649404
 20
-42.9549753096
 10
28.8650030081
 20
-42.9427380478
 10
28.8644101282
 20
-42.9300805967
 10
28.8641863006
 20
-42.9170029562
  0
LWPOLYLINE
  5
397
100
AcDbEntity
  8
RACCORDO
100
AcDbPolyline
 62
253
  6
CONTINUOUS
 90
13
 70
0
 10
26.3825602969
 20
-38.7638498109
 10
26.3796470095
 20
-38.7477665454
 10
26.3754340648
 20
-38.7307909377
 10
26.369844199
 20
-38.7130430077
 10
26.3627587554
 20
-38.6945228002
 10
26.354176453
 20
-38.675577398
 10
26.3443104566
 20
-38.6568828997
 10
26.333233873
 20
-38.6386584934
 10
26.3210628522
 20
-38.6211276631
 10
26.3082458329
 20
-38.6048960201
 10
26.2950736013
 20
-38.5902104951
 10
26.2816074114
 20
-38.5770317231
 10
26.268002223
 20
-38.5654294066
  0
LINE
  5
398
100
AcDbEntity
  8
RACCORDO
100
AcDbLine
 62
253
  6
CONTINUOUS
 10
26.7425800218
 20
-37.4107511108
 11
26.7439994822
 21
-37.4189839504
  0
LWPOLYLINE
  5
399
100
AcDbEntity
  8
RACCORDO
100
AcDbPolyline
 62
253
  6
CONTINUOUS
 90
13
 70
0
 10
26.3142848185
 20
-38.7701983342
 10
26.3122614783
 20
-38.7578633414
 10
26.3091458112
 20
-38.7450837297
 10
26.3049378172
 20
-38.731859499
 10
26.2995659048
 20
-38.7179106345
 10
26.2931016655
 20
-38.703517151
 10
26.2857598742
 20
-38.6895190931
 10
26.2774396717
 20
-38.6759791327
 10
26.2682419173
 20
-38.6628345979
 10
26.2586839639
 20
-38.6507375174
 10
26.2489382626
 20
-38.6399052343
 10
26.2388323623
 20
-38.6301204054
 10
26.228366263
 20
-38.621383031
  0
LWPOLYLINE
  5
39A
100
AcDbEntity
  8
RACCORDO
100
AcDbPolyline
 62
253
  6
CONTINUOUS
 90
3
 70
0
 10
26.8614506747
 20
-38.2559186754
 10
26.8634740149
 20
-38.2682536682
 10
26.866589682
 20
-38.28103328
  0
LWPOLYLINE
  5
39B
100
AcDbEntity
  8
RACCORDO
100
AcDbPolyline
 62
7
  6
CONTINUOUS
 90
4
 70
0
 10
26.8472824537
 20
-38.242389031
 10
26.8485527008
 20
-38.2504253579
 10
26.8547165758
 20
-38.2769464871
 10
26.8637845394
 20
-38.3033389226
  0
LINE
  5
39C
100
AcDbEntity
  8
RACCORDO
100
AcDbLine
 62
253
  6
CONTINUOUS
 10
26.4317360067
 20
-39.6071330294
 11
26.3142848185
 21
-38.7701983342
  0
LINE
  5
39D
100
AcDbEntity
  8
RACCORDO
100
AcDbLine
 62
253
  6
CONTINUOUS
 10
26.5000114851
 20
-39.6007845059
 11
26.3825602969
 21
-38.7638498109
  0
LINE
  5
39E
100
AcDbEntity
  8
RACCORDO
100
AcDbLine
 62
7
  6
CONTINUOUS
 10
26.7298400139
 20
-37.4055188787
 11
26.8472912086
 21
-38.2424536199
  0
LINE
  5
39F
100
AcDbEntity
  8
RACCORDO
100
AcDbLine
 62
253
  6
CONTINUOUS
 10
26.7439994822
 20
-37.4189839504
 11
26.8614506747
 21
-38.2559186754
  0
LWPOLYLINE
  5
3A0
100
AcDbEntity
  8
RACCORDO
100
AcDbPolyline
 62
253
  6
CONTINUOUS
 90
9
 70
0
 10
26.4978208416
 20
-37.1992034252
 10
26.4983969546
 20
-37.2039833132
 10
26.499443396
 20
-37.2084225054
 10
26.5009460153
 20
-37.2124609687
 10
26.5028844932
 20
-37.2160440892
 10
26.5052326161
 20
-37.2191234101
 10
26.5079586298
 20
-37.2216572876
 10
26.5110256702
 20
-37.2236114541
 10
26.5114574332
 20
-37.2238263271
  0
LWPOLYLINE
  5
3A1
100
AcDbEntity
  8
RACCORDO
100
AcDbPolyline
 62
7
  6
CONTINUOUS
 90
12
 70
0
 10
25.224655483
 20
22.8471977524
 10
25.2291328205
 20
22.8054408229
 10
25.2370585518
 20
22.7631662826
 10
25.248244791
 20
22.7212706784
 10
25.2626631175
 20
22.6796975562
 10
25.2803092612
 20
22.6385437151
 10
25.3007151311
 20
22.5988783966
 10
25.3237984723
 20
22.5607362082
 10
25.3495775894
 20
22.5241516612
 10
25.3774142137
 20
22.4900255453
 10
25.4072214354
 20
22.4584151355
 10
25.4390621084
 20
22.4293104171
  0
LINE
  5
3A2
100
AcDbEntity
  8
RACCORDO
100
AcDbLine
 62
253
  6
CONTINUOUS
 10
27.6800769313
 20
-39.0340413811
 11
27.68070848
 21
-39.0400771898
  0
LWPOLYLINE
  5
3A3
100
AcDbEntity
  8
RACCORDO
100
AcDbPolyline
 62
253
  6
CONTINUOUS
 90
10
 70
0
 10
26.9473692301
 20
-39.036526333
 10
26.9468403228
 20
-39.0288904964
 10
26.9473304301
 20
-39.0208917989
 10
26.9488256359
 20
-39.0127573812
 10
26.951283482
 20
-39.0047182385
 10
26.9546341736
 20
-38.9970026613
 10
26.9587825615
 20
-38.9898297524
 10
26.9636108435
 20
-38.9834032046
 10
26.96898191
 20
-38.9779055167
 10
26.9747432374
 20
-38.9734928108
  0
LWPOLYLINE
  5
3A4
100
AcDbEntity
  8
RACCORDO
100
AcDbPolyline
 62
253
  6
CONTINUOUS
 90
10
 70
0
 10
27.6134680187
 20
-39.2855068441
 10
27.6129391164
 20
-39.2778709917
 10
27.6134292315
 20
-39.2698722813
 10
27.614924446
 20
-39.2617378554
 10
27.6173822997
 20
-39.2536987098
 10
27.6207329961
 20
-39.2459831352
 10
27.6248813843
 20
-39.2388102333
 10
27.6297096611
 20
-39.2323836956
 10
27.6350807162
 20
-39.2268860186
 10
27.6408420259
 20
-39.2224733219
  0
LWPOLYLINE
  5
3A5
100
AcDbEntity
  8
RACCORDO
100
AcDbPolyline
 62
253
  6
CONTINUOUS
 90
10
 70
0
 10
25.4950270172
 20
-37.9860398241
 10
25.4935638057
 20
-37.9621010778
 10
25.4924663993
 20
-37.9383677845
 10
25.4917347978
 20
-37.9148399442
 10
25.4913690044
 20
-37.8915136795
 10
25.4913690159
 20
-37.8683928678
 10
25.4917348236
 20
-37.8454891412
 10
25.4924664243
 20
-37.822806377
 10
25.4935638212
 20
-37.800340698
 10
25.4950270141
 20
-37.778092104
  0
LWPOLYLINE
  5
3A6
100
AcDbEntity
  8
RACCORDO
100
AcDbPolyline
 62
253
  6
CONTINUOUS
 90
7
 70
0
 10
25.5432199149
 20
-37.9905488267
 10
25.5417981332
 20
-37.9673027737
 10
25.5407313815
 20
-37.9442354627
 10
25.5400200159
 20
-37.9213545924
 10
25.5396642738
 20
-37.8986677994
 10
25.5396642739
 20
-37.8761826556
 10
25.5400200158
 20
-37.8539066654
  0
LINE
  5
3A7
100
AcDbEntity
  8
RACCORDO
100
AcDbLine
 62
7
  6
CONTINUOUS
 10
27.6675982493
 20
-39.0462564303
 11
27.6661808133
 21
-39.023082248
  0
LINE
  5
3A8
100
AcDbEntity
  8
RACCORDO
100
AcDbLine
 62
253
  6
CONTINUOUS
 10
27.68070848
 20
-39.0400771898
 11
27.6821716897
 21
-39.0640159346
  0
LWPOLYLINE
  5
3A9
100
AcDbEntity
  8
RACCORDO
100
AcDbPolyline
 62
253
  6
CONTINUOUS
 90
10
 70
0
 10
25.4950270172
 20
27.3315823194
 10
25.4935638057
 20
27.3555210657
 10
25.4924663993
 20
27.379254359
 10
25.4917347978
 20
27.4027821993
 10
25.4913690044
 20
27.426108464
 10
25.4913690159
 20
27.4492292756
 10
25.4917348236
 20
27.4721330022
 10
25.4924664243
 20
27.4948157664
 10
25.4935638212
 20
27.5172814455
 10
25.4950270141
 20
27.5395300394
  0
LWPOLYLINE
  5
3AA
100
AcDbEntity
  8
RACCORDO
100
AcDbPolyline
 62
253
  6
CONTINUOUS
 90
7
 70
0
 10
25.5432199149
 20
27.3270733167
 10
25.5417981332
 20
27.3503193697
 10
25.5407313815
 20
27.3733866808
 10
25.5400200159
 20
27.396267551
 10
25.5396642738
 20
27.418954344
 10
25.5396642739
 20
27.4414394878
 10
25.5400200158
 20
27.463715478
  0
LWPOLYLINE
  5
3AB
100
AcDbEntity
  8
0
100
AcDbPolyline
 62
7
  6
CONTINUOUS
 90
19
 70
0
 10
28.5677667339
 20
-39.6562273661
 10
28.5528995978
 20
-39.3765318905
 10
28.5130987581
 20
-39.0929187222
 10
28.4483642149
 20
-38.8053878611
 10
28.357160114
 20
-38.5099809152
 10
28.2410223096
 20
-38.2106562765
 10
28.1045583638
 20
-37.9192891213
 10
27.9469510657
 20
-37.6361993795
 10
27.7690176262
 20
-37.3610671211
 10
27.5778172402
 20
-37.1048077323
 10
27.3728165112
 20
-36.8681799954
 10
27.1545488355
 20
-36.6504251281
 10
26.9316735977
 20
-36.46018217
 10
26.704005551
 20
-36.2985572353
 10
26.4717299421
 20
-36.1644442099
 10
26.2440618955
 20
-36.063163791
 10
26.0211866576
 20
-35.9960360109
 10
25.802918982
 20
-35.9617408375
 10
25.5979182529
 20
-35.961638871
  0
LWPOLYLINE
  5
3AC
100
AcDbEntity
  8
RACCORDO
100
AcDbPolyline
 62
7
  6
CONTINUOUS
 90
19
 70
0
 10
28.9106224713
 20
-34.3034574881
 10
28.9124580682
 20
-34.3405361514
 10
28.9133534849
 20
-34.377405931
 10
28.9134603013
 20
-34.4139029196
 10
28.912963297
 20
-34.4498403744
 10
28.9119455899
 20
-34.4851111431
 10
28.9103831554
 20
-34.5196996509
 10
28.9083664965
 20
-34.5534807061
 10
28.9059983335
 20
-34.5863757832
 10
28.9032570232
 20
-34.6184680813
 10
28.9002179737
 20
-34.6497124326
 10
28.8969623303
 20
-34.6800041614
 10
28.8934762064
 20
-34.7093497992
 10
28.8898167605
 20
-34.7377452333
 10
28.8860712712
 20
-34.7650709874
 10
28.8822694721
 20
-34.7911672907
 10
28.8784590642
 20
-34.8159502307
 10
28.8747074051
 20
-34.8394102296
 10
28.8710650512
 20
-34.8615075881
  0
LWPOLYLINE
  5
3AD
100
AcDbEntity
  8
0
100
AcDbPolyline
 62
7
  6
CONTINUOUS
 90
5
 70
0
 10
28.8152541073
 20
-39.5133312585
 10
28.8018667387
 20
-39.2401996012
 10
28.7618856739
 20
-38.9553021832
 10
28.6958515883
 20
-38.6624917534
 10
28.6271855606
 20
-38.4390389059
  0
LWPOLYLINE
  5
3AE
100
AcDbEntity
  8
RACCORDO
100
AcDbPolyline
 62
253
  6
CONTINUOUS
 90
3
 70
0
 10
27.6821716897
 20
-39.0640159346
 10
27.6832690948
 20
-39.0877492268
 10
27.6840006953
 20
-39.1112770661
  0
LWPOLYLINE
  5
3AF
100
AcDbEntity
  8
RACCORDO
100
AcDbPolyline
 62
253
  6
CONTINUOUS
 90
9
 70
0
 10
25.9366497553
 20
-51.0608813232
 10
25.9377861236
 20
-51.0855444683
 10
25.9411830737
 20
-51.108631191
 10
25.9468042314
 20
-51.1298941279
 10
25.9545893888
 20
-51.1491054459
 10
25.9644551564
 20
-51.1660593025
 10
25.976295862
 20
-51.1805740441
 10
25.9899846706
 20
-51.1924941321
 10
25.9987745299
 20
-51.1982023748
  0
LWPOLYLINE
  5
3B0
100
AcDbEntity
  8
RACCORDO
100
AcDbPolyline
 62
7
  6
CONTINUOUS
 90
7
 70
0
 10
24.5266353849
 20
-35.8406145388
 10
24.5271974524
 20
-35.855647166
 10
24.5286898334
 20
-35.8692563373
 10
24.5311108602
 20
-35.8827365869
 10
24.5344619452
 20
-35.8960651844
 10
24.5387378862
 20
-35.9091798917
 10
24.5441456413
 20
-35.9225014487
  0
LWPOLYLINE
  5
3B1
100
AcDbEntity
  8
RACCORDO
100
AcDbPolyline
 62
7
  6
CONTINUOUS
 90
7
 70
0
 10
24.5266353849
 20
29.4770092739
 10
24.5271974353
 20
29.4619768755
 10
24.5286897899
 20
29.4483677784
 10
24.5311107799
 20
29.4348876002
 10
24.534461818
 20
29.4215590709
 10
24.5387377019
 20
29.4084444275
 10
24.5441456368
 20
29.3951223751
  0
LWPOLYLINE
  5
3B2
100
AcDbEntity
  8
RACCORDO
100
AcDbPolyline
 62
7
  6
CONTINUOUS
 90
13
 70
0
 10
28.8641863006
 20
-36.073925861
 10
28.8652798367
 20
-36.1063270832
 10
28.868427971
 20
-36.1393854408
 10
28.8736307036
 20
-36.1731009339
 10
28.8809452871
 20
-36.2076961829
 10
28.8903144689
 20
-36.2429485674
 10
28.9015664911
 20
-36.2781902261
 10
28.9147366373
 20
-36.3134095814
 10
28.9297896237
 20
-36.3486182109
 10
28.9464478413
 20
-36.3831829867
 10
28.9646187537
 20
-36.4168928659
 10
28.9843948971
 20
-36.4499588914
 10
29.0057762716
 20
-36.482381063
  0
LINE
  5
3B3
100
AcDbEntity
  8
RACCORDO
100
AcDbLine
 62
7
  6
CONTINUOUS
 10
25.2235371343
 20
-42.4371052167
 11
25.224655483
 21
-42.4704243911
  0
LINE
  5
3B4
100
AcDbEntity
  8
RACCORDO
100
AcDbLine
 62
7
  6
CONTINUOUS
 10
25.2235371343
 20
22.8805169267
 11
25.224655483
 21
22.8471977524
  0
LWPOLYLINE
  5
3B5
100
AcDbEntity
  8
RACCORDO
100
AcDbPolyline
 62
253
  6
CONTINUOUS
 90
16
 70
0
 10
28.2848599596
 20
-35.1947934586
 10
28.2839600126
 20
-35.1674855425
 10
28.2815588642
 20
-35.1395741322
 10
28.2776949448
 20
-35.1111925893
 10
28.2724372119
 20
-35.0825918572
 10
28.2658213348
 20
-35.053784523
 10
28.2577922631
 20
-35.0245303059
 10
28.2483586281
 20
-34.9949445926
 10
28.2375361764
 20
-34.9651525252
 10
28.2251922904
 20
-34.9349246651
 10
28.2112562457
 20
-34.904285652
 10
28.1957707582
 20
-34.873512741
 10
28.1787424207
 20
-34.842776916
 10
28.1601921501
 20
-34.8122623523
 10
28.1401563005
 20
-34.7821657267
 10
28.1186854331
 20
-34.7526952101
  0
LWPOLYLINE
  5
3B6
100
AcDbEntity
  8
RACCORDO
100
AcDbPolyline
 62
253
  6
CONTINUOUS
 90
22
 70
0
 10
26.0780495724
 20
41.6558932135
 10
26.077647498
 20
41.6682444627
 10
26.0765032023
 20
41.680825913
 10
26.0746166853
 20
41.6936375645
 10
26.0719708737
 20
41.7067467038
 10
26.0685828408
 20
41.7200860443
 10
26.0645038058
 20
41.7334537261
 10
26.0597178276
 20
41.7468616614
 10
26.0542408474
 20
41.760297938
 10
26.0481719074
 20
41.7735249592
 10
26.0415225335
 20
41.786508407
 10
26.0342811998
 20
41.7992825995
 10
26.0265123715
 20
41.8117128944
 10
26.018213429
 20
41.8238106719
 10
26.0093869919
 20
41.8355645518
 10
26.0001053838
 20
41.8468057511
 10
25.9903316771
 20
41.8575648317
 10
25.9801027994
 20
41.8678112317
 10
25.9696018577
 20
41.8772844834
 10
25.9588898876
 20
41.8858977641
 10
25.9479058534
 20
41.8937378966
 10
25.9366497553
 20
41.9008048806
  0
LWPOLYLINE
  5
3B7
100
AcDbEntity
  8
RACCORDO
100
AcDbPolyline
 62
253
  6
CONTINUOUS
 90
22
 70
0
 10
25.3114050757
 20
-42.5596572253
 10
25.311795388
 20
-42.5718300449
 10
25.3129082036
 20
-42.5842301385
 10
25.3147435225
 20
-42.5968575061
 10
25.3173174199
 20
-42.6097766191
 10
25.3206138207
 20
-42.6229230061
 10
25.3245844991
 20
-42.6361032532
 10
25.3292452224
 20
-42.649329937
 10
25.3345802234
 20
-42.6625904809
 10
25.3404939747
 20
-42.6756537413
 10
25.3469725213
 20
-42.6884822925
 10
25.3540298181
 20
-42.7011135603
 10
25.3616122022
 20
-42.7134286777
 10
25.3697200158
 20
-42.7254398239
 10
25.3783529166
 20
-42.7371348198
 10
25.3874562143
 20
-42.7483582602
 10
25.3970701635
 20
-42.7591475607
 10
25.4071545096
 20
-42.7694653057
 10
25.4175337986
 20
-42.779043844
 10
25.4281495458
 20
-42.7877939587
 10
25.4390602358
 20
-42.7958048667
 10
25.4502658687
 20
-42.8030765681
  0
LWPOLYLINE
  5
3B8
100
AcDbEntity
  8
RACCORDO
100
AcDbPolyline
 62
253
  6
CONTINUOUS
 90
22
 70
0
 10
25.3114050757
 20
22.7579649182
 10
25.311795388
 20
22.7457920986
 10
25.3129082036
 20
22.7333920049
 10
25.3147435225
 20
22.7207646373
 10
25.3173174199
 20
22.7078455243
 10
25.3206138207
 20
22.6946991373
 10
25.3245844991
 20
22.6815188902
 10
25.3292452224
 20
22.6682922064
 10
25.3345802234
 20
22.6550316625
 10
25.3404939747
 20
22.6419684022
 10
25.3469725213
 20
22.6291398509
 10
25.3540298181
 20
22.6165085831
 10
25.3616122022
 20
22.6041934658
 10
25.3697200158
 20
22.5921823195
 10
25.3783529166
 20
22.5804873236
 10
25.3874562143
 20
22.5692638832
 10
25.3970701635
 20
22.5584745828
 10
25.4071545096
 20
22.5481568378
 10
25.4175337986
 20
22.5385782994
 10
25.4281495458
 20
22.5298281847
 10
25.4390602358
 20
22.5218172767
 10
25.4502658687
 20
22.5145455753
  0
LWPOLYLINE
  5
3B9
100
AcDbEntity
  8
RACCORDO
100
AcDbPolyline
 62
253
  6
CONTINUOUS
 90
16
 70
0
 10
27.8643304175
 20
-35.1926744991
 10
27.8639930503
 20
-35.1816343
 10
27.8630824474
 20
-35.1704620845
 10
27.8615986087
 20
-35.1591578528
 10
27.8595409401
 20
-35.1477198535
 10
27.8569100358
 20
-35.1361498379
 10
27.8537076779
 20
-35.1244530598
 10
27.8499518036
 20
-35.1126251743
 10
27.8456244758
 20
-35.1006705264
 10
27.8406736662
 20
-35.088607405
 10
27.8350787368
 20
-35.0763734661
 10
27.8288603257
 20
-35.0640310538
 10
27.8220283187
 20
-35.0517854887
 10
27.8145860113
 20
-35.0397052113
 10
27.8065301081
 20
-35.0277217812
 10
27.7978606092
 20
-35.0158351984
  0
LWPOLYLINE
  5
3BA
100
AcDbEntity
  8
RACCORDO
100
AcDbPolyline
 62
253
  6
CONTINUOUS
 90
8
 70
0
 10
25.4502658687
 20
-42.8030765681
 10
25.451008532
 20
-42.8275087415
 10
25.4540160703
 20
-42.8503668552
 10
25.4592562647
 20
-42.8714059984
 10
25.4666729752
 20
-42.8904007492
 10
25.4761867415
 20
-42.9071475877
 10
25.4876956336
 20
-42.9214670776
 10
25.5010763456
 20
-42.9332057916
  0
LWPOLYLINE
  5
3BB
100
AcDbEntity
  8
RACCORDO
100
AcDbPolyline
 62
253
  6
CONTINUOUS
 90
8
 70
0
 10
25.4502658687
 20
22.5145455753
 10
25.451008532
 20
22.4901134019
 10
25.4540160703
 20
22.4672552882
 10
25.4592562647
 20
22.446216145
 10
25.4666729752
 20
22.4272213942
 10
25.4761867415
 20
22.4104745558
 10
25.4876956336
 20
22.3961550658
 10
25.5010763456
 20
22.3844163518
  0
LWPOLYLINE
  5
3BC
100
AcDbEntity
  8
RACCORDO
100
AcDbPolyline
 62
7
  6
CONTINUOUS
 90
6
 70
0
 10
24.5266353689
 20
-39.0296633881
 10
24.5274241006
 20
-39.0575061572
 10
24.5296334462
 20
-39.0827223147
 10
24.5332072141
 20
-39.1064079322
 10
24.5383196995
 20
-39.1295078718
 10
24.5452176527
 20
-39.1523270063
  0
LWPOLYLINE
  5
3BD
100
AcDbEntity
  8
RACCORDO
100
AcDbPolyline
 62
7
  6
CONTINUOUS
 90
6
 70
0
 10
24.5266353689
 20
26.2879587553
 10
24.5274241006
 20
26.2601159862
 10
24.5296334462
 20
26.2348998288
 10
24.5332072141
 20
26.2112142113
 10
24.5383196995
 20
26.1881142717
 10
24.5452176527
 20
26.1652951372
  0
LWPOLYLINE
  5
3BE
100
AcDbEntity
  8
RACCORDO
100
AcDbPolyline
 62
253
  6
CONTINUOUS
 90
10
 70
0
 10
26.6779146499
 20
-39.8269135881
 10
26.6778166499
 20
-39.8218576437
 10
26.678198094
 20
-39.8165940084
 10
26.6790538246
 20
-39.8111938634
 10
26.6803722706
 20
-39.8057302357
 10
26.6821356031
 20
-39.8002770117
 10
26.6843199766
 20
-39.7949079379
 10
26.6868958517
 20
-39.7896956224
 10
26.6898283947
 20
-39.784710553
 10
26.6930779483
 20
-39.7800201451
  0
LWPOLYLINE
  5
3BF
100
AcDbEntity
  8
RACCORDO
100
AcDbPolyline
 62
253
  6
CONTINUOUS
 90
10
 70
0
 10
26.6779146499
 20
25.4907085553
 10
26.6778166499
 20
25.4957644997
 10
26.678198094
 20
25.501028135
 10
26.6790538246
 20
25.5064282801
 10
26.6803722706
 20
25.5118919078
 10
26.6821356031
 20
25.5173451317
 10
26.6843199766
 20
25.5227142055
 10
26.6868958517
 20
25.5279265211
 10
26.6898283947
 20
25.5329115904
 10
26.6930779483
 20
25.5376019983
  0
LINE
  5
3C0
100
AcDbEntity
  8
RACCORDO
100
AcDbLine
 62
253
  6
CONTINUOUS
 10
27.6840006953
 20
-39.1112770661
 11
27.6843664883
 21
-39.13460333
  0
LINE
  5
3C1
100
AcDbEntity
  8
RACCORDO
100
AcDbLine
 62
7
  6
CONTINUOUS
 10
23.1044994309
 20
43.5360529827
 11
23.1036612929
 21
43.6084255071
  0
LWPOLYLINE
  5
3C2
100
AcDbEntity
  8
RACCORDO
100
AcDbPolyline
 62
253
  6
CONTINUOUS
 90
16
 70
0
 10
24.5266353671
 20
-35.8406632356
 10
24.5266451137
 20
-35.8418032693
 10
24.52701444
 20
-35.847769688
 10
24.5279206286
 20
-35.8537337971
 10
24.5293605766
 20
-35.8596614508
 10
24.531328077
 20
-35.8655315654
 10
24.5338185431
 20
-35.8713337207
 10
24.536823751
 20
-35.8770503311
 10
24.5403338728
 20
-35.8826649623
 10
24.5443392748
 20
-35.888164137
 10
24.5488299509
 20
-35.893535139
 10
24.5537935498
 20
-35.8987637548
 10
24.5592164621
 20
-35.9038361539
 10
24.5650858601
 20
-35.9087405157
 10
24.5713868889
 20
-35.9134642398
 10
24.5781022158
 20
-35.9179941575
  0
LWPOLYLINE
  5
3C3
100
AcDbEntity
  8
RACCORDO
100
AcDbPolyline
 62
253
  6
CONTINUOUS
 90
16
 70
0
 10
24.5266353671
 20
29.4769605782
 10
24.5266451137
 20
29.4758205446
 10
24.52701444
 20
29.4698541258
 10
24.5279206286
 20
29.4638900168
 10
24.5293605766
 20
29.457962363
 10
24.531328077
 20
29.4520922484
 10
24.5338185431
 20
29.4462900932
 10
24.536823751
 20
29.4405734828
 10
24.5403338728
 20
29.4349588516
 10
24.5443392748
 20
29.4294596769
 10
24.5488299509
 20
29.4240886749
 10
24.5537935498
 20
29.4188600591
 10
24.5592164621
 20
29.4137876599
 10
24.5650858601
 20
29.4088832982
 10
24.5713868889
 20
29.404159574
 10
24.5781022158
 20
29.3996296563
  0
LINE
  5
3C4
100
AcDbEntity
  8
RACCORDO
100
AcDbLine
 62
7
  6
CONTINUOUS
 10
23.1036612929
 20
43.6084255071
 11
23.1031177202
 21
43.6985725817
  0
LINE
  5
3C5
100
AcDbEntity
  8
RACCORDO
100
AcDbLine
 62
7
  6
CONTINUOUS
 10
23.1045306266
 20
43.5318341253
 11
23.1045306266
 21
43.4414902777
  0
LINE
  5
3C6
100
AcDbEntity
  8
DRAFT
100
AcDbLine
 62
7
  6
CONTINUOUS
 10
23.1045306266
 20
17.5417210578
 11
23.1045306266
 21
17.5185589895
  0
LINE
  5
3C7
100
AcDbEntity
  8
DRAFT
100
AcDbLine
 62
7
  6
CONTINUOUS
 10
23.1045306266
 20
12.642899397
 11
23.1045306266
 21
12.6197373288
  0
LINE
  5
3C8
100
AcDbEntity
  8
DRAFT
100
AcDbLine
 62
7
  6
CONTINUOUS
 10
23.1045306266
 20
-20.0159116747
 11
23.1045306266
 21
-20.039073743
  0
LINE
  5
3C9
100
AcDbEntity
  8
RACCORDO
100
AcDbLine
 62
7
  6
CONTINUOUS
 10
23.1045306266
 20
-24.9147333355
 11
23.1045306266
 21
-24.9378954037
  0
LINE
  5
3CA
100
AcDbEntity
  8
0
100
AcDbLine
 62
7
  6
CONTINUOUS
 10
23.2290739335
 20
-49.8737097463
 11
23.2290739335
 21
-25.012189818
  0
LINE
  5
3CB
100
AcDbEntity
  8
0
100
AcDbLine
 62
7
  6
CONTINUOUS
 10
23.2290739335
 20
-23.9507784581
 11
23.2290739335
 21
-20.1133681572
  0
LINE
  5
3CC
100
AcDbEntity
  8
0
100
AcDbLine
 62
7
  6
CONTINUOUS
 10
23.2290739335
 20
-19.0519567974
 11
23.2290739335
 21
12.5454429145
  0
LINE
  5
3CD
100
AcDbEntity
  8
0
100
AcDbLine
 62
7
  6
CONTINUOUS
 10
23.2290739335
 20
13.6068542743
 11
23.2290739335
 21
17.4442645753
  0
LINE
  5
3CE
100
AcDbEntity
  8
0
100
AcDbLine
 62
7
  6
CONTINUOUS
 10
23.2290739335
 20
18.5056759351
 11
23.2290739335
 21
43.3671958634
  0
LINE
  5
3CF
100
AcDbEntity
  8
DRAFT
100
AcDbLine
 62
7
  6
CONTINUOUS
 10
23.4227286781
 20
-24.7436167206
 11
23.4227286781
 21
-23.9699010689
  0
LINE
  5
3D0
100
AcDbEntity
  8
DRAFT
100
AcDbLine
 62
7
  6
CONTINUOUS
 10
23.4227286781
 20
-19.8447950599
 11
23.4227286781
 21
-19.0710794082
  0
LINE
  5
3D1
100
AcDbEntity
  8
DRAFT
100
AcDbLine
 62
7
  6
CONTINUOUS
 10
23.4227286781
 20
12.8140160118
 11
23.4227286781
 21
13.5877316635
  0
LINE
  5
3D2
100
AcDbEntity
  8
DRAFT
100
AcDbLine
 62
7
  6
CONTINUOUS
 10
23.4227286781
 20
17.7128376726
 11
23.4227286781
 21
18.4865533243
  0
LINE
  5
3D3
100
AcDbEntity
  8
RACCORDO
100
AcDbLine
 62
7
  6
CONTINUOUS
 10
24.5266353671
 20
26.6080864423
 11
24.5266353671
 21
26.2879431545
  0
LINE
  5
3D4
100
AcDbEntity
  8
RACCORDO
100
AcDbLine
 62
7
  6
CONTINUOUS
 10
24.5266353671
 20
-38.7095369758
 11
24.5266353671
 21
-39.029678989
  0
LINE
  5
3D5
100
AcDbEntity
  8
RACCORDO
100
AcDbLine
 62
253
  6
CONTINUOUS
 10
24.5852140109
 20
29.7154534156
 11
24.5852140109
 21
29.3953039592
  0
LINE
  5
3D6
100
AcDbEntity
  8
RACCORDO
100
AcDbLine
 62
253
  6
CONTINUOUS
 10
24.5852140109
 20
26.5264376537
 11
24.5852140109
 21
26.206288196
  0
LINE
  5
3D7
100
AcDbEntity
  8
RACCORDO
100
AcDbLine
 62
253
  6
CONTINUOUS
 10
24.5852140109
 20
-35.6021687278
 11
24.5852140109
 21
-35.9223181843
  0
LINE
  5
3D8
100
AcDbEntity
  8
RACCORDO
100
AcDbLine
 62
253
  6
CONTINUOUS
 10
24.5852140109
 20
-38.7911844897
 11
24.5852140109
 21
-39.1113339474
  0
LINE
  5
3D9
100
AcDbEntity
  8
RACCORDO
100
AcDbLine
 62
7
  6
CONTINUOUS
 10
25.22353711
 20
32.4476718337
 11
25.22353711
 21
30.5135573732
  0
LINE
  5
3DA
100
AcDbEntity
  8
RACCORDO
100
AcDbLine
 62
7
  6
CONTINUOUS
 10
25.22353711
 20
24.8145617567
 11
25.22353711
 21
22.8804473032
  0
LINE
  5
3DB
100
AcDbEntity
  8
RACCORDO
100
AcDbLine
 62
7
  6
CONTINUOUS
 10
25.22353711
 20
-32.8699503097
 11
25.22353711
 21
-34.8040647702
  0
LINE
  5
3DC
100
AcDbEntity
  8
RACCORDO
100
AcDbLine
 62
7
  6
CONTINUOUS
 10
25.22353711
 20
-40.5030603867
 11
25.22353711
 21
-42.4371748402
  0
LINE
  5
3DD
100
AcDbEntity
  8
RACCORDO
100
AcDbLine
 62
253
  6
CONTINUOUS
 10
25.3114050757
 20
32.3251894557
 11
25.3114050757
 21
30.3910749952
  0
LINE
  5
3DE
100
AcDbEntity
  8
RACCORDO
100
AcDbLine
 62
253
  6
CONTINUOUS
 10
25.3114050757
 20
24.6920793787
 11
25.3114050757
 21
22.7579649182
  0
LINE
  5
3DF
100
AcDbEntity
  8
RACCORDO
100
AcDbLine
 62
253
  6
CONTINUOUS
 10
25.3114050757
 20
-32.9924326877
 11
25.3114050757
 21
-34.9265471482
  0
LINE
  5
3E0
100
AcDbEntity
  8
RACCORDO
100
AcDbLine
 62
253
  6
CONTINUOUS
 10
25.3114050757
 20
-40.6255427647
 11
25.3114050757
 21
-42.5596572253
  0
LINE
  5
3E1
100
AcDbEntity
  8
RACCORDO
100
AcDbLine
 62
253
  6
CONTINUOUS
 10
26.0780495724
 20
-50.9792546206
 11
26.0780495724
 21
-43.2365316067
  0
LINE
  5
3E2
100
AcDbEntity
  8
RACCORDO
100
AcDbLine
 62
253
  6
CONTINUOUS
 10
26.0780495724
 20
-32.1521435638
 11
26.0780495724
 21
22.0810905367
  0
LINE
  5
3E3
100
AcDbEntity
  8
RACCORDO
100
AcDbLine
 62
253
  6
CONTINUOUS
 10
26.0780495724
 20
33.1654785796
 11
26.0780495724
 21
41.6558932135
  0
LINE
  5
3E4
100
AcDbEntity
  8
RACCORDO
100
AcDbLine
 62
253
  6
CONTINUOUS
 10
26.4985791178
 20
-50.9813735781
 11
26.4985791178
 21
-43.4033195459
  0
LINE
  5
3E5
100
AcDbEntity
  8
RACCORDO
100
AcDbLine
 62
253
  6
CONTINUOUS
 10
26.4985791178
 20
-32.1144057521
 11
26.4985791178
 21
21.9143025975
  0
LINE
  5
3E6
100
AcDbEntity
  8
RACCORDO
100
AcDbLine
 62
253
  6
CONTINUOUS
 10
26.4985791178
 20
33.2032163913
 11
26.4985791178
 21
41.6537742559
  0
LINE
  5
3E7
100
AcDbEntity
  8
RACCORDO
100
AcDbLine
 62
7
  6
CONTINUOUS
 10
27.3656852059
 20
42.1544287837
 11
27.3656852059
 21
33.7038992427
  0
LINE
  5
3E8
100
AcDbEntity
  8
DRAFT
100
AcDbLine
 62
7
  6
CONTINUOUS
 10
27.3656852059
 20
21.7224794993
 11
27.3656852059
 21
-31.6137229007
  0
LINE
  5
3E9
100
AcDbEntity
  8
RACCORDO
100
AcDbLine
 62
7
  6
CONTINUOUS
 10
27.3656852059
 20
-43.5951426442
 11
27.3656852059
 21
-50.5150719846
  0
LWPOLYLINE
  5
3EA
100
AcDbEntity
  8
RACCORDO
100
AcDbPolyline
 62
7
  6
CONTINUOUS
 90
5
 70
0
 10
27.6697232828
 20
-39.1369008853
 10
27.6697230139
 20
-39.11456365
 10
27.6693690712
 20
-39.0920054031
 10
27.6686609332
 20
-39.0692335067
 10
27.6675982493
 20
-39.0462564303
  0
LWPOLYLINE
  5
3EB
100
AcDbEntity
  8
RACCORDO
100
AcDbPolyline
 62
7
  6
CONTINUOUS
 90
5
 70
0
 10
27.6697232828
 20
26.1807212582
 10
27.6697230139
 20
26.2030584934
 10
27.6693690712
 20
26.2256167404
 10
27.6686609332
 20
26.2483886368
 10
27.6675982493
 20
26.2713657131
  0
LWPOLYLINE
  5
3EC
100
AcDbEntity
  8
RACCORDO
100
AcDbPolyline
 62
253
  6
CONTINUOUS
 90
5
 70
0
 10
27.6843664883
 20
26.1830188134
 10
27.6843664768
 20
26.1598980022
 10
27.6840006696
 20
26.1369942758
 10
27.6832690698
 20
26.1143115115
 10
27.6821716745
 20
26.091845832
  0
LWPOLYLINE
  5
3ED
100
AcDbEntity
  8
RACCORDO
100
AcDbPolyline
 62
253
  6
CONTINUOUS
 90
5
 70
0
 10
27.6843664883
 20
-39.13460333
 10
27.6843664768
 20
-39.1577241412
 10
27.6840006696
 20
-39.1806278676
 10
27.6832690698
 20
-39.2033106319
 10
27.6821716745
 20
-39.2257763114
  0
LINE
  5
3EE
100
AcDbEntity
  8
RACCORDO
100
AcDbLine
 62
7
  6
CONTINUOUS
 10
23.1031177202
 20
43.6985725817
 11
23.103454796
 21
43.9256068472
  0
LINE
  5
3EF
100
AcDbEntity
  8
RACCORDO
100
AcDbLine
 62
7
  6
CONTINUOUS
 10
23.1043570033
 20
43.998935182
 11
23.1044988769
 21
44.0216466115
  0
LWPOLYLINE
  5
3F0
100
AcDbEntity
  8
RACCORDO
100
AcDbPolyline
 62
7
  6
CONTINUOUS
 90
3
 70
0
 10
23.103454796
 20
43.9256068472
 10
23.103694483
 20
43.9507039007
 10
23.1043570033
 20
43.998935182
  0
LINE
  5
3F1
100
AcDbEntity
  8
RACCORDO
100
AcDbLine
 62
7
  6
CONTINUOUS
 10
27.6693704925
 20
26.1586114064
 11
27.6697232828
 21
26.1807212582
  0
LWPOLYLINE
  5
3F2
100
AcDbEntity
  8
RACCORDO
100
AcDbPolyline
 62
7
  6
CONTINUOUS
 90
9
 70
0
 10
25.223537116
 20
30.5135226474
 10
25.2232179789
 20
30.4968636971
 10
25.2220443598
 20
30.4782808311
 10
25.2201040026
 20
30.4613753234
 10
25.2175033776
 20
30.4462011094
 10
25.2144095676
 20
30.4330096925
 10
25.2111182421
 20
30.4222179728
 10
25.2079338505
 20
30.4139191436
 10
25.2064587171
 20
30.4106510527
  0
LWPOLYLINE
  5
3F3
100
AcDbEntity
  8
RACCORDO
100
AcDbPolyline
 62
7
  6
CONTINUOUS
 90
9
 70
0
 10
25.223537116
 20
-34.804099496
 10
25.2232179789
 20
-34.8207584463
 10
25.2220443598
 20
-34.8393413123
 10
25.2201040026
 20
-34.8562468201
 10
25.2175033776
 20
-34.871421034
 10
25.2144095676
 20
-34.8846124509
 10
25.2111182421
 20
-34.8954041707
 10
25.2079338505
 20
-34.9037029998
 10
25.2064587171
 20
-34.9069710908
  0
LWPOLYLINE
  5
3F4
100
AcDbEntity
  8
RACCORDO
100
AcDbPolyline
 62
253
  6
CONTINUOUS
 90
8
 70
0
 10
26.6779146502
 20
28.0144348138
 10
26.6778166513
 20
28.0100441388
 10
26.6781980982
 20
28.0059889005
 10
26.6790538328
 20
28.0023239391
 10
26.6803722828
 20
27.9990988171
 10
26.6821356187
 20
27.996357149
 10
26.6843199942
 20
27.9941360113
 10
26.6853668362
 20
27.9933585888
  0
LWPOLYLINE
  5
3F5
100
AcDbEntity
  8
RACCORDO
100
AcDbPolyline
 62
253
  6
CONTINUOUS
 90
8
 70
0
 10
26.6779146502
 20
-37.3031873297
 10
26.6778166513
 20
-37.3075780046
 10
26.6781980982
 20
-37.311633243
 10
26.6790538328
 20
-37.3152982043
 10
26.6803722828
 20
-37.3185233263
 10
26.6821356187
 20
-37.3212649945
 10
26.6843199942
 20
-37.3234861321
 10
26.6853668362
 20
-37.3242635546
  0
LWPOLYLINE
  5
3F6
100
AcDbEntity
  8
RACCORDO
100
AcDbPolyline
 62
253
  6
CONTINUOUS
 90
16
 70
0
 10
25.4502658687
 20
32.4082558355
 10
25.4510085353
 20
32.434455033
 10
25.4540160805
 20
32.4616858448
 10
25.4592562837
 20
32.4896565142
 10
25.4666730032
 20
32.5180673571
 10
25.4761867773
 20
32.5466139723
 10
25.4876956752
 20
32.574990503
 10
25.5010763901
 20
32.6028929146
 10
25.5161855594
 20
32.6300222512
 10
25.5328612999
 20
32.6560878378
 10
25.5509249443
 20
32.6808103984
 10
25.5701829543
 20
32.7039250452
 10
25.5904289923
 20
32.7251841163
 10
25.6114461355
 20
32.7443598321
 10
25.6330092001
 20
32.7612467363
 10
25.6548871522
 20
32.7756638943
  0
LWPOLYLINE
  5
3F7
100
AcDbEntity
  8
RACCORDO
100
AcDbPolyline
 62
253
  6
CONTINUOUS
 90
16
 70
0
 10
25.4502658687
 20
-32.9093663079
 10
25.4510085353
 20
-32.8831671104
 10
25.4540160805
 20
-32.8559362987
 10
25.4592562837
 20
-32.8279656293
 10
25.4666730032
 20
-32.7995547863
 10
25.4761867773
 20
-32.7710081711
 10
25.4876956752
 20
-32.7426316405
 10
25.5010763901
 20
-32.7147292288
 10
25.5161855594
 20
-32.6875998922
 10
25.5328612999
 20
-32.6615343056
 10
25.5509249443
 20
-32.636811745
 10
25.5701829543
 20
-32.6136970982
 10
25.5904289923
 20
-32.5924380272
 10
25.6114461355
 20
-32.5732623113
 10
25.6330092001
 20
-32.5563754071
 10
25.6548871522
 20
-32.5419582491
  0
LWPOLYLINE
  5
3F8
100
AcDbEntity
  8
RACCORDO
100
AcDbPolyline
 62
253
  6
CONTINUOUS
 90
16
 70
0
 10
25.3114050757
 20
30.3910749952
 10
25.310208636
 20
30.3509967242
 10
25.3069902986
 20
30.3128024718
 10
25.3017500636
 20
30.2764922379
 10
25.2944927564
 20
30.2420910054
 10
25.2852135515
 20
30.2095737914
 10
25.2738979727
 20
30.1788656477
 10
25.2605306434
 20
30.1498055696
 10
25.2451269402
 20
30.1225545619
 10
25.2277185164
 20
30.0975206902
 10
25.208208596
 20
30.0746825161
 10
25.186693955
 20
30.054061478
 10
25.1634965748
 20
30.0361299577
 10
25.1387237823
 20
30.0210454158
 10
25.1122682507
 20
30.0086503916
 10
25.0841299797
 20
29.9989448852
  0
LWPOLYLINE
  5
3F9
100
AcDbEntity
  8
RACCORDO
100
AcDbPolyline
 62
253
  6
CONTINUOUS
 90
16
 70
0
 10
25.3114050757
 20
-34.9265471482
 10
25.310208636
 20
-34.9666254192
 10
25.3069902986
 20
-35.0048196716
 10
25.3017500636
 20
-35.0411299055
 10
25.2944927564
 20
-35.075531138
 10
25.2852135515
 20
-35.108048352
 10
25.2738979727
 20
-35.1387564957
 10
25.2605306434
 20
-35.1678165738
 10
25.2451269402
 20
-35.1950675815
 10
25.2277185164
 20
-35.2201014532
 10
25.208208596
 20
-35.2429396274
 10
25.186693955
 20
-35.2635606654
 10
25.1634965748
 20
-35.2814921857
 10
25.1387237823
 20
-35.2965767277
 10
25.1122682507
 20
-35.3089717518
 10
25.0841299797
 20
-35.3186772582
  0
LWPOLYLINE
  5
3FA
100
AcDbEntity
  8
RACCORDO
100
AcDbPolyline
 62
253
  6
CONTINUOUS
 90
16
 70
0
 10
27.8643304175
 20
23.218052282
 10
27.8655268572
 20
23.258130553
 10
27.8687451945
 20
23.2963248054
 10
27.8739854295
 20
23.3326350393
 10
27.8812427368
 20
23.3670362718
 10
27.8905219417
 20
23.3995534858
 10
27.9018375205
 20
23.4302616295
 10
27.9152048498
 20
23.4593217076
 10
27.930608553
 20
23.4865727153
 10
27.9480169768
 20
23.511606587
 10
27.9675268972
 20
23.5344447611
 10
27.9890415382
 20
23.5550657992
 10
28.0122389184
 20
23.5729973195
 10
28.0370117108
 20
23.5880818614
 10
28.0634672425
 20
23.6004768856
 10
28.0916055134
 20
23.610182392
  0
LWPOLYLINE
  5
3FB
100
AcDbEntity
  8
RACCORDO
100
AcDbPolyline
 62
253
  6
CONTINUOUS
 90
4
 70
0
 10
25.5400200158
 20
27.463715478
 10
25.5407313808
 20
27.4857748801
 10
25.5417981316
 20
27.5076103314
 10
25.543219912
 20
27.5292145445
  0
LWPOLYLINE
  5
3FC
100
AcDbEntity
  8
RACCORDO
100
AcDbPolyline
 62
253
  6
CONTINUOUS
 90
4
 70
0
 10
25.5400200158
 20
-37.8539066654
 10
25.5407313808
 20
-37.8318472634
 10
25.5417981316
 20
-37.810011812
 10
25.543219912
 20
-37.7884075989
  0
LINE
  5
3FD
100
AcDbEntity
  8
RACCORDO
100
AcDbLine
 62
7
  6
CONTINUOUS
 10
27.6686653537
 20
26.1367362593
 11
27.6693704925
 21
26.1586114064
  0
LWPOLYLINE
  5
3FE
100
AcDbEntity
  8
RACCORDO
100
AcDbPolyline
 62
7
  6
CONTINUOUS
 90
6
 70
0
 10
24.5266389125
 20
26.6092769627
 10
24.5269819147
 20
26.6198549992
 10
24.5278844484
 20
26.6304039745
 10
24.5293447684
 20
26.6408952765
 10
24.5313620798
 20
26.6513107789
 10
24.5329574677
 20
26.6579750269
  0
LWPOLYLINE
  5
3FF
100
AcDbEntity
  8
RACCORDO
100
AcDbPolyline
 62
7
  6
CONTINUOUS
 90
6
 70
0
 10
24.5266389125
 20
-38.7083464528
 10
24.5269819152
 20
-38.6977684102
 10
24.52788445
 20
-38.6872194288
 10
24.5293447719
 20
-38.6767281208
 10
24.5313620857
 20
-38.6663126125
 10
24.5329574976
 20
-38.6596482751
  0
LWPOLYLINE
  5
400
100
AcDbEntity
  8
RACCORDO
100
AcDbPolyline
 62
253
  6
CONTINUOUS
 90
16
 70
0
 10
25.9366497553
 20
41.9008048806
 10
25.9377861791
 20
41.9267808946
 10
25.9411832748
 20
41.9537909074
 10
25.9468046446
 20
41.9815455255
 10
25.9545900596
 20
42.0097473772
 10
25.9644561044
 20
42.0380942994
 10
25.9762970712
 20
42.0662825744
 10
25.9899860922
 20
42.0940101844
 10
26.0053764991
 20
42.1209800473
 10
26.0223033943
 20
42.1469031996
 10
26.0405854179
 20
42.1715018928
 10
26.0600266906
 20
42.1945125689
 10
26.0804189126
 20
42.2156886846
 10
26.1015435954
 20
42.2348033523
 10
26.1231744026
 20
42.2516517717
 10
26.1450795751
 20
42.2660534237
  0
LINE
  5
401
100
AcDbEntity
  8
RACCORDO
100
AcDbLine
 62
7
  6
CONTINUOUS
 10
27.6676087492
 20
26.1151039615
 11
27.6686653537
 21
26.1367362593
  0
LWPOLYLINE
  5
402
100
AcDbEntity
  8
0
100
AcDbPolyline
 62
7
  6
CONTINUOUS
 90
8
 70
0
 10
28.8152541073
 20
25.804290885
 10
28.8018667387
 20
25.5466186254
 10
28.7618856739
 20
25.3078903389
 10
28.6958515883
 20
25.0913344159
 10
28.6046574796
 20
24.8998794039
 10
28.4895365917
 20
24.7361144035
 10
28.3520457372
 20
24.6022540552
 10
28.2354227684
 20
24.5226276737
  0
LWPOLYLINE
  5
403
100
AcDbEntity
  8
0
100
AcDbPolyline
 62
7
  6
CONTINUOUS
 90
6
 70
0
 10
28.5677667339
 20
25.6613947773
 10
28.5528995978
 20
25.3988674978
 10
28.5130987581
 20
25.1612153415
 10
28.4483642149
 20
24.9484383083
 10
28.357160114
 20
24.7583515719
 10
28.2410223096
 20
24.5931399588
  0
LINE
  5
404
100
AcDbEntity
  8
RACCORDO
100
AcDbLine
 62
253
  6
CONTINUOUS
 10
27.6821716745
 20
26.091845832
 11
27.6807084836
 21
26.0695972372
  0
LINE
  5
405
100
AcDbEntity
  8
RACCORDO
100
AcDbLine
 62
7
  6
CONTINUOUS
 10
27.6662017057
 20
26.0937220629
 11
27.6676087492
 21
26.1151039615
  0
LINE
  5
406
100
AcDbEntity
  8
RACCORDO
100
AcDbLine
 62
7
  6
CONTINUOUS
 10
27.6662017057
 20
26.0937220631
 11
27.6662067234
 21
26.0937879635
  0
LWPOLYLINE
  5
407
100
AcDbEntity
  8
RACCORDO
100
AcDbPolyline
 62
253
  6
CONTINUOUS
 90
6
 70
0
 10
26.9473692301
 20
26.9128881648
 10
26.9468403279
 20
26.9070224669
 10
26.947330443
 20
26.9019030352
 10
26.9488256575
 20
26.8976752478
 10
26.9512835112
 20
26.8944591628
 10
26.9519488334
 20
26.8938956248
  0
LWPOLYLINE
  5
408
100
AcDbEntity
  8
RACCORDO
100
AcDbPolyline
 62
253
  6
CONTINUOUS
 90
6
 70
0
 10
27.6134680341
 20
26.3926744793
 10
27.6129391321
 20
26.3868088097
 10
27.6134292383
 20
26.3816893914
 10
27.6149244393
 20
26.3774616043
 10
27.6173822799
 20
26.3742455096
 10
27.6180476377
 20
26.373681939
  0
LWPOLYLINE
  5
409
100
AcDbEntity
  8
RACCORDO
100
AcDbPolyline
 62
253
  6
CONTINUOUS
 90
22
 70
0
 10
25.4950270141
 20
27.5395300394
 10
25.4953947528
 20
27.5433671432
 10
25.4959999291
 20
27.5471124671
 10
25.4968425432
 20
27.5507660112
 10
25.4979115152
 20
27.5543491587
 10
25.4992179249
 20
27.5578405264
 10
25.5007950118
 20
27.5611759647
 10
25.502643727
 20
27.5643583105
 10
25.5047631195
 20
27.5673847269
 10
25.5071835756
 20
27.5701825538
 10
25.5099001087
 20
27.5727548426
 10
25.5129177056
 20
27.5750985419
 10
25.516281713
 20
27.5771318373
 10
25.5200025838
 20
27.5788667177
 10
25.5240698652
 20
27.5802911941
 10
25.5284975454
 20
27.5812874854
 10
25.5333048252
 20
27.5818543239
 10
25.5384725039
 20
27.5819929774
 10
25.5439569671
 20
27.5815894682
 10
25.549743677
 20
27.5806058038
 10
25.5558471715
 20
27.5790799766
 10
25.5622674507
 20
27.5770119868
  0
LWPOLYLINE
  5
40A
100
AcDbEntity
  8
RACCORDO
100
AcDbPolyline
 62
253
  6
CONTINUOUS
 90
8
 70
0
 10
27.6807084836
 20
26.0695972372
 10
27.6803407465
 20
26.0657601318
 10
27.6797355711
 20
26.0620148066
 10
27.6788929573
 20
26.0583612617
 10
27.6778239848
 20
26.0547781139
 10
27.676517574
 20
26.0512867463
 10
27.6749404858
 20
26.0479513084
 10
27.6730917694
 20
26.044768963
  0
LINE
  5
40B
100
AcDbEntity
  8
RACCORDO
100
AcDbLine
 62
7
  6
CONTINUOUS
 10
27.66620678
 20
26.0937879593
 11
27.6660308824
 21
26.0922173362
  0
LWPOLYLINE
  5
40C
100
AcDbEntity
  8
RACCORDO
100
AcDbPolyline
 62
253
  6
CONTINUOUS
 90
10
 70
0
 10
26.4978208447
 20
25.5946924571
 10
26.4983969581
 20
25.599359187
 10
26.4994434011
 20
25.6042388689
 10
26.5009460224
 20
25.6092655137
 10
26.5028845019
 20
25.6143711446
 10
26.5052326251
 20
25.6194867167
 10
26.5079586376
 20
25.6245430505
 10
26.5110256751
 20
25.6294717676
 10
26.514392261
 20
25.6342062155
 10
26.5180128681
 20
25.6386823687
  0
LINE
  5
40D
100
AcDbEntity
  8
0
100
AcDbLine
 62
7
  6
CONTINUOUS
 10
25.5979182529
 20
29.3559832724
 11
25.4067178669
 21
29.3205172968
  0
LWPOLYLINE
  5
40E
100
AcDbEntity
  8
RACCORDO
100
AcDbPolyline
 62
7
  6
CONTINUOUS
 90
6
 70
0
 10
25.5723368353
 20
27.5524275169
 10
25.572225121
 20
27.5524130812
 10
25.5727262815
 20
27.5524084765
 10
25.5739210804
 20
27.5522870453
 10
25.57565266
 20
27.5519588195
 10
25.5778242189
 20
27.551373039
  0
LINE
  5
40F
100
AcDbEntity
  8
RACCORDO
100
AcDbLine
 62
253
  6
CONTINUOUS
 10
25.6019034127
 20
27.2724064273
 11
26.1551595647
 21
27.335645714
  0
LINE
  5
410
100
AcDbEntity
  8
RACCORDO
100
AcDbLine
 62
253
  6
CONTINUOUS
 10
25.5432199149
 20
27.3270733167
 11
26.0316974355
 21
27.3817945204
  0
LWPOLYLINE
  5
411
100
AcDbEntity
  8
RACCORDO
100
AcDbPolyline
 62
253
  6
CONTINUOUS
 90
3
 70
0
 10
26.4836898473
 20
27.3722407648
 10
26.7797461041
 20
27.4041391211
 10
26.8008153038
 20
27.406346929
  0
LINE
  5
412
100
AcDbEntity
  8
RACCORDO
100
AcDbLine
 62
253
  6
CONTINUOUS
 10
26.6391944102
 20
27.4464836085
 11
26.7930363352
 21
27.4617783705
  0
LWPOLYLINE
  5
413
100
AcDbEntity
  8
RACCORDO
100
AcDbPolyline
 62
7
  6
CONTINUOUS
 90
3
 70
0
 10
26.2908397042
 20
27.2927786173
 10
26.3051873463
 20
27.2934595734
 10
26.3188049518
 20
27.2958884431
  0
LINE
  5
414
100
AcDbEntity
  8
DRAFT
100
AcDbLine
 62
7
  6
CONTINUOUS
 10
23.2290739335
 20
13.699545486
 11
23.4227286781
 21
13.5877316635
  0
LINE
  5
415
100
AcDbEntity
  8
RACCORDO
100
AcDbLine
 62
7
  6
CONTINUOUS
 10
20.4131022979
 20
16.4321940936
 11
20.6315510265
 21
16.3060645355
  0
LINE
  5
416
100
AcDbEntity
  8
RACCORDO
100
AcDbLine
 62
253
  6
CONTINUOUS
 10
20.6812705746
 20
17.0818239621
 11
20.8355423984
 21
16.9927493446
  0
LINE
  5
417
100
AcDbEntity
  8
0
100
AcDbLine
 62
7
  6
CONTINUOUS
 10
23.0841109679
 20
12.6319183654
 11
23.2290739335
 21
12.5454429145
  0
LINE
  5
418
100
AcDbEntity
  8
0
100
AcDbLine
 62
7
  6
CONTINUOUS
 10
23.0841109679
 20
17.5307400261
 11
23.2290739335
 21
17.4442645753
  0
LINE
  5
419
100
AcDbEntity
  8
RACCORDO
100
AcDbLine
 62
7
  6
CONTINUOUS
 10
27.6656546942
 20
-39.0185589513
 11
27.6661730187
 21
-39.0229610307
  0
LINE
  5
41A
100
AcDbEntity
  8
RACCORDO
100
AcDbLine
 62
253
  6
CONTINUOUS
 10
27.6800769313
 20
26.2835807623
 11
27.68070848
 21
26.2775449537
  0
LWPOLYLINE
  5
41B
100
AcDbEntity
  8
0
100
AcDbPolyline
 62
7
  6
CONTINUOUS
 90
7
 70
0
 10
32.5982753867
 20
-36.0225834855
 10
32.5791121375
 20
-35.8044703676
 10
32.5212596713
 20
-35.5702585043
 10
32.4274119511
 20
-35.334292185
 10
32.3019474837
 20
-35.1075805229
 10
32.1533277735
 20
-34.9038280136
 10
31.9814845329
 20
-34.7239383422
  0
LWPOLYLINE
  5
41C
100
AcDbEntity
  8
0
100
AcDbPolyline
 62
7
  6
CONTINUOUS
 90
12
 70
0
 10
32.810407421
 20
-36.1450658635
 10
32.7964249192
 20
-35.9481719229
 10
32.7614121267
 20
-35.750829387
 10
32.7053690434
 20
-35.5530382559
 10
32.6261367102
 20
-35.3504260119
 10
32.5258740862
 20
-35.1473651727
 10
32.4110580496
 20
-34.9569732911
 10
32.2807277729
 20
-34.7800867815
 10
32.1358440835
 20
-34.6158692295
 10
31.9857663413
 20
-34.4749289458
 10
31.8301516309
 20
-34.3588027131
 10
31.7591931988
 20
-34.3178322037
  0
LWPOLYLINE
  5
41D
100
AcDbEntity
  8
RACCORDO
100
AcDbPolyline
 62
253
  6
CONTINUOUS
 90
10
 70
0
 10
26.9473692301
 20
26.2810958104
 10
26.9468403228
 20
26.2887316471
 10
26.9473304301
 20
26.2967303445
 10
26.9488256359
 20
26.3048647622
 10
26.951283482
 20
26.3129039049
 10
26.9546341736
 20
26.3206194821
 10
26.9587825615
 20
26.327792391
 10
26.9636108435
 20
26.3342189388
 10
26.96898191
 20
26.3397166267
 10
26.9747432374
 20
26.3441293327
  0
LWPOLYLINE
  5
41E
100
AcDbEntity
  8
RACCORDO
100
AcDbPolyline
 62
253
  6
CONTINUOUS
 90
10
 70
0
 10
27.6134680187
 20
26.0321152993
 10
27.6129391164
 20
26.0397511518
 10
27.6134292315
 20
26.0477498621
 10
27.614924446
 20
26.0558842881
 10
27.6173822997
 20
26.0639234336
 10
27.6207329961
 20
26.0716390082
 10
27.6248813843
 20
26.0788119101
 10
27.6297096611
 20
26.0852384479
 10
27.6350807162
 20
26.0907361248
 10
27.6408420259
 20
26.0951488215
  0
LINE
  5
41F
100
AcDbEntity
  8
RACCORDO
100
AcDbLine
 62
7
  6
CONTINUOUS
 10
27.6675982493
 20
26.2713657131
 11
27.6661808133
 21
26.2945398955
  0
LINE
  5
420
100
AcDbEntity
  8
RACCORDO
100
AcDbLine
 62
253
  6
CONTINUOUS
 10
27.68070848
 20
26.2775449537
 11
27.6821716897
 21
26.2536062088
  0
LWPOLYLINE
  5
421
100
AcDbEntity
  8
0
100
AcDbPolyline
 62
7
  6
CONTINUOUS
 90
19
 70
0
 10
28.5677667339
 20
25.6613947773
 10
28.5528995978
 20
25.9410902529
 10
28.5130987581
 20
26.2247034213
 10
28.4483642149
 20
26.5122342824
 10
28.357160114
 20
26.8076412283
 10
28.2410223096
 20
27.1069658669
 10
28.1045583638
 20
27.3983330221
 10
27.9469510657
 20
27.6814227639
 10
27.7690176262
 20
27.9565550224
 10
27.5778172402
 20
28.2128144111
 10
27.3728165112
 20
28.4494421481
 10
27.1545488355
 20
28.6671970154
 10
26.9316735977
 20
28.8574399734
 10
26.704005551
 20
29.0190649081
 10
26.4717299421
 20
29.1531779336
 10
26.2440618955
 20
29.2544583525
 10
26.0211866576
 20
29.3215861325
 10
25.802918982
 20
29.355881306
 10
25.5979182529
 20
29.3559832724
  0
LWPOLYLINE
  5
422
100
AcDbEntity
  8
RACCORDO
100
AcDbPolyline
 62
7
  6
CONTINUOUS
 90
19
 70
0
 10
28.9106224713
 20
31.0141646554
 10
28.9124580682
 20
30.9770859921
 10
28.9133534849
 20
30.9402162124
 10
28.9134603013
 20
30.9037192238
 10
28.912963297
 20
30.867781769
 10
28.9119455899
 20
30.8325110004
 10
28.9103831554
 20
30.7979224925
 10
28.9083664965
 20
30.7641414374
 10
28.9059983335
 20
30.7312463603
 10
28.9032570232
 20
30.6991540621
 10
28.9002179737
 20
30.6679097108
 10
28.8969623303
 20
30.637617982
 10
28.8934762064
 20
30.6082723443
 10
28.8898167605
 20
30.5798769102
 10
28.8860712712
 20
30.552551156
 10
28.8822694721
 20
30.5264548528
 10
28.8784590642
 20
30.5016719127
 10
28.8747074051
 20
30.4782119138
 10
28.8710650512
 20
30.4561145553
  0
LWPOLYLINE
  5
423
100
AcDbEntity
  8
0
100
AcDbPolyline
 62
7
  6
CONTINUOUS
 90
5
 70
0
 10
28.8152541073
 20
25.804290885
 10
28.8018667387
 20
26.0774225423
 10
28.7618856739
 20
26.3623199602
 10
28.6958515883
 20
26.65513039
 10
28.6271855458
 20
26.8785832857
  0
LWPOLYLINE
  5
424
100
AcDbEntity
  8
RACCORDO
100
AcDbPolyline
 62
253
  6
CONTINUOUS
 90
3
 70
0
 10
27.6821716897
 20
26.2536062088
 10
27.6832690948
 20
26.2298729167
 10
27.6840006953
 20
26.2063450773
  0
LWPOLYLINE
  5
425
100
AcDbEntity
  8
RACCORDO
100
AcDbPolyline
 62
253
  6
CONTINUOUS
 90
22
 70
0
 10
26.4985791178
 20
41.6537742559
 10
26.4973557636
 20
41.6842073586
 10
26.4942438818
 20
41.715576753
 10
26.4892638717
 20
41.7477118922
 10
26.4824492011
 20
41.7804280795
 10
26.4738380394
 20
41.813558294
 10
26.4634672811
 20
41.8469552952
 10
26.4513790523
 20
41.8804691944
 10
26.4376456069
 20
41.9138890376
 10
26.4223659045
 20
41.9469765419
 10
26.4056740873
 20
41.9794690499
 10
26.3876268616
 20
42.0112819789
 10
26.3682015561
 20
42.0424374255
 10
26.3474796923
 20
42.0727612399
 10
26.3255623114
 20
42.1020638303
 10
26.302429482
 20
42.1303112548
 10
26.2781173945
 20
42.1573701381
 10
26.2528031648
 20
42.1829570667
 10
26.2266863495
 20
42.2068058348
 10
26.1999349369
 20
42.2287120566
 10
26.1726787553
 20
42.2485184284
 10
26.1450795751
 20
42.2660534237
  0
LWPOLYLINE
  5
426
100
AcDbEntity
  8
RACCORDO
100
AcDbPolyline
 62
7
  6
CONTINUOUS
 90
13
 70
0
 10
28.8641863006
 20
29.2436962824
 10
28.8652798367
 20
29.2112950603
 10
28.868427971
 20
29.1782367026
 10
28.8736307036
 20
29.1445212095
 10
28.8809452871
 20
29.1099259605
 10
28.8903144689
 20
29.0746735761
 10
28.9015664911
 20
29.0394319174
 10
28.9147366373
 20
29.0042125621
 10
28.9297896237
 20
28.9690039325
 10
28.9464478413
 20
28.9344391568
 10
28.9646187537
 20
28.9007292775
 10
28.9843948971
 20
28.8676632521
 10
29.0057762716
 20
28.8352410804
  0
LWPOLYLINE
  5
427
100
AcDbEntity
  8
RACCORDO
100
AcDbPolyline
 62
253
  6
CONTINUOUS
 90
16
 70
0
 10
28.2848599596
 20
30.1228286849
 10
28.2839600126
 20
30.1501366009
 10
28.2815588642
 20
30.1780480112
 10
28.2776949448
 20
30.2064295542
 10
28.2724372119
 20
30.2350302862
 10
28.2658213348
 20
30.2638376204
 10
28.2577922631
 20
30.2930918375
 10
28.2483586281
 20
30.3226775508
 10
28.2375361764
 20
30.3524696182
 10
28.2251922904
 20
30.3826974783
 10
28.2112562457
 20
30.4133364915
 10
28.1957707582
 20
30.4441094024
 10
28.1787424207
 20
30.4748452275
 10
28.1601921501
 20
30.5053597911
 10
28.1401563005
 20
30.5354564167
 10
28.1186854331
 20
30.5649269334
  0
LWPOLYLINE
  5
428
100
AcDbEntity
  8
RACCORDO
100
AcDbPolyline
 62
253
  6
CONTINUOUS
 90
16
 70
0
 10
27.8643304175
 20
30.1249476443
 10
27.8639930503
 20
30.1359878435
 10
27.8630824474
 20
30.1471600589
 10
27.8615986087
 20
30.1584642906
 10
27.8595409401
 20
30.1699022899
 10
27.8569100358
 20
30.1814723055
 10
27.8537076779
 20
30.1931690836
 10
27.8499518036
 20
30.2049969691
 10
27.8456244758
 20
30.216951617
 10
27.8406736662
 20
30.2290147385
 10
27.8350787368
 20
30.2412486773
 10
27.8288603257
 20
30.2535910897
 10
27.8220283187
 20
30.2658366547
 10
27.8145860113
 20
30.2779169321
 10
27.8065301081
 20
30.2899003623
 10
27.7978606092
 20
30.301786945
  0
LWPOLYLINE
  5
429
100
AcDbEntity
  8
RACCORDO
100
AcDbPolyline
 62
7
  6
CONTINUOUS
 90
31
 70
0
 10
28.8859647854
 20
-39.7921184158
 10
28.8829487063
 20
-39.6570908995
 10
28.8738731832
 20
-39.5183229188
 10
28.8587153885
 20
-39.3762308151
 10
28.8374786233
 20
-39.2312563496
 10
28.8101851304
 20
-39.0838187357
 10
28.776865903
 20
-38.9342979677
 10
28.7375699157
 20
-38.7830989561
 10
28.6923858828
 20
-38.6307093509
 10
28.6414306258
 20
-38.4776263345
 10
28.5848299133
 20
-38.3243047513
 10
28.5227299703
 20
-38.171203383
 10
28.4553138025
 20
-38.0188190214
 10
28.382767394
 20
-37.8676039595
 10
28.3052955487
 20
-37.7180099312
 10
28.2231420435
 20
-37.5705217727
 10
28.136547492
 20
-37.4255762908
 10
28.0457670939
 20
-37.2836013076
 10
27.9510960721
 20
-37.1450516424
 10
27.852821058
 20
-37.0103327946
 10
27.7512395268
 20
-36.8798355132
 10
27.6466893932
 20
-36.7539705931
 10
27.5394955836
 20
-36.6330994628
 10
27.4299873921
 20
-36.517560875
 10
27.3185329553
 20
-36.4077051409
 10
27.2054911058
 20
-36.3038410201
 10
27.0912078571
 20
-36.2062383209
 10
26.9760535522
 20
-36.1151617919
 10
26.8604013967
 20
-36.0308496664
 10
26.7446160915
 20
-35.9535064353
 10
26.6290711602
 20
-35.8833158296
  0
LWPOLYLINE
  5
42A
100
AcDbEntity
  8
RACCORDO
100
AcDbPolyline
 62
7
  6
CONTINUOUS
 90
31
 70
0
 10
28.8859647854
 20
25.5255037138
 10
28.8829486783
 20
25.6605318781
 10
28.8738731311
 20
25.7992998288
 10
28.8587153162
 20
25.9413918986
 10
28.8374785349
 20
26.0863663268
 10
28.8101850299
 20
26.2338039
 10
28.7768657946
 20
26.3833246245
 10
28.7375698036
 20
26.5345235901
 10
28.6923857711
 20
26.6869131474
 10
28.6414305187
 20
26.8399961142
 10
28.5848298147
 20
26.9933176468
 10
28.5227298841
 20
27.1464189638
 10
28.4553137325
 20
27.298803274
 10
28.3827673438
 20
27.4500182847
 10
28.3052955216
 20
27.5996122626
 10
28.2231420428
 20
27.747100372
 10
28.1365475205
 20
27.8920458064
 10
28.0457671545
 20
28.0340207442
 10
27.951096167
 20
28.1725703666
 10
27.8528211894
 20
28.3072891745
 10
27.7512396964
 20
28.4377864193
 10
27.6466896025
 20
28.5636513065
 10
27.5394958336
 20
28.6845224079
 10
27.4299876836
 20
28.8000609711
 10
27.3185332887
 20
28.9099166852
 10
27.205491481
 20
29.0137807909
 10
27.0912082737
 20
29.1113834799
 10
26.9760540096
 20
29.202460004
 10
26.8604018937
 20
29.2867721299
 10
26.7446166266
 20
29.3641153669
 10
26.6290711484
 20
29.4343063207
  0
LINE
  5
42B
100
AcDbEntity
  8
RACCORDO
100
AcDbLine
 62
253
  6
CONTINUOUS
 10
27.6840006953
 20
26.2063450773
 11
27.6843664883
 21
26.1830188134
  0
LINE
  5
42C
100
AcDbEntity
  8
DRAFT
100
AcDbLine
 62
7
  6
CONTINUOUS
 10
27.8520201364
 20
-0.8277773255
 11
27.8520201364
 21
-6.9513044014
  0
LINE
  5
42D
100
AcDbEntity
  8
RACCORDO
100
AcDbLine
 62
253
  6
CONTINUOUS
 10
27.8643304175
 20
-43.3074696073
 11
27.8643304175
 21
-42.0995698614
  0
LINE
  5
42E
100
AcDbEntity
  8
RACCORDO
100
AcDbLine
 62
253
  6
CONTINUOUS
 10
27.8643304175
 20
-36.4005742449
 11
27.8643304175
 21
-35.1926744991
  0
LINE
  5
42F
100
AcDbEntity
  8
RACCORDO
100
AcDbLine
 62
253
  6
CONTINUOUS
 10
27.8643304175
 20
22.0101525362
 11
27.8643304175
 21
23.218052282
  0
LINE
  5
430
100
AcDbEntity
  8
RACCORDO
100
AcDbLine
 62
253
  6
CONTINUOUS
 10
27.8643304175
 20
28.9170478985
 11
27.8643304175
 21
30.1249476443
  0
LINE
  5
431
100
AcDbEntity
  8
RACCORDO
100
AcDbLine
 62
253
  6
CONTINUOUS
 10
28.284859963
 20
-43.3095885648
 11
28.284859963
 21
-42.101688819
  0
LINE
  5
432
100
AcDbEntity
  8
RACCORDO
100
AcDbLine
 62
253
  6
CONTINUOUS
 10
28.284859963
 20
-36.4026932025
 11
28.284859963
 21
-35.1947934567
  0
LINE
  5
433
100
AcDbEntity
  8
RACCORDO
100
AcDbLine
 62
253
  6
CONTINUOUS
 10
28.284859963
 20
22.0080335786
 11
28.284859963
 21
23.2159333244
  0
LINE
  5
434
100
AcDbEntity
  8
RACCORDO
100
AcDbLine
 62
253
  6
CONTINUOUS
 10
28.284859963
 20
28.9149289409
 11
28.284859963
 21
30.1228286868
  0
LINE
  5
435
100
AcDbEntity
  8
RACCORDO
100
AcDbLine
 62
7
  6
CONTINUOUS
 10
28.5467843228
 20
42.8363829527
 11
28.5467843228
 21
34.3857969841
  0
LINE
  5
436
100
AcDbEntity
  8
DRAFT
100
AcDbLine
 62
7
  6
CONTINUOUS
 10
28.5467843228
 20
21.9789048125
 11
28.5467843228
 21
-0.3981247309
  0
LINE
  5
437
100
AcDbEntity
  8
DRAFT
100
AcDbLine
 62
7
  6
CONTINUOUS
 10
28.5467843228
 20
-6.5501548903
 11
28.5467843228
 21
-30.9318251593
  0
LINE
  5
438
100
AcDbEntity
  8
RACCORDO
100
AcDbLine
 62
7
  6
CONTINUOUS
 10
28.5467843228
 20
-43.3387173309
 11
28.5467843228
 21
-49.7846625739
  0
LINE
  5
439
100
AcDbEntity
  8
0
100
AcDbLine
 62
7
  6
CONTINUOUS
 10
28.8152541073
 20
26.2064211044
 11
28.8152541073
 21
25.804290885
  0
LINE
  5
43A
100
AcDbEntity
  8
0
100
AcDbLine
 62
7
  6
CONTINUOUS
 10
28.8152541073
 20
-39.1112010083
 11
28.8152541073
 21
-39.5133312585
  0
LINE
  5
43B
100
AcDbEntity
  8
RACCORDO
100
AcDbLine
 62
7
  6
CONTINUOUS
 10
28.8641863006
 20
-42.9170029562
 11
28.8641863006
 21
-41.7844185463
  0
LINE
  5
43C
100
AcDbEntity
  8
RACCORDO
100
AcDbLine
 62
7
  6
CONTINUOUS
 10
28.8641863006
 20
-36.073925861
 11
28.8641863006
 21
-34.9413414511
  0
LINE
  5
43D
100
AcDbEntity
  8
RACCORDO
100
AcDbLine
 62
7
  6
CONTINUOUS
 10
28.8641863006
 20
22.4006191872
 11
28.8641863006
 21
23.5332035971
  0
LINE
  5
43E
100
AcDbEntity
  8
RACCORDO
100
AcDbLine
 62
7
  6
CONTINUOUS
 10
28.8641863006
 20
29.2436962824
 11
28.8641863006
 21
30.3762806924
  0
LINE
  5
43F
100
AcDbEntity
  8
RACCORDO
100
AcDbLine
 62
7
  6
CONTINUOUS
 10
27.6693704925
 20
-39.159010737
 11
27.6697232828
 21
-39.1369008853
  0
LWPOLYLINE
  5
440
100
AcDbEntity
  8
RACCORDO
100
AcDbPolyline
 62
7
  6
CONTINUOUS
 90
7
 70
0
 10
28.8641863006
 20
30.3762806924
 10
28.8644101282
 20
30.3896079349
 10
28.8650030081
 20
30.402926538
 10
28.8659649404
 20
30.4162365015
 10
28.867295925
 20
30.4295378256
 10
28.8689959619
 20
30.4428305102
 10
28.8710650512
 20
30.4561145553
  0
LWPOLYLINE
  5
441
100
AcDbEntity
  8
RACCORDO
100
AcDbPolyline
 62
7
  6
CONTINUOUS
 90
7
 70
0
 10
28.8641863006
 20
-34.9413414511
 10
28.8644101282
 20
-34.9280142085
 10
28.8650030081
 20
-34.9146956055
 10
28.8659649404
 20
-34.9013856419
 10
28.867295925
 20
-34.8880843178
 10
28.8689959619
 20
-34.8747916332
 10
28.8710650512
 20
-34.8615075881
  0
LWPOLYLINE
  5
442
100
AcDbEntity
  8
RACCORDO
100
AcDbPolyline
 62
253
  6
CONTINUOUS
 90
14
 70
0
 10
28.284860001
 20
23.2159333452
 10
28.2854316431
 20
23.2408143197
 10
28.2873605652
 20
23.2646579805
 10
28.2906111832
 20
23.2873924834
 10
28.295119906
 20
23.3088586071
 10
28.3008557531
 20
23.3291037342
 10
28.3078754864
 20
23.3483306481
 10
28.3162107711
 20
23.3665143954
 10
28.3258280973
 20
23.3834828318
 10
28.3367328247
 20
23.399168594
 10
28.3489453721
 20
23.4135142614
 10
28.3624149924
 20
23.4263823112
 10
28.3770143407
 20
23.4376160148
 10
28.3863090055
 20
23.4433322155
  0
LWPOLYLINE
  5
443
100
AcDbEntity
  8
RACCORDO
100
AcDbPolyline
 62
253
  6
CONTINUOUS
 90
14
 70
0
 10
28.284860001
 20
-42.1016887982
 10
28.2854316431
 20
-42.0768078238
 10
28.2873605652
 20
-42.0529641629
 10
28.2906111832
 20
-42.03022966
 10
28.295119906
 20
-42.0087635363
 10
28.3008557531
 20
-41.9885184092
 10
28.3078754864
 20
-41.9692914953
 10
28.3162107711
 20
-41.9511077481
 10
28.3258280973
 20
-41.9341393116
 10
28.3367328247
 20
-41.9184535494
 10
28.3489453721
 20
-41.904107882
 10
28.3624149924
 20
-41.8912398322
 10
28.3770143407
 20
-41.8800061286
 10
28.3863090055
 20
-41.8742899279
  0
LWPOLYLINE
  5
444
100
AcDbEntity
  8
RACCORDO
100
AcDbPolyline
 62
253
  6
CONTINUOUS
 90
49
 70
0
 10
28.8859647854
 20
25.5255035308
 10
28.8826903376
 20
25.3870752086
 10
28.8728760584
 20
25.2528254101
 10
28.856549772
 20
25.1231441975
 10
28.8337578693
 20
24.9984068444
 10
28.804566029
 20
24.8789776635
 10
28.7690598621
 20
24.7652082353
 10
28.7273431064
 20
24.6574300419
 10
28.6795365464
 20
24.5559543576
 10
28.6257791174
 20
24.4610757398
 10
28.5662272545
 20
24.3730698297
 10
28.501053701
 20
24.2921914951
 10
28.430446848
 20
24.218674497
 10
28.3546110131
 20
24.1527319212
 10
28.2737667042
 20
24.0945558315
 10
28.1881492486
 20
24.0443156135
 10
28.0980075976
 20
24.0021571871
 10
28.0036030865
 20
23.968202621
 10
27.9052093466
 20
23.9425503071
 10
27.8031117531
 20
23.9252747095
 10
27.6976068401
 20
23.9164260652
 10
27.5890010396
 20
23.9160300834
 10
27.4776096884
 20
23.9240878898
 10
27.3637560359
 20
23.9405760775
 10
27.2477705014
 20
23.9654467882
 10
27.129989752
 20
23.998627829
 10
27.0107556588
 20
24.0400228868
 10
26.8904142418
 20
24.0895118382
 10
26.7693147187
 20
24.1469510924
 10
26.647808684
 20
24.2121739041
 10
26.526249017
 20
24.284990847
 10
26.4049887775
 20
24.3651903873
 10
26.2843797196
 20
24.452539837
 10
26.1647714713
 20
24.5467860031
 10
26.0465107582
 20
24.64765579
 10
25.9299413388
 20
24.7548561015
 10
25.815402505
 20
24.8680748867
 10
25.7032273889
 20
24.9869826501
 10
25.5937408196
 20
25.1112348599
 10
25.4872594009
 20
25.2404722193
 10
25.3840920094
 20
25.3743200196
 10
25.2845384268
 20
25.5123895122
 10
25.188887357
 20
25.6542805026
 10
25.0974156031
 20
25.7995830119
 10
25.0103898727
 20
25.9478736177
 10
24.9280651616
 20
26.098716925
 10
24.8506807848
 20
26.251673264
 10
24.7784601946
 20
26.4063002183
 10
24.7116126334
 20
26.5621489282
  0
LWPOLYLINE
  5
445
100
AcDbEntity
  8
RACCORDO
100
AcDbPolyline
 62
253
  6
CONTINUOUS
 90
49
 70
0
 10
28.8859647854
 20
-39.7921186126
 10
28.8826903397
 20
-39.9305468908
 10
28.8728760668
 20
-40.0647966482
 10
28.8565497909
 20
-40.1944778227
 10
28.8337579028
 20
-40.3192151414
 10
28.8045660813
 20
-40.4386442917
 10
28.7690599369
 20
-40.5524136935
 10
28.7273432076
 20
-40.660191865
 10
28.6795366776
 20
-40.7616675322
 10
28.6257792821
 20
-40.8565461379
 10
28.5662274559
 20
-40.944552041
 10
28.5010539422
 20
-41.0254303741
 10
28.4304471317
 20
-41.0989473762
 10
28.354611342
 20
-41.1648899618
 10
28.2737670804
 20
-41.2230660668
 10
28.1881496743
 20
-41.2733063062
 10
28.0980080744
 20
-41.3154647597
 10
28.0036036157
 20
-41.3494193588
 10
27.9052099293
 20
-41.3750717116
 10
27.8031123899
 20
-41.3923473538
 10
27.6976075315
 20
-41.4011960484
 10
27.5890017855
 20
-41.401592086
 10
27.4776104885
 20
-41.3935343408
 10
27.3637568895
 20
-41.3770462195
 10
27.2477714073
 20
-41.3521755802
 10
27.1299907087
 20
-41.3189946155
 10
27.0107566643
 20
-41.2775996381
 10
26.8904152941
 20
-41.2281107713
 10
26.7693158156
 20
-41.1706716056
 10
26.6478098228
 20
-41.1054488861
 10
26.5262501939
 20
-41.032632038
 10
26.4049899878
 20
-40.9524325945
 10
26.2843809588
 20
-40.8650832432
 10
26.1647727365
 20
-40.7708371782
 10
26.0465120483
 20
-40.6699674966
 10
25.9299426502
 20
-40.5627672927
 10
25.8154038289
 20
-40.4495486122
 10
25.7032287107
 20
-40.3306409434
 10
25.5937421309
 20
-40.2063888226
 10
25.4872607054
 20
-40.0771515611
 10
25.3840933252
 20
-39.9433038887
 10
25.2845397544
 20
-39.8052345352
 10
25.1888886642
 20
-39.6633436471
 10
25.0974168764
 20
-39.5180412069
 10
25.0103910858
 20
-39.3697506287
 10
24.9280662186
 20
-39.2189072291
 10
24.8506815777
 20
-39.0659506444
 10
24.7784606534
 20
-38.9113233101
 10
24.7116127019
 20
-38.7554740825
  0
LWPOLYLINE
  5
446
100
AcDbEntity
  8
RACCORDO
100
AcDbPolyline
 62
253
  6
CONTINUOUS
 90
16
 70
0
 10
27.8643304175
 20
-42.0995698614
 10
27.8655268572
 20
-42.0594915905
 10
27.8687451945
 20
-42.021297338
 10
27.8739854295
 20
-41.9849871042
 10
27.8812427368
 20
-41.9505858716
 10
27.8905219417
 20
-41.9180686576
 10
27.9018375205
 20
-41.8873605139
 10
27.9152048498
 20
-41.8583004359
 10
27.930608553
 20
-41.8310494281
 10
27.9480169768
 20
-41.8060155565
 10
27.9675268972
 20
-41.7831773823
 10
27.9890415382
 20
-41.7625563442
 10
28.0122389184
 20
-41.7446248239
 10
28.0370117108
 20
-41.729540282
 10
28.0634672425
 20
-41.7171452578
 10
28.0916055134
 20
-41.7074397514
  0
LINE
  5
447
100
AcDbEntity
  8
RACCORDO
100
AcDbLine
 62
7
  6
CONTINUOUS
 10
27.6686653537
 20
-39.1808858841
 11
27.6693704925
 21
-39.159010737
  0
LINE
  5
448
100
AcDbEntity
  8
RACCORDO
100
AcDbLine
 62
7
  6
CONTINUOUS
 10
27.6676087492
 20
-39.2025181819
 11
27.6686653537
 21
-39.1808858841
  0
LWPOLYLINE
  5
449
100
AcDbEntity
  8
0
100
AcDbPolyline
 62
7
  6
CONTINUOUS
 90
8
 70
0
 10
28.8152541073
 20
-39.5133312585
 10
28.8018667387
 20
-39.771003518
 10
28.7618856739
 20
-40.0097318046
 10
28.6958515883
 20
-40.2262877275
 10
28.6046574796
 20
-40.4177427395
 10
28.4895365917
 20
-40.58150774
 10
28.3520457372
 20
-40.7153680882
 10
28.2354227684
 20
-40.7949944697
  0
LWPOLYLINE
  5
44A
100
AcDbEntity
  8
0
100
AcDbPolyline
 62
7
  6
CONTINUOUS
 90
6
 70
0
 10
28.5677667339
 20
-39.6562273661
 10
28.5528995978
 20
-39.9187546456
 10
28.5130987581
 20
-40.156406802
 10
28.4483642149
 20
-40.3691838352
 10
28.357160114
 20
-40.5592705715
 10
28.2410223096
 20
-40.7244821847
  0
LINE
  5
44B
100
AcDbEntity
  8
RACCORDO
100
AcDbLine
 62
253
  6
CONTINUOUS
 10
27.6821716745
 20
-39.2257763114
 11
27.6807084836
 21
-39.2480249062
  0
LINE
  5
44C
100
AcDbEntity
  8
RACCORDO
100
AcDbLine
 62
7
  6
CONTINUOUS
 10
27.6662017057
 20
-39.2239000805
 11
27.6676087492
 21
-39.2025181819
  0
LINE
  5
44D
100
AcDbEntity
  8
RACCORDO
100
AcDbLine
 62
7
  6
CONTINUOUS
 10
27.6662017057
 20
-39.2239000803
 11
27.6662067234
 21
-39.2238341799
  0
LWPOLYLINE
  5
44E
100
AcDbEntity
  8
0
100
AcDbPolyline
 62
7
  6
CONTINUOUS
 90
4
 70
0
 10
32.810407421
 20
29.1725562799
 10
32.7964249192
 20
28.9918089819
 10
32.7614121267
 20
28.8348983412
 10
32.7295298113
 20
28.7591939642
  0
LWPOLYLINE
  5
44F
100
AcDbEntity
  8
RACCORDO
100
AcDbPolyline
 62
253
  6
CONTINUOUS
 90
6
 70
0
 10
26.9473692301
 20
-38.4047339787
 10
26.9468403279
 20
-38.4105996765
 10
26.947330443
 20
-38.4157191082
 10
26.9488256575
 20
-38.4199468956
 10
26.9512835112
 20
-38.4231629807
 10
26.9519488334
 20
-38.4237265187
  0
LWPOLYLINE
  5
450
100
AcDbEntity
  8
RACCORDO
100
AcDbPolyline
 62
253
  6
CONTINUOUS
 90
6
 70
0
 10
27.6134680341
 20
-38.9249476641
 10
27.6129391321
 20
-38.9308133337
 10
27.6134292383
 20
-38.9359327521
 10
27.6149244393
 20
-38.9401605391
 10
27.6173822799
 20
-38.9433766339
 10
27.6180476377
 20
-38.9439402044
  0
LWPOLYLINE
  5
451
100
AcDbEntity
  8
RACCORDO
100
AcDbPolyline
 62
253
  6
CONTINUOUS
 90
22
 70
0
 10
25.4950270141
 20
-37.778092104
 10
25.4953947528
 20
-37.7742550003
 10
25.4959999291
 20
-37.7705096763
 10
25.4968425432
 20
-37.7668561322
 10
25.4979115152
 20
-37.7632729847
 10
25.4992179249
 20
-37.759781617
 10
25.5007950118
 20
-37.7564461787
 10
25.502643727
 20
-37.7532638329
 10
25.5047631195
 20
-37.7502374165
 10
25.5071835756
 20
-37.7474395896
 10
25.5099001087
 20
-37.7448673008
 10
25.5129177056
 20
-37.7425236015
 10
25.516281713
 20
-37.7404903061
 10
25.5200025838
 20
-37.7387554258
 10
25.5240698652
 20
-37.7373309494
 10
25.5284975454
 20
-37.736334658
 10
25.5333048252
 20
-37.7357678195
 10
25.5384725039
 20
-37.735629166
 10
25.5439569671
 20
-37.7360326752
 10
25.549743677
 20
-37.7370163397
 10
25.5558471715
 20
-37.7385421668
 10
25.5622674507
 20
-37.7406101566
  0
LWPOLYLINE
  5
452
100
AcDbEntity
  8
RACCORDO
100
AcDbPolyline
 62
253
  6
CONTINUOUS
 90
8
 70
0
 10
27.6807084836
 20
-39.2480249062
 10
27.6803407465
 20
-39.2518620116
 10
27.6797355711
 20
-39.2556073368
 10
27.6788929573
 20
-39.2592608817
 10
27.6778239848
 20
-39.2628440295
 10
27.676517574
 20
-39.2663353971
 10
27.6749404858
 20
-39.2696708351
 10
27.6730917694
 20
-39.2728531804
  0
LWPOLYLINE
  5
453
100
AcDbEntity
  8
0
100
AcDbPolyline
 62
7
  6
CONTINUOUS
 90
7
 70
0
 10
32.5923249794
 20
29.1826461984
 10
32.5939473601
 20
29.198706432
 10
32.595554739
 20
29.218214005
 10
32.5966108443
 20
29.2346605829
 10
32.597537637
 20
29.2546173021
 10
32.5980925607
 20
29.2748066508
 10
32.5982753867
 20
29.2950386591
  0
LINE
  5
454
100
AcDbEntity
  8
RACCORDO
100
AcDbLine
 62
7
  6
CONTINUOUS
 10
27.66620678
 20
-39.2238341841
 11
27.6660308824
 21
-39.2254048072
  0
LWPOLYLINE
  5
455
100
AcDbEntity
  8
RACCORDO
100
AcDbPolyline
 62
253
  6
CONTINUOUS
 90
10
 70
0
 10
26.4978208447
 20
-39.7229296863
 10
26.4983969581
 20
-39.7182629564
 10
26.4994434011
 20
-39.7133832745
 10
26.5009460224
 20
-39.7083566297
 10
26.5028845019
 20
-39.7032509988
 10
26.5052326251
 20
-39.6981354267
 10
26.5079586376
 20
-39.693079093
 10
26.5110256751
 20
-39.6881503758
 10
26.514392261
 20
-39.683415928
 10
26.5180128681
 20
-39.6789397748
  0
LINE
  5
456
100
AcDbEntity
  8
RACCORDO
100
AcDbLine
 62
253
  6
CONTINUOUS
 10
26.3142848185
 20
-37.9399919677
 11
26.4317360105
 21
-37.2386869383
  0
LINE
  5
457
100
AcDbEntity
  8
RACCORDO
100
AcDbLine
 62
253
  6
CONTINUOUS
 10
26.3825602969
 20
-37.9478018717
 11
26.500011489
 21
-37.2464968418
  0
LINE
  5
458
100
AcDbEntity
  8
RACCORDO
100
AcDbLine
 62
7
  6
CONTINUOUS
 10
26.8474927983
 20
-39.0574525723
 11
26.7300416073
 21
-39.7587575958
  0
LINE
  5
459
100
AcDbEntity
  8
RACCORDO
100
AcDbLine
 62
253
  6
CONTINUOUS
 10
26.8614506747
 20
-39.086125042
 11
26.7439994837
 21
-39.7874300652
  0
LWPOLYLINE
  5
45A
100
AcDbEntity
  8
RACCORDO
100
AcDbPolyline
 62
7
  6
CONTINUOUS
 90
6
 70
0
 10
24.6787970395
 20
-38.0049773722
 10
24.6663822472
 20
-38.0729661663
 10
24.634314585
 20
-38.230754189
 10
24.5982145525
 20
-38.3931136862
 10
24.5582000457
 20
-38.5598582625
 10
24.5329601703
 20
-38.6596340806
  0
LINE
  5
45B
100
AcDbEntity
  8
RACCORDO
100
AcDbLine
 62
253
  6
CONTINUOUS
 10
24.5326576966
 20
-38.6612853075
 11
24.5329574136
 21
-38.6596486011
  0
LWPOLYLINE
  5
45C
100
AcDbEntity
  8
RACCORDO
100
AcDbPolyline
 62
253
  6
CONTINUOUS
 90
16
 70
0
 10
25.5432199091
 20
-37.7884075605
 10
25.5436365493
 20
-37.7864640092
 10
25.5442503318
 20
-37.7845292452
 10
25.5450634745
 20
-37.7826136146
 10
25.5460712509
 20
-37.7807298911
 10
25.5472826504
 20
-37.778887418
 10
25.5487204927
 20
-37.7770924789
 10
25.5503875601
 20
-37.7753581015
 10
25.5522849979
 20
-37.7736966602
 10
25.5544333749
 20
-37.7721153697
 10
25.5568304142
 20
-37.7706314738
 10
25.5594816922
 20
-37.7692563524
 10
25.5624205386
 20
-37.7679939971
 10
25.5656580554
 20
-37.7668613737
 10
25.5691870614
 20
-37.7658813342
 10
25.5725075328
 20
-37.7651657693
  0
LINE
  5
45D
100
AcDbEntity
  8
RACCORDO
100
AcDbLine
 62
7
  6
CONTINUOUS
 10
23.4227286781
 20
-19.0710794082
 11
20.8355423984
 21
-20.5648833879
  0
LINE
  5
45E
100
AcDbEntity
  8
RACCORDO
100
AcDbLine
 62
7
  6
CONTINUOUS
 10
23.4227286781
 20
-23.9699010689
 11
20.8355423984
 21
-25.4637050487
  0
LINE
  5
45F
100
AcDbEntity
  8
0
100
AcDbLine
 62
7
  6
CONTINUOUS
 10
20.4131022979
 20
-20.6256758817
 11
23.2290739335
 21
-19.0519567974
  0
LINE
  5
460
100
AcDbEntity
  8
0
100
AcDbLine
 62
7
  6
CONTINUOUS
 10
23.2290739335
 20
-20.1133681572
 11
20.4131022979
 21
-21.6870872416
  0
LINE
  5
461
100
AcDbEntity
  8
0
100
AcDbLine
 62
7
  6
CONTINUOUS
 10
20.4131022979
 20
-25.5244975425
 11
23.2290739335
 21
-23.9507784581
  0
LINE
  5
462
100
AcDbEntity
  8
RACCORDO
100
AcDbLine
 62
7
  6
CONTINUOUS
 10
23.4227286781
 20
-19.8447950599
 11
20.8355423984
 21
-21.2361001165
  0
LINE
  5
463
100
AcDbEntity
  8
RACCORDO
100
AcDbLine
 62
7
  6
CONTINUOUS
 10
23.4227286781
 20
-24.7436167206
 11
20.8355423984
 21
-26.1349217773
  0
LINE
  5
464
100
AcDbEntity
  8
RACCORDO
100
AcDbLine
 62
7
  6
CONTINUOUS
 10
21.8563957238
 20
39.3298293655
 11
20.9223732983
 21
39.0979687792
  0
LINE
  5
465
100
AcDbEntity
  8
RACCORDO
100
AcDbLine
 62
7
  6
CONTINUOUS
 10
21.8563957238
 20
34.9458398373
 11
20.581739889
 21
34.6655261664
  0
LWPOLYLINE
  5
466
100
AcDbEntity
  8
RACCORDO
100
AcDbPolyline
 62
253
  6
CONTINUOUS
 90
6
 70
0
 10
26.2475470973
 20
27.3228905168
 10
26.2568957857
 20
27.3223515176
 10
26.26629003
 20
27.323130149
 10
26.2755231219
 20
27.3252630977
 10
26.2839749358
 20
27.3288604234
 10
26.2915407599
 20
27.3340990442
  0
LINE
  5
467
100
AcDbEntity
  8
RACCORDO
100
AcDbLine
 62
253
  6
CONTINUOUS
 10
26.500011489
 20
28.0711253017
 11
26.5647982957
 21
28.0664689735
  0
LINE
  5
468
100
AcDbEntity
  8
RACCORDO
100
AcDbLine
 62
7
  6
CONTINUOUS
 10
26.2759386437
 20
27.293952063
 11
26.2908397042
 21
27.2927786173
  0
LWPOLYLINE
  5
469
100
AcDbEntity
  8
RACCORDO
100
AcDbPolyline
 62
7
  6
CONTINUOUS
 90
5
 70
0
 10
26.5092305966
 20
28.094717753
 10
26.5090513776
 20
28.0947353194
 10
26.5092898547
 20
28.0946657404
 10
26.5106829592
 20
28.094149928
 10
26.51150155
 20
28.0937745439
  0
LWPOLYLINE
  5
46A
100
AcDbEntity
  8
RACCORDO
100
AcDbPolyline
 62
253
  6
CONTINUOUS
 90
32
 70
0
 10
24.711610633
 20
26.5621411975
 10
24.7021791414
 20
26.5646704695
 10
24.692808192
 20
26.567298877
 10
24.6835189241
 20
26.5700225143
 10
24.6743312513
 20
26.5728389417
 10
24.6652668264
 20
26.5757418881
 10
24.6563486628
 20
26.5787210484
 10
24.647595926
 20
26.5817705202
 10
24.6390285646
 20
26.5848853206
 10
24.6306695375
 20
26.5880556821
 10
24.6225368962
 20
26.5912745111
 10
24.6146488725
 20
26.594535911
 10
24.6070272659
 20
26.5978310551
 10
24.5996886698
 20
26.6011517885
 10
24.592649569
 20
26.6044912832
 10
24.5859300193
 20
26.6078418933
 10
24.5795447909
 20
26.611194543
 10
24.5735085528
 20
26.6145414683
 10
24.5678394326
 20
26.6178762454
 10
24.5625502337
 20
26.6211888534
 10
24.5576532006
 20
26.6244707816
 10
24.5531636495
 20
26.6277172339
 10
24.5490917725
 20
26.6309175973
 10
24.5454473219
 20
26.6340625861
 10
24.5422427299
 20
26.637148908
 10
24.5394840517
 20
26.6401666097
 10
24.5371793395
 20
26.6431048081
 10
24.5353395951
 20
26.6459585383
 10
24.5339665265
 20
26.6487163238
 10
24.533060982
 20
26.6513687655
 10
24.5326261943
 20
26.6539142419
 10
24.5326576652
 20
26.6563379743
  0
LWPOLYLINE
  5
46B
100
AcDbEntity
  8
RACCORDO
100
AcDbPolyline
 62
253
  6
CONTINUOUS
 90
10
 70
0
 10
26.4317360067
 20
25.7104891141
 10
26.4380845368
 20
25.708593592
 10
26.4452567834
 20
25.7073315935
 10
26.4530490736
 20
25.706738956
 10
26.4612401272
 20
25.7068325089
 10
26.4695973399
 20
25.7076095955
 10
26.4778833889
 20
25.7090481486
 10
26.4858629726
 20
25.7111073171
 10
26.4933094918
 20
25.7137286261
 10
26.5000114852
 20
25.7168376374
  0
LWPOLYLINE
  5
46C
100
AcDbEntity
  8
RACCORDO
100
AcDbPolyline
 62
253
  6
CONTINUOUS
 90
10
 70
0
 10
26.3142848185
 20
26.5474238092
 10
26.3206333323
 20
26.5455282971
 10
26.3278055638
 20
26.5442663035
 10
26.3355978425
 20
26.5436736669
 10
26.3437888898
 20
26.5437672176
 10
26.3521461023
 20
26.5445443004
 10
26.3604321574
 20
26.5459828493
 10
26.3684117523
 20
26.5480420142
 10
26.3758582867
 20
26.5506633212
 10
26.3825602969
 20
26.5537723325
  0
LWPOLYLINE
  5
46D
100
AcDbEntity
  8
RACCORDO
100
AcDbPolyline
 62
253
  6
CONTINUOUS
 90
16
 70
0
 10
27.8643304175
 20
22.0101525362
 10
27.8873951873
 20
21.998147541
 10
27.9124856818
 20
21.9875834848
 10
27.9393330737
 20
21.9785735541
 10
27.9676497119
 20
21.9712142841
 10
27.9971322032
 20
21.9655845244
 10
28.0274646632
 20
21.9617445937
 10
28.0583221005
 20
21.9597356345
 10
28.089373899
 20
21.9595791712
 10
28.1202873604
 20
21.9612768802
 10
28.1507312683
 20
21.9648105718
 10
28.1803794372
 20
21.970142385
 10
28.2089142077
 20
21.977215193
 10
28.2360298494
 20
21.9859532156
 10
28.261435837
 20
21.9962628309
 10
28.284859963
 20
22.0080335786
  0
LWPOLYLINE
  5
46E
100
AcDbEntity
  8
RACCORDO
100
AcDbPolyline
 62
7
  6
CONTINUOUS
 90
16
 70
0
 10
25.5084044026
 20
22.3795672731
 10
25.6852882805
 20
22.2777760907
 10
25.8623424467
 20
22.1839042888
 10
26.0393363026
 20
22.0980941982
 10
26.2161143313
 20
22.0204496652
 10
26.392366516
 20
21.9511382407
 10
26.5676382916
 20
21.8903521525
 10
26.7417432448
 20
21.8381595794
 10
26.9144191398
 20
21.7946456906
 10
27.0851180943
 20
21.7599314988
 10
27.2536225643
 20
21.7340223317
 10
27.4197270902
 20
21.7169130017
 10
27.5829236149
 20
21.7085979605
 10
27.7429143385
 20
21.7090039804
 10
27.8996009353
 20
21.7180423933
 10
28.0527864593
 20
21.7356211528
  0
LWPOLYLINE
  5
46F
100
AcDbEntity
  8
RACCORDO
100
AcDbPolyline
 62
253
  6
CONTINUOUS
 90
16
 70
0
 10
25.4502658687
 20
22.5145455753
 10
25.6149185225
 20
22.4197084766
 10
25.779112691
 20
22.3324160955
 10
25.9428483744
 20
22.2526684319
 10
26.1064285436
 20
22.1803368317
 10
26.2695502276
 20
22.1155499491
 10
26.4313045135
 20
22.0586937465
 10
26.5916023833
 20
22.009841714
 10
26.7505328551
 20
21.9689203616
 10
26.9074540692
 20
21.936095182
 10
27.0624351324
 20
21.9113999993
 10
27.215406938
 20
21.8948009894
 10
27.3655203064
 20
21.8863621728
 10
27.5124921778
 20
21.8861048898
 10
27.6566056121
 20
21.8940078002
 10
27.7978606092
 20
21.910070904
  0
LINE
  5
470
100
AcDbEntity
  8
DRAFT
100
AcDbLine
 62
7
  6
CONTINUOUS
 10
23.2290739335
 20
18.5983671468
 11
23.4227286781
 21
18.4865533243
  0
LINE
  5
471
100
AcDbEntity
  8
RACCORDO
100
AcDbLine
 62
7
  6
CONTINUOUS
 10
25.5084044026
 20
22.3795672731
 11
25.5085090541
 21
22.3795047684
  0
LWPOLYLINE
  5
472
100
AcDbEntity
  8
RACCORDO
100
AcDbPolyline
 62
253
  6
CONTINUOUS
 90
9
 70
0
 10
25.3114050757
 20
22.7579649182
 10
25.2906132161
 20
22.7712821844
 10
25.2723169505
 20
22.7857690789
 10
25.2567123133
 20
22.8012703868
 10
25.2439665007
 20
22.8176200248
 10
25.2342160791
 20
22.8346428193
 10
25.2275655217
 20
22.852156384
 10
25.224086089
 20
22.8699730743
 10
25.22353711
 20
22.8804473032
  0
LINE
  5
473
100
AcDbEntity
  8
RACCORDO
100
AcDbLine
 62
7
  6
CONTINUOUS
 10
24.5452176527
 20
26.1652951372
 11
24.5540035424
 21
26.143110479
  0
LWPOLYLINE
  5
474
100
AcDbEntity
  8
RACCORDO
100
AcDbPolyline
 62
253
  6
CONTINUOUS
 90
3
 70
0
 10
24.5752439875
 20
29.7450067887
 10
24.5799125169
 20
29.7303175367
 10
24.5852140109
 20
29.7154534262
  0
LINE
  5
475
100
AcDbEntity
  8
RACCORDO
100
AcDbLine
 62
253
  6
CONTINUOUS
 10
24.5711796664
 20
29.7594721382
 11
24.5752439875
 21
29.7450067887
  0
LWPOLYLINE
  5
476
100
AcDbEntity
  8
RACCORDO
100
AcDbPolyline
 62
253
  6
CONTINUOUS
 90
6
 70
0
 10
25.2831026601
 20
24.9122586837
 10
25.2931860127
 20
24.8669587207
 10
25.3010864318
 20
24.8222187437
 10
25.3067089132
 20
24.7782789694
 10
25.3101484612
 20
24.734899181
 10
25.3114050757
 20
24.6920793787
  0
LWPOLYLINE
  5
477
100
AcDbEntity
  8
RACCORDO
100
AcDbPolyline
 62
253
  6
CONTINUOUS
 90
7
 70
0
 10
25.5622674507
 20
27.5770119868
 10
25.5638003509
 20
27.5699558301
 10
25.5662937186
 20
27.5636797454
 10
25.5696767489
 20
27.5583619568
 10
25.5738533727
 20
27.5541534755
 10
25.5787049849
 20
27.551173811
 10
25.5800508919
 20
27.5506152223
  0
LWPOLYLINE
  5
478
100
AcDbEntity
  8
RACCORDO
100
AcDbPolyline
 62
253
  6
CONTINUOUS
 90
7
 70
0
 10
26.228366263
 20
27.3280314668
 10
26.2298991637
 20
27.3209753233
 10
26.2323925281
 20
27.3146992451
 10
26.2357755534
 20
27.3093814568
 10
26.2399521722
 20
27.305172971
 10
26.244803781
 20
27.3021932993
 10
26.2462151703
 20
27.3016101151
  0
LWPOLYLINE
  5
479
100
AcDbEntity
  8
RACCORDO
100
AcDbPolyline
 62
7
  6
CONTINUOUS
 90
16
 70
0
 10
28.8710650512
 20
22.3284561849
 10
28.8747074051
 20
22.3113597597
 10
28.8784590642
 20
22.294917044
 10
28.8822694721
 20
22.2792174214
 10
28.8860712712
 20
22.2643377357
 10
28.8898167605
 20
22.2503781241
 10
28.8934762064
 20
22.2374541584
 10
28.8969623303
 20
22.2256663491
 10
28.9002179737
 20
22.215054645
 10
28.9032570232
 20
22.2056537542
 10
28.9059983335
 20
22.1975573621
 10
28.9083664965
 20
22.1908364312
 10
28.9103831554
 20
22.1855473398
 10
28.9119455899
 20
22.1818007035
 10
28.912963297
 20
22.179707179
 10
28.9133679931
 20
22.1792924819
  0
LWPOLYLINE
  5
47A
100
AcDbEntity
  8
RACCORDO
100
AcDbPolyline
 62
253
  6
CONTINUOUS
 90
15
 70
0
 10
26.5000114889
 20
28.0711253011
 10
26.4992798494
 20
28.0747881479
 10
26.4988601708
 20
28.0781400153
 10
26.4987219606
 20
28.0811735442
 10
26.4988267351
 20
28.0838838937
 10
26.4991553141
 20
28.0862735317
 10
26.499709242
 20
28.088349582
 10
26.5004735416
 20
28.0901201853
 10
26.5014174462
 20
28.0915875598
 10
26.5025211746
 20
28.0927553876
 10
26.5037602045
 20
28.0936334846
 10
26.5051219382
 20
28.0942461942
 10
26.5066077291
 20
28.0946150051
 10
26.5081898814
 20
28.0947488846
 10
26.5092213199
 20
28.0947187436
  0
LWPOLYLINE
  5
47B
100
AcDbEntity
  8
RACCORDO
100
AcDbPolyline
 62
7
  6
CONTINUOUS
 90
7
 70
0
 10
28.8710650512
 20
22.3284561849
 10
28.8689959619
 20
22.3394328785
 10
28.867295925
 20
22.3508297615
 10
28.8659649404
 20
22.3626468339
 10
28.8650030081
 20
22.3748840956
 10
28.8644101282
 20
22.3875415467
 10
28.8641863006
 20
22.4006191872
  0
LWPOLYLINE
  5
47C
100
AcDbEntity
  8
RACCORDO
100
AcDbPolyline
 62
253
  6
CONTINUOUS
 90
13
 70
0
 10
26.3825602969
 20
26.5537723325
 10
26.3796470095
 20
26.569855598
 10
26.3754340648
 20
26.5868312058
 10
26.369844199
 20
26.6045791358
 10
26.3627587554
 20
26.6230993433
 10
26.354176453
 20
26.6420447454
 10
26.3443104566
 20
26.6607392437
 10
26.333233873
 20
26.67896365
 10
26.3210628522
 20
26.6964944803
 10
26.3082458329
 20
26.7127261234
 10
26.2950736013
 20
26.7274116483
 10
26.2816074114
 20
26.7405904203
 10
26.268002223
 20
26.7521927368
  0
LINE
  5
47D
100
AcDbEntity
  8
RACCORDO
100
AcDbLine
 62
253
  6
CONTINUOUS
 10
26.7425800218
 20
27.9068710327
 11
26.7439994822
 21
27.898638193
  0
LWPOLYLINE
  5
47E
100
AcDbEntity
  8
RACCORDO
100
AcDbPolyline
 62
253
  6
CONTINUOUS
 90
13
 70
0
 10
26.3142848185
 20
26.5474238092
 10
26.3122614783
 20
26.559758802
 10
26.3091458112
 20
26.5725384137
 10
26.3049378172
 20
26.5857626444
 10
26.2995659048
 20
26.5997115089
 10
26.2931016655
 20
26.6141049924
 10
26.2857598742
 20
26.6281030503
 10
26.2774396717
 20
26.6416430107
 10
26.2682419173
 20
26.6547875455
 10
26.2586839639
 20
26.666884626
 10
26.2489382626
 20
26.6777169092
 10
26.2388323623
 20
26.687501738
 10
26.228366263
 20
26.6962391124
  0
LWPOLYLINE
  5
47F
100
AcDbEntity
  8
RACCORDO
100
AcDbPolyline
 62
253
  6
CONTINUOUS
 90
3
 70
0
 10
26.8614506747
 20
27.061703468
 10
26.8634740149
 20
27.0493684752
 10
26.866589682
 20
27.0365888635
  0
LWPOLYLINE
  5
480
100
AcDbEntity
  8
RACCORDO
100
AcDbPolyline
 62
7
  6
CONTINUOUS
 90
4
 70
0
 10
26.8472824537
 20
27.0752331124
 10
26.8485527008
 20
27.0671967855
 10
26.8547165758
 20
27.0406756563
 10
26.8637845394
 20
27.0142832208
  0
LINE
  5
481
100
AcDbEntity
  8
RACCORDO
100
AcDbLine
 62
253
  6
CONTINUOUS
 10
26.4317360067
 20
25.7104891141
 11
26.3142848185
 21
26.5474238092
  0
LINE
  5
482
100
AcDbEntity
  8
RACCORDO
100
AcDbLine
 62
253
  6
CONTINUOUS
 10
26.5000114851
 20
25.7168376375
 11
26.3825602969
 21
26.5537723325
  0
LINE
  5
483
100
AcDbEntity
  8
RACCORDO
100
AcDbLine
 62
7
  6
CONTINUOUS
 10
26.7298400139
 20
27.9121032647
 11
26.8472912086
 21
27.0751685235
  0
LINE
  5
484
100
AcDbEntity
  8
RACCORDO
100
AcDbLine
 62
253
  6
CONTINUOUS
 10
26.7439994822
 20
27.898638193
 11
26.8614506747
 21
27.061703468
  0
LWPOLYLINE
  5
485
100
AcDbEntity
  8
RACCORDO
100
AcDbPolyline
 62
253
  6
CONTINUOUS
 90
9
 70
0
 10
26.4978208416
 20
28.1184187182
 10
26.4983969546
 20
28.1136388302
 10
26.499443396
 20
28.109199638
 10
26.5009460153
 20
28.1051611747
 10
26.5028844932
 20
28.1015780542
 10
26.5052326161
 20
28.0984987333
 10
26.5079586298
 20
28.0959648559
 10
26.5110256702
 20
28.0940106893
 10
26.5114574332
 20
28.0937958164
  0
LINE
  5
486
100
AcDbEntity
  8
RACCORDO
100
AcDbLine
 62
7
  6
CONTINUOUS
 10
27.6656546942
 20
26.2990631921
 11
27.6661730187
 21
26.2946611127
  0
LWPOLYLINE
  5
487
100
AcDbEntity
  8
0
100
AcDbPolyline
 62
7
  6
CONTINUOUS
 90
7
 70
0
 10
32.5982753867
 20
29.2950386579
 10
32.5791121375
 20
29.5131517759
 10
32.5212596713
 20
29.7473636391
 10
32.4274119511
 20
29.9833299584
 10
32.3019474837
 20
30.2100416206
 10
32.1533277735
 20
30.4137941298
 10
31.9814845329
 20
30.5936838012
  0
LWPOLYLINE
  5
488
100
AcDbEntity
  8
0
100
AcDbPolyline
 62
7
  6
CONTINUOUS
 90
12
 70
0
 10
32.810407421
 20
29.1725562799
 10
32.7964249192
 20
29.3694502205
 10
32.7614121267
 20
29.5667927564
 10
32.7053690434
 20
29.7645838875
 10
32.6261367102
 20
29.9671961315
 10
32.5258740862
 20
30.1702569708
 10
32.4110580496
 20
30.3606488523
 10
32.2807277729
 20
30.537535362
 10
32.1358440835
 20
30.7017529139
 10
31.9857663413
 20
30.8426931976
 10
31.8301516309
 20
30.9588194303
 10
31.7591931988
 20
30.9997899397
  0
LWPOLYLINE
  5
489
100
AcDbEntity
  8
0
100
AcDbPolyline
 62
7
  6
CONTINUOUS
 90
4
 70
0
 10
32.810407421
 20
-36.1450658635
 10
32.7964249192
 20
-36.3258131615
 10
32.7614121267
 20
-36.4827238022
 10
32.7295298113
 20
-36.5584281792
  0
LWPOLYLINE
  5
48A
100
AcDbEntity
  8
0
100
AcDbPolyline
 62
7
  6
CONTINUOUS
 90
7
 70
0
 10
32.5923249794
 20
-36.1349759451
 10
32.5939473601
 20
-36.1189157114
 10
32.595554739
 20
-36.0994081384
 10
32.5966108443
 20
-36.0829615606
 10
32.597537637
 20
-36.0630048413
 10
32.5980925607
 20
-36.0428154927
 10
32.5982753867
 20
-36.0225834843
  0
LWPOLYLINE
  5
48B
100
AcDbEntity
  8
RACCORDO
100
AcDbPolyline
 62
7
  6
CONTINUOUS
 90
4
 70
0
 10
27.6660308824
 20
-39.2254048072
 10
27.6658985523
 20
-39.2260963125
 10
27.6657975131
 20
-39.2264879487
 10
27.6658877718
 20
-39.2262860928
  0
LWPOLYLINE
  5
48C
100
AcDbEntity
  8
RACCORDO
100
AcDbPolyline
 62
7
  6
CONTINUOUS
 90
5
 70
0
 10
26.7300298715
 20
-39.7588284781
 10
26.7296158374
 20
-39.76094474
 10
26.7290326411
 20
-39.7631806336
 10
26.7284413594
 20
-39.7648980136
 10
26.728169176
 20
-39.7655461204
  0
LINE
  5
48D
100
AcDbEntity
  8
RACCORDO
100
AcDbLine
 62
253
  6
CONTINUOUS
 10
26.3119513419
 20
-37.9507294686
 11
26.3142848185
 21
-37.9399919677
  0
LINE
  5
48E
100
AcDbEntity
  8
RACCORDO
100
AcDbLine
 62
253
  6
CONTINUOUS
 10
26.8637841513
 20
-39.075387541
 11
26.8614506747
 21
-39.086125042
  0
LWPOLYLINE
  5
48F
100
AcDbEntity
  8
RACCORDO
100
AcDbPolyline
 62
253
  6
CONTINUOUS
 90
19
 70
0
 10
26.4317360105
 20
-37.2386869383
 10
26.4332969736
 20
-37.2315592752
 10
26.4352282656
 20
-37.2250600915
 10
26.4375298866
 20
-37.2191893874
 10
26.4402419963
 20
-37.2139552139
 10
26.443324435
 20
-37.2093495199
 10
26.446656723
 20
-37.2053481524
 10
26.4502445369
 20
-37.2019599818
 10
26.4540822002
 20
-37.1991761377
 10
26.4580322041
 20
-37.1969458546
 10
26.4620604418
 20
-37.1952822657
 10
26.4662010203
 20
-37.1941722379
 10
26.4704187514
 20
-37.1935256073
 10
26.4746816885
 20
-37.1933120749
 10
26.4790217783
 20
-37.1935619397
 10
26.4834996732
 20
-37.1942759339
 10
26.4881355908
 20
-37.1954543016
 10
26.4929093137
 20
-37.1970967987
 10
26.4978208416
 20
-37.1992034252
  0
LWPOLYLINE
  5
490
100
AcDbEntity
  8
RACCORDO
100
AcDbPolyline
 62
253
  6
CONTINUOUS
 90
4
 70
0
 10
26.7439994837
 20
-39.7874300652
 10
26.7424385205
 20
-39.7945577293
 10
26.7405072285
 20
-39.8010569139
 10
26.7382056075
 20
-39.8069276191
  0
LWPOLYLINE
  5
491
100
AcDbEntity
  8
RACCORDO
100
AcDbPolyline
 62
253
  6
CONTINUOUS
 90
10
 70
0
 10
25.5622674533
 20
-38.101169341
 10
25.5638003429
 20
-38.0947239816
 10
25.5662936947
 20
-38.0878819519
 10
25.5696767084
 20
-38.0808375449
 10
25.5738533199
 20
-38.0737908006
 10
25.5787049274
 20
-38.0669418289
 10
25.5840937582
 20
-38.0604851262
 10
25.5898667841
 20
-38.0546040486
 10
25.5958600671
 20
-38.0494656048
 10
25.6019034132
 20
-38.0452157166
  0
LWPOLYLINE
  5
492
100
AcDbEntity
  8
RACCORDO
100
AcDbPolyline
 62
253
  6
CONTINUOUS
 90
10
 70
0
 10
26.228366263
 20
-38.621383031
 10
26.2298991632
 20
-38.6149376374
 10
26.2323925309
 20
-38.60809558
 10
26.2357755612
 20
-38.6010511552
 10
26.239952185
 20
-38.594004406
 10
26.2448037972
 20
-38.5871554414
 10
26.250192625
 20
-38.5806987537
 10
26.2559656398
 20
-38.5748176959
 10
26.2619589034
 20
-38.5696792743
 10
26.268002223
 20
-38.5654294066
  0
LWPOLYLINE
  5
493
100
AcDbEntity
  8
RACCORDO
100
AcDbPolyline
 62
253
  6
CONTINUOUS
 90
4
 70
0
 10
24.7948975638
 20
-38.4394444649
 10
24.7799359427
 20
-38.4993822528
 10
24.7469912162
 20
-38.6252092701
 10
24.7116127019
 20
-38.7554740825
  0
LWPOLYLINE
  5
494
100
AcDbEntity
  8
RACCORDO
100
AcDbPolyline
 62
7
  6
CONTINUOUS
 90
4
 70
0
 10
25.2064587171
 20
-34.9069710908
 10
25.2051143035
 20
-34.9096601999
 10
25.2029766452
 20
-34.9133655424
 10
25.2019170905
 20
-34.9148964047
  0
LINE
  5
495
100
AcDbEntity
  8
0
100
AcDbLine
 62
7
  6
CONTINUOUS
 10
23.2290739335
 20
-25.012189818
 11
20.4131022979
 21
-26.5859089023
  0
LWPOLYLINE
  5
496
100
AcDbEntity
  8
RACCORDO
100
AcDbPolyline
 62
7
  6
CONTINUOUS
 90
3
 70
0
 10
26.0780495724
 20
33.1654785796
 10
26.0938296556
 20
33.1643013046
 10
26.110949956
 20
33.1628097682
  0
LWPOLYLINE
  5
497
100
AcDbEntity
  8
RACCORDO
100
AcDbPolyline
 62
7
  6
CONTINUOUS
 90
5
 70
0
 10
26.1700935207
 20
33.1572058853
 10
26.1918850242
 20
33.1553699126
 10
26.214296571
 20
33.1537411627
 10
26.2372877281
 20
33.1523205521
 10
26.2607229271
 20
33.1511418139
  0
LINE
  5
498
100
AcDbEntity
  8
RACCORDO
100
AcDbLine
 62
7
  6
CONTINUOUS
 10
26.110949956
 20
33.1628097682
 11
26.1700935207
 21
33.1572058853
  0
LWPOLYLINE
  5
499
100
AcDbEntity
  8
RACCORDO
100
AcDbPolyline
 62
253
  6
CONTINUOUS
 90
8
 70
0
 10
26.9747432373
 20
26.3441293327
 10
26.962078951
 20
26.348077656
 10
26.9492848368
 20
26.3506002732
 10
26.936525345
 20
26.3515130205
 10
26.9238911827
 20
26.3506265179
 10
26.9117000552
 20
26.347755848
 10
26.9004164797
 20
26.3428789371
 10
26.8946936553
 20
26.3393724977
  0
LWPOLYLINE
  5
49A
100
AcDbEntity
  8
RACCORDO
100
AcDbPolyline
 62
7
  6
CONTINUOUS
 90
3
 70
0
 10
26.2462362654
 20
27.3016024053
 10
26.260715494
 20
27.2970096242
 10
26.2759386437
 20
27.293952063
  0
LWPOLYLINE
  5
49B
100
AcDbEntity
  8
RACCORDO
100
AcDbPolyline
 62
253
  6
CONTINUOUS
 90
12
 70
0
 10
26.9473692301
 20
26.2810958104
 10
26.9376982368
 20
26.284343444
 10
26.9281883959
 20
26.2862367604
 10
26.9188397075
 20
26.2867757596
 10
26.9094454631
 20
26.2859971282
 10
26.9002123712
 20
26.2838641796
 10
26.8917605573
 20
26.2802668538
 10
26.8841947332
 20
26.275028233
 10
26.8774101871
 20
26.2683252351
 10
26.8717129091
 20
26.2605785537
 10
26.8672048961
 20
26.2519284198
 10
26.8637841513
 20
26.2422346024
  0
LWPOLYLINE
  5
49C
100
AcDbEntity
  8
RACCORDO
100
AcDbPolyline
 62
253
  6
CONTINUOUS
 90
3
 70
0
 10
26.228366263
 20
27.3280314668
 10
26.2380372564
 20
27.3247838332
 10
26.2475470973
 20
27.3228905168
  0
LWPOLYLINE
  5
49D
100
AcDbEntity
  8
DRAFT
100
AcDbPolyline
 62
7
  6
CONTINUOUS
 90
3
 70
0
 10
26.9362426108
 20
29.2279741594
 10
26.8421382048
 20
29.2599016733
 10
26.7489851355
 20
29.2849165714
  0
LINE
  5
49E
100
AcDbEntity
  8
RACCORDO
100
AcDbLine
 62
7
  6
CONTINUOUS
 10
25.5778242189
 20
27.551373039
 11
25.580050886
 21
27.5506152088
  0
LINE
  5
49F
100
AcDbEntity
  8
RACCORDO
100
AcDbLine
 62
253
  6
CONTINUOUS
 10
27.6134680187
 20
26.0321152993
 11
26.9473692301
 21
26.2810958104
  0
LINE
  5
4A0
100
AcDbEntity
  8
RACCORDO
100
AcDbLine
 62
253
  6
CONTINUOUS
 10
27.6408420257
 20
26.0951488215
 11
26.9747432373
 21
26.3441293327
  0
LINE
  5
4A1
100
AcDbEntity
  8
RACCORDO
100
AcDbLine
 62
7
  6
CONTINUOUS
 10
25.5801163455
 20
27.5505906398
 11
26.2462151703
 21
27.3016101151
  0
LINE
  5
4A2
100
AcDbEntity
  8
RACCORDO
100
AcDbLine
 62
253
  6
CONTINUOUS
 10
25.5622674507
 20
27.5770119868
 11
26.228366263
 21
27.3280314668
  0
LINE
  5
4A3
100
AcDbEntity
  8
DRAFT
100
AcDbLine
 62
7
  6
CONTINUOUS
 10
26.9472024005
 20
29.2234932595
 11
26.9362426108
 21
29.2279741594
  0
LWPOLYLINE
  5
4A4
100
AcDbEntity
  8
RACCORDO
100
AcDbPolyline
 62
253
  6
CONTINUOUS
 90
10
 70
0
 10
25.4950270172
 20
27.3315823194
 10
25.4993567073
 20
27.3297476538
 10
25.504105968
 20
27.3282138573
 10
25.5092105746
 20
27.3270016724
 10
25.5146014972
 20
27.3261274924
 10
25.5202058329
 20
27.32560314
 10
25.5259477923
 20
27.3254357067
 10
25.5317497249
 20
27.3256274575
 10
25.5375331696
 20
27.3261757997
 10
25.5432199147
 20
27.3270733185
  0
LWPOLYLINE
  5
4A5
100
AcDbEntity
  8
RACCORDO
100
AcDbPolyline
 62
253
  6
CONTINUOUS
 90
19
 70
0
 10
25.6019034132
 20
27.2724064268
 10
25.5959932707
 20
27.2749738985
 10
25.5903687308
 20
27.2777366864
 10
25.5850341304
 20
27.2806570766
 10
25.5799821268
 20
27.2836948715
 10
25.575225416
 20
27.286820594
 10
25.5707972729
 20
27.2900168172
 10
25.5666999503
 20
27.293264947
 10
25.5629324263
 20
27.2965300473
 10
25.5595215269
 20
27.2997737894
 10
25.556489248
 20
27.3029551595
 10
25.5538082299
 20
27.3060754077
 10
25.551431981
 20
27.309162939
 10
25.5493552025
 20
27.312188833
 10
25.5475803197
 20
27.3151554506
 10
25.5460788867
 20
27.31813601
 10
25.5448452571
 20
27.3211418724
 10
25.5438914774
 20
27.3241270061
 10
25.5432199143
 20
27.3270733453
  0
LWPOLYLINE
  5
4A6
100
AcDbEntity
  8
0
100
AcDbPolyline
 62
7
  6
CONTINUOUS
 90
8
 70
0
 10
26.7202342321
 20
29.2961781314
 10
26.4915492689
 20
29.3973544601
 10
26.26751369
 20
29.4654001656
 10
26.0511571923
 20
29.4993950464
 10
25.8454056263
 20
29.4988793801
 10
25.653041429
 20
29.4638601402
 10
25.4766659961
 20
29.3948109017
 10
25.4352874716
 20
29.3722918188
  0
LWPOLYLINE
  5
4A7
100
AcDbEntity
  8
RACCORDO
100
AcDbPolyline
 62
253
  6
CONTINUOUS
 90
6
 70
0
 10
26.8614506747
 20
27.061703468
 10
26.8561061542
 20
27.0641786733
 10
26.8519173945
 20
27.0671632861
 10
26.8490033467
 20
27.0705725522
 10
26.8474467643
 20
27.0743096583
 10
26.8472912086
 20
27.0751685235
  0
LWPOLYLINE
  5
4A8
100
AcDbEntity
  8
RACCORDO
100
AcDbPolyline
 62
253
  6
CONTINUOUS
 90
6
 70
0
 10
26.7439994822
 20
27.898638193
 10
26.7386549501
 20
27.9011134109
 10
26.7344661863
 20
27.904098035
 10
26.7315521409
 20
27.9075073099
 10
26.7299955648
 20
27.9112444211
 10
26.7298400139
 20
27.9121032647
  0
LINE
  5
4A9
100
AcDbEntity
  8
RACCORDO
100
AcDbLine
 62
7
  6
CONTINUOUS
 10
26.5114574332
 20
28.0937958164
 11
26.5115015753
 21
28.0937745976
  0
LWPOLYLINE
  5
4AA
100
AcDbEntity
  8
RACCORDO
100
AcDbPolyline
 62
253
  6
CONTINUOUS
 90
10
 70
0
 10
26.6779146499
 20
25.4907085553
 10
26.6579140963
 20
25.5005671096
 10
26.6379085559
 20
25.5108509245
 10
26.6178980285
 20
25.5215599999
 10
26.5978791547
 20
25.532696279
 10
26.577855294
 20
25.5442578186
 10
26.5578365248
 20
25.5562387891
 10
26.5378262066
 20
25.5686372475
 10
26.5178209799
 20
25.5814551368
 10
26.4978208447
 20
25.5946924571
  0
LWPOLYLINE
  5
4AB
100
AcDbEntity
  8
RACCORDO
100
AcDbPolyline
 62
253
  6
CONTINUOUS
 90
10
 70
0
 10
26.6930779497
 20
25.5376019976
 10
26.6736565918
 20
25.5471739706
 10
26.654212501
 20
25.5571690086
 10
26.6347521669
 20
25.5675837755
 10
26.6152820848
 20
25.5784147957
 10
26.5958087526
 20
25.5896584541
 10
26.5763386687
 20
25.6013109972
 10
26.5568783308
 20
25.6133685355
 10
26.5374342343
 20
25.6258270453
 10
26.5180128687
 20
25.6386823684
  0
LWPOLYLINE
  5
4AC
100
AcDbEntity
  8
RACCORDO
100
AcDbPolyline
 62
253
  6
CONTINUOUS
 90
4
 70
0
 10
26.4978208416
 20
28.1184187182
 10
26.5178213955
 20
28.1085601657
 10
26.5378269364
 20
28.0982763522
 10
26.5578374642
 20
28.0875672776
  0
LWPOLYLINE
  5
4AD
100
AcDbEntity
  8
RACCORDO
100
AcDbPolyline
 62
253
  6
CONTINUOUS
 90
16
 70
0
 10
27.8643304175
 20
23.218052282
 10
27.887395178
 20
23.2060472911
 10
27.9124856634
 20
23.1954832375
 10
27.9393330471
 20
23.1864733078
 10
27.9676496784
 20
23.1791140375
 10
27.9971321646
 20
23.1734842763
 10
28.0274646214
 20
23.1696443435
 10
28.0583220577
 20
23.1676353818
 10
28.0893738575
 20
23.1674789159
 10
28.1202873218
 20
23.1691766227
 10
28.1507312344
 20
23.1727103126
 10
28.1803794094
 20
23.1780421249
 10
28.2089141867
 20
23.1851149328
 10
28.2360298355
 20
23.1938529563
 10
28.2614358302
 20
23.2041625736
 10
28.284859963
 20
23.2159333244
  0
LINE
  5
4AE
100
AcDbEntity
  8
0
100
AcDbLine
 62
7
  6
CONTINUOUS
 10
26.8351637768
 20
29.2336869898
 11
26.7202342321
 21
29.2961781314
  0
LWPOLYLINE
  5
4AF
100
AcDbEntity
  8
RACCORDO
100
AcDbPolyline
 62
253
  6
CONTINUOUS
 90
8
 70
0
 10
27.68070848
 20
26.2775449537
 10
27.676856903
 20
26.2796556756
 10
27.6735355277
 20
26.2820139152
 10
27.670789271
 20
26.2845877818
 10
27.6686552723
 20
26.2873424689
 10
27.6671623918
 20
26.2902407242
 10
27.6663308195
 20
26.2932433536
 10
27.6661808133
 20
26.2945398955
  0
LWPOLYLINE
  5
4B0
100
AcDbEntity
  8
RACCORDO
100
AcDbPolyline
 62
7
  6
CONTINUOUS
 90
5
 70
0
 10
26.5885652057
 20
28.0533410197
 10
26.5692400685
 20
28.0640917546
 10
26.5499421874
 20
28.0744199025
 10
26.5306789584
 20
28.0843222168
 10
26.5114574332
 20
28.0937958164
  0
LWPOLYLINE
  5
4B1
100
AcDbEntity
  8
RACCORDO
100
AcDbPolyline
 62
253
  6
CONTINUOUS
 90
3
 70
0
 10
26.5578374642
 20
28.0875672776
 10
26.5778563384
 20
28.0764309988
 10
26.5978801995
 20
28.064869459
  0
LWPOLYLINE
  5
4B2
100
AcDbEntity
  8
RACCORDO
100
AcDbPolyline
 62
253
  6
CONTINUOUS
 90
5
 70
0
 10
26.5978801995
 20
28.064869459
 10
26.6178989691
 20
28.0528884876
 10
26.6379092877
 20
28.0404900279
 10
26.6579145147
 20
28.0276721366
 10
26.6779146502
 20
28.0144348138
  0
LWPOLYLINE
  5
4B3
100
AcDbEntity
  8
RACCORDO
100
AcDbPolyline
 62
253
  6
CONTINUOUS
 90
10
 70
0
 10
25.4950270141
 20
27.5395300394
 10
25.4993567152
 20
27.5369169951
 10
25.504105986
 20
27.5346153482
 10
25.5092106007
 20
27.5326562246
 10
25.5146015283
 20
27.5310661182
 10
25.5202058656
 20
27.5298665327
 10
25.5259478235
 20
27.5290736906
 10
25.5317497516
 20
27.5286983137
 10
25.5375331889
 20
27.5287454785
 10
25.5432199239
 20
27.5292145473
  0
LWPOLYLINE
  5
4B4
100
AcDbEntity
  8
RACCORDO
100
AcDbPolyline
 62
253
  6
CONTINUOUS
 90
17
 70
0
 10
24.5852140109
 20
26.5264315236
 10
24.5781006285
 20
26.5307565368
 10
24.5713790514
 20
26.5352910103
 10
24.5650680663
 20
26.5400232414
 10
24.5591853776
 20
26.5449409957
 10
24.5537476959
 20
26.5500314226
 10
24.5487706513
 20
26.5552810743
 10
24.5442684733
 20
26.5606762293
 10
24.5402543066
 20
26.5662025617
 10
24.5367401682
 20
26.5718450243
 10
24.533735757
 20
26.5775899948
 10
24.5312510097
 20
26.5834207573
 10
24.529294915
 20
26.5893169445
 10
24.5278714624
 20
26.5952675279
 10
24.5269860009
 20
26.601251517
 10
24.5266408294
 20
26.6072329863
 10
24.5266353705
 20
26.6080650403
  0
LINE
  5
4B5
100
AcDbEntity
  8
RACCORDO
100
AcDbLine
 62
253
  6
CONTINUOUS
 10
24.5781022158
 20
29.3996296563
 11
24.5852140109
 21
29.3953056596
  0
LWPOLYLINE
  5
4B6
100
AcDbEntity
  8
RACCORDO
100
AcDbPolyline
 62
7
  6
CONTINUOUS
 90
4
 70
0
 10
26.64663828
 20
28.0185836413
 10
26.6272707411
 20
28.030583895
 10
26.6079108043
 20
28.0421707898
 10
26.5885652057
 20
28.0533410197
  0
LWPOLYLINE
  5
4B7
100
AcDbEntity
  8
RACCORDO
100
AcDbPolyline
 62
253
  6
CONTINUOUS
 90
9
 70
0
 10
25.3114050757
 20
24.6920793787
 10
25.2906131536
 20
24.7053966877
 10
25.2723168503
 20
24.7198836248
 10
25.256712198
 20
24.7353849724
 10
25.2439663898
 20
24.7517346444
 10
25.234215988
 20
24.7687574654
 10
25.2275654615
 20
24.7862710476
 10
25.2240860662
 20
24.8040877451
 10
25.22353711
 20
24.8145617567
  0
LWPOLYLINE
  5
4B8
100
AcDbEntity
  8
RACCORDO
100
AcDbPolyline
 62
253
  6
CONTINUOUS
 90
8
 70
0
 10
24.5852140109
 20
26.2062881867
 10
24.56975229
 20
26.2163198398
 10
24.5564121188
 20
26.2273200726
 10
24.5453739035
 20
26.2391401288
 10
24.5367869216
 20
26.2516201645
 10
24.5307673016
 20
26.264591411
 10
24.5273964535
 20
26.2778784568
 10
24.5266353671
 20
26.2879431545
  0
LWPOLYLINE
  5
4B9
100
AcDbEntity
  8
RACCORDO
100
AcDbPolyline
 62
253
  6
CONTINUOUS
 90
8
 70
0
 10
24.5852140109
 20
29.7154534262
 10
24.5697522341
 20
29.725485105
 10
24.5564120326
 20
29.7364853653
 10
24.5453738097
 20
29.7483054473
 10
24.5367868384
 20
29.7607855049
 10
24.5307672428
 20
29.7737567665
 10
24.5273964275
 20
29.7870438182
 10
24.5266353711
 20
29.7970853224
  0
LWPOLYLINE
  5
4BA
100
AcDbEntity
  8
RACCORDO
100
AcDbPolyline
 62
7
  6
CONTINUOUS
 90
3
 70
0
 10
26.6853668362
 20
27.9933585889
 10
26.6660060099
 20
28.0061739153
 10
26.64663828
 20
28.0185836413
  0
LWPOLYLINE
  5
4BB
100
AcDbEntity
  8
RACCORDO
100
AcDbPolyline
 62
253
  6
CONTINUOUS
 90
10
 70
0
 10
26.3142848185
 20
27.3776301758
 10
26.3206333486
 20
27.3733539661
 10
26.3278055951
 20
27.3697788852
 10
26.3355978854
 20
27.367006456
 10
26.343788939
 20
27.365115408
 10
26.3521461516
 20
27.3641594422
 10
26.3604322007
 20
27.3641657052
 10
26.3684117844
 20
27.3651340193
 10
26.3758583036
 20
27.367036887
 10
26.3825602969
 20
27.3698202717
  0
LWPOLYLINE
  5
4BC
100
AcDbEntity
  8
RACCORDO
100
AcDbPolyline
 62
253
  6
CONTINUOUS
 90
10
 70
0
 10
26.4317360105
 20
28.0789352051
 10
26.4380845056
 20
28.0746590158
 10
26.4452567202
 20
28.0710839431
 10
26.4530489868
 20
28.068311512
 10
26.46124003
 20
28.0664204551
 10
26.4695972464
 20
28.0654644773
 10
26.47788331
 20
28.0654707298
 10
26.4858629164
 20
28.0664390377
 10
26.4933094645
 20
28.0683419061
 10
26.5000114889
 20
28.0711253011
  0
LWPOLYLINE
  5
4BD
100
AcDbEntity
  8
RACCORDO
100
AcDbPolyline
 62
253
  6
CONTINUOUS
 90
22
 70
0
 10
26.4978208447
 20
25.5946924571
 10
26.4943138206
 20
25.5971419814
 10
26.4907675524
 20
25.5998883261
 10
26.4871820401
 20
25.6029314912
 10
26.4835443052
 20
25.6062661771
 10
26.4798673263
 20
25.6098976834
 10
26.4761900389
 20
25.6138419089
 10
26.4725095106
 20
25.6181016448
 10
26.468828674
 20
25.6226741
 10
26.4651952616
 20
25.6275668003
 10
26.4616091245
 20
25.6327740737
 10
26.4580704117
 20
25.6383015924
 10
26.4546273032
 20
25.6441738981
 10
26.4512641889
 20
25.6504120735
 10
26.4479966789
 20
25.656995036
 10
26.4449197832
 20
25.6638840796
 10
26.4420249984
 20
25.6711062843
 10
26.4393208279
 20
25.6786345702
 10
26.4369277914
 20
25.6863489907
 10
26.4348860624
 20
25.6942095638
 10
26.4331554675
 20
25.7022562716
 10
26.4317360067
 20
25.7104891141
  0
LINE
  5
4BE
100
AcDbEntity
  8
RACCORDO
100
AcDbLine
 62
253
  6
CONTINUOUS
 10
26.6779146502
 20
28.0144348138
 11
26.6814216737
 21
28.0119852881
  0
LWPOLYLINE
  5
4BF
100
AcDbEntity
  8
RACCORDO
100
AcDbPolyline
 62
7
  6
CONTINUOUS
 90
5
 70
0
 10
26.6854640612
 20
27.9932938463
 10
26.6878799556
 20
27.9915442054
 10
26.693516701
 20
27.9866391557
 10
26.69982966
 20
27.9798434474
 10
26.7063015293
 20
27.9713636994
  0
LWPOLYLINE
  5
4C0
100
AcDbEntity
  8
0
100
AcDbPolyline
 62
7
  6
CONTINUOUS
 90
9
 70
0
 10
-30.0266270834
 20
69.2253580082
 10
-30.0574897114
 20
69.2482308387
 10
-30.0839147949
 20
69.2722409154
 10
-30.1059023338
 20
69.2973882384
 10
-30.1235796508
 20
69.3239390748
 10
-30.1368194233
 20
69.3516271575
 10
-30.1452396835
 20
69.3796536844
 10
-30.1487000382
 20
69.4080285146
 10
-30.1488130049
 20
69.4145086766
  0
LWPOLYLINE
  5
4C1
100
AcDbEntity
  8
RACCORDO
100
AcDbPolyline
 62
253
  6
CONTINUOUS
 90
9
 70
0
 10
27.6807084836
 20
26.0695972372
 10
27.676856899
 20
26.0724863376
 10
27.67353552
 20
26.0756124292
 10
27.6707892626
 20
26.0789332371
 10
27.6686552656
 20
26.0824038532
 10
27.6671623879
 20
26.0859773432
 10
27.6663308182
 20
26.0896053819
 10
27.6661718025
 20
26.0932389061
 10
27.6662017057
 20
26.0937220631
  0
LWPOLYLINE
  5
4C2
100
AcDbEntity
  8
RACCORDO
100
AcDbPolyline
 62
253
  6
CONTINUOUS
 90
15
 70
0
 10
26.6814216737
 20
28.0119852881
 10
26.6849679413
 20
28.0092389427
 10
26.688553453
 20
28.0061957776
 10
26.6921911874
 20
28.0028610926
 10
26.6958681659
 20
27.9992295879
 10
26.6995454529
 20
27.9952853639
 10
26.7032259809
 20
27.9910256295
 10
26.7069068175
 20
27.9864531759
 10
26.7105402298
 20
27.9815604772
 10
26.7141263669
 20
27.9763532054
 10
26.7176650797
 20
27.9708256885
 10
26.7211081881
 20
27.9649533848
 10
26.7244713022
 20
27.9587152117
 10
26.7277388119
 20
27.9521322519
 10
26.7308157074
 20
27.945243211
  0
LINE
  5
4C3
100
AcDbEntity
  8
RACCORDO
100
AcDbLine
 62
253
  6
CONTINUOUS
 10
26.228366263
 20
26.6962391124
 11
25.5622674533
 21
27.2164528025
  0
LINE
  5
4C4
100
AcDbEntity
  8
RACCORDO
100
AcDbLine
 62
253
  6
CONTINUOUS
 10
26.268002223
 20
26.7521927368
 11
25.6019034127
 21
27.2724064273
  0
LINE
  5
4C5
100
AcDbEntity
  8
RACCORDO
100
AcDbLine
 62
7
  6
CONTINUOUS
 10
26.9519488334
 20
26.8938956248
 11
27.6180476376
 21
26.3736819391
  0
LINE
  5
4C6
100
AcDbEntity
  8
RACCORDO
100
AcDbLine
 62
253
  6
CONTINUOUS
 10
26.9473692301
 20
26.9128881648
 11
27.6134680341
 21
26.3926744793
  0
LWPOLYLINE
  5
4C7
100
AcDbEntity
  8
RACCORDO
100
AcDbPolyline
 62
7
  6
CONTINUOUS
 90
3
 70
0
 10
25.4390621084
 20
22.4293104171
 10
25.4723426649
 20
22.4032977703
 10
25.5085090541
 20
22.3795047684
  0
LWPOLYLINE
  5
4C8
100
AcDbEntity
  8
RACCORDO
100
AcDbPolyline
 62
7
  6
CONTINUOUS
 90
4
 70
0
 10
27.6182536604
 20
26.373524858
 10
27.6210636656
 20
26.3712443817
 10
27.6310199226
 20
26.3619403984
 10
27.6400560312
 20
26.3516404392
  0
LINE
  5
4C9
100
AcDbEntity
  8
RACCORDO
100
AcDbLine
 62
7
  6
CONTINUOUS
 10
26.9444422694
 20
26.9000135411
 11
26.9519947986
 21
26.8938617145
  0
LWPOLYLINE
  5
4CA
100
AcDbEntity
  8
RACCORDO
100
AcDbPolyline
 62
253
  6
CONTINUOUS
 90
19
 70
0
 10
25.5622674533
 20
27.2164528025
 10
25.55531396
 20
27.2222700492
 10
25.5487195812
 20
27.228307553
 10
25.5424843168
 20
27.2345653138
 10
25.5365950576
 20
27.241097272
 10
25.5310649129
 20
27.2478494872
 10
25.5259332102
 20
27.2546601388
 10
25.5212047936
 20
27.2615329844
 10
25.5168748191
 20
27.2684642665
 10
25.5129680823
 20
27.2752808922
 10
25.5095130121
 20
27.2819270648
 10
25.5064811795
 20
27.2884585811
 10
25.5038120935
 20
27.2948697374
 10
25.5014954886
 20
27.3011295732
 10
25.4995416302
 20
27.3072690491
 10
25.4979208233
 20
27.3133753438
 10
25.4966231697
 20
27.3194775169
 10
25.4956585677
 20
27.3255465087
 10
25.4950270172
 20
27.3315823194
  0
LWPOLYLINE
  5
4CB
100
AcDbEntity
  8
RACCORDO
100
AcDbPolyline
 62
253
  6
CONTINUOUS
 90
11
 70
0
 10
27.6134680341
 20
26.3926744793
 10
27.6204215281
 20
26.386857232
 10
27.6270159078
 20
26.3808197277
 10
27.6332511731
 20
26.3745619663
 10
27.6391404332
 20
26.3680300077
 10
27.6446705789
 20
26.3612777921
 10
27.6498022827
 20
26.3544671398
 10
27.6545307005
 20
26.3475942933
 10
27.6588606763
 20
26.34066301
 10
27.6627674144
 20
26.3338463831
 10
27.6662224859
 20
26.3272002087
  0
LWPOLYLINE
  5
4CC
100
AcDbEntity
  8
RACCORDO
100
AcDbPolyline
 62
253
  6
CONTINUOUS
 90
22
 70
0
 10
26.5180128893
 20
25.6386823361
 10
26.5164030316
 20
25.6400929362
 10
26.5148161814
 20
25.6417178935
 10
26.5132552485
 20
25.6435580886
 10
26.5117205342
 20
25.6456078899
 10
26.5102197761
 20
25.6478732092
 10
26.5087681206
 20
25.6503716494
 10
26.5073730629
 20
25.6531020948
 10
26.5060400152
 20
25.6560627434
 10
26.5047823116
 20
25.659269647
 10
26.5036116894
 20
25.6627133996
 10
26.5025352305
 20
25.6663963511
 10
26.5015616572
 20
25.670351951
 10
26.5007046347
 20
25.674585129
 10
26.4999792186
 20
25.6790788994
 10
26.4993998265
 20
25.6838325886
 10
26.498990394
 20
25.6888504024
 10
26.4987672325
 20
25.6941064873
 10
26.4987356437
 20
25.6995526478
 10
26.498913064
 20
25.7051622448
 10
26.4993297794
 20
25.7109300569
 10
26.5000114852
 20
25.7168376374
  0
LWPOLYLINE
  5
4CD
100
AcDbEntity
  8
RACCORDO
100
AcDbPolyline
 62
253
  6
CONTINUOUS
 90
7
 70
0
 10
26.7439994837
 20
25.5301920782
 10
26.7386549762
 20
25.5350479574
 10
26.7344662196
 20
25.5403456413
 10
26.7315521676
 20
25.5459346924
 10
26.7299955767
 20
25.5516563989
 10
26.7298406558
 20
25.5573482793
 10
26.730029854
 20
25.5587936698
  0
LWPOLYLINE
  5
4CE
100
AcDbEntity
  8
RACCORDO
100
AcDbPolyline
 62
253
  6
CONTINUOUS
 90
7
 70
0
 10
26.8614506747
 20
26.2314971014
 10
26.8561061425
 20
26.236353007
 10
26.8519173788
 20
26.2416507134
 10
26.8490033333
 20
26.24723978
 10
26.8474467572
 20
26.2529614921
 10
26.8472918532
 20
26.2586533682
 10
26.8474927983
 20
26.2601695712
  0
LWPOLYLINE
  5
4CF
100
AcDbEntity
  8
RACCORDO
100
AcDbPolyline
 62
253
  6
CONTINUOUS
 90
10
 70
0
 10
24.5852140109
 20
29.3953039591
 10
24.5962249568
 20
29.3820669842
 10
24.6082287055
 20
29.3695512659
 10
24.6211340679
 20
29.3578521637
 10
24.634843292
 20
29.3470585693
 10
24.6492518685
 20
29.3372531067
 10
24.6642491643
 20
29.3285112524
 10
24.6797206285
 20
29.3208996742
 10
24.6955488202
 20
29.3144759793
 10
24.711613257
 20
29.3092889801
  0
LWPOLYLINE
  5
4D0
100
AcDbEntity
  8
RACCORDO
100
AcDbPolyline
 62
7
  6
CONTINUOUS
 90
3
 70
0
 10
27.6400560312
 20
26.3516404392
 10
27.6478802228
 20
26.3408788714
 10
27.6545464783
 20
26.3297266729
  0
LWPOLYLINE
  5
4D1
100
AcDbEntity
  8
RACCORDO
100
AcDbPolyline
 62
7
  6
CONTINUOUS
 90
4
 70
0
 10
26.8899023308
 20
26.9633706429
 10
26.9063561059
 20
26.9400475611
 10
26.9246070645
 20
26.918816727
 10
26.9444422694
 20
26.9000135411
  0
LINE
  5
4D2
100
AcDbEntity
  8
RACCORDO
100
AcDbLine
 62
7
  6
CONTINUOUS
 10
24.9404837534
 20
25.460733569
 11
25.0720045362
 21
25.2648335002
  0
LWPOLYLINE
  5
4D3
100
AcDbEntity
  8
RACCORDO
100
AcDbPolyline
 62
253
  6
CONTINUOUS
 90
3
 70
0
 10
25.0841299797
 20
25.3466610726
 10
25.1116608869
 20
25.3053362956
 10
25.1375091028
 20
25.2635061079
  0
LWPOLYLINE
  5
4D4
100
AcDbEntity
  8
RACCORDO
100
AcDbPolyline
 62
7
  6
CONTINUOUS
 90
3
 70
0
 10
26.7063015293
 20
27.9713636994
 10
26.7124766873
 20
27.9615712923
 10
26.7179606417
 20
27.9510083819
  0
LWPOLYLINE
  5
4D5
100
AcDbEntity
  8
RACCORDO
100
AcDbPolyline
 62
253
  6
CONTINUOUS
 90
7
 70
0
 10
26.8899756189
 20
26.9810242269
 10
26.8982958214
 20
26.9674842665
 10
26.9074935758
 20
26.9543397317
 10
26.9170515292
 20
26.9422426512
 10
26.9267972306
 20
26.931410368
 10
26.9369031309
 20
26.9216255392
 10
26.9473692301
 20
26.9128881648
  0
LWPOLYLINE
  5
4D6
100
AcDbEntity
  8
RACCORDO
100
AcDbPolyline
 62
7
  6
CONTINUOUS
 90
14
 70
0
 10
25.0720045362
 20
25.2648335002
 10
25.094174094
 20
25.228698775
 10
25.1150466477
 20
25.1914772077
 10
25.1343603179
 20
25.1536091652
 10
25.1519891246
 20
25.1153556409
 10
25.1678153048
 20
25.077007927
 10
25.1816710974
 20
25.0390738031
 10
25.1935210979
 20
25.0018311433
 10
25.2033441637
 20
24.9655879094
 10
25.2110994523
 20
24.9308955242
 10
25.2168729245
 20
24.8979884479
 10
25.2207726651
 20
24.8671014721
 10
25.2229221668
 20
24.8387442279
 10
25.2235371198
 20
24.8146060287
  0
LINE
  5
4D7
100
AcDbEntity
  8
RACCORDO
100
AcDbLine
 62
7
  6
CONTINUOUS
 10
26.8755940971
 20
26.9883414334
 11
26.8899023308
 21
26.9633706429
  0
LWPOLYLINE
  5
4D8
100
AcDbEntity
  8
RACCORDO
100
AcDbPolyline
 62
253
  6
CONTINUOUS
 90
9
 70
0
 10
25.1375091028
 20
25.2635061079
 10
25.1616746275
 20
25.2211705097
 10
25.1841652342
 20
25.1782978458
 10
25.2049731497
 20
25.1349197714
 10
25.2240750547
 20
25.0911312514
 10
25.241527146
 20
25.0468806802
 10
25.2572732267
 20
25.0022196634
 10
25.2711213867
 20
24.9573979832
 10
25.2831026601
 20
24.9122586837
  0
LWPOLYLINE
  5
4D9
100
AcDbEntity
  8
RACCORDO
100
AcDbPolyline
 62
253
  6
CONTINUOUS
 90
15
 70
0
 10
28.0916055134
 20
23.610182392
 10
28.1058587205
 20
23.5829746112
 10
28.1222320547
 20
23.5573706176
 10
28.1405500943
 20
23.5336447422
 10
28.160616581
 20
23.5120511945
 10
28.1822165214
 20
23.4928213397
 10
28.2051184894
 20
23.4761612198
 10
28.2290771101
 20
23.462249342
 10
28.2538356853
 20
23.4512347697
 10
28.2791289403
 20
23.4432355247
 10
28.3046858761
 20
23.4383373191
 10
28.3302326663
 20
23.4365926397
 10
28.3554955866
 20
23.4380201845
 10
28.3802039581
 20
23.4426046609
 10
28.3858278253
 20
23.4441146247
  0
LWPOLYLINE
  5
4DA
100
AcDbEntity
  8
RACCORDO
100
AcDbPolyline
 62
7
  6
CONTINUOUS
 90
5
 70
0
 10
24.5578606131
 20
26.134884386
 10
24.6417400583
 20
25.9699101997
 10
24.7361443935
 20
25.7971395876
 10
24.8358133245
 20
25.6272653609
 10
24.9404837534
 20
25.460733569
  0
LWPOLYLINE
  5
4DB
100
AcDbEntity
  8
RACCORDO
100
AcDbPolyline
 62
253
  6
CONTINUOUS
 90
10
 70
0
 10
24.5852140109
 20
26.206288196
 10
24.6336425306
 20
26.1069868339
 10
24.6838593842
 20
26.0085693534
 10
24.7358645719
 20
25.9110357543
 10
24.7897070096
 20
25.8143021329
 10
24.8453377812
 20
25.718452393
 10
24.9026101389
 20
25.6237382459
 10
24.9614751665
 20
25.5302435954
 10
25.0219817801
 20
25.4378845376
 10
25.0841299797
 20
25.3466610726
  0
LINE
  5
4DC
100
AcDbEntity
  8
RACCORDO
100
AcDbLine
 62
7
  6
CONTINUOUS
 10
24.557836698
 20
26.1349334116
 11
24.5578589606
 21
26.1348877559
  0
LWPOLYLINE
  5
4DD
100
AcDbEntity
  8
RACCORDO
100
AcDbPolyline
 62
7
  6
CONTINUOUS
 90
4
 70
0
 10
27.6545464783
 20
26.3297266729
 10
27.6598909458
 20
26.3184973833
 10
27.6636135684
 20
26.3079959422
 10
27.6656546942
 20
26.2990631921
  0
LINE
  5
4DE
100
AcDbEntity
  8
RACCORDO
100
AcDbLine
 62
7
  6
CONTINUOUS
 10
24.5540035424
 20
26.143110479
 11
24.5578389935
 21
26.1349282976
  0
LWPOLYLINE
  5
4DF
100
AcDbEntity
  8
RACCORDO
100
AcDbPolyline
 62
253
  6
CONTINUOUS
 90
10
 70
0
 10
24.7116132481
 20
29.3092889686
 10
24.7352943946
 20
29.2586243818
 10
24.757735794
 20
29.2087767997
 10
24.7788109202
 20
29.1597533394
 10
24.7982193483
 20
29.1115563494
 10
24.8160270234
 20
29.064170034
 10
24.832663463
 20
29.0175829732
 10
24.8480430252
 20
28.971797263
 10
24.8620457444
 20
28.9268018235
 10
24.8649885133
 20
28.9168006212
  0
LWPOLYLINE
  5
4E0
100
AcDbEntity
  8
RACCORDO
100
AcDbPolyline
 62
253
  6
CONTINUOUS
 90
8
 70
0
 10
27.6662224859
 20
26.3272002087
 10
27.6692543196
 20
26.3206686907
 10
27.6719234066
 20
26.3142575329
 10
27.6742400121
 20
26.3079976962
 10
27.676193871
 20
26.3018582198
 10
27.6778146777
 20
26.2957519251
 10
27.6791123305
 20
26.2896497528
 10
27.6800769313
 20
26.2835807623
  0
LWPOLYLINE
  5
4E1
100
AcDbEntity
  8
RACCORDO
100
AcDbPolyline
 62
253
  6
CONTINUOUS
 90
13
 70
0
 10
27.7978606092
 20
21.910070904
 10
27.8106171928
 20
21.8825452405
 10
27.8255099438
 20
21.8566268
 10
27.8423792984
 20
21.832593281
 10
27.8610445145
 20
21.8107021866
 10
27.8813056087
 20
21.7911880658
 10
27.9029454982
 20
21.7742600004
 10
27.9257323278
 20
21.7600993641
 10
27.9494219529
 20
21.7488578802
 10
27.9737605554
 20
21.7406559953
 10
27.9984873642
 20
21.7355815884
 10
28.0233374486
 20
21.7336890302
 10
28.0467749793
 20
21.7349313072
  0
LWPOLYLINE
  5
4E2
100
AcDbEntity
  8
RACCORDO
100
AcDbPolyline
 62
253
  6
CONTINUOUS
 90
25
 70
0
 10
24.5441452207
 20
29.3951233046
 10
24.5454239788
 20
29.3923612638
 10
24.5490406975
 20
29.3853403846
 10
24.5530805105
 20
29.3785443128
 10
24.5575342397
 20
29.3719868884
 10
24.5623921317
 20
29.3656810346
 10
24.5676412293
 20
29.3596440308
 10
24.5732705114
 20
29.3538878975
 10
24.5792677812
 20
29.3484244443
 10
24.585616983
 20
29.34326945
 10
24.5923048945
 20
29.3384335524
 10
24.5993173116
 20
29.3339267803
 10
24.6066351238
 20
29.3297625625
 10
24.6142427923
 20
29.3259500827
 10
24.6221243799
 20
29.3224974107
 10
24.6302585319
 20
29.3194146773
 10
24.638627638
 20
29.3167093854
 10
24.6472140929
 20
29.3143877058
 10
24.6559949905
 20
29.3124560519
 10
24.6649509455
 20
29.310920063
 10
24.6740626976
 20
29.3097839888
 10
24.6833061036
 20
29.3090503537
 10
24.6926590309
 20
29.3087216688
 10
24.7021017788
 20
29.3088010232
 10
24.711612923
 20
29.3092904326
  0
LINE
  5
4E3
100
AcDbEntity
  8
RACCORDO
100
AcDbLine
 62
7
  6
CONTINUOUS
 10
26.8637845394
 20
27.0142832208
 11
26.8755940971
 21
26.9883414334
  0
LINE
  5
4E4
100
AcDbEntity
  8
RACCORDO
100
AcDbLine
 62
7
  6
CONTINUOUS
 10
24.5440549115
 20
29.3953249788
 11
24.5441452207
 21
29.3951233046
  0
LWPOLYLINE
  5
4E5
100
AcDbEntity
  8
RACCORDO
100
AcDbPolyline
 62
7
  6
CONTINUOUS
 90
9
 70
0
 10
24.5440550625
 20
29.3953240723
 10
24.5664861468
 20
29.3437522554
 10
24.6045131977
 20
29.2483963359
 10
24.6389112963
 20
29.150828333
 10
24.6695205008
 20
29.0511327081
 10
24.6962559626
 20
28.9492870565
 10
24.7190805601
 20
28.8451882263
 10
24.7379356803
 20
28.7389735564
 10
24.743950876
 20
28.6952440118
  0
LWPOLYLINE
  5
4E6
100
AcDbEntity
  8
RACCORDO
100
AcDbPolyline
 62
7
  6
CONTINUOUS
 90
5
 70
0
 10
26.7179606417
 20
27.9510083819
 10
26.7226541279
 20
27.9398361155
 10
26.7265103203
 20
27.9279569664
 10
26.729266615
 20
27.915759598
 10
26.7298121632
 20
27.9123165885
  0
LWPOLYLINE
  5
4E7
100
AcDbEntity
  8
RACCORDO
100
AcDbPolyline
 62
253
  6
CONTINUOUS
 90
16
 70
0
 10
25.0841299797
 20
29.9989448852
 10
25.0721496465
 20
30.0274648302
 10
25.0625704603
 20
30.0569915459
 10
25.0554950656
 20
30.0872086837
 10
25.0509992817
 20
30.1177924959
 10
25.0491312903
 20
30.1484153014
 10
25.049911118
 20
30.178748996
 10
25.0533304218
 20
30.2084685765
 10
25.0593525782
 20
30.2372556128
 10
25.067913072
 20
30.2648016572
 10
25.0789201924
 20
30.2908115684
 10
25.0922560131
 20
30.3150066586
 10
25.1077776478
 20
30.3371276742
 10
25.1253187924
 20
30.3569375938
 10
25.1446915096
 20
30.3742241646
 10
25.1656882349
 20
30.3888021655
  0
LWPOLYLINE
  5
4E8
100
AcDbEntity
  8
RACCORDO
100
AcDbPolyline
 62
253
  6
CONTINUOUS
 90
6
 70
0
 10
26.7308157074
 20
27.945243211
 10
26.733710492
 20
27.9380210089
 10
26.7364146623
 20
27.9304927258
 10
26.7388076985
 20
27.922778308
 10
26.7408494272
 20
27.9149177377
 10
26.7425800218
 20
27.9068710327
  0
LWPOLYLINE
  5
4E9
100
AcDbEntity
  8
RACCORDO
100
AcDbPolyline
 62
253
  6
CONTINUOUS
 90
10
 70
0
 10
28.8347150453
 20
26.8092023551
 10
28.7735349585
 20
26.976620308
 10
28.7063764127
 20
27.1440044352
 10
28.633750027
 20
27.3100764583
 10
28.5555512968
 20
27.4749262715
 10
28.4718847269
 20
27.6384639807
 10
28.3835744502
 20
27.7991416247
 10
28.2908951779
 20
27.9564432165
 10
28.193572199
 20
28.1108847431
 10
28.0916055134
 20
28.2624662046
  0
LWPOLYLINE
  5
4EA
100
AcDbEntity
  8
RACCORDO
100
AcDbPolyline
 62
253
  6
CONTINUOUS
 90
5
 70
0
 10
26.866589682
 20
27.0365888635
 10
26.8707976759
 20
27.0233646328
 10
26.8761695884
 20
27.0094157683
 10
26.8826338277
 20
26.9950222848
 10
26.8899756189
 20
26.9810242269
  0
LWPOLYLINE
  5
4EB
100
AcDbEntity
  8
RACCORDO
100
AcDbPolyline
 62
253
  6
CONTINUOUS
 90
20
 70
0
 10
28.7658031132
 20
26.5865801715
 10
28.8097976053
 20
26.4285004364
 10
28.8478553276
 20
26.2710149888
 10
28.8796659723
 20
26.115407674
 10
28.9051785282
 20
25.9616936551
 10
28.9244440066
 20
25.8098577691
 10
28.9373051335
 20
25.6611383722
 10
28.9437094843
 20
25.5155607143
 10
28.9437094836
 20
25.3730995455
 10
28.9373051314
 20
25.234917472
 10
28.9244440028
 20
25.101049782
 10
28.9051785227
 20
24.9714611873
 10
28.8796659656
 20
24.8472084297
 10
28.8478553206
 20
24.7283352542
 10
28.8097975987
 20
24.6147979159
 10
28.7658031068
 20
24.5075219221
 10
28.715823267
 20
24.4065583059
 10
28.6599066572
 20
24.3118560343
 10
28.5985093182
 20
24.2241875156
 10
28.5315864352
 20
24.1436102947
  0
LWPOLYLINE
  5
4EC
100
AcDbEntity
  8
RACCORDO
100
AcDbPolyline
 62
253
  6
CONTINUOUS
 90
16
 70
0
 10
30.3972939345
 20
27.0221972822
 10
30.3392557383
 20
27.2501786074
 10
30.2741881845
 20
27.4796139096
 10
30.2024267612
 20
27.7093181844
 10
30.1239354701
 20
27.9392946888
 10
30.0387503096
 20
28.1695401659
 10
29.9473147638
 20
28.3988598398
 10
29.849599239
 20
28.6272423658
 10
29.745633329
 20
28.8546990887
 10
29.6359492995
 20
29.0800692666
 10
29.5205261594
 20
29.3033315675
 10
29.3993848999
 20
29.5245073234
 10
29.2731207604
 20
29.7424997884
 10
29.1419321539
 20
29.9569433806
 10
29.0056206673
 20
30.1682036819
 10
28.8641863006
 20
30.3762806924
  0
LINE
  5
4ED
100
AcDbEntity
  8
RACCORDO
100
AcDbLine
 62
253
  6
CONTINUOUS
 10
27.6408420257
 20
-39.2224733219
 11
27.6692093028
 21
-39.1640112401
  0
LINE
  5
4EE
100
AcDbEntity
  8
RACCORDO
100
AcDbLine
 62
7
  6
CONTINUOUS
 10
27.6658965957
 20
-39.2262684355
 11
27.6658573209
 21
-39.2263484661
  0
LWPOLYLINE
  5
4EF
100
AcDbEntity
  8
RACCORDO
100
AcDbPolyline
 62
253
  6
CONTINUOUS
 90
17
 70
0
 10
27.6658573209
 20
-39.2263484661
 10
27.665675489
 20
-39.2267024683
 10
27.6649489947
 20
-39.227893769
 10
27.6641061639
 20
-39.2289462916
 10
27.6631437985
 20
-39.2298427918
 10
27.66205984
 20
-39.2305685291
 10
27.660848727
 20
-39.2311121149
 10
27.6594990605
 20
-39.2314568951
 10
27.6580042615
 20
-39.2315832922
 10
27.6563631856
 20
-39.2314732616
 10
27.6545708127
 20
-39.2311072571
 10
27.6526274176
 20
-39.2304577993
 10
27.6505363404
 20
-39.2295079828
 10
27.6483009723
 20
-39.2282536462
 10
27.6459303773
 20
-39.2266798898
 10
27.6434386043
 20
-39.224759854
 10
27.6408420259
 20
-39.2224733219
  0
LINE
  5
4F0
100
AcDbEntity
  8
RACCORDO
100
AcDbLine
 62
7
  6
CONTINUOUS
 10
26.728169176
 20
-39.7655461204
 11
26.7276764904
 21
-39.7664972539
  0
LINE
  5
4F1
100
AcDbEntity
  8
RACCORDO
100
AcDbLine
 62
253
  6
CONTINUOUS
 10
26.7382056075
 20
-39.8069276191
 11
26.7354934978
 21
-39.8121617937
  0
LWPOLYLINE
  5
4F2
100
AcDbEntity
  8
RACCORDO
100
AcDbPolyline
 62
253
  6
CONTINUOUS
 90
3
 70
0
 10
26.304022584
 20
-37.9690734199
 10
26.308530597
 20
-37.960423286
 10
26.3119513419
 20
-37.9507294686
  0
LWPOLYLINE
  5
4F3
100
AcDbEntity
  8
RACCORDO
100
AcDbPolyline
 62
253
  6
CONTINUOUS
 90
17
 70
0
 10
24.5852140109
 20
-39.1113339567
 10
24.5802382001
 20
-39.118968712
 10
24.5758118532
 20
-39.1261114066
 10
24.5719133701
 20
-39.1327727946
 10
24.5685239352
 20
-39.1389543968
 10
24.565612129
 20
-39.1446784494
 10
24.5631412595
 20
-39.149984671
 10
24.5610882478
 20
-39.1548854978
 10
24.5594329603
 20
-39.1593878888
 10
24.5581515697
 20
-39.163519417
 10
24.5572229197
 20
-39.1672900476
 10
24.5566276034
 20
-39.1707074951
 10
24.556348732
 20
-39.1737940638
 10
24.5563660064
 20
-39.1765594107
 10
24.5566601918
 20
-39.1790109366
 10
24.5572163407
 20
-39.1811675429
 10
24.557836698
 20
-39.1826887319
  0
LWPOLYLINE
  5
4F4
100
AcDbEntity
  8
RACCORDO
100
AcDbPolyline
 62
253
  6
CONTINUOUS
 90
27
 70
0
 10
24.6153709668
 20
-35.2452284724
 10
24.609705578
 20
-35.2530832993
 10
24.6041512924
 20
-35.2614909558
 10
24.5987343532
 20
-35.2704695141
 10
24.593498191
 20
-35.2800145493
 10
24.5885091583
 20
-35.2900476378
 10
24.5837885345
 20
-35.3005665213
 10
24.5793657476
 20
-35.3115602386
 10
24.5752956785
 20
-35.3229203806
 10
24.5715917347
 20
-35.3346179791
 10
24.5682632858
 20
-35.3466471139
 10
24.5653380075
 20
-35.3589230662
 10
24.562820186
 20
-35.371406758
 10
24.5607081593
 20
-35.3840936691
 10
24.5590107225
 20
-35.3969475391
 10
24.5577264878
 20
-35.4099438625
 10
24.5568534885
 20
-35.4230634049
 10
24.5563973169
 20
-35.4362777108
 10
24.5563541335
 20
-35.4495565648
 10
24.5567189651
 20
-35.4628873341
 10
24.5574972818
 20
-35.476268237
 10
24.5586810553
 20
-35.4896196758
 10
24.5602668246
 20
-35.5029797602
 10
24.5622893516
 20
-35.5165204116
 10
24.5647648145
 20
-35.530208152
 10
24.5677049692
 20
-35.5440241136
 10
24.5711796664
 20
-35.5581500052
  0
LWPOLYLINE
  5
4F5
100
AcDbEntity
  8
RACCORDO
100
AcDbPolyline
 62
253
  6
CONTINUOUS
 90
16
 70
0
 10
27.7978606092
 20
-35.0158351984
 10
27.810617113
 20
-35.0004159912
 10
27.8255097758
 20
-34.9838496727
 10
27.842379042
 20
-34.9663137335
 10
27.8610441784
 20
-34.9479960534
 10
27.8813052078
 20
-34.9290928906
 10
27.9029450507
 20
-34.909806779
 10
27.925731857
 20
-34.8903443537
 10
27.9494214842
 20
-34.8709141417
 10
27.9737601102
 20
-34.8517243296
 10
27.9984869648
 20
-34.832980524
 10
28.0233371154
 20
-34.8148835546
 10
28.0480442991
 20
-34.797627327
 10
28.0723437905
 20
-34.7813967343
 10
28.0959752376
 20
-34.7663656768
 10
28.1186854423
 20
-34.7526952049
  0
LWPOLYLINE
  5
4F6
100
AcDbEntity
  8
RACCORDO
100
AcDbPolyline
 62
253
  6
CONTINUOUS
 90
21
 70
0
 10
24.5852140109
 20
-35.9223181843
 10
24.6527336558
 20
-35.8426336553
 10
24.7252267643
 20
-35.7704735018
 10
24.8026933364
 20
-35.7058377238
 10
24.8854143423
 20
-35.6485456167
 10
24.9731088118
 20
-35.5987778851
 10
25.0649338346
 20
-35.5570766427
 10
25.1608690579
 20
-35.5235575144
 10
25.2609348346
 20
-35.4981048752
 10
25.3643493123
 20
-35.4809139637
 10
25.4711574795
 20
-35.472047049
 10
25.5813143477
 20
-35.4714418619
 10
25.693903099
 20
-35.4791068336
 10
25.808935222
 20
-35.4951106521
 10
25.9263992282
 20
-35.5193846294
 10
26.0453438344
 20
-35.5517311328
 10
26.1657841638
 20
-35.5922164848
 10
26.2877050931
 20
-35.6407743629
 10
26.41010997
 20
-35.6970081671
 10
26.5330017058
 20
-35.7609803542
 10
26.656377389
 20
-35.8326284673
  0
LWPOLYLINE
  5
4F7
100
AcDbEntity
  8
RACCORDO
100
AcDbPolyline
 62
253
  6
CONTINUOUS
 90
20
 70
0
 10
24.711613212
 20
-36.0083338842
 10
24.7784564213
 20
-35.9296800508
 10
24.8506732772
 20
-35.8584517733
 10
24.9280546987
 20
-35.7948565032
 10
25.0103776707
 20
-35.7390788988
 10
25.0974027386
 20
-35.6912825039
 10
25.1888741053
 20
-35.6516082296
 10
25.2845248997
 20
-35.6201714409
 10
25.3840785444
 20
-35.5970626625
 10
25.4872459958
 20
-35.5823488098
 10
25.5937272936
 20
-35.5760724383
 10
25.7032137093
 20
-35.5782515273
 10
25.8153887628
 20
-35.5888797678
 10
25.9299276916
 20
-35.6079266123
 10
26.0464973012
 20
-35.6353368715
 10
26.1647582362
 20
-35.6710307808
 10
26.2843667027
 20
-35.7149044578
 10
26.4049760029
 20
-35.7668306138
 10
26.5262365374
 20
-35.8266587142
 10
26.6290710111
 20
-35.8833157435
  0
LWPOLYLINE
  5
4F8
100
AcDbEntity
  8
RACCORDO
100
AcDbPolyline
 62
253
  6
CONTINUOUS
 90
3
 70
0
 10
24.6268061289
 20
-35.2312666982
 10
24.6210902549
 20
-35.2379545483
 10
24.6159963916
 20
-35.2425985669
  0
LINE
  5
4F9
100
AcDbEntity
  8
RACCORDO
100
AcDbLine
 62
253
  6
CONTINUOUS
 10
24.6381760554
 20
-35.2194751756
 11
24.6325012923
 21
-35.2251232017
  0
LWPOLYLINE
  5
4FA
100
AcDbEntity
  8
RACCORDO
100
AcDbPolyline
 62
7
  6
CONTINUOUS
 90
15
 70
0
 10
24.645729707
 20
-35.2126235854
 10
24.6318964306
 20
-35.2254064296
 10
24.6159963916
 20
-35.2425985669
 10
24.6012439793
 20
-35.2614836379
 10
24.5876977537
 20
-35.281985833
 10
24.5754354084
 20
-35.3039590247
 10
24.564520608
 20
-35.3272076736
 10
24.5549053393
 20
-35.3517494959
 10
24.5466026146
 20
-35.377518881
 10
24.5397342901
 20
-35.4040466003
 10
24.5342798161
 20
-35.4312700505
 10
24.5302298413
 20
-35.4592886663
 10
24.527669055
 20
-35.4877515216
 10
24.5266506452
 20
-35.5165471108
 10
24.5266353671
 20
-35.8406632356
  0
LINE
  5
4FB
100
AcDbEntity
  8
RACCORDO
100
AcDbLine
 62
253
  6
CONTINUOUS
 10
24.6457378934
 20
-35.2126157946
 11
24.6437846308
 21
-35.2143183767
  0
LWPOLYLINE
  5
4FC
100
AcDbEntity
  8
RACCORDO
100
AcDbPolyline
 62
7
  6
CONTINUOUS
 90
13
 70
0
 10
25.4055556361
 20
-32.5242165013
 10
25.3824741394
 20
-32.5397143743
 10
25.3572135962
 20
-32.5598557939
 10
25.3334300184
 20
-32.5825275508
 10
25.3113926881
 20
-32.6076366851
 10
25.2913738978
 20
-32.6350352984
 10
25.2736201475
 20
-32.6645454419
 10
25.2583142163
 20
-32.6960272434
 10
25.2456466785
 20
-32.7292376849
 10
25.2357721273
 20
-32.7638870357
 10
25.2287700025
 20
-32.7997941835
 10
25.2246843023
 20
-32.8367980491
 10
25.2235371162
 20
-32.8699150575
  0
LWPOLYLINE
  5
4FD
100
AcDbEntity
  8
RACCORDO
100
AcDbPolyline
 62
7
  6
CONTINUOUS
 90
3
 70
0
 10
24.8449897343
 20
-35.0681036242
 10
24.7460855351
 20
-35.1335931619
 10
24.6457354754
 20
-35.2126178679
  0
LINE
  5
4FE
100
AcDbEntity
  8
RACCORDO
100
AcDbLine
 62
253
  6
CONTINUOUS
 10
25.6548871524
 20
-32.5419582492
 11
26.2607229271
 21
-32.1664803295
  0
LINE
  5
4FF
100
AcDbEntity
  8
RACCORDO
100
AcDbLine
 62
7
  6
CONTINUOUS
 10
25.9664221606
 20
-32.177584155
 11
25.4055080714
 21
-32.5242436961
  0
LINE
  5
500
100
AcDbEntity
  8
RACCORDO
100
AcDbLine
 62
253
  6
CONTINUOUS
 10
25.2051553222
 20
-34.9048270735
 11
25.165688235
 21
-34.9288199779
  0
LINE
  5
501
100
AcDbEntity
  8
DRAFT
100
AcDbLine
 62
7
  6
CONTINUOUS
 10
25.2220230432
 20
-34.8395270348
 11
24.8449897343
 21
-35.0681036242
  0
LINE
  5
502
100
AcDbEntity
  8
RACCORDO
100
AcDbLine
 62
7
  6
CONTINUOUS
 10
25.2072377801
 20
-34.9107815947
 11
25.2068011473
 21
-34.9110462257
  0
LINE
  5
503
100
AcDbEntity
  8
DRAFT
100
AcDbLine
 62
7
  6
CONTINUOUS
 10
28.5467843228
 20
-30.9318251593
 11
27.3656852059
 21
-31.6137229007
  0
LINE
  5
504
100
AcDbEntity
  8
RACCORDO
100
AcDbLine
 62
7
  6
CONTINUOUS
 10
27.3656852059
 20
-31.6137229007
 11
26.4985791178
 21
-32.1144057521
  0
LINE
  5
505
100
AcDbEntity
  8
0
100
AcDbLine
 62
7
  6
CONTINUOUS
 10
25.4352874716
 20
-35.9453303246
 11
25.1878000982
 21
-36.0882264323
  0
LWPOLYLINE
  5
506
100
AcDbEntity
  8
RACCORDO
100
AcDbPolyline
 62
253
  6
CONTINUOUS
 90
3
 70
0
 10
25.2068011473
 20
-34.9110462257
 10
25.1995305212
 20
-34.9151893749
 10
25.1830674242
 20
-34.9228920035
  0
LWPOLYLINE
  5
507
100
AcDbEntity
  8
RACCORDO
100
AcDbPolyline
 62
7
  6
CONTINUOUS
 90
13
 70
0
 10
26.4985791178
 20
-32.1144057521
 10
26.4825999935
 20
-32.1230053089
 10
26.4655615319
 20
-32.1309591646
 10
26.447540045
 20
-32.1382190301
 10
26.4285776702
 20
-32.144750135
 10
26.4088025316
 20
-32.1504959333
 10
26.3884428892
 20
-32.1553960546
 10
26.3676509301
 20
-32.1594239432
 10
26.3465006764
 20
-32.1625777407
 10
26.3251186858
 20
-32.1648588432
 10
26.3036227675
 20
-32.1662686728
 10
26.2821206509
 20
-32.1668067445
 10
26.2607229271
 20
-32.1664803295
  0
LWPOLYLINE
  5
508
100
AcDbEntity
  8
RACCORDO
100
AcDbPolyline
 62
7
  6
CONTINUOUS
 90
6
 70
0
 10
25.9664185579
 20
-32.1775780517
 10
25.9877653065
 20
-32.1664507758
 10
26.0086216419
 20
-32.1589518616
 10
26.0305684078
 20
-32.1540799079
 10
26.0537110512
 20
-32.1518104753
 10
26.0780495724
 20
-32.1521435638
  0
LWPOLYLINE
  5
509
100
AcDbEntity
  8
0
100
AcDbPolyline
 62
7
  6
CONTINUOUS
 90
3
 70
0
 10
25.4067178669
 20
-35.9971048466
 10
25.2287844275
 20
-36.0667640292
 10
25.188072434
 20
-36.0886999617
  0
LINE
  5
50A
100
AcDbEntity
  8
RACCORDO
100
AcDbLine
 62
253
  6
CONTINUOUS
 10
25.1830674242
 20
-34.9228920035
 11
25.1656882787
 21
-34.9288199513
  0
LWPOLYLINE
  5
50B
100
AcDbEntity
  8
RACCORDO
100
AcDbPolyline
 62
253
  6
CONTINUOUS
 90
5
 70
0
 10
25.165688235
 20
-34.9288199779
 10
25.0751274139
 20
-34.9580691465
 10
24.9876211549
 20
-34.9934137646
 10
24.9033247544
 20
-35.0347911049
 10
24.8449897343
 20
-35.0681036242
  0
LWPOLYLINE
  5
50C
100
AcDbEntity
  8
RACCORDO
100
AcDbPolyline
 62
253
  6
CONTINUOUS
 90
10
 70
0
 10
25.0841299797
 20
-35.3186772582
 10
25.0220115701
 20
-35.3381208074
 10
24.961526021
 20
-35.3605985336
 10
24.9026733323
 20
-35.3861104368
 10
24.8454028841
 20
-35.4146835852
 10
24.7897652963
 20
-35.4462909107
 10
24.7359124291
 20
-35.4808512082
 10
24.6838949025
 20
-35.5183374094
 10
24.6336620964
 20
-35.5587765826
 10
24.5852140109
 20
-35.6021687278
  0
LWPOLYLINE
  5
50D
100
AcDbEntity
  8
RACCORDO
100
AcDbPolyline
 62
253
  6
CONTINUOUS
 90
12
 70
0
 10
25.654887128
 20
32.775663879
 10
25.6290149446
 20
32.7886987222
 10
25.6033409469
 20
32.7995022849
 10
25.5780007219
 20
32.8080209065
 10
25.5531357721
 20
32.8142118062
 10
25.5288683499
 20
32.8180482713
 10
25.5053028091
 20
32.8195126139
 10
25.4825435102
 20
32.8185916826
 10
25.4607348248
 20
32.8152846238
 10
25.4400308844
 20
32.8096178551
 10
25.4205916217
 20
32.8016579025
 10
25.4055636127
 20
32.7934127597
  0
LWPOLYLINE
  5
50E
100
AcDbEntity
  8
RACCORDO
100
AcDbPolyline
 62
253
  6
CONTINUOUS
 90
22
 70
0
 10
25.4502658687
 20
32.4082558355
 10
25.4399286457
 20
32.4135595385
 10
25.4297685059
 20
32.4179302869
 10
25.4197854492
 20
32.4213680807
 10
25.4099318406
 20
32.4238808431
 10
25.4002553151
 20
32.4254606508
 10
25.3908987784
 20
32.4260837345
 10
25.3818596904
 20
32.4257333485
 10
25.3731405913
 20
32.4244262385
 10
25.3648920067
 20
32.422188871
 10
25.3571391342
 20
32.4190234752
 10
25.3498567763
 20
32.414927822
 10
25.3431198662
 20
32.4099216907
 10
25.3369178298
 20
32.404010261
 10
25.3312612411
 20
32.3971883531
 10
25.3262567552
 20
32.3894602073
 10
25.3218929695
 20
32.3807857315
 10
25.3181812866
 20
32.3712050178
 10
25.3152625695
 20
32.3608425817
 10
25.3131837724
 20
32.3497399287
 10
25.3118979411
 20
32.3378555533
 10
25.3114050757
 20
32.3251894557
  0
LWPOLYLINE
  5
50F
100
AcDbEntity
  8
RACCORDO
100
AcDbPolyline
 62
253
  6
CONTINUOUS
 90
16
 70
0
 10
27.8643304175
 20
28.9170478985
 10
27.8873951873
 20
28.9050429033
 10
27.9124856818
 20
28.8944788471
 10
27.9393330737
 20
28.8854689164
 10
27.9676497119
 20
28.8781096465
 10
27.9971322032
 20
28.8724798867
 10
28.0274646632
 20
28.8686399561
 10
28.0583221005
 20
28.8666309968
 10
28.089373899
 20
28.8664745335
 10
28.1202873604
 20
28.8681722426
 10
28.1507312683
 20
28.8717059342
 10
28.1803794372
 20
28.8770377473
 10
28.2089142077
 20
28.8841105553
 10
28.2360298494
 20
28.8928485779
 10
28.261435837
 20
28.9031581932
 10
28.284859963
 20
28.9149289409
  0
LWPOLYLINE
  5
510
100
AcDbEntity
  8
RACCORDO
100
AcDbPolyline
 62
253
  6
CONTINUOUS
 90
16
 70
0
 10
27.8643304175
 20
30.1249476443
 10
27.8873949194
 20
30.1129427713
 10
27.912485148
 20
30.1023787878
 10
27.9393322934
 20
30.0933688851
 10
27.9676487203
 20
30.0860096044
 10
27.9971310475
 20
30.0803798032
 10
28.0274633989
 20
30.0765398095
 10
28.058320791
 20
30.0745307747
 10
28.0893726092
 20
30.0743742336
 10
28.1202861481
 20
30.0760718719
 10
28.1507301892
 20
30.0796055088
 10
28.1803785393
 20
30.0849372913
 10
28.20891352
 20
30.0920100974
 10
28.2360293877
 20
30.1007481505
 10
28.261435609
 20
30.1110578331
 10
28.284859963
 20
30.1228286874
  0
LINE
  5
511
100
AcDbEntity
  8
0
100
AcDbLine
 62
7
  6
CONTINUOUS
 10
27.1833610887
 20
29.0326810811
 11
26.8351637768
 21
29.2336869898
  0
LWPOLYLINE
  5
512
100
AcDbEntity
  8
0
100
AcDbPolyline
 62
7
  6
CONTINUOUS
 90
16
 70
0
 10
-30.1488972116
 20
65.6471059502
 10
-30.2272931664
 20
65.6930919104
 10
-30.3318119579
 20
65.7615717668
 10
-30.4293366648
 20
65.8330540291
 10
-30.5198031238
 20
65.9075662422
 10
-30.6032754983
 20
65.9850808612
 10
-30.6789903324
 20
66.0648889356
 10
-30.7468764584
 20
66.1470115063
 10
-30.8070050439
 20
66.2314275325
 10
-30.8588261358
 20
66.3173649407
 10
-30.9022635209
 20
66.404837689
 10
-30.9373934124
 20
66.4938318193
 10
-30.9638944966
 20
66.5835333847
 10
-30.9816876123
 20
66.6739488758
 10
-30.9908519206
 20
66.7650718019
 10
-30.9921837718
 20
66.8148661811
  0
LINE
  5
513
100
AcDbEntity
  8
0
100
AcDbLine
 62
7
  6
CONTINUOUS
 10
22.0508794144
 20
35.0218883044
 11
22.2171178958
 21
34.9227212683
  0
LWPOLYLINE
  5
514
100
AcDbEntity
  8
RACCORDO
100
AcDbPolyline
 62
253
  6
CONTINUOUS
 90
9
 70
0
 10
25.3114050757
 20
30.3910749952
 10
25.2906131611
 20
30.4043922989
 10
25.2723168623
 20
30.4188792307
 10
25.2567122117
 20
30.4343805735
 10
25.2439664028
 20
30.4507302416
 10
25.2342159986
 20
30.4677530596
 10
25.2275654685
 20
30.48526664
 10
25.2240860688
 20
30.503083337
 10
25.223537116
 20
30.5135226474
  0
LWPOLYLINE
  5
515
100
AcDbEntity
  8
RACCORDO
100
AcDbPolyline
 62
253
  6
CONTINUOUS
 90
9
 70
0
 10
25.3114050757
 20
32.3251894557
 10
25.2906131536
 20
32.3385067647
 10
25.2723168503
 20
32.3529937018
 10
25.256712198
 20
32.3684950494
 10
25.2439663898
 20
32.3848447215
 10
25.234215988
 20
32.4018675424
 10
25.2275654615
 20
32.4193811246
 10
25.2240860662
 20
32.4371978222
 10
25.22353711
 20
32.4476718337
  0
LINE
  5
516
100
AcDbEntity
  8
RACCORDO
100
AcDbLine
 62
253
  6
CONTINUOUS
 10
26.656377389
 20
29.4849936761
 11
26.7792316327
 21
29.4062536078
  0
LWPOLYLINE
  5
517
100
AcDbEntity
  8
RACCORDO
100
AcDbPolyline
 62
253
  6
CONTINUOUS
 90
16
 70
0
 10
-28.839922945
 20
69.1584426402
 10
-25.8868634804
 20
67.2148958088
 10
-22.9218895046
 20
65.2986621531
 10
-19.9450010177
 20
63.4097416732
 10
-16.9676963303
 20
61.5551708677
 10
-13.9784771318
 20
59.727913238
 10
-10.9428484899
 20
57.906859288
 10
-7.8490939224
 20
56.0842874774
 10
-4.7089299116
 20
54.2679193465
 10
-1.5230109716
 20
52.4598100212
 10
1.7123082134
 20
50.6581836723
 10
4.9933823275
 20
48.8648161289
 10
8.3086209097
 20
47.0870900037
 10
11.6541604729
 20
45.3274661674
 10
15.033864504
 20
43.5834837493
 10
18.4477330032
 20
41.8551427493
  0
LWPOLYLINE
  5
518
100
AcDbEntity
  8
0
100
AcDbPolyline
 62
7
  6
CONTINUOUS
 90
16
 70
0
 10
-30.0266270834
 20
69.2253580082
 10
-27.003400872
 20
67.231802213
 10
-23.9482008752
 20
65.2551990433
 10
-20.8610270931
 20
63.2955484994
 10
-17.7415974871
 20
61.3526782188
 10
-14.5901940958
 20
59.4267605639
 10
-11.4076630346
 20
57.5183126213
 10
-8.1939959453
 20
55.6273390819
 10
-4.9492011861
 20
53.7538352548
 10
-1.674149947
 20
51.8983041541
 10
1.6311658963
 20
50.0607506058
 10
4.9667382196
 20
48.2411697841
 10
8.3316714601
 20
46.4400502252
 10
11.725667097
 20
44.6575547748
 10
15.1490236511
 20
42.8935205873
 10
18.6017411225
 20
41.1479476627
  0
LWPOLYLINE
  5
519
100
AcDbEntity
  8
0
100
AcDbPolyline
 62
7
  6
CONTINUOUS
 90
16
 70
0
 10
-29.6488972116
 20
69.4145087183
 10
-26.6287332859
 20
67.4229744557
 10
-23.5766598482
 20
65.4483944769
 10
-20.4926768986
 20
63.4907687817
 10
-17.3765317386
 20
61.5499425307
 10
-14.2284770667
 20
59.6260705634
 10
-11.0492709781
 20
57.7196173984
 10
-7.8388384682
 20
55.8305486635
 10
-4.5972545417
 20
53.9588987309
 10
-1.3255023082
 20
52.1052352358
 10
1.9763587016
 20
50.2696014851
 10
5.3083880183
 20
48.4519541719
 10
8.6697811239
 20
46.652731011
 10
12.0602698457
 20
44.8720779073
 10
15.4801223564
 20
43.1098489558
 10
18.9293386559
 20
41.3660441567
  0
LINE
  5
51A
100
AcDbEntity
  8
RACCORDO
100
AcDbLine
 62
253
  6
CONTINUOUS
 10
26.7792316327
 20
29.4062536078
 11
26.9015605184
 21
29.320363423
  0
LWPOLYLINE
  5
51B
100
AcDbEntity
  8
RACCORDO
100
AcDbPolyline
 62
253
  6
CONTINUOUS
 90
3
 70
0
 10
26.9015605184
 20
29.320363423
 10
27.0233679647
 20
29.227381283
 10
27.1436603402
 20
29.1280656431
  0
LWPOLYLINE
  5
51C
100
AcDbEntity
  8
RACCORDO
100
AcDbPolyline
 62
253
  6
CONTINUOUS
 90
3
 70
0
 10
27.1436603402
 20
29.1280656431
 10
27.262425148
 20
29.022364781
 10
27.379674885
 20
28.910330419
  0
LINE
  5
51D
100
AcDbEntity
  8
RACCORDO
100
AcDbLine
 62
253
  6
CONTINUOUS
 10
27.379674885
 20
28.910330419
 11
27.4944534112
 21
28.7928761792
  0
LINE
  5
51E
100
AcDbEntity
  8
RACCORDO
100
AcDbLine
 62
253
  6
CONTINUOUS
 10
27.4944534112
 20
28.7928761792
 11
27.6067405476
 21
28.6699577162
  0
LWPOLYLINE
  5
51F
100
AcDbEntity
  8
0
100
AcDbPolyline
 62
7
  6
CONTINUOUS
 90
6
 70
0
 10
27.6731541751
 20
28.5317913596
 10
27.6195530477
 20
28.5938229362
 10
27.40319655
 20
28.8096711157
 10
27.1791609711
 20
29.0003360811
 10
26.9504760079
 20
29.1632394157
 10
26.8351637768
 20
29.2336869898
  0
LWPOLYLINE
  5
520
100
AcDbEntity
  8
RACCORDO
100
AcDbPolyline
 62
253
  6
CONTINUOUS
 90
15
 70
0
 10
27.6067405476
 20
28.6699577162
 10
27.7165564731
 20
28.5416193754
 10
27.8230055842
 20
28.408907815
 10
27.9260603448
 20
28.2717872737
 10
28.025748291
 20
28.1302935128
 10
28.121256427
 20
27.9855804743
 10
28.2125505655
 20
27.8376218442
 10
28.2996648938
 20
27.6864439366
 10
28.3818889774
 20
27.5332796356
 10
28.4591828328
 20
27.3781126862
 10
28.5315864435
 20
27.2209593435
 10
28.5985093253
 20
27.0631012558
 10
28.6599066638
 20
26.9045326285
 10
28.7158232734
 20
26.7452592563
 10
28.7658031132
 20
26.5865801715
  0
LWPOLYLINE
  5
521
100
AcDbEntity
  8
RACCORDO
100
AcDbPolyline
 62
253
  6
CONTINUOUS
 90
16
 70
0
 10
27.7978606092
 20
30.301786945
 10
27.6566036805
 20
30.4809699908
 10
27.5124889426
 20
30.6552929504
 10
27.3655163956
 20
30.8247558236
 10
27.2154033289
 20
30.9896637567
 10
27.062432453
 20
31.1497116035
 10
26.9074518993
 20
31.3039839259
 10
26.7505303437
 20
31.452367597
 10
26.5915991104
 20
31.5949757438
 10
26.4313003022
 20
31.731232309
 10
26.2695444988
 20
31.8611667753
 10
26.1064211206
 20
31.9847496601
 10
25.942840532
 20
32.1013164589
 10
25.7791061879
 20
32.2106456704
 10
25.6149146335
 20
32.3129587959
 10
25.4502658687
 20
32.4082558355
  0
LWPOLYLINE
  5
522
100
AcDbEntity
  8
RACCORDO
100
AcDbPolyline
 62
253
  6
CONTINUOUS
 90
16
 70
0
 10
28.1186854422
 20
30.5649269385
 10
27.9703989563
 20
30.7530145295
 10
27.8188123364
 20
30.9363534156
 10
27.6641494347
 20
31.1146728555
 10
27.5066386468
 20
31.2877095189
 10
27.3465125727
 20
31.4552078789
 10
27.1840076727
 20
31.6169205881
 10
27.0193639196
 20
31.7726088429
 10
26.8528244498
 20
31.9220427316
 10
26.6846352018
 20
32.0650015765
 10
26.5150445478
 20
32.2012742647
 10
26.3443029247
 20
32.3306595611
 10
26.1726624688
 20
32.452966401
 10
26.0003766452
 20
32.5680141712
 10
25.8276998743
 20
32.6756329768
 10
25.6548871524
 20
32.7756638942
  0
LWPOLYLINE
  5
523
100
AcDbEntity
  8
RACCORDO
100
AcDbPolyline
 62
253
  6
CONTINUOUS
 90
42
 70
0
 10
28.9106224713
 20
31.0141646554
 10
29.0797431717
 20
30.7878029841
 10
29.2436888103
 20
30.5557921746
 10
29.4021287817
 20
30.3186000895
 10
29.5547435833
 20
30.0767050391
 10
29.7012254587
 20
29.8305948186
 10
29.8412790181
 20
29.5807657248
 10
29.9746218345
 20
29.3277215542
 10
30.1009850166
 20
29.0719725821
 10
30.2201137486
 20
28.8140345348
 10
30.3317678022
 20
28.5544275544
 10
30.4357220188
 20
28.2936751565
 10
30.5317667664
 20
28.0323031689
 10
30.6197083645
 20
27.7708386662
 10
30.6993694757
 20
27.5098089024
 10
30.7705894604
 20
27.249740254
 10
30.8332247
 20
26.9911571608
 10
30.887148886
 20
26.734581073
 10
30.9322532765
 20
26.4805293949
 10
30.9684469156
 20
26.229514441
 10
30.9956568181
 20
25.9820423911
 10
31.0138281148
 20
25.7386122748
 10
31.0229241616
 20
25.4997149661
 10
31.0229266132
 20
25.2658322325
 10
31.0138354659
 20
25.0374357495
 10
30.9956690619
 20
24.8149861443
 10
30.968464037
 20
24.5989319378
 10
30.9322752311
 20
24.3897086906
 10
30.8871755659
 20
24.1877381514
 10
30.8332560025
 20
23.9934277999
 10
30.7706253951
 20
23.8071698503
 10
30.6994102898
 20
23.6293403428
 10
30.6197541732
 20
23.4602973125
 10
30.531817135
 20
23.3003806235
 10
30.4357755971
 20
23.1499117363
 10
30.3318237862
 20
23.0091955246
 10
30.2201732362
 20
22.8785180908
 10
30.1010516096
 20
22.7581446519
 10
29.974697437
 20
22.6483150805
 10
29.8413607288
 20
22.5492469799
 10
29.7013086835
 20
22.4611402285
 10
29.6634846266
 20
22.4398609708
  0
LWPOLYLINE
  5
524
100
AcDbEntity
  8
RACCORDO
100
AcDbPolyline
 62
7
  6
CONTINUOUS
 90
38
 70
0
 10
29.0057762716
 20
28.8352410804
 10
29.1082622915
 20
28.6829298388
 10
29.2064322067
 20
28.528003761
 10
29.3002860172
 20
28.3704628471
 10
29.3900433393
 20
28.2098921164
 10
29.4754845567
 20
28.0467065496
 10
29.555950821
 20
27.8821510886
 10
29.6313619341
 20
27.7163163905
 10
29.701798094
 20
27.5491117983
 10
29.7668410461
 20
27.3815102828
 10
29.8264993116
 20
27.2133699438
 10
29.8807643693
 20
27.0448326816
 10
29.929192401
 20
26.8772971682
 10
29.9716953909
 20
26.7109695636
 10
30.0083613548
 20
26.5456437078
 10
30.039010522
 20
26.3820997923
 10
30.063639109
 20
26.2201089103
 10
30.0822508993
 20
26.0598999686
 10
30.0946774729
 20
25.9029398793
 10
30.1008626897
 20
25.7495026703
 10
30.1008626897
 20
25.5993143136
 10
30.0946774729
 20
25.4530196379
 10
30.0822508993
 20
25.3104094443
 10
30.063639109
 20
25.1716929315
 10
30.039010522
 20
25.0381425244
 10
30.0083613548
 20
24.909991499
 10
29.9716953909
 20
24.7870065793
 10
29.929192401
 20
24.6697603621
 10
29.8807643693
 20
24.5581483257
 10
29.8264993116
 20
24.4522749919
 10
29.7668410461
 20
24.3530265226
 10
29.701798094
 20
24.2605349778
 10
29.6313619341
 20
24.1746682975
 10
29.555950821
 20
24.0959164625
 10
29.4754845567
 20
24.0242814266
 10
29.3900433393
 20
23.959761236
 10
29.3002860172
 20
23.902840011
 10
29.2763581279
 20
23.8893595114
  0
LWPOLYLINE
  5
525
100
AcDbEntity
  8
RACCORDO
100
AcDbPolyline
 62
253
  6
CONTINUOUS
 90
16
 70
0
 10
28.0916055134
 20
28.2624662046
 10
28.0640746063
 20
28.3037909816
 10
28.0382263904
 20
28.3456211693
 10
28.0140608656
 20
28.3879567675
 10
27.9915702589
 20
28.4308294314
 10
27.9707623434
 20
28.4742075058
 10
27.9516604385
 20
28.5179960258
 10
27.9342083472
 20
28.562246597
 10
27.9184622664
 20
28.6069076138
 10
27.9046141064
 20
28.651729294
 10
27.8926328331
 20
28.6968685935
 10
27.8825494805
 20
28.7421685565
 10
27.8746490614
 20
28.7869085335
 10
27.8690265799
 20
28.8308483079
 10
27.865587032
 20
28.8742280962
 10
27.8643304175
 20
28.9170478985
  0
LWPOLYLINE
  5
526
100
AcDbEntity
  8
RACCORDO
100
AcDbPolyline
 62
253
  6
CONTINUOUS
 90
15
 70
0
 10
28.4096572191
 20
28.5313996506
 10
28.3933925946
 20
28.5575268056
 10
28.378158553
 20
28.5840864134
 10
28.3640366723
 20
28.6108863031
 10
28.3510141536
 20
28.637900614
 10
28.3390147124
 20
28.6652794712
 10
28.3280798141
 20
28.6929553343
 10
28.3182755782
 20
28.7207961726
 10
28.3096056539
 20
28.7488598652
 10
28.3021143223
 20
28.7771248305
 10
28.2958932823
 20
28.8053871426
 10
28.2910187388
 20
28.8334270515
 10
28.2875354521
 20
28.8610935894
 10
28.2854722625
 20
28.888301019
 10
28.2848600086
 20
28.9149289668
  0
LWPOLYLINE
  5
527
100
AcDbEntity
  8
DRAFT
100
AcDbPolyline
 62
7
  6
CONTINUOUS
 90
26
 70
0
 10
32.5603583465
 20
29.2754639398
 10
32.4654379081
 20
29.5293514631
 10
32.3628307114
 20
29.7830310295
 10
32.252688459
 20
30.0362345042
 10
32.1358312587
 20
30.2870832328
 10
32.0123625573
 20
30.5352723395
 10
31.8821789079
 20
30.7811066999
 10
31.745790077
 20
31.0236222868
 10
31.6029929501
 20
31.2630895494
 10
31.4539906417
 20
31.4992380385
 10
31.2999022612
 20
31.7302923787
 10
31.1408798169
 20
31.9559565429
 10
30.9767713004
 20
32.1765265582
 10
30.8082397966
 20
32.3911151301
 10
30.6350806964
 20
32.5999149414
 10
30.4574986088
 20
32.8027333095
 10
30.2767704458
 20
32.9981048917
 10
30.093037873
 20
33.1858125516
 10
29.9061592248
 20
33.3660734257
 10
29.7169864169
 20
33.538073581
 10
29.525384596
 20
33.7018815052
 10
29.3314886153
 20
33.8574287105
 10
29.1365549501
 20
34.0036958006
 10
28.9410024255
 20
34.1403429769
 10
28.7444122164
 20
34.2677100381
 10
28.5467843228
 20
34.3857969841
  0
LWPOLYLINE
  5
528
100
AcDbEntity
  8
RACCORDO
100
AcDbPolyline
 62
7
  6
CONTINUOUS
 90
7
 70
0
 10
28.894014873
 20
-41.6382513552
 10
28.8903144689
 20
-41.6455679938
 10
28.8809452871
 20
-41.6700010819
 10
28.8736307036
 20
-41.6961496331
 10
28.868427971
 20
-41.723857141
 10
28.8652798367
 20
-41.7532801121
 10
28.8641863006
 20
-41.7844185463
  0
LWPOLYLINE
  5
529
100
AcDbEntity
  8
RACCORDO
100
AcDbPolyline
 62
253
  6
CONTINUOUS
 90
15
 70
0
 10
26.7354934978
 20
-39.8121617937
 10
26.7324110593
 20
-39.8167674888
 10
26.7290787712
 20
-39.8207688576
 10
26.7254909572
 20
-39.8241570294
 10
26.7216532936
 20
-39.8269408749
 10
26.7177032891
 20
-39.8291711591
 10
26.7136750506
 20
-39.830834749
 10
26.7095344712
 20
-39.8319447776
 10
26.7053167392
 20
-39.8325914089
 10
26.7010538017
 20
-39.8328049418
 10
26.6967137117
 20
-39.8325550773
 10
26.6922358167
 20
-39.8318410829
 10
26.6875998993
 20
-39.8306627145
 10
26.6828261771
 20
-39.8290202163
 10
26.6779146499
 20
-39.8269135881
  0
LINE
  5
52A
100
AcDbEntity
  8
RACCORDO
100
AcDbLine
 62
253
  6
CONTINUOUS
 10
27.6730917694
 20
-39.2728531804
 11
27.6709723757
 21
-39.2758795962
  0
LINE
  5
52B
100
AcDbEntity
  8
RACCORDO
100
AcDbLine
 62
253
  6
CONTINUOUS
 10
27.169273532
 20
-38.7896638382
 11
27.2595340738
 21
-38.6639462136
  0
LWPOLYLINE
  5
52C
100
AcDbEntity
  8
RACCORDO
100
AcDbPolyline
 62
253
  6
CONTINUOUS
 90
3
 70
0
 10
27.0272109307
 20
-38.8872346164
 10
27.0496486773
 20
-38.8566422865
 10
27.2154190047
 20
-38.6294929725
  0
LINE
  5
52D
100
AcDbEntity
  8
RACCORDO
100
AcDbLine
 62
253
  6
CONTINUOUS
 10
26.5180128687
 20
-39.678939775
 11
26.8096874107
 21
-39.2831898172
  0
LINE
  5
52E
100
AcDbEntity
  8
RACCORDO
100
AcDbLine
 62
253
  6
CONTINUOUS
 10
26.5000114851
 20
-39.6007845059
 11
26.8314606257
 21
-39.1531812156
  0
LINE
  5
52F
100
AcDbEntity
  8
RACCORDO
100
AcDbLine
 62
7
  6
CONTINUOUS
 10
26.7276764904
 20
-39.7664972539
 11
26.7278539738
 21
-39.7662763045
  0
LWPOLYLINE
  5
530
100
AcDbEntity
  8
RACCORDO
100
AcDbPolyline
 62
7
  6
CONTINUOUS
 90
6
 70
0
 10
26.8789981564
 20
-38.9915507517
 10
26.8702223883
 20
-39.0019184949
 10
26.8625586741
 20
-39.013711277
 10
26.8561619129
 20
-39.0268274749
 10
26.851171916
 20
-39.0411159994
 10
26.8474989684
 20
-39.0574264165
  0
LINE
  5
531
100
AcDbEntity
  8
RACCORDO
100
AcDbLine
 62
253
  6
CONTINUOUS
 10
26.6930779497
 20
-39.7800201458
 11
26.7345378912
 21
-39.7319101333
  0
LWPOLYLINE
  5
532
100
AcDbEntity
  8
RACCORDO
100
AcDbPolyline
 62
253
  6
CONTINUOUS
 90
14
 70
0
 10
27.6709723757
 20
-39.2758795962
 10
27.6685519182
 20
-39.2786774224
 10
27.6658353836
 20
-39.2812497105
 10
27.6628177853
 20
-39.2835934089
 10
27.6594537761
 20
-39.2856267034
 10
27.6557329033
 20
-39.2873615828
 10
27.6516656198
 20
-39.2887860583
 10
27.6472379374
 20
-39.2897823487
 10
27.6424306554
 20
-39.2903491861
 10
27.6372629745
 20
-39.2904878386
 10
27.631778509
 20
-39.2900843283
 10
27.6259917969
 20
-39.2891006629
 10
27.6198883001
 20
-39.2875748348
 10
27.6134680187
 20
-39.2855068441
  0
LWPOLYLINE
  5
533
100
AcDbEntity
  8
RACCORDO
100
AcDbPolyline
 62
253
  6
CONTINUOUS
 90
14
 70
0
 10
26.7278518039
 20
-39.766278576
 10
26.7266968709
 20
-39.7675878713
 10
26.7237509769
 20
-39.7706181014
 10
26.7207824678
 20
-39.7732544585
 10
26.7178312471
 20
-39.7754890064
 10
26.7149400709
 20
-39.7773210329
 10
26.712108961
 20
-39.7787821425
 10
26.7093093611
 20
-39.7799095308
 10
26.7065575856
 20
-39.7807187366
 10
26.703863829
 20
-39.7812128446
 10
26.7011730625
 20
-39.7813929272
 10
26.6984647401
 20
-39.7812536417
 10
26.695764552
 20
-39.780795912
 10
26.6930779785
 20
-39.7800201705
  0
LWPOLYLINE
  5
534
100
AcDbEntity
  8
RACCORDO
100
AcDbPolyline
 62
253
  6
CONTINUOUS
 90
39
 70
0
 10
28.5315864352
 20
-41.1740118487
 10
28.4591828228
 20
-41.2475553168
 10
28.3818889663
 20
-41.313465259
 10
28.2996648825
 20
-41.3716792482
 10
28.2125505546
 20
-41.4222597115
 10
28.1212564162
 20
-41.4647941573
 10
28.0257482797
 20
-41.4992167934
 10
27.9260603328
 20
-41.5255934119
 10
27.8230055715
 20
-41.5437088979
 10
27.71655646
 20
-41.5534956921
 10
27.6067405343
 20
-41.5550213538
 10
27.4944533976
 20
-41.5482734452
 10
27.379674871
 20
-41.533184319
 10
27.2624251334
 20
-41.5098216226
 10
27.1436603252
 20
-41.4783758606
 10
27.0233679492
 20
-41.4387808793
 10
26.9015605025
 20
-41.3911028324
 10
26.7792316163
 20
-41.3357306851
 10
26.6563773722
 20
-41.272601751
 10
26.5330016887
 20
-41.2017787164
 10
26.4101099527
 20
-41.1238386063
 10
26.2877050758
 20
-41.0387223258
 10
26.1657841465
 20
-40.9464889697
 10
26.0453438173
 20
-40.8478928474
 10
25.9263992114
 20
-40.7428851002
 10
25.8089352056
 20
-40.6315145867
 10
25.693903083
 20
-40.5146821922
 10
25.581314332
 20
-40.3923324953
 10
25.4711574643
 20
-40.2645209174
 10
25.3643492975
 20
-40.1323146077
 10
25.26093482
 20
-39.9957032485
 10
25.1608690435
 20
-39.8546971575
 10
25.0649338206
 20
-39.7103944373
 10
24.9731087984
 20
-39.5626559596
 10
24.8854143299
 20
-39.4116208526
 10
24.8026933257
 20
-39.2588046034
 10
24.7252267563
 20
-39.1047123744
 10
24.6527336514
 20
-38.9488390031
 10
24.5852140109
 20
-38.7911844897
  0
LWPOLYLINE
  5
535
100
AcDbEntity
  8
RACCORDO
100
AcDbPolyline
 62
253
  6
CONTINUOUS
 90
7
 70
0
 10
25.0841299797
 20
-39.9709610708
 10
25.07214933
 20
-39.9830221853
 10
25.0625700112
 20
-39.9936416729
 10
25.0554946392
 20
-40.0027057637
 10
25.050999
 20
-40.0101173539
 10
25.0491312368
 20
-40.0157970492
 10
25.0498920825
 20
-40.0196565441
  0
LWPOLYLINE
  5
536
100
AcDbEntity
  8
RACCORDO
100
AcDbPolyline
 62
253
  6
CONTINUOUS
 90
3
 70
0
 10
26.2915407599
 20
-37.9835230992
 10
26.2983253061
 20
-37.9768201013
 10
26.304022584
 20
-37.9690734199
  0
LWPOLYLINE
  5
537
100
AcDbEntity
  8
0
100
AcDbPolyline
 62
7
  6
CONTINUOUS
 90
3
 70
0
 10
28.2410223096
 20
-40.7244821847
 10
28.1045583638
 20
-40.8582641959
 10
27.9876630591
 20
-40.937417048
  0
LWPOLYLINE
  5
538
100
AcDbEntity
  8
RACCORDO
100
AcDbPolyline
 62
253
  6
CONTINUOUS
 90
16
 70
0
 10
28.0916055134
 20
-37.0551559388
 10
28.1058590984
 20
-37.0417824599
 10
28.1222328408
 20
-37.0272399573
 10
28.1405512825
 20
-37.0116842591
 10
28.1606181292
 20
-36.9952820487
 10
28.1822183609
 20
-36.9782090735
 10
28.2051205375
 20
-36.9606482604
 10
28.2290792639
 20
-36.9427877677
 10
28.2538378328
 20
-36.9248189587
 10
28.2791309841
 20
-36.9069343453
 10
28.3046877169
 20
-36.8893255472
 10
28.330234213
 20
-36.8721812244
 10
28.3554967856
 20
-36.8556850463
 10
28.3802047775
 20
-36.8400137474
 10
28.4040934616
 20
-36.8253352317
 10
28.4269068977
 20
-36.8118067608
  0
LWPOLYLINE
  5
539
100
AcDbEntity
  8
RACCORDO
100
AcDbPolyline
 62
7
  6
CONTINUOUS
 90
3
 70
0
 10
26.894662052
 20
-38.9782729678
 10
26.888756218
 20
-38.982647632
 10
26.8789981564
 20
-38.9915507517
  0
LINE
  5
53A
100
AcDbEntity
  8
RACCORDO
100
AcDbLine
 62
7
  6
CONTINUOUS
 10
27.3029495579
 20
-38.6978530888
 11
26.8945985112
 21
-38.9783148646
  0
LINE
  5
53B
100
AcDbEntity
  8
RACCORDO
100
AcDbLine
 62
253
  6
CONTINUOUS
 10
27.337165757
 20
-38.7245754533
 11
26.9747432373
 21
-38.9734928108
  0
LWPOLYLINE
  5
53C
100
AcDbEntity
  8
0
100
AcDbPolyline
 62
7
  6
CONTINUOUS
 90
8
 70
0
 10
25.188072434
 20
-36.0886999617
 10
25.0711771294
 20
-36.1678528138
 10
24.9347131836
 20
-36.301634825
 10
24.8185753792
 20
-36.4668464382
 10
24.7273712783
 20
-36.6569331745
 10
24.662636735
 20
-36.8697102077
 10
24.6228358954
 20
-37.107362364
 10
24.6079687593
 20
-37.3698896435
  0
LINE
  5
53D
100
AcDbEntity
  8
RACCORDO
100
AcDbLine
 62
253
  6
CONTINUOUS
 10
26.8423133216
 20
-38.23383215
 11
26.268002223
 21
-38.5654294066
  0
LINE
  5
53E
100
AcDbEntity
  8
RACCORDO
100
AcDbLine
 62
253
  6
CONTINUOUS
 10
26.9568913516
 20
-38.432241032
 11
26.3825602969
 21
-38.7638498109
  0
LINE
  5
53F
100
AcDbEntity
  8
RACCORDO
100
AcDbLine
 62
7
  6
CONTINUOUS
 10
22.1984304795
 20
-42.8840880889
 11
22.0158723547
 21
-42.9894945127
  0
LINE
  5
540
100
AcDbEntity
  8
RACCORDO
100
AcDbLine
 62
253
  6
CONTINUOUS
 10
28.4269068979
 20
-36.8118067612
 11
29.0057762716
 21
-36.482381063
  0
LINE
  5
541
100
AcDbEntity
  8
RACCORDO
100
AcDbLine
 62
253
  6
CONTINUOUS
 10
28.8710650512
 20
-34.8615075881
 11
28.284859963
 21
-35.1947934567
  0
LINE
  5
542
100
AcDbEntity
  8
RACCORDO
100
AcDbLine
 62
253
  6
CONTINUOUS
 10
28.284859963
 20
-36.4026932025
 11
28.8641863006
 21
-36.073925861
  0
LINE
  5
543
100
AcDbEntity
  8
RACCORDO
100
AcDbLine
 62
253
  6
CONTINUOUS
 10
28.9106224713
 20
-34.3034574881
 11
28.1186854422
 21
-34.7526952049
  0
LINE
  5
544
100
AcDbEntity
  8
0
100
AcDbLine
 62
7
  6
CONTINUOUS
 10
20.4923817057
 20
-43.5241849871
 11
22.2171178958
 21
-42.5603079993
  0
LWPOLYLINE
  5
545
100
AcDbEntity
  8
RACCORDO
100
AcDbPolyline
 62
253
  6
CONTINUOUS
 90
8
 70
0
 10
26.3387013939
 20
-38.0146019927
 10
26.3415145407
 20
-38.0131533355
 10
26.3517590205
 20
-38.0062677397
 10
26.3608555522
 20
-37.9973883742
 10
26.3685038849
 20
-37.986853707
 10
26.3746355713
 20
-37.9749778547
 10
26.3793153347
 20
-37.9618910498
 10
26.3825602969
 20
-37.9478018717
  0
LINE
  5
546
100
AcDbEntity
  8
RACCORDO
100
AcDbLine
 62
253
  6
CONTINUOUS
 10
26.7793558173
 20
-37.7583590202
 11
26.3825602969
 21
-37.9478018717
  0
LINE
  5
547
100
AcDbEntity
  8
RACCORDO
100
AcDbLine
 62
7
  6
CONTINUOUS
 10
26.7853877169
 20
-37.8013411822
 11
26.3383174664
 21
-38.0147867952
  0
LWPOLYLINE
  5
548
100
AcDbEntity
  8
RACCORDO
100
AcDbPolyline
 62
253
  6
CONTINUOUS
 90
28
 70
0
 10
28.0916055134
 20
-41.7074397514
 10
28.1936589702
 20
-41.673562912
 10
28.2910452634
 20
-41.6314694512
 10
28.383764393
 20
-41.5811593688
 10
28.4720836072
 20
-41.5224359073
 10
28.5557356578
 20
-41.4554958244
 10
28.6339188009
 20
-41.3809293928
 10
28.7065362965
 20
-41.2987026967
 10
28.7736848848
 20
-41.208849652
 10
28.8348530413
 20
-41.1120622796
 10
28.890003741
 20
-41.0082727687
 10
28.939174009
 20
-40.8975489302
 10
28.9819633966
 20
-40.7807862181
 10
29.0183174226
 20
-40.6579423981
 10
29.0482905682
 20
-40.5290597045
 10
29.0716458273
 20
-40.3951602941
 10
29.0883311332
 20
-40.2562018027
 10
29.0983985528
 20
-40.1122265944
 10
29.1017672803
 20
-39.9643839192
 10
29.098383402
 20
-39.8126424616
 10
29.0883008317
 20
-39.657033537
 10
29.0716005059
 20
-39.4988003413
 10
29.0482306076
 20
-39.3379260908
 10
29.0182429537
 20
-39.1744275693
 10
28.9818739318
 20
-39.0095983236
 10
28.9390680347
 20
-38.843414686
 10
28.8898807696
 20
-38.6759003243
 10
28.8347150453
 20
-38.5084197883
  0
LWPOLYLINE
  5
549
100
AcDbEntity
  8
RACCORDO
100
AcDbPolyline
 62
7
  6
CONTINUOUS
 90
9
 70
0
 10
28.4225603325
 20
-41.8625660734
 10
28.4588540272
 20
-41.8507696129
 10
28.4946992042
 20
-41.8381253925
 10
28.5300783378
 20
-41.824644148
 10
28.5649901999
 20
-41.8103310188
 10
28.5994487901
 20
-41.7951836724
 10
28.6334516948
 20
-41.7792052938
 10
28.6669811688
 20
-41.7624064568
 10
28.7000275029
 20
-41.7447947346
  0
LWPOLYLINE
  5
54A
100
AcDbEntity
  8
RACCORDO
100
AcDbPolyline
 62
7
  6
CONTINUOUS
 90
3
 70
0
 10
26.3188049518
 20
-38.0217337004
 10
26.331602233
 20
-38.0176801654
 10
26.3387551083
 20
-38.0145637942
  0
LINE
  5
54B
100
AcDbEntity
  8
RACCORDO
100
AcDbLine
 62
7
  6
CONTINUOUS
 10
28.3858278253
 20
-41.8735075187
 11
28.4225603325
 21
-41.8625660734
  0
LINE
  5
54C
100
AcDbEntity
  8
RACCORDO
100
AcDbLine
 62
7
  6
CONTINUOUS
 10
28.3858278253
 20
-41.8735075187
 11
28.385857252
 21
-41.8734991445
  0
LWPOLYLINE
  5
54D
100
AcDbEntity
  8
0
100
AcDbPolyline
 62
7
  6
CONTINUOUS
 90
16
 70
0
 10
18.6017411225
 20
41.1479476627
 10
18.6413554747
 20
41.1301279681
 10
18.6829394683
 20
41.1148704561
 10
18.7264931032
 20
41.1021751267
 10
18.7724775382
 20
41.0919684654
 10
18.8204316145
 20
41.0843239867
 10
18.8689718557
 20
41.079462234
 10
18.918115337
 20
41.0774642686
 10
18.9678449831
 20
41.0782490292
 10
19.0167260925
 20
41.0817938754
 10
19.0647339471
 20
41.088179209
 10
19.1118932649
 20
41.0973246283
 10
19.1568434984
 20
41.1089662876
 10
19.1991311317
 20
41.1230162384
 10
19.2392096806
 20
41.1395624293
 10
19.2770791452
 20
41.1586048602
  0
LWPOLYLINE
  5
54E
100
AcDbEntity
  8
RACCORDO
100
AcDbPolyline
 62
253
  6
CONTINUOUS
 90
25
 70
0
 10
18.4477330032
 20
41.8551427493
 10
18.4816409419
 20
41.8392743688
 10
18.5167093497
 20
41.8248084329
 10
18.5529382268
 20
41.8117449415
 10
18.5904048061
 20
41.800072536
 10
18.6290318547
 20
41.789802575
 10
18.668587673
 20
41.7809691346
 10
18.7091671855
 20
41.7735571558
 10
18.7506754677
 20
41.7675816976
 10
18.7925960474
 20
41.763122013
 10
18.8349108369
 20
41.7602003559
 10
18.877637924
 20
41.7587944724
 10
18.920315099
 20
41.7589168543
 10
18.9628734365
 20
41.7605656116
 10
19.0053818621
 20
41.7637426343
 10
19.0475849421
 20
41.7684660841
 10
19.0895700549
 20
41.7747483384
 10
19.1312498222
 20
41.7825770199
 10
19.1721066753
 20
41.7919331584
 10
19.2121653502
 20
41.8028503669
 10
19.2514011108
 20
41.8152950324
 10
19.2892221806
 20
41.8291473464
 10
19.3254313006
 20
41.8443673725
 10
19.3602257297
 20
41.8609950471
 10
19.393605468
 20
41.87903037
  0
LWPOLYLINE
  5
54F
100
AcDbEntity
  8
RACCORDO
100
AcDbPolyline
 62
253
  6
CONTINUOUS
 90
16
 70
0
 10
26.0780495724
 20
41.6558932135
 10
26.1011142013
 20
41.6438882823
 10
26.1262045526
 20
41.6333242654
 10
26.1530518076
 20
41.6243143512
 10
26.1813683203
 20
41.6169550779
 10
26.2108507064
 20
41.6113252977
 10
26.2411830936
 20
41.6074853326
 10
26.2720404979
 20
41.6054763304
 10
26.3030923022
 20
41.605319822
 10
26.334005806
 20
41.6070174897
 10
26.3644497938
 20
41.6105511496
 10
26.3940980731
 20
41.615882946
 10
26.4226329687
 20
41.6229557539
 10
26.4497487413
 20
41.6316937944
 10
26.4751548626
 20
41.6420034483
 10
26.4985791178
 20
41.6537742563
  0
LINE
  5
550
100
AcDbEntity
  8
0
100
AcDbLine
 62
253
  6
CONTINUOUS
 10
-30.0081694651
 20
69.6152897186
 11
-29.6488972116
 21
69.4145087183
  0
LINE
  5
551
100
AcDbEntity
  8
DRAFT
100
AcDbLine
 62
7
  6
CONTINUOUS
 10
21.9226648569
 20
39.6569864538
 11
22.1984304795
 21
39.4977628395
  0
LINE
  5
552
100
AcDbEntity
  8
RACCORDO
100
AcDbLine
 62
253
  6
CONTINUOUS
 10
-27.4202684478
 20
72.7084207319
 11
-25.72804427
 21
71.7313517001
  0
LINE
  5
553
100
AcDbEntity
  8
RACCORDO
100
AcDbLine
 62
253
  6
CONTINUOUS
 10
25.9366497553
 20
41.9008048806
 11
23.1044994309
 21
43.5360529827
  0
LINE
  5
554
100
AcDbEntity
  8
0
100
AcDbLine
 62
253
  6
CONTINUOUS
 10
19.2770791452
 20
41.1586048602
 11
18.9293386559
 21
41.3660441567
  0
LINE
  5
555
100
AcDbEntity
  8
0
100
AcDbLine
 62
7
  6
CONTINUOUS
 10
23.2290739335
 20
43.3671958634
 11
22.8813334442
 21
43.5746351599
  0
LWPOLYLINE
  5
556
100
AcDbEntity
  8
RACCORDO
100
AcDbPolyline
 62
253
  6
CONTINUOUS
 90
9
 70
0
 10
19.393605468
 20
41.87903037
 10
19.4154051232
 20
41.8646713887
 10
19.4370065759
 20
41.8478108999
 10
19.4581732477
 20
41.8286335593
 10
19.478673322
 20
41.8073493963
 10
19.4982822827
 20
41.7841915143
 10
19.5167853732
 20
41.7594135377
 10
19.5339799483
 20
41.733286834
 10
19.5467853771
 20
41.7111071809
  0
LWPOLYLINE
  5
557
100
AcDbEntity
  8
RACCORDO
100
AcDbPolyline
 62
7
  6
CONTINUOUS
 90
9
 70
0
 10
27.3043159947
 20
-50.7094934988
 10
27.318286162
 20
-50.691885534
 10
27.3305981553
 20
-50.6721195474
 10
27.3412001805
 20
-50.6502151938
 10
27.3499751304
 20
-50.6263410709
 10
27.3568380716
 20
-50.6007215149
 10
27.3617523028
 20
-50.5735453329
 10
27.3647049811
 20
-50.5449399395
 10
27.3656852059
 20
-50.5150719846
  0
LWPOLYLINE
  5
558
100
AcDbEntity
  8
DRAFT
100
AcDbPolyline
 62
7
  6
CONTINUOUS
 90
30
 70
0
 10
31.7921561721
 20
-41.6387340412
 10
31.8821789079
 20
-41.5810163834
 10
32.0123625573
 20
-41.4855148381
 10
32.1358312587
 20
-41.3799042929
 10
32.252688459
 20
-41.2639993302
 10
32.3628307114
 20
-41.1379853676
 10
32.4654379081
 20
-41.00279402
 10
32.5603583465
 20
-40.8585182398
 10
32.6477437293
 20
-40.7050650745
 10
32.7272290568
 20
-40.5430872819
 10
32.7988418918
 20
-40.3723918009
 10
32.8625546716
 20
-40.1931716925
 10
32.9179197084
 20
-40.0066588973
 10
32.9648486702
 20
-39.8129304067
 10
33.0034298891
 20
-39.6119092292
 10
33.033480673
 20
-39.4045963311
 10
33.0549697609
 20
-39.1908870282
 10
33.0679284138
 20
-38.9708860046
 10
33.0722677224
 20
-38.7459082796
 10
33.0679284138
 20
-38.5159196299
 10
33.0549697609
 20
-38.2809542788
 10
33.033480673
 20
-38.0424299157
 10
33.0034298891
 20
-37.8004151257
 10
32.9648486702
 20
-37.5548413237
 10
32.9179197084
 20
-37.3069204442
 10
32.8625546716
 20
-37.0564734923
 10
32.7988418918
 20
-36.8036794629
 10
32.7272290568
 20
-36.5502872751
 10
32.6477437293
 20
-36.2965218185
 10
32.5603583465
 20
-36.0421582036
  0
LWPOLYLINE
  5
559
100
AcDbEntity
  8
DRAFT
100
AcDbPolyline
 62
7
  6
CONTINUOUS
 90
53
 70
0
 10
30.6050885761
 20
-42.3583813697
 10
30.6733223127
 20
-42.3152302979
 10
30.8103540813
 20
-42.2169843727
 10
30.9401725302
 20
-42.1076900912
 10
31.0626941781
 20
-41.987416087
 10
31.1777589047
 20
-41.8562517396
 10
31.2849848418
 20
-41.7145599461
 10
31.3839841632
 20
-41.5628549449
 10
31.474479206
 20
-41.4016525731
 10
31.5564127043
 20
-41.231153384
 10
31.6297496091
 20
-41.0514287454
 10
31.6943833382
 20
-40.8626122926
 10
31.7500701902
 20
-40.6652707591
 10
31.7965998252
 20
-40.4601512291
 10
31.8338617396
 20
-40.2479491325
 10
31.861861794
 20
-40.0288903396
 10
31.880591026
 20
-39.8030434383
 10
31.8899915302
 20
-39.5705831303
 10
31.8899915302
 20
-39.3322377516
 10
31.880591026
 20
-39.088921977
 10
31.861861794
 20
-38.841447028
 10
31.8338617396
 20
-38.5900544742
 10
31.7965998252
 20
-38.3348232529
 10
31.7500701902
 20
-38.0759724666
 10
31.6943833382
 20
-37.8143251523
 10
31.6297496091
 20
-37.5508712892
 10
31.5564127043
 20
-37.2864590312
 10
31.474479206
 20
-37.021345092
 10
31.3839841632
 20
-36.7556413132
 10
31.2849848418
 20
-36.4896143771
 10
31.1777589047
 20
-36.2241007591
 10
31.0626941781
 20
-35.9600625497
 10
30.9401725302
 20
-35.6983036176
 10
30.8103540813
 20
-35.4390982453
 10
30.6733223127
 20
-35.1826114686
 10
30.5292133009
 20
-34.9291532908
 10
30.3784331625
 20
-34.6794907117
 10
30.2214869637
 20
-34.4344618912
 10
30.0588432898
 20
-34.1947558536
 10
29.8907267327
 20
-33.9606626436
 10
29.7172996499
 20
-33.7324065515
 10
29.538792022
 20
-33.5103227967
 10
29.3556817659
 20
-33.2950376272
 10
29.1685137106
 20
-33.0871936558
 10
28.9777825596
 20
-32.8873165952
 10
28.7837899035
 20
-32.695699335
 10
28.5868064606
 20
-32.5126072892
 10
28.3871642149
 20
-32.3383647982
 10
28.1853469374
 20
-32.1734096589
 10
27.9818579521
 20
-32.0181555857
 10
27.7771488362
 20
-31.8729401528
 10
27.5716158529
 20
-31.7380375425
 10
27.3656852059
 20
-31.6137229007
  0
LINE
  5
55A
100
AcDbEntity
  8
DRAFT
100
AcDbLine
 62
7
  6
CONTINUOUS
 10
31.7921506051
 20
-41.6387245555
 11
30.6050885761
 21
-42.3583813697
  0
LWPOLYLINE
  5
55B
100
AcDbEntity
  8
RACCORDO
100
AcDbPolyline
 62
253
  6
CONTINUOUS
 90
13
 70
0
 10
28.1775806177
 20
-43.5405267262
 10
28.188529929
 20
-43.5339804722
 10
28.2034070849
 20
-43.5230723285
 10
28.2173278607
 20
-43.5103089356
 10
28.2302176228
 20
-43.4956656752
 10
28.2419611706
 20
-43.4791703181
 10
28.2525423664
 20
-43.4606949635
 10
28.2618703336
 20
-43.4401562708
 10
28.2697803602
 20
-43.4176314321
 10
28.2761319265
 20
-43.3932331872
 10
28.280820096
 20
-43.3670519753
 10
28.2837587204
 20
-43.3391387326
 10
28.2848599526
 20
-43.3095885705
  0
LINE
  5
55C
100
AcDbEntity
  8
0
100
AcDbLine
 62
7
  6
CONTINUOUS
 10
28.2354227684
 20
-40.7949944697
 11
27.987935395
 21
-40.9378905773
  0
LINE
  5
55D
100
AcDbEntity
  8
DRAFT
100
AcDbLine
 62
7
  6
CONTINUOUS
 10
30.5261036036
 20
-42.4039863029
 11
30.6050885761
 21
-42.3583813697
  0
LWPOLYLINE
  5
55E
100
AcDbEntity
  8
RACCORDO
100
AcDbPolyline
 62
253
  6
CONTINUOUS
 90
37
 70
0
 10
28.7000275029
 20
-41.7447947346
 10
28.7216123287
 20
-41.732667678
 10
28.8113868942
 20
-41.6760343332
 10
28.8965830086
 20
-41.6119410005
 10
28.9770070957
 20
-41.5405333066
 10
29.0524764229
 20
-41.4619734982
 10
29.1228195196
 20
-41.3764400674
 10
29.1878765637
 20
-41.2841273476
 10
29.2474997559
 20
-41.1852450492
 10
29.3015536054
 20
-41.0800178666
 10
29.3499152577
 20
-40.9686849802
 10
29.392474825
 20
-40.8514994194
 10
29.4291356469
 20
-40.7287274001
 10
29.4598144576
 20
-40.6006478031
 10
29.4844415575
 20
-40.4675516247
 10
29.502960992
 20
-40.3297412835
 10
29.5153306895
 20
-40.1875298507
 10
29.5215225425
 20
-40.0412404204
 10
29.5215224781
 20
-39.8912053893
 10
29.5153304938
 20
-39.7377656556
 10
29.5029606562
 20
-39.5812698412
 10
29.4844410687
 20
-39.4220735197
 10
29.4598138112
 20
-39.2605384185
 10
29.4291348409
 20
-39.0970315656
 10
29.3924738624
 20
-38.9319244541
 10
29.3499141727
 20
-38.7655922193
 10
29.3015524717
 20
-38.5984127823
 10
29.247498641
 20
-38.4307659864
 10
29.1878754937
 20
-38.2630327331
 10
29.122818498
 20
-38.0955941243
 10
29.0524754686
 20
-37.9288305943
 10
28.9770062291
 20
-37.7631210401
 10
28.8965822506
 20
-37.5988419653
 10
28.8113862629
 20
-37.4363666259
 10
28.7216118384
 20
-37.2760641799
 10
28.6274629517
 20
-37.1182988472
 10
28.529153516
 20
-36.9634290822
  0
LINE
  5
55F
100
AcDbEntity
  8
0
100
AcDbLine
 62
7
  6
CONTINUOUS
 10
22.2171178958
 20
-47.4591296601
 11
20.4923817057
 21
-48.4230066479
  0
LINE
  5
560
100
AcDbEntity
  8
DRAFT
100
AcDbLine
 62
7
  6
CONTINUOUS
 10
29.2763559356
 20
-41.4282587721
 11
28.7000275029
 21
-41.7447947346
  0
LINE
  5
561
100
AcDbEntity
  8
DRAFT
100
AcDbLine
 62
7
  6
CONTINUOUS
 10
30.5261036036
 20
-42.4039863029
 11
29.6634846266
 21
-42.8777611726
  0
LINE
  5
562
100
AcDbEntity
  8
RACCORDO
100
AcDbLine
 62
253
  6
CONTINUOUS
 10
28.8641863006
 20
-41.7844185463
 11
28.284859963
 21
-42.101688819
  0
LINE
  5
563
100
AcDbEntity
  8
RACCORDO
100
AcDbLine
 62
253
  6
CONTINUOUS
 10
28.284859963
 20
-43.3095885648
 11
28.8710650512
 21
-42.9891659585
  0
LINE
  5
564
100
AcDbEntity
  8
RACCORDO
100
AcDbLine
 62
7
  6
CONTINUOUS
 10
28.177580618
 20
-43.540526726
 11
28.9134049455
 21
-43.138319867
  0
LWPOLYLINE
  5
565
100
AcDbEntity
  8
0
100
AcDbPolyline
 62
7
  6
CONTINUOUS
 90
22
 70
0
 10
27.9876630591
 20
-40.937417048
 10
27.9469510657
 20
-40.9593529804
 10
27.7690176262
 20
-41.029012163
 10
27.5778172402
 20
-41.0644781387
 10
27.3728165112
 20
-41.0643761722
 10
27.1545488355
 20
-41.0300809987
 10
26.9316735977
 20
-40.9629532187
 10
26.704005551
 20
-40.8616727998
 10
26.4717299421
 20
-40.7275597743
 10
26.2440618955
 20
-40.5659348396
 10
26.0211866576
 20
-40.3756918816
 10
25.802918982
 20
-40.1579370143
 10
25.5979182529
 20
-39.9213092773
 10
25.4067178669
 20
-39.6650498886
 10
25.2287844275
 20
-39.3899176302
 10
25.0711771294
 20
-39.1068278883
 10
24.9347131836
 20
-38.8154607331
 10
24.8185753792
 20
-38.5161360945
 10
24.7273712783
 20
-38.2207291486
 10
24.662636735
 20
-37.9331982875
 10
24.6228358954
 20
-37.6495851191
 10
24.6079687593
 20
-37.3698896435
  0
LINE
  5
566
100
AcDbEntity
  8
RACCORDO
100
AcDbLine
 62
7
  6
CONTINUOUS
 10
22.1984304795
 20
-47.2806144361
 11
22.0158723547
 21
-47.3787882879
  0
LWPOLYLINE
  5
567
100
AcDbEntity
  8
RACCORDO
100
AcDbPolyline
 62
253
  6
CONTINUOUS
 90
31
 70
0
 10
28.8641863006
 20
-42.9170029562
 10
29.0055545718
 20
-42.8722855693
 10
29.1418265444
 20
-42.8184550932
 10
29.2730022183
 20
-42.7555115277
 10
29.3992906149
 20
-42.6833148455
 10
29.5204827129
 20
-42.602005074
 10
29.6359514484
 20
-42.5120022955
 10
29.7456665782
 20
-42.4132609868
 10
29.8496583455
 20
-42.3058266711
 10
29.9473904161
 20
-42.1902560004
 10
30.0388291674
 20
-42.0665085575
 10
30.1240082219
 20
-41.9346247596
 10
30.2024921129
 20
-41.7952825105
 10
30.2742468024
 20
-41.6484436165
 10
30.3393063283
 20
-41.4941462713
 10
30.3973373382
 20
-41.3331829601
 10
30.4483039746
 20
-41.1655188914
 10
30.4922420949
 20
-40.9911888566
 10
30.528925919
 20
-40.8110897146
 10
30.5583180512
 20
-40.6251914658
 10
30.5804558871
 20
-40.4335241097
 10
30.5952258341
 20
-40.2370745036
 10
30.6025898713
 20
-40.0358183911
 10
30.6025860195
 20
-39.8297800285
 10
30.5952147484
 20
-39.6200190425
 10
30.5804383746
 20
-39.4065172505
 10
30.5582945814
 20
-39.189292835
 10
30.5288968888
 20
-38.9694599708
 10
30.4922082896
 20
-38.7470052257
 10
30.4482657909
 20
-38.5219420319
 10
30.3972939345
 20
-38.2954248612
  0
LWPOLYLINE
  5
568
100
AcDbEntity
  8
RACCORDO
100
AcDbPolyline
 62
253
  6
CONTINUOUS
 90
9
 70
0
 10
-28.815486211
 20
69.7143557036
 10
-28.8380183469
 20
69.7255934212
 10
-28.8602632614
 20
69.7340494621
 10
-28.8819773347
 20
69.7396311885
 10
-28.9029227543
 20
69.7422774393
 10
-28.9228701253
 20
69.7419592014
 10
-28.9416009817
 20
69.7386799261
 10
-28.9589101754
 20
69.7324754899
 10
-28.9695736654
 20
69.7267412981
  0
LWPOLYLINE
  5
569
100
AcDbEntity
  8
RACCORDO
100
AcDbPolyline
 62
7
  6
CONTINUOUS
 90
12
 70
0
 10
-26.3744840122
 20
73.5915019299
 10
-26.4008414133
 20
73.6055885338
 10
-26.4270916905
 20
73.6173357654
 10
-26.4530850655
 20
73.6266697315
 10
-26.4787047688
 20
73.6335378403
 10
-26.503768931
 20
73.6378774605
 10
-26.5280407937
 20
73.6396499601
 10
-26.5513157833
 20
73.6388724401
 10
-26.5735509782
 20
73.635579923
 10
-26.5947523678
 20
73.629768929
 10
-26.6148682046
 20
73.6214106627
 10
-26.6200663424
 20
73.6187315745
  0
LINE
  5
56A
100
AcDbEntity
  8
0
100
AcDbLine
 62
7
  6
CONTINUOUS
 10
-26.1830240831
 20
71.8971219792
 11
-25.8237518296
 21
71.6963409789
  0
LINE
  5
56B
100
AcDbEntity
  8
RACCORDO
100
AcDbLine
 62
253
  6
CONTINUOUS
 10
-27.211838628
 20
73.073669275
 11
-25.2319181015
 21
71.9304879772
  0
LINE
  5
56C
100
AcDbEntity
  8
RACCORDO
100
AcDbLine
 62
253
  6
CONTINUOUS
 10
26.1450795751
 20
42.2660534237
 11
23.1044988769
 21
44.0216466115
  0
LINE
  5
56D
100
AcDbEntity
  8
RACCORDO
100
AcDbLine
 62
7
  6
CONTINUOUS
 10
-26.3744840122
 20
73.5915019299
 11
27.0121856632
 21
42.7667079515
  0
LINE
  5
56E
100
AcDbEntity
  8
RACCORDO
100
AcDbLine
 62
7
  6
CONTINUOUS
 10
27.0828424934
 20
43.2875199347
 11
-25.870869449
 21
73.8623295444
  0
LINE
  5
56F
100
AcDbEntity
  8
RACCORDO
100
AcDbLine
 62
7
  6
CONTINUOUS
 10
27.8022918694
 20
43.6744165268
 11
28.1932847801
 21
43.4486621205
  0
LWPOLYLINE
  5
570
100
AcDbEntity
  8
RACCORDO
100
AcDbPolyline
 62
7
  6
CONTINUOUS
 90
22
 70
0
 10
27.0121856632
 20
42.7667079515
 10
27.0385430643
 20
42.750349155
 10
27.0647933415
 20
42.7317850906
 10
27.0907867165
 20
42.7111092268
 10
27.1164064198
 20
42.6883953206
 10
27.141470582
 20
42.6637892108
 10
27.1657424447
 20
42.6375324593
 10
27.1890174343
 20
42.6098778765
 10
27.2112526292
 20
42.5809074085
 10
27.2324540187
 20
42.5506145748
 10
27.2525698556
 20
42.5190295935
 10
27.2713862579
 20
42.4864386288
 10
27.2886816449
 20
42.4532254696
 10
27.3043151344
 20
42.4197184214
 10
27.3182864319
 20
42.385977405
 10
27.3305981553
 20
42.3519939931
 10
27.3412007973
 20
42.3178463303
 10
27.3499777077
 20
42.2838379833
 10
27.3568380716
 20
42.2502947628
 10
27.3617465285
 20
42.2174470839
 10
27.3646975907
 20
42.1854329447
 10
27.3656852059
 20
42.1544287837
  0
LWPOLYLINE
  5
571
100
AcDbEntity
  8
RACCORDO
100
AcDbPolyline
 62
7
  6
CONTINUOUS
 90
4
 70
0
 10
27.2664882185
 20
-50.7413334375
 10
27.2713840503
 20
-50.7381864937
 10
27.2886816449
 20
-50.7249468885
 10
27.3043159947
 20
-50.7094934988
  0
LINE
  5
572
100
AcDbEntity
  8
RACCORDO
100
AcDbLine
 62
253
  6
CONTINUOUS
 10
28.5467843228
 20
-49.7846625739
 11
27.3656852059
 21
-50.5150719846
  0
LINE
  5
573
100
AcDbEntity
  8
RACCORDO
100
AcDbLine
 62
7
  6
CONTINUOUS
 10
28.4475885961
 20
-50.0109233488
 11
27.2664894792
 21
-50.7413327595
  0
LWPOLYLINE
  5
574
100
AcDbEntity
  8
RACCORDO
100
AcDbPolyline
 62
253
  6
CONTINUOUS
 90
12
 70
0
 10
26.389217346
 20
-51.2134468564
 10
26.3999770655
 20
-51.2071188338
 10
26.4171887903
 20
-51.1945075051
 10
26.4329560489
 20
-51.1796209705
 10
26.4472137123
 20
-51.1625065185
 10
26.4599712258
 20
-51.1430767799
 10
26.471136855
 20
-51.121306616
 10
26.4805509992
 20
-51.097314264
 10
26.4880957712
 20
-51.071206783
 10
26.4936715357
 20
-51.0430988596
 10
26.4971920656
 20
-51.0131067243
 10
26.4985791178
 20
-50.9813735781
  0
LINE
  5
575
100
AcDbEntity
  8
RACCORDO
100
AcDbLine
 62
7
  6
CONTINUOUS
 10
27.2577655151
 20
-50.7463698168
 11
27.2664882185
 21
-50.7413334375
  0
LINE
  5
576
100
AcDbEntity
  8
0
100
AcDbLine
 62
7
  6
CONTINUOUS
 10
19.2770791452
 20
-52.0823007495
 11
23.2290739335
 21
-49.8737097463
  0
LINE
  5
577
100
AcDbEntity
  8
RACCORDO
100
AcDbLine
 62
253
  6
CONTINUOUS
 10
27.3656852059
 20
-50.5150719846
 11
26.4985791178
 21
-50.9813735781
  0
LINE
  5
578
100
AcDbEntity
  8
RACCORDO
100
AcDbLine
 62
7
  6
CONTINUOUS
 10
27.2577667755
 20
-50.746369139
 11
26.3891019635
 21
-51.2135089638
  0
LWPOLYLINE
  5
579
100
AcDbEntity
  8
RACCORDO
100
AcDbPolyline
 62
7
  6
CONTINUOUS
 90
10
 70
0
 10
-25.2319181015
 20
71.9304879772
 10
-25.2750336019
 20
71.9287105689
 10
-25.3162671095
 20
71.9243952616
 10
-25.3554410161
 20
71.9178767524
 10
-25.3924231122
 20
71.9095536743
 10
-25.4270977344
 20
71.8996648911
 10
-25.4593452563
 20
71.8882532811
 10
-25.4889677025
 20
71.8756006689
 10
-25.5160541706
 20
71.861902248
 10
-25.5332920919
 20
71.8518201832
  0
ELLIPSE
  5
57A
100
AcDbEntity
  8
RACCORDO
100
AcDbEllipse
 62
7
  6
CONTINUOUS
 10
28.1931770761
 20
43.0404269834
 30
0.0
 11
-0.2500120911
 21
0.4330057209
 31
0.0
 40
0.5775075436
 41
-2.3560905478
 42
-0.7855988075
  0
ELLIPSE
  5
57B
100
AcDbEntity
  8
RACCORDO
100
AcDbEllipse
 62
7
  6
CONTINUOUS
 10
28.1931770761
 20
-49.5803698196
 30
0.0
 11
-0.2500882309
 21
0.4331376414
 31
0.0
 40
0.5771558487
 41
-3.1241455003
 42
-2.3563950755
  0
ELLIPSE
  5
57C
100
AcDbEntity
  8
RACCORDO
100
AcDbEllipse
 62
7
  6
CONTINUOUS
 10
-25.870761745
 20
73.4539700334
 30
0.0
 11
-0.2500882309
 21
0.4331376414
 31
0.0
 40
0.5771558487
 41
-0.7852941622
 42
-0.0174471532
  0
ELLIPSE
  5
57D
100
AcDbEntity
  8
RACCORDO
100
AcDbEllipse
 62
7
  6
CONTINUOUS
 10
21.6685431694
 20
-47.1712437571
 30
0.0
 11
0.4999822419
 21
-0.0074291459
 31
0.0
 40
0.5672251703
 41
-1.1772107236
 42
-0.7944233591
  0
ELLIPSE
  5
57E
100
AcDbEntity
  8
RACCORDO
100
AcDbEllipse
 62
7
  6
CONTINUOUS
 10
21.6685431694
 20
35.2106071713
 30
0.0
 11
0.4999822419
 21
-0.0074291459
 31
0.0
 40
0.5672251703
 41
-1.1772107236
 42
-0.7944233591
  0
ELLIPSE
  5
57F
100
AcDbEntity
  8
RACCORDO
100
AcDbEllipse
 62
7
  6
CONTINUOUS
 10
21.6685431694
 20
-9.6544345384
 30
0.0
 11
0.4999822419
 21
-0.0074291459
 31
0.0
 40
0.5672251703
 41
-1.1772107236
 42
-0.7944233591
  0
ELLIPSE
  5
580
100
AcDbEntity
  8
RACCORDO
100
AcDbEllipse
 62
7
  6
CONTINUOUS
 10
22.8923662786
 20
43.6542605437
 30
0.0
 11
-0.1500072547
 21
0.2598034325
 31
0.0
 40
0.5775075436
 41
-2.3560905478
 42
-2.3389418418
  0
ELLIPSE
  5
581
100
AcDbEntity
  8
RACCORDO
100
AcDbEllipse
 62
7
  6
CONTINUOUS
 10
20.8407043521
 20
16.6600191648
 30
0.0
 11
0.2110346176
 21
0.3528490122
 31
0.0
 40
0.5873179545
 41
0.8119364019
 42
3.9186224705
  0
ELLIPSE
  5
582
100
AcDbEntity
  8
RACCORDO
100
AcDbEllipse
 62
7
  6
CONTINUOUS
 10
20.8407043521
 20
11.7611975041
 30
0.0
 11
0.2110346176
 21
0.3528490122
 31
0.0
 40
0.5873179545
 41
0.8119364019
 42
3.9186224705
  0
ELLIPSE
  5
583
100
AcDbEntity
  8
RACCORDO
100
AcDbEllipse
 62
7
  6
CONTINUOUS
 10
20.8407043521
 20
-25.7964352284
 30
0.0
 11
0.2110346176
 21
0.3528490122
 31
0.0
 40
0.5873179545
 41
0.8119364019
 42
3.9186224705
  0
ELLIPSE
  5
584
100
AcDbEntity
  8
RACCORDO
100
AcDbEllipse
 62
7
  6
CONTINUOUS
 10
20.8407043521
 20
-20.8976135676
 30
0.0
 11
0.2110346176
 21
0.3528490122
 31
0.0
 40
0.5873179545
 41
0.8119364019
 42
3.9186224705
  0
ELLIPSE
  5
585
100
AcDbEntity
  8
RACCORDO
100
AcDbEllipse
 62
7
  6
CONTINUOUS
 10
21.6685431694
 20
-42.7817012582
 30
0.0
 11
0.499979581
 21
0.0076930498
 31
0.0
 40
0.5873737521
 41
-1.1946763345
 42
-0.81188897
  0
ELLIPSE
  5
586
100
AcDbEntity
  8
RACCORDO
100
AcDbEllipse
 62
7
  6
CONTINUOUS
 10
21.6685431694
 20
39.6001496702
 30
0.0
 11
0.499979581
 21
0.0076930498
 31
0.0
 40
0.5873737521
 41
-1.1946763345
 42
-0.81188897
  0
ELLIPSE
  5
587
100
AcDbEntity
  8
RACCORDO
100
AcDbEllipse
 62
7
  6
CONTINUOUS
 10
21.6685431694
 20
-5.2648920396
 30
0.0
 11
0.499979581
 21
0.0076930498
 31
0.0
 40
0.5873737521
 41
-1.1946763345
 42
-0.81188897
  0
ENDSEC
  0
SECTION
  2
OBJECTS
  0
DICTIONARY
  5
C
100
AcDbDictionary
280
0
281
1
  3
ACAD_GROUP
350
D
  3
ACAD_MLINESTYLE
350
17
  3
ACAD_LAYOUT
350
1A
  3
ACAD_PLOTSETTINGS
350
19
  3
ACAD_PLOTSTYLENAME
350
E
  0
DICTIONARY
  5
D
102
{ACAD_REACTORS
330
C
102
}
100
AcDbDictionary
280
0
281
1
  0
ACDBDICTIONARYWDFLT
  5
E
102
{ACAD_REACTORS
330
C
102
}
100
AcDbDictionary
281
1
  3
Normal
350
F
100
AcDbDictionaryWithDefault
340
F
  0
DICTIONARY
  5
17
102
{ACAD_REACTORS
330
C
102
}
100
AcDbDictionary
280
0
281
1
  3
Standard
350
18
  0
DICTIONARY
  5
19
102
{ACAD_REACTORS
330
C
102
}
100
AcDbDictionary
281
1
  0
DICTIONARY
  5
1A
102
{ACAD_REACTORS
330
C
102
}
100
AcDbDictionary
281
1
  3
Model
350
588
  3
Layout1
350
589
  0
ACDBPLACEHOLDER
  5
F
102
{ACAD_REACTORS
330
E
102
}
  0
MLINESTYLE
  5
18
102
{ACAD_REACTORS
330
17
102
}
100
AcDbMlineStyle
  2
STANDARD
 70
0
  3

 62
256
 51
90.0
 52
90.0
 71
2
 49
0.5
 62
256
  6
BYLAYER
 49
-0.5
 62
256
  6
BYLAYER
  0
LAYOUT
  5
588
102
{ACAD_REACTORS
330
1A
102
}
100
AcDbPlotSettings
  1

  2
none_device
  4
ISO_A4_(297.00_x_210.00_MM)
  6

 40
0.0
 41
0.0
 42
0.0
 43
0.0
 44
297.0
 45
210.0
 46
0.0
 47
0.0
 48
0.0
 49
0.0
140
0.0
141
0.0
142
1.0
143
1.0
 70
1024
 72
1
 73
0
 74
0
  7

 75
0
147
1.0
148
0.0
149
0.0
100
AcDbLayout
  1
Model
 70
0
 71
0
 10
0.0
 20
0.0
 11
297.0
 21
210.0
 12
0.0
 22
0.0
 32
0.0
 14
0.0
 24
0.0
 34
0.0
 15
0.0
 25
0.0
 35
0.0
146
0.0
 13
0.0
 23
0.0
 33
0.0
 16
1.0
 26
0.0
 36
0.0
 17
0.0
 27
1.0
 37
0.0
 76
0
330
217
345
0
346
0
  0
LAYOUT
  5
589
102
{ACAD_REACTORS
330
1A
102
}
100
AcDbPlotSettings
  1

  2
none_device
  4
ISO_A4_(297.00_x_210.00_MM)
  6

 40
0.0
 41
0.0
 42
0.0
 43
0.0
 44
297.0
 45
210.0
 46
0.0
 47
0.0
 48
0.0
 49
0.0
140
0.0
141
0.0
142
1.0
143
1.0
 70
0
 72
1
 73
0
 74
0
  7

 75
0
147
1.0
148
0.0
149
0.0
100
AcDbLayout
  1
Layout1
 70
0
 71
1
 10
0.0
 20
0.0
 11
297.0
 21
210.0
 12
0.0
 22
0.0
 32
0.0
 14
0.0
 24
0.0
 34
0.0
 15
0.0
 25
0.0
 35
0.0
146
0.0
 13
0.0
 23
0.0
 33
0.0
 16
1.0
 26
0.0
 36
0.0
 17
0.0
 27
1.0
 37
0.0
 76
0
330
218
345
0
346
0
  0
ENDSEC
  0
EOF
