  0
SECTION
  2
HEADER
  9
$ACADVER
  1
AC1015
  9
$DWGCODEPAGE
  3
ANSI_1252
  9
$EXTMAX
 10
297.0
 20
210.0
 30
0.0
  9
$EXTMIN
 10
0.0
 20
0.0
 30
0.0
  9
$LIMMIN
 10
0.0
 20
0.0
  9
$LIMMAX
 10
297.0
 20
210.0
  9
$VIEWCTR
 10
148.5
 20
105.0
  9
$VIEWSIZE
 40
210.0
  9
$CLAYER
  8
0
  9
$LTSCALE
 40
16.335
  9
$CELTYPE
  6
BYLAYER
  9
$DIMSCALE
 40
1.0
  9
$DIMASZ
 40
3.0
  9
$DIMEXO
 40
0.5
  9
$DIMDLI
 40
11.286
  9
$DIMEXE
 40
1.5
  9
$DIMCEN
 40
2.673
  9
$DIMLFAC
 40
1.0
  9
$DIMBLK
  1
_FILLED
  9
$DIMALT
 70
0
  9
$DIMALTF
 40
0.0393700787
  9
$DIMTXT
 40
3.0
  9
$DIMTOL
 70
1
  9
$DIMLIM
 70
0
  9
$DIMTFAC
 40
1.0
  9
$DIMTP
 40
0.01
  9
$DIMTM
 40
0.01
  9
$DIMGAP
 40
0.625
  9
$DIMDSEP
 70
44
  9
$AUNITS
 70
0
  9
$PDMODE
 70
3
  9
$PDSIZE
 40
3.0
  9
$HANDSEED
  5
54D
  9
$TILEMODE
 70
1
  9
$MEASUREMENT
 70
1
  9
$INSUNITS
 70
4
  0
ENDSEC
  0
SECTION
  2
CLASSES
  0
CLASS
  1
ACDBDICTIONARYWDFLT
  2
AcDbDictionaryWithDefault
  3
AutoCAD 2000
 90
0
280
0
281
0
  0
CLASS
  1
ACDBPLACEHOLDER
  2
AcDbPlaceHolder
  3
AutoCAD 2000
 90
0
280
0
281
0
  0
CLASS
  1
LAYOUT
  2
AcDbLayout
  3
AutoCAD 2000
 90
0
280
0
281
0
  0
ENDSEC
  0
SECTION
  2
TABLES
  0
TABLE
  2
VPORT
  5
8
100
AcDbSymbolTable
 70
2
  0
VPORT
  5
1F4
100
AcDbSymbolTableRecord
100
AcDbViewportTableRecord
  2
*ACTIVE
 70
0
 10
0.0
 20
0.0
 11
1.0
 21
1.0
 12
148.5
 22
105.0
 13
0.0
 23
0.0
 14
1.0
 24
1.0
 15
0.0
 25
0.0
 16
0.0
 26
0.0
 36
1.0
 17
0.0
 27
0.0
 37
0.0
 40
210.0
 41
1.4142857143
 42
50.0
 43
0.0
 44
0.0
 50
0.0
 51
0.0
 71
0
 72
100
 73
1
 74
1
 75
0
 76
0
 77
0
 78
0
  0
ENDTAB
  0
TABLE
  2
LTYPE
  5
5
100
AcDbSymbolTable
 70
6
  0
LTYPE
  5
14
100
AcDbSymbolTableRecord
100
AcDbLinetypeTableRecord
  2
BYBLOCK
 70
0
  3

 72
65
 73
0
 40
0.0
  0
LTYPE
  5
15
100
AcDbSymbolTableRecord
100
AcDbLinetypeTableRecord
  2
BYLAYER
 70
0
  3

 72
65
 73
0
 40
0.0
  0
LTYPE
  5
16
100
AcDbSymbolTableRecord
100
AcDbLinetypeTableRecord
  2
CONTINUOUS
 70
64
  3
Solid line
 72
65
 73
0
 40
0.0
  0
LTYPE
  5
1F5
100
AcDbSymbolTableRecord
100
AcDbLinetypeTableRecord
  2
CENTER
 70
64
  3
____ _ ____ _ ____ _ ____ _ ____ _ ____ _ ____
 72
65
 73
4
 40
0.6
 49
0.375
 74
0
 49
-0.075
 74
0
 49
0.075
 74
0
 49
-0.075
 74
0
  0
LTYPE
  5
1F6
100
AcDbSymbolTableRecord
100
AcDbLinetypeTableRecord
  2
HIDDEN
 70
64
  3
- - - - - - - - - - - - - - - - - - - -
 72
65
 73
2
 40
0.2
 49
0.1
 74
0
 49
-0.1
 74
0
  0
LTYPE
  5
1F7
100
AcDbSymbolTableRecord
100
AcDbLinetypeTableRecord
  2
PHANTOM
 70
64
  3
_____ _ _ _____ _ _ _____ _ _ _____
 72
65
 73
6
 40
0.8
 49
0.45
 74
0
 49
-0.05
 74
0
 49
0.1
 74
0
 49
-0.05
 74
0
 49
0.1
 74
0
 49
-0.05
 74
0
  0
LTYPE
  5
1F8
100
AcDbSymbolTableRecord
100
AcDbLinetypeTableRecord
  2
DOT
 70
64
  3
. . . . . . . . . . . . . . . . . . . .
 72
65
 73
2
 40
0.2
 49
0.1
 74
0
 49
-0.1
 74
0
  0
LTYPE
  5
1F9
100
AcDbSymbolTableRecord
100
AcDbLinetypeTableRecord
  2
DASHED
 70
64
  3
- - - - - - - - - - - - - - - - - - - -
 72
65
 73
2
 40
0.2
 49
0.1
 74
0
 49
-0.1
 74
0
  0
ENDTAB
  0
TABLE
  2
LAYER
  5
2
100
AcDbSymbolTable
 70
36
  0
LAYER
  5
10
100
AcDbSymbolTableRecord
100
AcDbLayerTableRecord
  2
0
 70
0
 62
7
  6
CONTINUOUS
370
-3
390
F
  0
LAYER
  5
1FA
100
AcDbSymbolTableRecord
100
AcDbLayerTableRecord
  2
DEFAULT_1
 70
0
 62
7
  6
CENTER
370
-3
390
F
  0
LAYER
  5
1FB
100
AcDbSymbolTableRecord
100
AcDbLayerTableRecord
  2
DEFAULT_2
 70
0
 62
7
  6
HIDDEN
370
-3
390
F
  0
LAYER
  5
1FC
100
AcDbSymbolTableRecord
100
AcDbLayerTableRecord
  2
DEFAULT_3
 70
0
 62
7
  6
PHANTOM
370
-3
390
F
  0
LAYER
  5
1FD
100
AcDbSymbolTableRecord
100
AcDbLayerTableRecord
  2
ASSI
 70
0
 62
7
  6
CONTINUOUS
370
-3
390
F
  0
LAYER
  5
1FE
100
AcDbSymbolTableRecord
100
AcDbLayerTableRecord
  2
COLOR1
 70
0
 62
7
  6
CONTINUOUS
370
-3
390
F
  0
LAYER
  5
1FF
100
AcDbSymbolTableRecord
100
AcDbLayerTableRecord
  2
COLOR15
 70
0
 62
7
  6
CONTINUOUS
370
-3
390
F
  0
LAYER
  5
200
100
AcDbSymbolTableRecord
100
AcDbLayerTableRecord
  2
COORDINATE
 70
0
 62
7
  6
CONTINUOUS
370
-3
390
F
  0
LAYER
  5
201
100
AcDbSymbolTableRecord
100
AcDbLayerTableRecord
  2
COPY_PUBLISH
 70
0
 62
7
  6
CONTINUOUS
370
-3
390
F
  0
LAYER
  5
202
100
AcDbSymbolTableRecord
100
AcDbLayerTableRecord
  2
COSMETICI
 70
0
 62
7
  6
CONTINUOUS
370
-3
390
F
  0
LAYER
  5
203
100
AcDbSymbolTableRecord
100
AcDbLayerTableRecord
  2
CURVE
 70
0
 62
7
  6
CONTINUOUS
370
-3
390
F
  0
LAYER
  5
204
100
AcDbSymbolTableRecord
100
AcDbLayerTableRecord
  2
DRAFT
 70
0
 62
7
  6
CONTINUOUS
370
-3
390
F
  0
LAYER
  5
205
100
AcDbSymbolTableRecord
100
AcDbLayerTableRecord
  2
IMPORT_IGES
 70
0
 62
7
  6
CONTINUOUS
370
-3
390
F
  0
LAYER
  5
206
100
AcDbSymbolTableRecord
100
AcDbLayerTableRecord
  2
INTF_11
 70
0
 62
7
  6
CONTINUOUS
370
-3
390
F
  0
LAYER
  5
207
100
AcDbSymbolTableRecord
100
AcDbLayerTableRecord
  2
INTF_7
 70
0
 62
7
  6
CONTINUOUS
370
-3
390
F
  0
LAYER
  5
208
100
AcDbSymbolTableRecord
100
AcDbLayerTableRecord
  2
INTF_RED
 70
0
 62
7
  6
CONTINUOUS
370
-3
390
F
  0
LAYER
  5
209
100
AcDbSymbolTableRecord
100
AcDbLayerTableRecord
  2
INTF_YELLOW
 70
0
 62
7
  6
CONTINUOUS
370
-3
390
F
  0
LAYER
  5
20A
100
AcDbSymbolTableRecord
100
AcDbLayerTableRecord
  2
NOTE
 70
0
 62
7
  6
CONTINUOUS
370
-3
390
F
  0
LAYER
  5
20B
100
AcDbSymbolTableRecord
100
AcDbLayerTableRecord
  2
PIANI
 70
0
 62
7
  6
CONTINUOUS
370
-3
390
F
  0
LAYER
  5
20C
100
AcDbSymbolTableRecord
100
AcDbLayerTableRecord
  2
PUNTI
 70
0
 62
7
  6
CONTINUOUS
370
-3
390
F
  0
LAYER
  5
20D
100
AcDbSymbolTableRecord
100
AcDbLayerTableRecord
  2
RACCORDO
 70
0
 62
7
  6
CONTINUOUS
370
-3
390
F
  0
LAYER
  5
20E
100
AcDbSymbolTableRecord
100
AcDbLayerTableRecord
  2
SIMBOLI
 70
0
 62
7
  6
CONTINUOUS
370
-3
390
F
  0
LAYER
  5
20F
100
AcDbSymbolTableRecord
100
AcDbLayerTableRecord
  2
SMUSSO
 70
0
 62
7
  6
CONTINUOUS
370
-3
390
F
  0
LAYER
  5
210
100
AcDbSymbolTableRecord
100
AcDbLayerTableRecord
  2
SNAPLINE
 70
0
 62
7
  6
CONTINUOUS
370
-3
390
F
  0
LAYER
  5
211
100
AcDbSymbolTableRecord
100
AcDbLayerTableRecord
  2
SUPERFICI
 70
0
 62
7
  6
CONTINUOUS
370
-3
390
F
  0
LAYER
  5
212
100
AcDbSymbolTableRecord
100
AcDbLayerTableRecord
  2
TRASH
 70
0
 62
7
  6
CONTINUOUS
370
-3
390
F
  0
LAYER
  5
213
100
AcDbSymbolTableRecord
100
AcDbLayerTableRecord
  2
WHITE
 70
0
 62
7
  6
CONTINUOUS
370
-3
390
F
  0
ENDTAB
  0
TABLE
  2
STYLE
  5
3
100
AcDbSymbolTable
 70
1
  0
STYLE
  5
11
100
AcDbSymbolTableRecord
100
AcDbTextStyleTableRecord
  2
STANDARD
 70
0
 40
0.0
 41
0.8
 50
0.0
 71
0
 42
0.2
  3
txt
  4

  0
STYLE
  5
214
100
AcDbSymbolTableRecord
100
AcDbTextStyleTableRecord
  2
TEXTSTYLE_1
 70
0
 40
0.0
 41
0.8
 50
0.0
 71
0
 42
0.2
  3
gdt
  4

  0
ENDTAB
  0
TABLE
  2
VIEW
  5
6
100
AcDbSymbolTable
 70
0
  0
ENDTAB
  0
TABLE
  2
UCS
  5
7
100
AcDbSymbolTable
 70
0
  0
ENDTAB
  0
TABLE
  2
APPID
  5
9
100
AcDbSymbolTable
 70
1
  0
APPID
  5
215
100
AcDbSymbolTableRecord
100
AcDbRegAppTableRecord
  2
ACAD
 70
0
  0
ENDTAB
  0
TABLE
  2
BLOCK_RECORD
  5
1
100
AcDbSymbolTable
 70
0
  0
BLOCK_RECORD
  5
216
100
AcDbSymbolTableRecord
100
AcDbBlockTableRecord
  2
*Model_Space
  0
BLOCK_RECORD
  5
217
100
AcDbSymbolTableRecord
100
AcDbBlockTableRecord
  2
*Paper_Space
  0
ENDTAB
  0
TABLE
  2
DIMSTYLE
  5
A
100
AcDbSymbolTable
 70
1
100
AcDbDimStyleTable
 71
0
  0
DIMSTYLE
105
218
100
AcDbSymbolTableRecord
100
AcDbDimStyleTableRecord
  2
STANDARD
 70
0
  3

  4

 40
1.0
 41
3.0
 42
0.5
 43
0.38
 44
1.5
 45
0.0
 46
0.0
 47
0.01
 48
0.01
140
3.0
141
0.09
142
0.0
143
25.4
144
1.0
145
0.0
146
1.0
147
0.625
 71
1.0
 72
0.0
 73
0
 74
0
 75
0
 76
0
 77
1
 78
8
170
0
171
2
172
0
173
0
174
0
175
0
176
0
177
0
178
0
270
2
271
2
272
2
273
2
274
2
275
0
280
0
281
0
282
0
283
1
284
8
285
0
286
0
287
3
288
0
340
11
278
44
  0
ENDTAB
  0
ENDSEC
  0
SECTION
  2
BLOCKS
  0
BLOCK
  5
20
100
AcDbEntity
  8
0
100
AcDbBlockBegin
  2
*Model_Space
 70
0
 10
0.0
 20
0.0
 30
0.0
  3
*Model_Space
  1

  0
ENDBLK
  5
21
100
AcDbEntity
  8
0
100
AcDbBlockEnd
  0
BLOCK
  5
1C
100
AcDbEntity
  8
0
100
AcDbBlockBegin
  2
*Paper_Space
 70
0
 10
0.0
 20
0.0
 30
0.0
  3
*Paper_Space
  1

  0
ENDBLK
  5
1D
100
AcDbEntity
  8
0
100
AcDbBlockEnd
  0
ENDSEC
  0
SECTION
  2
ENTITIES
  0
LWPOLYLINE
  5
219
100
AcDbEntity
  8
RACCORDO
100
AcDbPolyline
 62
7
  6
CONTINUOUS
 90
13
 70
0
 10
-23.2145263192
 20
96.0588529907
 10
-23.2352032971
 20
96.0450892376
 10
-23.2606245966
 20
96.0251534088
 10
-23.2846354303
 20
96.0026343601
 10
-23.3069458895
 20
95.9776097754
 10
-23.327265376
 20
95.9502087371
 10
-23.3453389339
 20
95.9205959173
 10
-23.3609718439
 20
95.8889003598
 10
-23.3739376175
 20
95.8553737695
 10
-23.3840510159
 20
95.8203343255
 10
-23.3912287308
 20
95.7839836362
 10
-23.3954105942
 20
95.7464522005
 10
-23.396563771
 20
95.7131412096
  0
LWPOLYLINE
  5
21A
100
AcDbEntity
  8
RACCORDO
100
AcDbPolyline
 62
253
  6
CONTINUOUS
 90
19
 70
0
 10
-22.958870553
 20
96.0374957219
 10
-22.9771376767
 20
96.0256687061
 10
-22.9952412918
 20
96.0121229058
 10
-23.0130466607
 20
95.9969591368
 10
-23.0304212651
 20
95.9802902569
 10
-23.0472357933
 20
95.9622403254
 10
-23.0633651018
 20
95.9429436806
 10
-23.0786891497
 20
95.9225439353
 10
-23.0930938832
 20
95.9011929201
 10
-23.106472086
 20
95.8790495553
 10
-23.1187241954
 20
95.8562786388
 10
-23.1297590219
 20
95.8330496526
 10
-23.1394944263
 20
95.809535517
 10
-23.1478579498
 20
95.7859112729
 10
-23.1547873714
 20
95.7623527089
 10
-23.1602311419
 20
95.739035091
 10
-23.164148746
 20
95.7161319385
 10
-23.1665110177
 20
95.6938137316
 10
-23.1673003722
 20
95.6722465749
  0
LINE
  5
21B
100
AcDbEntity
  8
RACCORDO
100
AcDbLine
 62
7
  6
CONTINUOUS
 10
-22.3758197526
 20
96.5775223947
 11
-23.2146795454
 21
96.0587589156
  0
LINE
  5
21C
100
AcDbEntity
  8
RACCORDO
100
AcDbLine
 62
253
  6
CONTINUOUS
 10
-22.1215159365
 20
96.5553283765
 11
-22.9588705523
 21
96.0374957215
  0
LINE
  5
21D
100
AcDbEntity
  8
RACCORDO
100
AcDbLine
 62
7
  6
CONTINUOUS
 10
-22.3758184919
 20
96.5775230727
 11
-22.3670957885
 21
96.582559452
  0
LINE
  5
21E
100
AcDbEntity
  8
RACCORDO
100
AcDbLine
 62
7
  6
CONTINUOUS
 10
-20.2806938586
 20
97.7045588913
 11
-22.3670970488
 21
96.5825587742
  0
LINE
  5
21F
100
AcDbEntity
  8
RACCORDO
100
AcDbLine
 62
253
  6
CONTINUOUS
 10
-20.0351127463
 20
97.6773284935
 11
-22.1215159365
 21
96.5553283765
  0
LWPOLYLINE
  5
220
100
AcDbEntity
  8
RACCORDO
100
AcDbPolyline
 62
7
  6
CONTINUOUS
 90
3
 70
0
 10
-22.3670957885
 20
96.582559452
 10
-22.3618979215
 20
96.5852383838
 10
-22.3417842921
 20
96.5935953755
  0
LWPOLYLINE
  5
221
100
AcDbEntity
  8
RACCORDO
100
AcDbPolyline
 62
253
  6
CONTINUOUS
 90
5
 70
0
 10
-24.5625289489
 20
92.678174112
 10
-24.5916721887
 20
92.6590075098
 10
-24.6186203553
 20
92.638975634
 10
-24.6433734485
 20
92.6180784844
 10
-24.6660211604
 20
92.5962225934
  0
LWPOLYLINE
  5
222
100
AcDbEntity
  8
RACCORDO
100
AcDbPolyline
 62
7
  6
CONTINUOUS
 90
15
 70
0
 10
-24.7166295531
 20
92.6905463206
 10
-24.7525123984
 20
92.6671981705
 10
-24.7989099276
 20
92.6331702534
 10
-24.8413015564
 20
92.5974517411
 10
-24.8796710416
 20
92.5602732819
 10
-24.9141271502
 20
92.5217509591
 10
-24.9448152471
 20
92.4818927024
 10
-24.9717210869
 20
92.4408761491
 10
-24.9948473488
 20
92.3988813066
 10
-25.014257304
 20
92.3559436449
 10
-25.0299111569
 20
92.3122764901
 10
-25.0418013467
 20
92.2681065229
 10
-25.0499624968
 20
92.2235249516
 10
-25.0543897064
 20
92.1787864431
 10
-25.0551132599
 20
92.1535968688
  0
LINE
  5
223
100
AcDbEntity
  8
RACCORDO
100
AcDbLine
 62
7
  6
CONTINUOUS
 10
-21.4402280421
 20
94.7167287668
 11
-24.7166055941
 21
92.6905677419
  0
LINE
  5
224
100
AcDbEntity
  8
RACCORDO
100
AcDbLine
 62
253
  6
CONTINUOUS
 10
-21.2861375216
 20
94.7043450684
 11
-24.5625289489
 21
92.678174112
  0
LWPOLYLINE
  5
225
100
AcDbEntity
  8
RACCORDO
100
AcDbPolyline
 62
253
  6
CONTINUOUS
 90
11
 70
0
 10
-21.4402051801
 20
94.7167429018
 10
-21.4376245356
 20
94.7182848312
 10
-21.4239633864
 20
94.7248538412
 10
-21.4092255401
 20
94.7294199458
 10
-21.3935231185
 20
94.7319484076
 10
-21.3769755802
 20
94.7324199914
 10
-21.3597088134
 20
94.73083111
 10
-21.3418541786
 20
94.7271938516
 10
-21.323547508
 20
94.721535888
 10
-21.3049280723
 20
94.7139002637
 10
-21.2861375216
 20
94.7043450684
  0
LWPOLYLINE
  5
226
100
AcDbEntity
  8
RACCORDO
100
AcDbPolyline
 62
253
  6
CONTINUOUS
 90
11
 70
0
 10
-24.7166055941
 20
92.6905677419
 10
-24.7140050113
 20
92.6921219927
 10
-24.7003438316
 20
92.698690989
 10
-24.6856059534
 20
92.7032570743
 10
-24.6699035051
 20
92.7057855106
 10
-24.6533559814
 20
92.7062570662
 10
-24.6360892399
 20
92.704668164
 10
-24.6182345392
 20
92.7010308684
 10
-24.5999276702
 20
92.6953728073
 10
-24.5813079348
 20
92.6877370003
 10
-24.5625169863
 20
92.6781815099
  0
LINE
  5
227
100
AcDbEntity
  8
0
100
AcDbLine
 62
7
  6
CONTINUOUS
 10
-25.7552013894
 20
92.5791161651
 11
-21.9300560075
 21
94.8609484257
  0
LINE
  5
228
100
AcDbEntity
  8
0
100
AcDbLine
 62
7
  6
CONTINUOUS
 10
-25.395929136
 20
92.3783351648
 11
-21.570783754
 21
94.6601674254
  0
LINE
  5
229
100
AcDbEntity
  8
0
100
AcDbLine
 62
253
  6
CONTINUOUS
 10
-25.395929136
 20
92.3783351648
 11
-25.7736590078
 21
92.1891844547
  0
LWPOLYLINE
  5
22A
100
AcDbEntity
  8
RACCORDO
100
AcDbPolyline
 62
253
  6
CONTINUOUS
 90
21
 70
0
 10
-24.6660211604
 20
92.5962225934
 10
-24.686473799
 20
92.5735014287
 10
-24.704462288
 20
92.5501953939
 10
-24.7199473171
 20
92.5263051033
 10
-24.7329681967
 20
92.5018299425
 10
-24.7433737811
 20
92.4770484718
 10
-24.7511337294
 20
92.4519555983
 10
-24.7562783826
 20
92.426556415
 10
-24.7587476178
 20
92.4011447615
 10
-24.7585096678
 20
92.3757212
 10
-24.7555962999
 20
92.3502851684
 10
-24.7500426928
 20
92.3251288197
 10
-24.7418183699
 20
92.3002563168
 10
-24.7309538079
 20
92.2756634967
 10
-24.7175756151
 20
92.2516300241
 10
-24.7016449891
 20
92.2281550879
 10
-24.6832007323
 20
92.2052394991
 10
-24.6624858609
 20
92.1831653549
 10
-24.6395813803
 20
92.1620266877
 10
-24.614406285
 20
92.141729465
 10
-24.5869605751
 20
92.1222736869
  0
LWPOLYLINE
  5
22B
100
AcDbEntity
  8
RACCORDO
100
AcDbPolyline
 62
7
  6
CONTINUOUS
 90
6
 70
0
 10
-21.431894106
 20
94.7224330986
 10
-21.4312030467
 20
94.7231534827
 10
-21.4317671494
 20
94.7226615553
 10
-21.4337222564
 20
94.7211180312
 10
-21.4371656265
 20
94.7186932478
 10
-21.440208131
 20
94.7167411153
  0
LWPOLYLINE
  5
22C
100
AcDbEntity
  8
RACCORDO
100
AcDbPolyline
 62
253
  6
CONTINUOUS
 90
11
 70
0
 10
-24.7534566414
 20
91.9546806821
 10
-24.7444732972
 20
91.9699602995
 10
-24.730188499
 20
91.9915428151
 10
-24.7148100654
 20
92.012291424
 10
-24.6984524668
 20
92.0320516846
 10
-24.6812374948
 20
92.0506764821
 10
-24.6632932426
 20
92.068027244
 10
-24.6447531468
 20
92.0839749314
 10
-24.62575515
 20
92.0984008498
 10
-24.6064406886
 20
92.1111975621
 10
-24.5869535193
 20
92.1222697907
  0
LINE
  5
22D
100
AcDbEntity
  8
DRAFT
100
AcDbLine
 62
7
  6
CONTINUOUS
 10
26.199148828
 20
-24.4524397297
 11
24.8347079646
 21
-24.7524983155
  0
LWPOLYLINE
  5
22E
100
AcDbEntity
  8
RACCORDO
100
AcDbPolyline
 62
253
  6
CONTINUOUS
 90
16
 70
0
 10
32.0192670942
 20
-20.4480528436
 10
32.0273454396
 20
-20.446541859
 10
32.034978994
 20
-20.4442219544
 10
32.0421677575
 20
-20.4410931297
 10
32.0489417357
 20
-20.4371330903
 10
32.055270923
 20
-20.4323641309
 10
32.0610653019
 20
-20.4268531356
 10
32.0663164293
 20
-20.4205902461
 10
32.0710327484
 20
-20.4135853206
 10
32.0751495716
 20
-20.4059348184
 10
32.0786587944
 20
-20.3976276201
 10
32.0815685213
 20
-20.388674845
 10
32.0838383788
 20
-20.3792063102
 10
32.0854549089
 20
-20.3692652882
 10
32.0864315696
 20
-20.3588085066
 10
32.0867683609
 20
-20.3478359654
  0
LINE
  5
22F
100
AcDbEntity
  8
DRAFT
100
AcDbLine
 62
7
  6
CONTINUOUS
 10
26.199148828
 20
-20.0659069905
 11
25.2410551806
 21
-20.3037429876
  0
LWPOLYLINE
  5
230
100
AcDbEntity
  8
RACCORDO
100
AcDbPolyline
 62
253
  6
CONTINUOUS
 90
3
 70
0
 10
32.6081246563
 20
-18.872120657
 10
32.5917197021
 20
-18.8758984964
 10
32.5709285205
 20
-18.8786205601
  0
LWPOLYLINE
  5
231
100
AcDbEntity
  8
RACCORDO
100
AcDbPolyline
 62
7
  6
CONTINUOUS
 90
10
 70
0
 10
33.1335992683
 20
-20.1799878222
 10
33.1650256282
 20
-20.1747310254
 10
33.265674433
 20
-20.1551864865
 10
33.3644956967
 20
-20.1318316963
 10
33.4613954004
 20
-20.1047201936
 10
33.5563469054
 20
-20.0738915529
 10
33.6493835529
 20
-20.0393592159
 10
33.7404709412
 20
-20.001152278
 10
33.8295144465
 20
-19.9593276718
 10
33.9164527023
 20
-19.9139347261
  0
LWPOLYLINE
  5
232
100
AcDbEntity
  8
RACCORDO
100
AcDbPolyline
 62
7
  6
CONTINUOUS
 90
6
 70
0
 10
32.2700397591
 20
-20.6230700664
 10
32.2915293899
 20
-20.6196456578
 10
32.3210077683
 20
-20.6128172005
 10
32.3497224582
 20
-20.6036487144
 10
32.3774747996
 20
-20.592220855
 10
32.3999665183
 20
-20.5809167561
  0
LINE
  5
233
100
AcDbEntity
  8
RACCORDO
100
AcDbLine
 62
7
  6
CONTINUOUS
 10
32.2701465164
 20
-20.6230594024
 11
32.2700401714
 21
-20.6230732267
  0
LWPOLYLINE
  5
234
100
AcDbEntity
  8
RACCORDO
100
AcDbPolyline
 62
253
  6
CONTINUOUS
 90
15
 70
0
 10
32.5709285205
 20
-18.8786205601
 10
32.5498199058
 20
-18.8791420674
 10
32.528550938
 20
-18.8774591274
 10
32.5072799069
 20
-18.873584252
 10
32.4861651238
 20
-18.8675462673
 10
32.4653637259
 20
-18.8593900937
 10
32.4450305224
 20
-18.8491764138
 10
32.425316857
 20
-18.8369812317
 10
32.4063694703
 20
-18.822895309
 10
32.3883293815
 20
-18.8070234701
 10
32.3713308647
 20
-18.7894838369
 10
32.355500459
 20
-18.7704069688
 10
32.3409559921
 20
-18.749934856
 10
32.3278057082
 20
-18.7282198564
 10
32.316147482
 20
-18.7054235866
  0
LWPOLYLINE
  5
235
100
AcDbEntity
  8
RACCORDO
100
AcDbPolyline
 62
253
  6
CONTINUOUS
 90
15
 70
0
 10
32.2597351126
 20
-20.6241216379
 10
32.2391867902
 20
-20.6245377258
 10
32.2185393171
 20
-20.6227295881
 10
32.1979874778
 20
-20.6187098487
 10
32.1776842327
 20
-20.6125084248
 10
32.1577806962
 20
-20.6041714739
 10
32.1384249978
 20
-20.5937610443
 10
32.1197611961
 20
-20.5813546193
 10
32.1019282107
 20
-20.5670445485
 10
32.0850587737
 20
-20.5509373544
 10
32.0692784183
 20
-20.5331529104
 10
32.0547045646
 20
-20.513823552
 10
32.0414456735
 20
-20.4930931253
 10
32.0296004335
 20
-20.4711159245
 10
32.0192570047
 20
-20.4480555137
  0
LWPOLYLINE
  5
236
100
AcDbEntity
  8
RACCORDO
100
AcDbPolyline
 62
253
  6
CONTINUOUS
 90
17
 70
0
 10
-21.4969205039
 20
94.7534958258
 10
-21.4930028685
 20
94.7763989738
 10
-21.4875590572
 20
94.7997166293
 10
-21.4806295833
 20
94.8232752537
 10
-21.4722660152
 20
94.846899519
 10
-21.462530595
 20
94.870413604
 10
-21.4514957765
 20
94.8936425022
 10
-21.4392436839
 20
94.9164133318
 10
-21.4258654996
 20
94.938556622
 10
-21.4114607906
 20
94.959907566
 10
-21.3961367689
 20
94.9803072488
 10
-21.3800074841
 20
94.9996038431
 10
-21.3631929782
 20
95.0176537326
 10
-21.3458183986
 20
95.0343225744
 10
-21.3280130585
 20
95.0494863081
 10
-21.3099094734
 20
95.0630320785
 10
-21.2916423804
 20
95.0748590703
  0
LINE
  5
237
100
AcDbEntity
  8
RACCORDO
100
AcDbLine
 62
253
  6
CONTINUOUS
 10
29.7961879876
 20
-14.8245811524
 11
29.858571709
 21
-14.8127319292
  0
LINE
  5
238
100
AcDbEntity
  8
0
100
AcDbLine
 62
7
  6
CONTINUOUS
 10
29.8508863286
 20
-12.9978124245
 11
29.6596859426
 21
-13.0332784001
  0
LWPOLYLINE
  5
239
100
AcDbEntity
  8
RACCORDO
100
AcDbPolyline
 62
7
  6
CONTINUOUS
 90
6
 70
0
 10
29.825304911
 20
-14.80136818
 10
29.8251931966
 20
-14.8013826157
 10
29.8256943572
 20
-14.8013872204
 10
29.826889156
 20
-14.8015086516
 10
29.8286207356
 20
-14.8018368774
 10
29.8307922945
 20
-14.8024226579
  0
LINE
  5
23A
100
AcDbEntity
  8
RACCORDO
100
AcDbLine
 62
253
  6
CONTINUOUS
 10
29.8548714883
 20
-15.0813892696
 11
30.4081276403
 21
-15.0181499829
  0
LINE
  5
23B
100
AcDbEntity
  8
RACCORDO
100
AcDbLine
 62
253
  6
CONTINUOUS
 10
29.7961879905
 20
-15.0267223802
 11
30.2846655112
 21
-14.9720011765
  0
LWPOLYLINE
  5
23C
100
AcDbEntity
  8
RACCORDO
100
AcDbPolyline
 62
253
  6
CONTINUOUS
 90
3
 70
0
 10
30.736657923
 20
-14.9815549321
 10
31.0327141798
 20
-14.9496565759
 10
31.0537833794
 20
-14.9474487679
  0
LINE
  5
23D
100
AcDbEntity
  8
RACCORDO
100
AcDbLine
 62
253
  6
CONTINUOUS
 10
30.8921624858
 20
-14.9073120884
 11
31.0460044109
 21
-14.8920173264
  0
LWPOLYLINE
  5
23E
100
AcDbEntity
  8
RACCORDO
100
AcDbPolyline
 62
7
  6
CONTINUOUS
 90
3
 70
0
 10
30.5438077799
 20
-15.0610170796
 10
30.558155422
 20
-15.0603361235
 10
30.5717730274
 20
-15.0579072538
  0
LWPOLYLINE
  5
23F
100
AcDbEntity
  8
RACCORDO
100
AcDbPolyline
 62
7
  6
CONTINUOUS
 90
6
 70
0
 10
27.4820420091
 20
-26.6413716778
 10
27.4940032193
 20
-26.6455668657
 10
27.5046649624
 20
-26.6498450555
 10
27.513769711
 20
-26.6539985349
 10
27.521169837
 20
-26.6578161817
 10
27.5238318112
 20
-26.6593140705
  0
LWPOLYLINE
  5
240
100
AcDbEntity
  8
0
100
AcDbPolyline
 62
7
  6
CONTINUOUS
 90
16
 70
0
 10
22.8547091981
 20
-29.1291315005
 10
22.8943235504
 20
-29.1469511951
 10
22.9359075439
 20
-29.1622087071
 10
22.9794611788
 20
-29.1749040365
 10
23.0254456138
 20
-29.1851106978
 10
23.0733996902
 20
-29.1927551765
 10
23.1219399314
 20
-29.1976169292
 10
23.1710834126
 20
-29.1996148946
 10
23.2208130587
 20
-29.1988301341
 10
23.2696941681
 20
-29.1952852878
 10
23.3177020227
 20
-29.1888999542
 10
23.3648613406
 20
-29.1797545349
 10
23.4098115741
 20
-29.1681128756
 10
23.4520992074
 20
-29.1540629248
 10
23.4921777563
 20
-29.1375167339
 10
23.5300472208
 20
-29.118474303
  0
LWPOLYLINE
  5
241
100
AcDbEntity
  8
0
100
AcDbPolyline
 62
7
  6
CONTINUOUS
 90
9
 70
0
 10
-25.7736590078
 20
-1.051721155
 10
-25.8045216358
 20
-1.0288483245
 10
-25.8309467192
 20
-1.0048382478
 10
-25.8529342582
 20
-0.9796909248
 10
-25.8706115752
 20
-0.9531400884
 10
-25.8838513477
 20
-0.9254520057
 10
-25.8922716079
 20
-0.8974254788
 10
-25.8957319626
 20
-0.8690506486
 10
-25.8958449292
 20
-0.8625704866
  0
LWPOLYLINE
  5
242
100
AcDbEntity
  8
0
100
AcDbPolyline
 62
7
  6
CONTINUOUS
 90
9
 70
0
 10
-25.8958449292
 20
92.3783351232
 10
-25.8943728049
 20
92.4005682355
 10
-25.8882333467
 20
92.4287915754
 10
-25.877174337
 20
92.456510709
 10
-25.8613350267
 20
92.4837399081
 10
-25.8411723803
 20
92.5096936096
 10
-25.8168387194
 20
92.534109959
 10
-25.7881817224
 20
92.5572508109
 10
-25.7552013894
 20
92.5791161651
  0
LWPOLYLINE
  5
243
100
AcDbEntity
  8
RACCORDO
100
AcDbPolyline
 62
253
  6
CONTINUOUS
 90
20
 70
0
 10
27.2833572132
 20
66.4495447011
 10
27.2892326983
 20
66.4517335174
 10
27.2986786322
 20
66.4546594907
 10
27.3084016999
 20
66.4571221206
 10
27.3183506793
 20
66.4591761728
 10
27.3284764097
 20
66.4608370969
 10
27.3387320657
 20
66.4620753379
 10
27.3490682593
 20
66.4628816584
 10
27.3594352217
 20
66.4632535334
 10
27.369783806
 20
66.463191091
 10
27.3800653263
 20
66.4626919828
 10
27.3902310515
 20
66.4617594846
 10
27.4002319921
 20
66.4603994963
 10
27.4100199073
 20
66.4586164877
 10
27.4195490319
 20
66.4564192505
 10
27.4287727796
 20
66.4538196503
 10
27.4376439186
 20
66.450829978
 10
27.4461194944
 20
66.4474651884
 10
27.454160628
 20
66.4437423778
 10
27.461729487
 20
66.4396798684
  0
LWPOLYLINE
  5
244
100
AcDbEntity
  8
RACCORDO
100
AcDbPolyline
 62
7
  6
CONTINUOUS
 90
5
 70
0
 10
30.331017648
 20
-9.2073570955
 10
30.3468923912
 20
-9.2062793425
 10
30.3640539648
 20
-9.2055914915
 10
30.3824548801
 20
-9.2052184334
 10
30.4020130864
 20
-9.2051112925
  0
LWPOLYLINE
  5
245
100
AcDbEntity
  8
RACCORDO
100
AcDbPolyline
 62
7
  6
CONTINUOUS
 90
6
 70
0
 10
30.4673109958
 20
-9.2052923175
 10
30.4910807431
 20
-9.2051803594
 10
30.5151457879
 20
-9.204629329
 10
30.5391982199
 20
-9.2035731947
 10
30.5632288548
 20
-9.2020878475
 10
30.5870836969
 20
-9.2001822443
  0
LINE
  5
246
100
AcDbEntity
  8
RACCORDO
100
AcDbLine
 62
7
  6
CONTINUOUS
 10
30.4020130864
 20
-9.2051112925
 11
30.4673109958
 21
-9.2052923175
  0
LWPOLYLINE
  5
247
100
AcDbEntity
  8
RACCORDO
100
AcDbPolyline
 62
253
  6
CONTINUOUS
 90
6
 70
0
 10
30.5005151729
 20
-15.0309051801
 10
30.5098638613
 20
-15.0314441793
 10
30.5192581057
 20
-15.0306655479
 10
30.5284911976
 20
-15.0285325993
 10
30.5369430114
 20
-15.0249352735
 10
30.5445088356
 20
-15.0196966527
  0
LINE
  5
248
100
AcDbEntity
  8
RACCORDO
100
AcDbLine
 62
253
  6
CONTINUOUS
 10
30.7529795647
 20
-14.2826703952
 11
30.8177663713
 21
-14.2873267234
  0
LINE
  5
249
100
AcDbEntity
  8
RACCORDO
100
AcDbLine
 62
7
  6
CONTINUOUS
 10
30.5289067194
 20
-15.0598436339
 11
30.5438077799
 21
-15.0610170796
  0
LWPOLYLINE
  5
24A
100
AcDbEntity
  8
RACCORDO
100
AcDbPolyline
 62
7
  6
CONTINUOUS
 90
5
 70
0
 10
30.7621986722
 20
-14.2590779439
 10
30.7620194533
 20
-14.2590603775
 10
30.7622579304
 20
-14.2591299565
 10
30.7636510349
 20
-14.2596457689
 10
30.7644696257
 20
-14.260021153
  0
LWPOLYLINE
  5
24B
100
AcDbEntity
  8
RACCORDO
100
AcDbPolyline
 62
7
  6
CONTINUOUS
 90
13
 70
0
 10
30.2517709332
 20
-28.2343877883
 10
30.281539339
 20
-28.2502138235
 10
30.3161030502
 20
-28.2653133709
 10
30.3511424819
 20
-28.2772365654
 10
30.3865148507
 20
-28.2859673462
 10
30.4220033816
 20
-28.2914774529
 10
30.4572385644
 20
-28.2937689518
 10
30.4918884662
 20
-28.292910616
 10
30.5257453899
 20
-28.289005606
 10
30.5585425476
 20
-28.2821941334
 10
30.590023931
 20
-28.2726623861
 10
30.6199767449
 20
-28.2606208819
 10
30.6422012033
 20
-28.2496117943
  0
LWPOLYLINE
  5
24C
100
AcDbEntity
  8
RACCORDO
100
AcDbPolyline
 62
253
  6
CONTINUOUS
 90
22
 70
0
 10
30.189622476
 20
-28.0970569552
 10
30.2002650253
 20
-28.1027292054
 10
30.2107393229
 20
-28.1074161249
 10
30.221045369
 20
-28.1111177139
 10
30.2312411865
 20
-28.1138448819
 10
30.2412687524
 20
-28.1155867193
 10
30.250953998
 20
-28.1163104974
 10
30.26028877
 20
-28.1159979945
 10
30.2692812217
 20
-28.1146674322
 10
30.2777817453
 20
-28.1123407478
 10
30.2857820961
 20
-28.1090012133
 10
30.2932905188
 20
-28.1046655567
 10
30.3001821396
 20
-28.0994058986
 10
30.3064465804
 20
-28.093206724
 10
30.3120942193
 20
-28.086083548
 10
30.3170313166
 20
-28.0781550369
 10
30.3212461812
 20
-28.0694042781
 10
30.3247505042
 20
-28.0598481842
 10
30.3274856199
 20
-28.0496561591
 10
30.329431973
 20
-28.0388846707
 10
30.3306091187
 20
-28.027477251
 10
30.3310170571
 20
-28.0154339001
  0
LWPOLYLINE
  5
24D
100
AcDbEntity
  8
0
100
AcDbPolyline
 62
7
  6
CONTINUOUS
 90
16
 70
0
 10
-25.7736590078
 20
-1.051721155
 10
-22.7504327963
 20
-3.0452769503
 10
-19.6952327996
 20
-5.0218801199
 10
-16.6080590174
 20
-6.9815306639
 10
-13.4886294115
 20
-8.9244009444
 10
-10.3372260201
 20
-10.8503185993
 10
-7.1546949589
 20
-12.7587665419
 10
-3.9410278696
 20
-14.6497400813
 10
-0.6962331105
 20
-16.5232439085
 10
2.5788181287
 20
-18.3787750091
 10
5.884133972
 20
-20.2163285574
 10
9.2197062952
 20
-22.0359093792
 10
12.5846395357
 20
-23.837028938
 10
15.9786351726
 20
-25.6195243884
 10
19.4019917267
 20
-27.3835585759
 10
22.8547091981
 20
-29.1291315005
  0
LWPOLYLINE
  5
24E
100
AcDbEntity
  8
DRAFT
100
AcDbPolyline
 62
7
  6
CONTINUOUS
 90
16
 70
0
 10
-26.7392215479
 20
16.5413087982
 10
-26.7368104465
 20
16.4742101925
 10
-26.7260675482
 20
16.3836371874
 10
-26.7068154427
 20
16.2938345254
 10
-26.6789844686
 20
16.2048379842
 10
-26.6426442873
 20
16.1166117861
 10
-26.5981067099
 20
16.0299110823
 10
-26.5452825786
 20
15.9447227958
 10
-26.4842610511
 20
15.8610600037
 10
-26.4156214108
 20
15.7797170877
 10
-26.3393154065
 20
15.7007388246
 10
-26.2553912893
 20
15.6240804377
 10
-26.1645730966
 20
15.5504019787
 10
-26.0667739631
 20
15.4797109699
 10
-25.962080754
 20
15.411999889
 10
-25.895929136
 20
15.373665366
  0
LWPOLYLINE
  5
24F
100
AcDbEntity
  8
DRAFT
100
AcDbPolyline
 62
7
  6
CONTINUOUS
 90
16
 70
0
 10
-26.7392215634
 20
83.4918714952
 10
-26.7368105633
 20
83.4247737387
 10
-26.7260678009
 20
83.3342010535
 10
-26.706815797
 20
83.2443985673
 10
-26.6789848372
 20
83.1554018715
 10
-26.6426446359
 20
83.0671753747
 10
-26.5981071258
 20
82.9804745138
 10
-26.5452832631
 20
82.8952864045
 10
-26.4842620917
 20
82.8116239311
 10
-26.415622676
 20
82.7302811838
 10
-26.3393165851
 20
82.6513027464
 10
-26.2553922499
 20
82.574644035
 10
-26.1645740272
 20
82.500965388
 10
-26.0667753017
 20
82.4302745142
 10
-25.9620826888
 20
82.3625637048
 10
-25.895929136
 20
82.3242280192
  0
LWPOLYLINE
  5
250
100
AcDbEntity
  8
RACCORDO
100
AcDbPolyline
 62
253
  6
CONTINUOUS
 90
11
 70
0
 10
-23.3965681549
 20
95.7131028426
 10
-23.3965567222
 20
95.7115906277
 10
-23.3952146399
 20
95.6966672976
 10
-23.3916498595
 20
95.6818663003
 10
-23.3858889283
 20
95.6672978181
 10
-23.3779747528
 20
95.6530702985
 10
-23.3679662413
 20
95.6392896023
 10
-23.3559378542
 20
95.6260582461
 10
-23.341979091
 20
95.613474692
 10
-23.3261938467
 20
95.6016326092
 10
-23.3086995984
 20
95.5906201346
  0
LINE
  5
251
100
AcDbEntity
  8
0
100
AcDbLine
 62
7
  6
CONTINUOUS
 10
-26.7392290416
 20
86.7577526012
 11
-26.7392290416
 21
83.491871494
  0
LINE
  5
252
100
AcDbEntity
  8
0
100
AcDbLine
 62
7
  6
CONTINUOUS
 10
-26.7392290416
 20
19.8071899042
 11
-26.7392290416
 21
16.541308797
  0
LINE
  5
253
100
AcDbEntity
  8
0
100
AcDbLine
 62
7
  6
CONTINUOUS
 10
-25.895929136
 20
92.3783351648
 11
-25.895929136
 21
-0.8625704449
  0
LINE
  5
254
100
AcDbEntity
  8
0
100
AcDbLine
 62
253
  6
CONTINUOUS
 10
-25.7736590078
 20
92.1891844547
 11
-25.7736590078
 21
-1.051721155
  0
LINE
  5
255
100
AcDbEntity
  8
RACCORDO
100
AcDbLine
 62
7
  6
CONTINUOUS
 10
-23.3965681549
 20
93.9861229238
 11
-23.3965681549
 21
95.7131028426
  0
LINE
  5
256
100
AcDbEntity
  8
RACCORDO
100
AcDbLine
 62
253
  6
CONTINUOUS
 10
-23.3086996866
 20
94.0385395213
 11
-23.3086995984
 21
95.5906262018
  0
LWPOLYLINE
  5
257
100
AcDbEntity
  8
DRAFT
100
AcDbPolyline
 62
7
  6
CONTINUOUS
 90
17
 70
0
 10
-26.7392215634
 20
86.7577526024
 10
-26.7389412953
 20
86.78113552
 10
-26.7323824425
 20
86.871494606
 10
-26.7172115593
 20
86.9617616807
 10
-26.69355852
 20
87.0511632653
 10
-26.6613382538
 20
87.1397188684
 10
-26.6206358316
 20
87.2274089812
 10
-26.5718363398
 20
87.3134015985
 10
-26.5148806771
 20
87.3976570029
 10
-26.449827945
 20
87.4802149117
 10
-26.3772405341
 20
87.5603624715
 10
-26.2970314131
 20
87.6380981293
 10
-26.2092876134
 20
87.7134234381
 10
-26.11483262
 20
87.7856302038
 10
-26.0136260765
 20
87.854674372
 10
-25.9057083394
 20
87.9205999973
 10
-25.895929136
 20
87.9259531524
  0
LWPOLYLINE
  5
258
100
AcDbEntity
  8
DRAFT
100
AcDbPolyline
 62
7
  6
CONTINUOUS
 90
17
 70
0
 10
-26.7392215634
 20
19.8071899054
 10
-26.7389412953
 20
19.830572823
 10
-26.7323824425
 20
19.9209319089
 10
-26.7172115593
 20
20.0111989837
 10
-26.69355852
 20
20.1006005683
 10
-26.6613382538
 20
20.1891561713
 10
-26.6206358316
 20
20.2768462842
 10
-26.5718363398
 20
20.3628389015
 10
-26.5148806771
 20
20.4470943058
 10
-26.449827945
 20
20.5296522147
 10
-26.3772405341
 20
20.6097997745
 10
-26.2970314131
 20
20.6875354323
 10
-26.2092876134
 20
20.7628607411
 10
-26.11483262
 20
20.8350675068
 10
-26.0136260765
 20
20.904111675
 10
-25.9057083394
 20
20.9700373002
 10
-25.895929136
 20
20.9753904554
  0
LWPOLYLINE
  5
259
100
AcDbEntity
  8
RACCORDO
100
AcDbPolyline
 62
253
  6
CONTINUOUS
 90
3
 70
0
 10
-21.5000722001
 20
94.7096105271
 10
-21.4992828076
 20
94.731177643
 10
-21.4969205039
 20
94.7534958258
  0
LINE
  5
25A
100
AcDbEntity
  8
0
100
AcDbLine
 62
7
  6
CONTINUOUS
 10
23.1823067316
 20
64.3298706032
 11
27.1343015199
 21
66.5384616064
  0
LWPOLYLINE
  5
25B
100
AcDbEntity
  8
RACCORDO
100
AcDbPolyline
 62
253
  6
CONTINUOUS
 90
22
 70
0
 10
27.0393649887
 20
66.8018055798
 10
27.0644074995
 20
66.8152104949
 10
27.0907177628
 20
66.8273955216
 10
27.1182957784
 20
66.8383606599
 10
27.1473051391
 20
66.8481516159
 10
27.1775822522
 20
66.8567226835
 10
27.2086363394
 20
66.8639367449
 10
27.2404796565
 20
66.8697718932
 10
27.2730999477
 20
66.8742500354
 10
27.3059696669
 20
66.8772997741
 10
27.3390911403
 20
66.8788986184
 10
27.3724620416
 20
66.8790690593
 10
27.4055478467
 20
66.8778071724
 10
27.4383456182
 20
66.8750905236
 10
27.4708582934
 20
66.8709415469
 10
27.5025601595
 20
66.8654236204
 10
27.5334438914
 20
66.8585121833
 10
27.5635168142
 20
66.8502317963
 10
27.5922751908
 20
66.8407195196
 10
27.619551109
 20
66.8300210399
 10
27.645512481
 20
66.8180906706
 10
27.6701593069
 20
66.8049284115
  0
LWPOLYLINE
  5
25C
100
AcDbEntity
  8
RACCORDO
100
AcDbPolyline
 62
253
  6
CONTINUOUS
 90
10
 70
0
 10
30.6847040824
 20
-16.6433065828
 10
30.6910526125
 20
-16.6452021049
 10
30.698224859
 20
-16.6464641034
 10
30.7060171493
 20
-16.6470567409
 10
30.7142082028
 20
-16.646963188
 10
30.7225654155
 20
-16.6461861014
 10
30.7308514646
 20
-16.6447475483
 10
30.7388310482
 20
-16.6426883798
 10
30.7462775674
 20
-16.6400670708
 10
30.7529795608
 20
-16.6369580595
  0
LWPOLYLINE
  5
25D
100
AcDbEntity
  8
RACCORDO
100
AcDbPolyline
 62
253
  6
CONTINUOUS
 90
10
 70
0
 10
30.5672528941
 20
-15.8063718877
 10
30.5736014079
 20
-15.8082673998
 10
30.5807736395
 20
-15.8095293934
 10
30.5885659182
 20
-15.8101220301
 10
30.5967569655
 20
-15.8100284793
 10
30.605114178
 20
-15.8092513965
 10
30.613400233
 20
-15.8078128476
 10
30.621379828
 20
-15.8057536827
 10
30.6288263624
 20
-15.8031323757
 10
30.6355283726
 20
-15.8000233644
  0
LWPOLYLINE
  5
25E
100
AcDbEntity
  8
RACCORDO
100
AcDbPolyline
 62
253
  6
CONTINUOUS
 90
8
 70
0
 10
31.227711313
 20
-16.0096663642
 10
31.2150470266
 20
-16.005718041
 10
31.2022529125
 20
-16.0031954237
 10
31.1894934207
 20
-16.0022826764
 10
31.1768592583
 20
-16.003169179
 10
31.1646681308
 20
-16.0060398489
 10
31.1533845554
 20
-16.0109167598
 10
31.147661731
 20
-16.0144231992
  0
LWPOLYLINE
  5
25F
100
AcDbEntity
  8
RACCORDO
100
AcDbPolyline
 62
7
  6
CONTINUOUS
 90
3
 70
0
 10
30.499204341
 20
-15.0521932916
 10
30.5136835696
 20
-15.0567860727
 10
30.5289067194
 20
-15.0598436339
  0
LWPOLYLINE
  5
260
100
AcDbEntity
  8
RACCORDO
100
AcDbPolyline
 62
253
  6
CONTINUOUS
 90
12
 70
0
 10
31.2003373058
 20
-16.0726998865
 10
31.1906663124
 20
-16.0694522529
 10
31.1811564715
 20
-16.0675589365
 10
31.1718077831
 20
-16.0670199373
 10
31.1624135388
 20
-16.0677985687
 10
31.1531804469
 20
-16.0699315173
 10
31.144728633
 20
-16.0735288431
 10
31.1371628089
 20
-16.0787674639
 10
31.1303782627
 20
-16.0854704618
 10
31.1246809848
 20
-16.0932171432
 10
31.1201729718
 20
-16.1018672771
 10
31.1167522269
 20
-16.1115610945
  0
LWPOLYLINE
  5
261
100
AcDbEntity
  8
RACCORDO
100
AcDbPolyline
 62
253
  6
CONTINUOUS
 90
3
 70
0
 10
30.4813343387
 20
-15.0257642301
 10
30.491005332
 20
-15.0290118637
 10
30.5005151729
 20
-15.0309051801
  0
LINE
  5
262
100
AcDbEntity
  8
RACCORDO
100
AcDbLine
 62
7
  6
CONTINUOUS
 10
29.8307922945
 20
-14.8024226579
 11
29.8330189617
 21
-14.8031804881
  0
LINE
  5
263
100
AcDbEntity
  8
RACCORDO
100
AcDbLine
 62
253
  6
CONTINUOUS
 10
31.8664360943
 20
-16.3216803976
 11
31.2003373058
 21
-16.0726998865
  0
LINE
  5
264
100
AcDbEntity
  8
RACCORDO
100
AcDbLine
 62
253
  6
CONTINUOUS
 10
31.8938101014
 20
-16.2586468754
 11
31.227711313
 21
-16.0096663642
  0
LINE
  5
265
100
AcDbEntity
  8
RACCORDO
100
AcDbLine
 62
7
  6
CONTINUOUS
 10
29.8330844211
 20
-14.8032050571
 11
30.4991832459
 21
-15.0521855818
  0
LINE
  5
266
100
AcDbEntity
  8
RACCORDO
100
AcDbLine
 62
253
  6
CONTINUOUS
 10
29.8152355264
 20
-14.7767837101
 11
30.4813343387
 21
-15.0257642301
  0
LWPOLYLINE
  5
267
100
AcDbEntity
  8
RACCORDO
100
AcDbPolyline
 62
253
  6
CONTINUOUS
 90
15
 70
0
 10
29.8933917335
 20
-19.9483585624
 10
30.0494261344
 20
-20.0303623415
 10
30.2061269404
 20
-20.1059056042
 10
30.3640115178
 20
-20.1753002137
 10
30.5225625003
 20
-20.2382343069
 10
30.6802277891
 20
-20.2937722944
 10
30.8368455845
 20
-20.3417194174
 10
30.9925776861
 20
-20.3822704348
 10
31.1463573939
 20
-20.4150740345
 10
31.2980748769
 20
-20.4400295718
 10
31.447839966
 20
-20.4572376915
 10
31.594915453
 20
-20.4666490163
 10
31.7390556021
 20
-20.468247087
 10
31.8805061492
 20
-20.4620483627
 10
32.0192670942
 20
-20.4480528436
  0
LINE
  5
268
100
AcDbEntity
  8
RACCORDO
100
AcDbLine
 62
7
  6
CONTINUOUS
 10
30.2517689888
 20
-28.2343911563
 11
30.2517426068
 21
-28.234375929
  0
LINE
  5
269
100
AcDbEntity
  8
RACCORDO
100
AcDbLine
 62
7
  6
CONTINUOUS
 10
27.5238542736
 20
-26.6593273939
 11
30.2517426068
 21
-28.234375929
  0
LINE
  5
26A
100
AcDbEntity
  8
RACCORDO
100
AcDbLine
 62
253
  6
CONTINUOUS
 10
27.4820420091
 20
-26.5337345266
 11
30.189622476
 21
-28.0970569552
  0
LINE
  5
26B
100
AcDbEntity
  8
DRAFT
100
AcDbLine
 62
7
  6
CONTINUOUS
 10
26.1935971983
 20
-19.77141037
 11
26.4513985552
 21
-19.9202616424
  0
LWPOLYLINE
  5
26C
100
AcDbEntity
  8
RACCORDO
100
AcDbPolyline
 62
253
  6
CONTINUOUS
 90
11
 70
0
 10
30.2517426068
 20
-28.234375929
 10
30.2504460963
 20
-28.2336142854
 10
30.2381939869
 20
-28.2249917977
 10
30.227159161
 20
-28.2145055522
 10
30.2174237577
 20
-28.202233617
 10
30.209060236
 20
-28.1882673592
 10
30.2021308168
 20
-28.1727107162
 10
30.1966870491
 20
-28.1556794263
 10
30.1927694485
 20
-28.1373002229
 10
30.1904071809
 20
-28.1177099057
 10
30.1896178309
 20
-28.0970542732
  0
LINE
  5
26D
100
AcDbEntity
  8
0
100
AcDbLine
 62
7
  6
CONTINUOUS
 10
26.3218424767
 20
-24.386459056
 11
26.4700859714
 21
-24.4748914566
  0
LINE
  5
26E
100
AcDbEntity
  8
0
100
AcDbLine
 62
7
  6
CONTINUOUS
 10
-21.570783754
 20
94.6601674254
 11
-21.570783754
 21
94.6359911562
  0
LINE
  5
26F
100
AcDbEntity
  8
RACCORDO
100
AcDbLine
 62
253
  6
CONTINUOUS
 10
-21.5000722001
 20
94.6797202418
 11
-21.5000722001
 21
94.7096105271
  0
LINE
  5
270
100
AcDbEntity
  8
0
100
AcDbLine
 62
253
  6
CONTINUOUS
 10
23.1823067316
 20
64.3298706032
 11
22.8547091981
 21
64.1117741093
  0
LINE
  5
271
100
AcDbEntity
  8
RACCORDO
100
AcDbLine
 62
253
  6
CONTINUOUS
 10
23.6465600468
 20
64.8428503282
 11
27.0393649887
 21
66.8018055798
  0
LINE
  5
272
100
AcDbEntity
  8
RACCORDO
100
AcDbLine
 62
253
  6
CONTINUOUS
 10
30.3980476508
 20
65.2298798702
 11
32.4462528557
 21
66.412488567
  0
LINE
  5
273
100
AcDbEntity
  8
DRAFT
100
AcDbLine
 62
7
  6
CONTINUOUS
 10
26.199148828
 20
62.3159439379
 11
26.4513985552
 21
62.461589286
  0
LINE
  5
274
100
AcDbEntity
  8
RACCORDO
100
AcDbLine
 62
253
  6
CONTINUOUS
 10
30.7515471935
 20
64.6176007025
 11
32.7997523984
 21
65.8002093992
  0
LINE
  5
275
100
AcDbEntity
  8
0
100
AcDbLine
 62
7
  6
CONTINUOUS
 10
23.5300472208
 20
64.1224313068
 11
27.4820420091
 21
66.33102231
  0
LINE
  5
276
100
AcDbEntity
  8
0
100
AcDbLine
 62
7
  6
CONTINUOUS
 10
24.7812817853
 20
61.8211614015
 11
26.4700859714
 21
62.7649576187
  0
LWPOLYLINE
  5
277
100
AcDbEntity
  8
RACCORDO
100
AcDbPolyline
 62
253
  6
CONTINUOUS
 90
19
 70
0
 10
30.7515471935
 20
64.6176007031
 10
30.7321716783
 20
64.6076934514
 10
30.7113893492
 20
64.5987872927
 10
30.6893548807
 20
64.5909485118
 10
30.6662322663
 20
64.5842354495
 10
30.6421935982
 20
64.5786980685
 10
30.6174177865
 20
64.5743775813
 10
30.5920892216
 20
64.5713061429
 10
30.5663964194
 20
64.5695066141
 10
30.5405306181
 20
64.5689923878
 10
30.5146843174
 20
64.5697672893
 10
30.4890498892
 20
64.5718255492
 10
30.4638181623
 20
64.5751518393
 10
30.4391769614
 20
64.579721386
 10
30.415309631
 20
64.5855001764
 10
30.3923937236
 20
64.5924452179
 10
30.3705997694
 20
64.6005048347
 10
30.3500899982
 20
64.609619039
 10
30.3310170571
 20
64.6197200012
  0
LWPOLYLINE
  5
278
100
AcDbEntity
  8
DRAFT
100
AcDbPolyline
 62
7
  6
CONTINUOUS
 90
3
 70
0
 10
31.1892106865
 20
-13.1258215375
 10
31.0951062804
 20
-13.0938940236
 10
31.0019532112
 20
-13.0688791255
  0
LINE
  5
279
100
AcDbEntity
  8
DRAFT
100
AcDbLine
 62
7
  6
CONTINUOUS
 10
31.2001702317
 20
-13.1303023375
 11
31.1892106865
 21
-13.1258215375
  0
LWPOLYLINE
  5
27A
100
AcDbEntity
  8
RACCORDO
100
AcDbPolyline
 62
253
  6
CONTINUOUS
 90
10
 70
0
 10
29.7479950928
 20
-15.0222133775
 10
29.7523247829
 20
-15.0240480431
 10
29.7570740436
 20
-15.0255818396
 10
29.7621786503
 20
-15.0267940245
 10
29.7675695728
 20
-15.0276682045
 10
29.7731739085
 20
-15.0281925569
 10
29.7789158679
 20
-15.0283599902
 10
29.7847178006
 20
-15.0281682394
 10
29.7905012453
 20
-15.0276198972
 10
29.7961879904
 20
-15.0267223784
  0
LWPOLYLINE
  5
27B
100
AcDbEntity
  8
RACCORDO
100
AcDbPolyline
 62
253
  6
CONTINUOUS
 90
19
 70
0
 10
29.8548714889
 20
-15.0813892701
 10
29.8489613464
 20
-15.0788217984
 10
29.8433368065
 20
-15.0760590105
 10
29.8380022061
 20
-15.0731386203
 10
29.8329502025
 20
-15.0701008254
 10
29.8281934916
 20
-15.0669751029
 10
29.8237653485
 20
-15.0637788797
 10
29.8196680259
 20
-15.06053075
 10
29.8159005019
 20
-15.0572656496
 10
29.8124896025
 20
-15.0540219075
 10
29.8094573236
 20
-15.0508405374
 10
29.8067763056
 20
-15.0477202892
 10
29.8044000567
 20
-15.0446327579
 10
29.8023232781
 20
-15.041606864
 10
29.8005483954
 20
-15.0386402463
 10
29.7990469624
 20
-15.0356596869
 10
29.7978133327
 20
-15.0326538245
 10
29.7968595531
 20
-15.0296686908
 10
29.7961879899
 20
-15.0267223516
  0
LWPOLYLINE
  5
27C
100
AcDbEntity
  8
0
100
AcDbPolyline
 62
7
  6
CONTINUOUS
 90
8
 70
0
 10
30.9732023078
 20
-13.0576175655
 10
30.7445173445
 20
-12.9564412368
 10
30.5204817656
 20
-12.8883955313
 10
30.304125268
 20
-12.8544006505
 10
30.098373702
 20
-12.8549163168
 10
29.9060095047
 20
-12.8899355567
 10
29.7296340718
 20
-12.9589847952
 10
29.6882555472
 20
-12.9815038781
  0
LWPOLYLINE
  5
27D
100
AcDbEntity
  8
RACCORDO
100
AcDbPolyline
 62
253
  6
CONTINUOUS
 90
6
 70
0
 10
31.1144187503
 20
-15.2920922289
 10
31.1090742299
 20
-15.2896170236
 10
31.1048854701
 20
-15.2866324108
 10
31.1019714224
 20
-15.2832231447
 10
31.10041484
 20
-15.2794860386
 10
31.1002592842
 20
-15.2786271734
  0
LWPOLYLINE
  5
27E
100
AcDbEntity
  8
RACCORDO
100
AcDbPolyline
 62
253
  6
CONTINUOUS
 90
6
 70
0
 10
30.9969675579
 20
-14.4551575039
 10
30.9916230257
 20
-14.452682286
 10
30.987434262
 20
-14.4496976619
 10
30.9845202165
 20
-14.446288387
 10
30.9829636404
 20
-14.4425512758
 10
30.9828080895
 20
-14.4416924322
  0
LINE
  5
27F
100
AcDbEntity
  8
RACCORDO
100
AcDbLine
 62
7
  6
CONTINUOUS
 10
30.7644255088
 20
-14.2599998805
 11
30.764469651
 21
-14.2600210993
  0
LWPOLYLINE
  5
280
100
AcDbEntity
  8
RACCORDO
100
AcDbPolyline
 62
253
  6
CONTINUOUS
 90
10
 70
0
 10
30.9308827255
 20
-16.8630871416
 10
30.910882172
 20
-16.8532285873
 10
30.8908766315
 20
-16.8429447724
 10
30.8708661041
 20
-16.832235697
 10
30.8508472303
 20
-16.8210994179
 10
30.8308233696
 20
-16.8095378784
 10
30.8108046004
 20
-16.7975569078
 10
30.7907942822
 20
-16.7851584494
 10
30.7707890555
 20
-16.7723405601
 10
30.7507889204
 20
-16.7591032398
  0
LWPOLYLINE
  5
281
100
AcDbEntity
  8
RACCORDO
100
AcDbPolyline
 62
253
  6
CONTINUOUS
 90
10
 70
0
 10
30.9460460254
 20
-16.8161936993
 10
30.9266246674
 20
-16.8066217263
 10
30.9071805766
 20
-16.7966266883
 10
30.8877202425
 20
-16.7862119214
 10
30.8682501605
 20
-16.7753809012
 10
30.8487768283
 20
-16.7641372428
 10
30.8293067443
 20
-16.7524846998
 10
30.8098464065
 20
-16.7404271614
 10
30.79040231
 20
-16.7279686516
 10
30.7709809443
 20
-16.7151133285
  0
LWPOLYLINE
  5
282
100
AcDbEntity
  8
RACCORDO
100
AcDbPolyline
 62
253
  6
CONTINUOUS
 90
4
 70
0
 10
30.7507889173
 20
-14.2353769787
 10
30.7707894712
 20
-14.2452355312
 10
30.790795012
 20
-14.2555193447
 10
30.8108055398
 20
-14.2662284193
  0
LWPOLYLINE
  5
283
100
AcDbEntity
  8
RACCORDO
100
AcDbPolyline
 62
253
  6
CONTINUOUS
 90
8
 70
0
 10
31.9336765556
 20
-16.0762507432
 10
31.9298249786
 20
-16.0741400213
 10
31.9265036033
 20
-16.0717817817
 10
31.9237573466
 20
-16.0692079151
 10
31.921623348
 20
-16.066453228
 10
31.9201304675
 20
-16.0635549727
 10
31.9192988952
 20
-16.0605523433
 10
31.9191488889
 20
-16.0592558014
  0
LWPOLYLINE
  5
284
100
AcDbEntity
  8
RACCORDO
100
AcDbPolyline
 62
7
  6
CONTINUOUS
 90
16
 70
0
 10
29.7979624438
 20
-19.9959421317
 10
29.9697042054
 20
-20.093278582
 10
30.1415611027
 20
-20.1831260162
 10
30.3133224304
 20
-20.2653563118
 10
30.4848468965
 20
-20.3398763685
 10
30.6558506032
 20
-20.4065347705
 10
30.8259159575
 20
-20.4651567621
 10
30.994872069
 20
-20.5156804791
 10
31.1624798441
 20
-20.5580287832
 10
31.3282376193
 20
-20.5920902381
 10
31.4919477324
 20
-20.6178588626
 10
31.6534205863
 20
-20.635337532
 10
31.8121861526
 20
-20.6445272155
 10
31.9679700579
 20
-20.6454913264
 10
32.1206837168
 20
-20.6383085172
 10
32.2701465164
 20
-20.6230594024
  0
LINE
  5
285
100
AcDbEntity
  8
RACCORDO
100
AcDbLine
 62
253
  6
CONTINUOUS
 10
29.7380237377
 20
-19.859894267
 11
29.8933917335
 21
-19.9483585624
  0
LINE
  5
286
100
AcDbEntity
  8
DRAFT
100
AcDbLine
 62
7
  6
CONTINUOUS
 10
32.5343661825
 20
67.3243702104
 11
31.7600746378
 21
66.8086792702
  0
LWPOLYLINE
  5
287
100
AcDbEntity
  8
RACCORDO
100
AcDbPolyline
 62
253
  6
CONTINUOUS
 90
19
 70
0
 10
30.3980476515
 20
65.2298798699
 10
30.3797805239
 20
65.2180528563
 10
30.3616769052
 20
65.2045070581
 10
30.3438715331
 20
65.189343291
 10
30.3264969256
 20
65.1726744128
 10
30.3096823947
 20
65.1546244829
 10
30.293553084
 20
65.1353278394
 10
30.2782290344
 20
65.1149280951
 10
30.2638242998
 20
65.0935770805
 10
30.2504460963
 20
65.0714337161
 10
30.2381939869
 20
65.0486627996
 10
30.227159161
 20
65.0254338131
 10
30.2174237577
 20
65.0019196768
 10
30.209060236
 20
64.9782954317
 10
30.2021308168
 20
64.9547368663
 10
30.1966870491
 20
64.9314192467
 10
30.1927694485
 20
64.9085160922
 10
30.1904071809
 20
64.886197883
 10
30.1896178309
 20
64.8646307237
  0
LINE
  5
288
100
AcDbEntity
  8
0
100
AcDbLine
 62
7
  6
CONTINUOUS
 10
26.4700859714
 20
57.9069594718
 11
24.7812817853
 21
56.9631632545
  0
LWPOLYLINE
  5
289
100
AcDbEntity
  8
RACCORDO
100
AcDbPolyline
 62
7
  6
CONTINUOUS
 90
10
 70
0
 10
30.7515471935
 20
56.1670428379
 10
30.7363397732
 20
56.1588312679
 10
30.7201658953
 20
56.1512041716
 10
30.7030911156
 20
56.1442036317
 10
30.6851540497
 20
56.1378606535
 10
30.6664620099
 20
56.1322239319
 10
30.6472021614
 20
56.1273462388
 10
30.6275051571
 20
56.1232509275
 10
30.6074332577
 20
56.1199452283
 10
30.5870836969
 20
56.1174398992
  0
LINE
  5
28A
100
AcDbEntity
  8
DRAFT
100
AcDbLine
 62
7
  6
CONTINUOUS
 10
26.199148828
 20
57.9294111987
 11
26.4513985552
 21
58.0650629388
  0
LWPOLYLINE
  5
28B
100
AcDbEntity
  8
RACCORDO
100
AcDbPolyline
 62
7
  6
CONTINUOUS
 90
5
 70
0
 10
30.2530300501
 20
56.0850479173
 10
30.2719438569
 20
56.0951316687
 10
30.2905628877
 20
56.102293732
 10
30.3102541514
 20
56.1073381917
 10
30.331017648
 20
56.1102650479
  0
LWPOLYLINE
  5
28C
100
AcDbEntity
  8
0
100
AcDbPolyline
 62
7
  6
CONTINUOUS
 90
3
 70
0
 10
29.6596859426
 20
52.2843437433
 10
29.4817525031
 20
52.2146845607
 10
29.4410405097
 20
52.1927486283
  0
LWPOLYLINE
  5
28D
100
AcDbEntity
  8
RACCORDO
100
AcDbPolyline
 62
7
  6
CONTINUOUS
 90
3
 70
0
 10
30.5717730274
 20
50.2597148896
 10
30.5845703087
 20
50.2637684246
 10
30.591723184
 20
50.2668847957
  0
LWPOLYLINE
  5
28E
100
AcDbEntity
  8
RACCORDO
100
AcDbPolyline
 62
253
  6
CONTINUOUS
 90
12
 70
0
 10
29.9443780258
 20
-9.5986355147
 10
29.9178657306
 20
-9.58506124
 10
29.891551361
 20
-9.5738224296
 10
29.8655737384
 20
-9.5649718082
 10
29.8400705145
 20
-9.5585617954
 10
29.8151798366
 20
-9.554628227
 10
29.791039827
 20
-9.5531840266
 10
29.7677862301
 20
-9.5542418881
 10
29.7455494854
 20
-9.5578043136
 10
29.7244492076
 20
-9.5638419716
 10
29.7046019528
 20
-9.5723206779
 10
29.6922142529
 20
-9.5792553922
  0
LWPOLYLINE
  5
28F
100
AcDbEntity
  8
RACCORDO
100
AcDbPolyline
 62
253
  6
CONTINUOUS
 90
22
 70
0
 10
29.7380212805
 20
-9.9650690241
 10
29.7274305355
 20
-9.9595450848
 10
29.7170179342
 20
-9.9549993512
 10
29.7067834765
 20
-9.9514318234
 10
29.6966719995
 20
-9.948833497
 10
29.6867386662
 20
-9.9472133764
 10
29.6771489652
 20
-9.9465984747
 10
29.66790947
 20
-9.9470056103
 10
29.6590136071
 20
-9.9484179649
 10
29.6506071441
 20
-9.9508120959
 10
29.6426981532
 20
-9.9542041669
 10
29.6352785622
 20
-9.9585780143
 10
29.6284699222
 20
-9.963861705
 10
29.6222823651
 20
-9.9700702701
 10
29.6167057591
 20
-9.9771886785
 10
29.6118312593
 20
-9.9850999035
 10
29.6076701856
 20
-9.9938201957
 10
29.6042112182
 20
-10.0033333044
 10
29.6015115528
 20
-10.0134734514
 10
29.5995902547
 20
-10.0241853772
 10
29.5984282587
 20
-10.0355243412
 10
29.5980255647
 20
-10.0474903435
  0
LINE
  5
290
100
AcDbEntity
  8
0
100
AcDbLine
 62
7
  6
CONTINUOUS
 10
31.0881318525
 20
-13.1201087071
 11
30.9732023078
 21
-13.0576175655
  0
LWPOLYLINE
  5
291
100
AcDbEntity
  8
RACCORDO
100
AcDbPolyline
 62
7
  6
CONTINUOUS
 90
5
 70
0
 10
30.8415332813
 20
-14.3004546772
 10
30.8222081441
 20
-14.2897039423
 10
30.8029102631
 20
-14.2793757944
 10
30.783647034
 20
-14.2694734801
 10
30.7644255088
 20
-14.2599998805
  0
LWPOLYLINE
  5
292
100
AcDbEntity
  8
RACCORDO
100
AcDbPolyline
 62
253
  6
CONTINUOUS
 90
3
 70
0
 10
30.8108055398
 20
-14.2662284193
 10
30.830824414
 20
-14.2773646981
 10
30.8508482751
 20
-14.2889262379
  0
LINE
  5
293
100
AcDbEntity
  8
0
100
AcDbLine
 62
7
  6
CONTINUOUS
 10
31.4363288655
 20
-13.3211144432
 11
31.0881318525
 21
-13.1201087071
  0
LWPOLYLINE
  5
294
100
AcDbEntity
  8
DRAFT
100
AcDbPolyline
 62
7
  6
CONTINUOUS
 90
16
 70
0
 10
-25.895929136
 20
18.6395464294
 10
-25.9620826888
 20
18.677882115
 10
-26.0667753017
 20
18.7455929244
 10
-26.1645740272
 20
18.8162837982
 10
-26.2553922499
 20
18.8899624451
 10
-26.3393165851
 20
18.9666211565
 10
-26.415622676
 20
19.0455995939
 10
-26.4842620917
 20
19.1269423413
 10
-26.5452832631
 20
19.2106048147
 10
-26.5981071258
 20
19.295792924
 10
-26.6426446359
 20
19.3824937848
 10
-26.6789848372
 20
19.4707202816
 10
-26.706815797
 20
19.5597169775
 10
-26.7260678009
 20
19.6495194636
 10
-26.7368105633
 20
19.7400921489
 10
-26.7392215634
 20
19.8071899054
  0
LINE
  5
295
100
AcDbEntity
  8
RACCORDO
100
AcDbLine
 62
253
  6
CONTINUOUS
 10
30.8126401217
 20
-12.8119799654
 11
30.9368258405
 21
-12.885778273
  0
LWPOLYLINE
  5
296
100
AcDbEntity
  8
RACCORDO
100
AcDbPolyline
 62
253
  6
CONTINUOUS
 90
5
 70
0
 10
30.8508482751
 20
-14.2889262379
 10
30.8708670447
 20
-14.3009072093
 10
30.8908773633
 20
-14.313305669
 10
30.9108825904
 20
-14.3261235603
 10
30.9308827259
 20
-14.3393608831
  0
LWPOLYLINE
  5
297
100
AcDbEntity
  8
RACCORDO
100
AcDbPolyline
 62
253
  6
CONTINUOUS
 90
10
 70
0
 10
29.7479950898
 20
-14.8142656575
 10
29.7523247909
 20
-14.8168787018
 10
29.7570740616
 20
-14.8191803487
 10
29.7621786764
 20
-14.8211394723
 10
29.7675696039
 20
-14.8227295787
 10
29.7731739412
 20
-14.8239291642
 10
29.7789158991
 20
-14.8247220063
 10
29.7847178273
 20
-14.8250973832
 10
29.7905012645
 20
-14.8250502184
 10
29.7961879995
 20
-14.8245811496
  0
LWPOLYLINE
  5
298
100
AcDbEntity
  8
RACCORDO
100
AcDbPolyline
 62
7
  6
CONTINUOUS
 90
4
 70
0
 10
30.8996063556
 20
-14.3352120556
 10
30.8802388168
 20
-14.3232118019
 10
30.8608788799
 20
-14.3116249071
 10
30.8415332813
 20
-14.3004546772
  0
LINE
  5
299
100
AcDbEntity
  8
RACCORDO
100
AcDbLine
 62
253
  6
CONTINUOUS
 10
30.9368258405
 20
-12.885778273
 11
31.061090229
 21
-12.9671792759
  0
LWPOLYLINE
  5
29A
100
AcDbEntity
  8
RACCORDO
100
AcDbPolyline
 62
7
  6
CONTINUOUS
 90
3
 70
0
 10
30.9383349118
 20
-14.3604371081
 10
30.9189740856
 20
-14.3476217816
 10
30.8996063556
 20
-14.3352120556
  0
LWPOLYLINE
  5
29B
100
AcDbEntity
  8
RACCORDO
100
AcDbPolyline
 62
253
  6
CONTINUOUS
 90
10
 70
0
 10
30.5672528941
 20
-14.9761655211
 10
30.5736014242
 20
-14.9804417308
 10
30.5807736708
 20
-14.9840168117
 10
30.588565961
 20
-14.9867892409
 10
30.5967570146
 20
-14.9886802889
 10
30.6051142273
 20
-14.9896362548
 10
30.6134002763
 20
-14.9896299917
 10
30.62137986
 20
-14.9886616776
 10
30.6288263792
 20
-14.9867588099
 10
30.6355283726
 20
-14.9839754252
  0
LWPOLYLINE
  5
29C
100
AcDbEntity
  8
RACCORDO
100
AcDbPolyline
 62
253
  6
CONTINUOUS
 90
10
 70
0
 10
30.6847040861
 20
-14.2748604918
 10
30.6910525813
 20
-14.2791366811
 10
30.6982247958
 20
-14.2827117538
 10
30.7060170625
 20
-14.2854841849
 10
30.7142081056
 20
-14.2873752418
 10
30.722565322
 20
-14.2883312196
 10
30.7308513857
 20
-14.2883249671
 10
30.738830992
 20
-14.2873566592
 10
30.7462775402
 20
-14.2854537908
 10
30.7529795646
 20
-14.2826703958
  0
LWPOLYLINE
  5
29D
100
AcDbEntity
  8
RACCORDO
100
AcDbPolyline
 62
253
  6
CONTINUOUS
 90
22
 70
0
 10
30.7507889204
 20
-16.7591032398
 10
30.7472818962
 20
-16.7566537155
 10
30.743735628
 20
-16.7539073708
 10
30.7401501158
 20
-16.7508642057
 10
30.7365123809
 20
-16.7475295199
 10
30.7328354019
 20
-16.7438980135
 10
30.7291581145
 20
-16.739953788
 10
30.7254775863
 20
-16.7356940521
 10
30.7217967496
 20
-16.731121597
 10
30.7181633373
 20
-16.7262288966
 10
30.7145772002
 20
-16.7210216232
 10
30.7110384874
 20
-16.7154941045
 10
30.7075953788
 20
-16.7096217988
 10
30.7042322646
 20
-16.7033836234
 10
30.7009647546
 20
-16.6968006609
 10
30.6978878588
 20
-16.6899116173
 10
30.694993074
 20
-16.6826894126
 10
30.6922889035
 20
-16.6751611267
 10
30.6898958671
 20
-16.6674467062
 10
30.6878541381
 20
-16.6595861331
 10
30.6861235432
 20
-16.6515394253
 10
30.6847040824
 20
-16.6433065828
  0
LINE
  5
29E
100
AcDbEntity
  8
RACCORDO
100
AcDbLine
 62
253
  6
CONTINUOUS
 10
30.9308827259
 20
-14.3393608831
 11
30.9343897493
 21
-14.3418104088
  0
LWPOLYLINE
  5
29F
100
AcDbEntity
  8
RACCORDO
100
AcDbPolyline
 62
253
  6
CONTINUOUS
 90
10
 70
0
 10
29.7979562033
 20
-19.9959384574
 10
29.7852821005
 20
-19.9870643284
 10
29.7743908398
 20
-19.9766618929
 10
29.7648077953
 20
-19.9644788921
 10
29.7566042896
 20
-19.9506060037
 10
29.7498413734
 20
-19.9351464758
 10
29.7445693759
 20
-19.9182153593
 10
29.7408275342
 20
-19.8999386607
 10
29.7386436985
 20
-19.8804524066
 10
29.7380341227
 20
-19.8599016234
  0
LWPOLYLINE
  5
2A0
100
AcDbEntity
  8
RACCORDO
100
AcDbPolyline
 62
253
  6
CONTINUOUS
 90
5
 70
0
 10
29.349765055
 20
53.2506843589
 10
29.3313899262
 20
53.2378727203
 10
29.3138541308
 20
53.2251712743
 10
29.2970907529
 20
53.2125399956
 10
29.2811063378
 20
53.1999631567
  0
LWPOLYLINE
  5
2A1
100
AcDbEntity
  8
RACCORDO
100
AcDbPolyline
 62
7
  6
CONTINUOUS
 90
13
 70
0
 10
29.6922386064
 20
55.7383818044
 10
29.6701130438
 20
55.7235799977
 10
29.6448913519
 20
55.7036165016
 10
29.6210770799
 20
55.6810978258
 10
29.5989561657
 20
55.6561003543
 10
29.5788148538
 20
55.6287527985
 10
29.5609036337
 20
55.5992203873
 10
29.5454142308
 20
55.5676302877
 10
29.5325695923
 20
55.5342300675
 10
29.5225519479
 20
55.4993336997
 10
29.5154429473
 20
55.4631400987
 10
29.5113017242
 20
55.4257775406
 10
29.510161581
 20
55.3926421663
  0
LWPOLYLINE
  5
2A2
100
AcDbEntity
  8
RACCORDO
100
AcDbPolyline
 62
253
  6
CONTINUOUS
 90
19
 70
0
 10
29.9443779785
 20
55.7189886211
 10
29.9261218033
 20
55.7071554073
 10
29.9080445792
 20
55.6935945886
 10
29.8902808467
 20
55.6784070919
 10
29.8729628135
 20
55.661705951
 10
29.8562193696
 20
55.6436154647
 10
29.840175129
 20
55.6242702725
 10
29.8249495005
 20
55.6038143503
 10
29.8106558028
 20
55.5823999436
 10
29.7974004202
 20
55.5601864352
 10
29.7852820046
 20
55.537339148
 10
29.7743907484
 20
55.5140281267
 10
29.7648077147
 20
55.4904268786
 10
29.7566042263
 20
55.46671107
 10
29.7498413288
 20
55.4430571931
 10
29.7445693465
 20
55.4196412667
 10
29.7408275165
 20
55.3966375559
 10
29.7386436908
 20
55.3742172749
 10
29.7380341237
 20
55.3525472874
  0
LWPOLYLINE
  5
2A3
100
AcDbEntity
  8
RACCORDO
100
AcDbPolyline
 62
253
  6
CONTINUOUS
 90
5
 70
0
 10
29.4234895856
 20
53.2987068363
 10
29.4087269182
 20
53.2894530861
 10
29.388581161
 20
53.2765209948
 10
29.3689023475
 20
53.2635910418
 10
29.349765055
 20
53.2506843589
  0
LWPOLYLINE
  5
2A4
100
AcDbEntity
  8
RACCORDO
100
AcDbPolyline
 62
7
  6
CONTINUOUS
 90
5
 70
0
 10
28.9151002179
 20
53.0494306069
 10
28.8893396563
 20
53.0333819476
 10
28.8307705044
 20
52.9935693809
 10
28.7741624452
 20
52.950331629
 10
28.7195154787
 20
52.9036686918
  0
LINE
  5
2A5
100
AcDbEntity
  8
RACCORDO
100
AcDbLine
 62
253
  6
CONTINUOUS
 10
29.9443779747
 20
55.7189886233
 11
30.5870836969
 21
56.1174398992
  0
LINE
  5
2A6
100
AcDbEntity
  8
RACCORDO
100
AcDbLine
 62
7
  6
CONTINUOUS
 10
30.25302525
 20
56.0850560456
 11
29.6920908828
 21
55.7382920127
  0
LINE
  5
2A7
100
AcDbEntity
  8
DRAFT
100
AcDbLine
 62
7
  6
CONTINUOUS
 10
29.4757451975
 20
53.3893148833
 11
28.9151032308
 21
53.0494254742
  0
LWPOLYLINE
  5
2A8
100
AcDbEntity
  8
RACCORDO
100
AcDbPolyline
 62
253
  6
CONTINUOUS
 90
19
 70
0
 10
32.3385192224
 20
53.5715614959
 10
32.319672953
 20
53.5602575496
 10
32.3001696266
 20
53.5479758545
 10
32.2801543981
 20
53.5348078179
 10
32.2597762318
 20
53.5208514437
 10
32.2391867933
 20
53.5062106029
 10
32.2185393208
 20
53.4909942608
 10
32.1979874821
 20
53.4753156641
 10
32.1776842376
 20
53.4592915032
 10
32.1577807015
 20
53.4430410441
 10
32.1384250034
 20
53.4266852292
 10
32.1197612019
 20
53.41034579
 10
32.1019282163
 20
53.3941443464
 10
32.0850587786
 20
53.3782014896
 10
32.0692784224
 20
53.3626358607
 10
32.0547045679
 20
53.3475632832
 10
32.0414456762
 20
53.3330959283
 10
32.0296004358
 20
53.3193414776
 10
32.0192570066
 20
53.3064022996
  0
LINE
  5
2A9
100
AcDbEntity
  8
DRAFT
100
AcDbLine
 62
7
  6
CONTINUOUS
 10
32.7997523984
 20
57.3496234306
 11
31.6186532815
 21
56.6677256892
  0
LINE
  5
2AA
100
AcDbEntity
  8
RACCORDO
100
AcDbLine
 62
7
  6
CONTINUOUS
 10
31.6186532815
 20
56.6677256892
 11
30.7515471935
 21
56.1670428379
  0
LINE
  5
2AB
100
AcDbEntity
  8
0
100
AcDbLine
 62
7
  6
CONTINUOUS
 10
29.6882555472
 20
52.3361182653
 11
29.4407681738
 21
52.1932221576
  0
LINE
  5
2AC
100
AcDbEntity
  8
RACCORDO
100
AcDbLine
 62
253
  6
CONTINUOUS
 10
32.6506600202
 20
51.465409947
 11
33.2295203235
 21
51.7948780492
  0
LINE
  5
2AD
100
AcDbEntity
  8
RACCORDO
100
AcDbLine
 62
253
  6
CONTINUOUS
 10
33.0928638417
 20
53.4590862279
 11
32.507298341
 21
53.1260982171
  0
LINE
  5
2AE
100
AcDbEntity
  8
RACCORDO
100
AcDbLine
 62
253
  6
CONTINUOUS
 10
32.507298341
 20
51.8764103073
 11
33.0866246787
 21
52.2052108474
  0
LINE
  5
2AF
100
AcDbEntity
  8
RACCORDO
100
AcDbLine
 62
253
  6
CONTINUOUS
 10
33.1304647576
 20
54.0208846403
 11
32.3385192151
 21
53.5715615055
  0
LWPOLYLINE
  5
2B0
100
AcDbEntity
  8
RACCORDO
100
AcDbPolyline
 62
253
  6
CONTINUOUS
 90
8
 70
0
 10
30.5916694696
 20
50.2668465973
 10
30.5944826164
 20
50.2682952544
 10
30.6047270961
 20
50.2751808503
 10
30.6138236278
 20
50.2840602157
 10
30.6214719606
 20
50.2945948829
 10
30.627603647
 20
50.3064707352
 10
30.6322834103
 20
50.3195575402
 10
30.6355283726
 20
50.3336467183
  0
LWPOLYLINE
  5
2B1
100
AcDbEntity
  8
RACCORDO
100
AcDbPolyline
 62
253
  6
CONTINUOUS
 90
19
 70
0
 10
32.507298341
 20
53.1260982144
 10
32.4879228499
 20
53.1161909737
 10
32.4671405479
 20
53.1072848235
 10
32.4451061092
 20
53.0994460484
 10
32.4219835265
 20
53.0927329891
 10
32.3979448916
 20
53.0871956081
 10
32.3731691136
 20
53.0828751177
 10
32.3478405839
 20
53.0798036733
 10
32.3221478162
 20
53.0780041351
 10
32.2962820439
 20
53.0774898962
 10
32.2704357682
 20
53.0782647824
 10
32.2448013584
 20
53.0803230249
 10
32.2195696316
 20
53.0836492982
 10
32.1949284031
 20
53.0882188333
 10
32.17106103
 20
53.0939976182
 10
32.1481450859
 20
53.1009426562
 10
32.1263511072
 20
53.1090022681
 10
32.1058413162
 20
53.1181164672
 10
32.0867683597
 20
53.1282174229
  0
LWPOLYLINE
  5
2B2
100
AcDbEntity
  8
RACCORDO
100
AcDbPolyline
 62
253
  6
CONTINUOUS
 90
19
 70
0
 10
32.507298341
 20
51.8764103068
 10
32.4879232608
 20
51.8665032611
 10
32.4671413941
 20
51.8575972515
 10
32.4451074
 20
51.8497585635
 10
32.421985266
 20
51.8430455419
 10
32.3979470627
 20
51.8375081491
 10
32.3731716604
 20
51.8331875974
 10
32.3478434389
 20
51.8301160509
 10
32.3221509017
 20
51.8283163792
 10
32.2962852459
 20
51.8278019861
 10
32.270438962
 20
51.8285767127
 10
32.244804428
 20
51.8306348057
 10
32.2195724598
 20
51.8339609555
 10
32.1949306071
 20
51.838530467
 10
32.1710625372
 20
51.8443093107
 10
32.1481466044
 20
51.8512542472
 10
32.1263534896
 20
51.8593133994
 10
32.1058450226
 20
51.868426764
 10
32.0867736958
 20
51.8785264353
  0
LINE
  5
2B3
100
AcDbEntity
  8
RACCORDO
100
AcDbLine
 62
253
  6
CONTINUOUS
 10
31.032323893
 20
50.5230895698
 11
30.6355283726
 21
50.3336467183
  0
LINE
  5
2B4
100
AcDbEntity
  8
RACCORDO
100
AcDbLine
 62
7
  6
CONTINUOUS
 10
31.0383557925
 20
50.4801074078
 11
30.5912855421
 21
50.2666617948
  0
LWPOLYLINE
  5
2B5
100
AcDbEntity
  8
RACCORDO
100
AcDbPolyline
 62
7
  6
CONTINUOUS
 90
9
 70
0
 10
32.6459013104
 20
46.4564546332
 10
32.683192168
 20
46.4683096164
 10
32.7200084232
 20
46.4810644481
 10
32.7563308366
 20
46.4947073145
 10
32.7921581003
 20
46.5092324417
 10
32.8275056217
 20
46.5246422256
 10
32.862370745
 20
46.5409331104
 10
32.8967339794
 20
46.5580934635
 10
32.9305846721
 20
46.5761149009
  0
LWPOLYLINE
  5
2B6
100
AcDbEntity
  8
RACCORDO
100
AcDbPolyline
 62
253
  6
CONTINUOUS
 90
31
 70
0
 10
33.0866246787
 20
45.3561916288
 10
33.2302786667
 20
45.3993637942
 10
33.3687813703
 20
45.4518426414
 10
33.5021327895
 20
45.5136281704
 10
33.6305492059
 20
45.5848614411
 10
33.7538143379
 20
45.6654013937
 10
33.8712793402
 20
45.7548248487
 10
33.9829132831
 20
45.8531790901
 10
34.0887470963
 20
45.9604168341
 10
34.1882247236
 20
46.0759730492
 10
34.2813117368
 20
46.1998903705
 10
34.3680425641
 20
46.3321261629
 10
34.4479644333
 20
46.4719874905
 10
34.5210418814
 20
46.6195142099
 10
34.5873103716
 20
46.7746664644
 10
34.6464235209
 20
46.936631748
 10
34.6983439994
 20
47.1054461342
 10
34.7431091372
 20
47.2810735495
 10
34.7804845419
 20
47.4625932677
 10
34.8104313952
 20
47.6500363993
 10
34.8329885154
 20
47.8433718338
 10
34.8480379653
 20
48.0415855133
 10
34.8555402805
 20
48.2447028117
 10
34.8555349254
 20
48.4526983551
 10
34.8480223556
 20
48.6644819637
 10
34.8329633303
 20
48.8800728539
 10
34.8103970904
 20
49.0994518095
 10
34.7804418136
 20
49.321471001
 10
34.7430589419
 20
49.5461442803
 10
34.6982870333
 20
49.7734577955
 10
34.6463599406
 20
50.002222163
  0
LINE
  5
2B7
100
AcDbEntity
  8
RACCORDO
100
AcDbLine
 62
7
  6
CONTINUOUS
 10
32.6081464954
 20
46.4455075168
 11
32.6459013104
 21
46.4564546332
  0
LINE
  5
2B8
100
AcDbEntity
  8
DRAFT
100
AcDbLine
 62
7
  6
CONTINUOUS
 10
26.199148828
 20
16.7384857345
 11
24.8347079646
 21
16.4384271487
  0
LINE
  5
2B9
100
AcDbEntity
  8
RACCORDO
100
AcDbLine
 62
7
  6
CONTINUOUS
 10
24.6660703735
 20
-3.1584256704
 11
24.8400387023
 21
-3.2588728031
  0
LINE
  5
2BA
100
AcDbEntity
  8
RACCORDO
100
AcDbLine
 62
253
  6
CONTINUOUS
 10
24.6660703735
 20
-3.0907916802
 11
24.7978992499
 21
-3.1669080212
  0
LINE
  5
2BB
100
AcDbEntity
  8
RACCORDO
100
AcDbLine
 62
253
  6
CONTINUOUS
 10
24.7978992499
 20
-2.8281419456
 11
24.6660703735
 21
-2.7520256046
  0
LINE
  5
2BC
100
AcDbEntity
  8
RACCORDO
100
AcDbLine
 62
253
  6
CONTINUOUS
 10
24.9392779005
 20
-2.5860433341
 11
24.7825722633
 21
-2.4955634631
  0
LINE
  5
2BD
100
AcDbEntity
  8
RACCORDO
100
AcDbLine
 62
253
  6
CONTINUOUS
 10
31.061090229
 20
-12.9671792759
 11
31.1844005226
 21
-13.0555065856
  0
LWPOLYLINE
  5
2BE
100
AcDbEntity
  8
RACCORDO
100
AcDbPolyline
 62
7
  6
CONTINUOUS
 90
5
 70
0
 10
30.9384321369
 20
-14.3605018506
 10
30.9408480312
 20
-14.3622514915
 10
30.9464847766
 20
-14.3671565412
 10
30.9527977357
 20
-14.3739522495
 10
30.9592696049
 20
-14.3824319975
  0
LWPOLYLINE
  5
2BF
100
AcDbEntity
  8
RACCORDO
100
AcDbPolyline
 62
253
  6
CONTINUOUS
 90
9
 70
0
 10
31.9336765592
 20
-16.2841984597
 10
31.9298249746
 20
-16.2813093593
 10
31.9265035956
 20
-16.2781832677
 10
31.9237573383
 20
-16.2748624598
 10
31.9216233413
 20
-16.2713918437
 10
31.9201304635
 20
-16.2678183537
 10
31.9192988939
 20
-16.264190315
 10
31.9191398781
 20
-16.2605567908
 10
31.9191697814
 20
-16.2600736338
  0
LWPOLYLINE
  5
2C0
100
AcDbEntity
  8
RACCORDO
100
AcDbPolyline
 62
253
  6
CONTINUOUS
 90
15
 70
0
 10
30.9343897493
 20
-14.3418104088
 10
30.9379360169
 20
-14.3445567542
 10
30.9415215286
 20
-14.3475999193
 10
30.945159263
 20
-14.3509346043
 10
30.9488362415
 20
-14.354566109
 10
30.9525135286
 20
-14.358510333
 10
30.9561940566
 20
-14.3627700674
 10
30.9598748932
 20
-14.367342521
 10
30.9635083054
 20
-14.3722352197
 10
30.9670944425
 20
-14.3774424915
 10
30.9706331553
 20
-14.3829700084
 10
30.9740762638
 20
-14.3888423121
 10
30.9774393778
 20
-14.3950804852
 10
30.9807068875
 20
-14.401663445
 10
30.983783783
 20
-14.4085524859
  0
LWPOLYLINE
  5
2C1
100
AcDbEntity
  8
RACCORDO
100
AcDbPolyline
 62
253
  6
CONTINUOUS
 90
3
 70
0
 10
31.1844005226
 20
-13.0555065856
 10
31.3067487809
 20
-13.1508179791
 10
31.4281429443
 20
-13.2530556794
  0
LINE
  5
2C2
100
AcDbEntity
  8
RACCORDO
100
AcDbLine
 62
253
  6
CONTINUOUS
 10
30.4813343387
 20
-15.6575565845
 11
29.8152355289
 21
-15.1373428945
  0
LINE
  5
2C3
100
AcDbEntity
  8
RACCORDO
100
AcDbLine
 62
253
  6
CONTINUOUS
 10
30.5209702986
 20
-15.6016029601
 11
29.8548714883
 21
-15.0813892696
  0
LINE
  5
2C4
100
AcDbEntity
  8
RACCORDO
100
AcDbLine
 62
7
  6
CONTINUOUS
 10
31.2049169091
 20
-15.4599000721
 11
31.8710157133
 21
-15.9801137578
  0
LINE
  5
2C5
100
AcDbEntity
  8
RACCORDO
100
AcDbLine
 62
253
  6
CONTINUOUS
 10
31.2003373058
 20
-15.4409075321
 11
31.8664361097
 21
-15.9611212176
  0
LWPOLYLINE
  5
2C6
100
AcDbEntity
  8
RACCORDO
100
AcDbPolyline
 62
7
  6
CONTINUOUS
 90
4
 70
0
 10
31.871221736
 20
-15.9802708389
 10
31.8740317413
 20
-15.9825513152
 10
31.8839879982
 20
-15.9918552985
 10
31.8930241069
 20
-16.0021552577
  0
LINE
  5
2C7
100
AcDbEntity
  8
RACCORDO
100
AcDbLine
 62
7
  6
CONTINUOUS
 10
31.1974103451
 20
-15.4537821558
 11
31.2049628742
 21
-15.4599339824
  0
LWPOLYLINE
  5
2C8
100
AcDbEntity
  8
RACCORDO
100
AcDbPolyline
 62
253
  6
CONTINUOUS
 90
19
 70
0
 10
29.8152355289
 20
-15.1373428945
 10
29.8082820357
 20
-15.1315256477
 10
29.8016876569
 20
-15.1254881439
 10
29.7954523925
 20
-15.1192303831
 10
29.7895631333
 20
-15.1126984249
 10
29.7840329885
 20
-15.1059462097
 10
29.7789012858
 20
-15.0991355581
 10
29.7741728693
 20
-15.0922627125
 10
29.7698428947
 20
-15.0853314304
 10
29.7659361579
 20
-15.0785148047
 10
29.7624810877
 20
-15.0718686321
 10
29.7594492552
 20
-15.0653371158
 10
29.7567801692
 20
-15.0589259595
 10
29.7544635642
 20
-15.0526661237
 10
29.7525097058
 20
-15.0465266478
 10
29.750888899
 20
-15.0404203531
 10
29.7495912454
 20
-15.03431818
 10
29.7486266433
 20
-15.0282491882
 10
29.7479950928
 20
-15.0222133775
  0
LWPOLYLINE
  5
2C9
100
AcDbEntity
  8
RACCORDO
100
AcDbPolyline
 62
253
  6
CONTINUOUS
 90
11
 70
0
 10
31.8664361097
 20
-15.9611212176
 10
31.8733896038
 20
-15.9669384649
 10
31.8799839835
 20
-15.9729759692
 10
31.8862192488
 20
-15.9792337306
 10
31.8921085089
 20
-15.9857656892
 10
31.8976386546
 20
-15.9925179048
 10
31.9027703583
 20
-15.9993285571
 10
31.9074987761
 20
-16.0062014037
 10
31.911828752
 20
-16.0131326869
 10
31.9157354901
 20
-16.0199493138
 10
31.9191905615
 20
-16.0265954882
  0
LWPOLYLINE
  5
2CA
100
AcDbEntity
  8
RACCORDO
100
AcDbPolyline
 62
253
  6
CONTINUOUS
 90
22
 70
0
 10
30.770980965
 20
-16.7151133608
 10
30.7693711073
 20
-16.7137027607
 10
30.767784257
 20
-16.7120778034
 10
30.7662233242
 20
-16.7102376083
 10
30.7646886098
 20
-16.708187807
 10
30.7631878517
 20
-16.7059224877
 10
30.7617361962
 20
-16.7034240475
 10
30.7603411386
 20
-16.7006936021
 10
30.7590080908
 20
-16.6977329535
 10
30.7577503873
 20
-16.6945260499
 10
30.7565797651
 20
-16.6910822973
 10
30.7555033061
 20
-16.6873993458
 10
30.7545297329
 20
-16.6834437459
 10
30.7536727103
 20
-16.6792105679
 10
30.7529472942
 20
-16.6747167975
 10
30.7523679022
 20
-16.6699631083
 10
30.7519584697
 20
-16.6649452945
 10
30.7517353081
 20
-16.6596892096
 10
30.7517037193
 20
-16.6542430491
 10
30.7518811397
 20
-16.6486334521
 10
30.752297855
 20
-16.64286564
 10
30.7529795608
 20
-16.6369580595
  0
LWPOLYLINE
  5
2CB
100
AcDbEntity
  8
RACCORDO
100
AcDbPolyline
 62
253
  6
CONTINUOUS
 90
7
 70
0
 10
30.9969675594
 20
-16.8236036187
 10
30.9916230518
 20
-16.8187477395
 10
30.9874342952
 20
-16.8134500556
 10
30.9845202433
 20
-16.8078610045
 10
30.9829636523
 20
-16.802139298
 10
30.9828087314
 20
-16.7964474176
 10
30.9829979297
 20
-16.7950020271
  0
LWPOLYLINE
  5
2CC
100
AcDbEntity
  8
RACCORDO
100
AcDbPolyline
 62
253
  6
CONTINUOUS
 90
7
 70
0
 10
31.1144187503
 20
-16.1222985955
 10
31.1090742181
 20
-16.1174426899
 10
31.1048854544
 20
-16.1121449835
 10
31.1019714089
 20
-16.1065559169
 10
31.1004148329
 20
-16.1008342048
 10
31.1002599288
 20
-16.0951423287
 10
31.100460874
 20
-16.0936261257
  0
LWPOLYLINE
  5
2CD
100
AcDbEntity
  8
RACCORDO
100
AcDbPolyline
 62
7
  6
CONTINUOUS
 90
3
 70
0
 10
31.1476301276
 20
49.3031756221
 10
31.1417242937
 20
49.2988009579
 10
31.131966232
 20
49.2898978382
  0
LINE
  5
2CE
100
AcDbEntity
  8
RACCORDO
100
AcDbLine
 62
7
  6
CONTINUOUS
 10
31.5559176335
 20
49.5835955012
 11
31.1475665869
 21
49.3031337254
  0
LINE
  5
2CF
100
AcDbEntity
  8
RACCORDO
100
AcDbLine
 62
253
  6
CONTINUOUS
 10
31.5901338327
 20
49.5568731366
 11
31.227711313
 21
49.3079557792
  0
LWPOLYLINE
  5
2D0
100
AcDbEntity
  8
0
100
AcDbPolyline
 62
7
  6
CONTINUOUS
 90
7
 70
0
 10
29.4410405097
 20
52.1927486283
 10
29.324145205
 20
52.1135957762
 10
29.1876812592
 20
51.979813765
 10
29.0715434548
 20
51.8146021518
 10
28.9803393539
 20
51.6245154155
 10
28.9156048107
 20
51.4117383823
 10
28.875803971
 20
51.1740862259
  0
LWPOLYLINE
  5
2D1
100
AcDbEntity
  8
RACCORDO
100
AcDbPolyline
 62
253
  6
CONTINUOUS
 90
19
 70
0
 10
32.65066002
 20
51.4654099474
 10
32.6317343371
 20
51.4542142238
 10
32.6120386878
 20
51.4421938528
 10
32.5917196519
 20
51.4294382917
 10
32.5709284549
 20
51.4160424737
 10
32.5498198266
 20
51.4021060906
 10
32.5285508485
 20
51.3877328495
 10
32.5072798105
 20
51.3730297187
 10
32.4861650242
 20
51.3581061255
 10
32.4653636275
 20
51.3430731306
 10
32.4450304297
 20
51.3280426108
 10
32.4253167738
 20
51.313126438
 10
32.4063693986
 20
51.298435639
 10
32.3883293232
 20
51.2840795505
 10
32.3713308207
 20
51.2701650239
 10
32.3555004284
 20
51.2567956381
 10
32.3409559733
 20
51.2440709023
 10
32.3278056996
 20
51.2320855179
 10
32.316147482
 20
51.2209286887
  0
LINE
  5
2D2
100
AcDbEntity
  8
RACCORDO
100
AcDbLine
 62
253
  6
CONTINUOUS
 10
31.0952813972
 20
50.0476164399
 11
30.5209702986
 21
49.7160191833
  0
LINE
  5
2D3
100
AcDbEntity
  8
RACCORDO
100
AcDbLine
 62
253
  6
CONTINUOUS
 10
31.2098594272
 20
49.8492075579
 11
30.6355283726
 21
49.517598779
  0
LINE
  5
2D4
100
AcDbEntity
  8
0
100
AcDbLine
 62
7
  6
CONTINUOUS
 10
32.488390844
 20
47.4864541203
 11
32.2409034706
 21
47.3435580126
  0
LINE
  5
2D5
100
AcDbEntity
  8
DRAFT
100
AcDbLine
 62
7
  6
CONTINUOUS
 10
33.5069131048
 20
46.8926508634
 11
32.9305846721
 21
46.5761149009
  0
LINE
  5
2D6
100
AcDbEntity
  8
DRAFT
100
AcDbLine
 62
7
  6
CONTINUOUS
 10
34.7790716792
 20
45.877462287
 11
33.9164527023
 21
45.4036874173
  0
LINE
  5
2D7
100
AcDbEntity
  8
RACCORDO
100
AcDbLine
 62
253
  6
CONTINUOUS
 10
33.0866246787
 20
46.5345968547
 11
32.507298341
 21
46.2173597806
  0
LINE
  5
2D8
100
AcDbEntity
  8
RACCORDO
100
AcDbLine
 62
253
  6
CONTINUOUS
 10
32.507298341
 20
44.9676718741
 11
33.0928638417
 21
45.2876790968
  0
LINE
  5
2D9
100
AcDbEntity
  8
RACCORDO
100
AcDbLine
 62
7
  6
CONTINUOUS
 10
32.3999911904
 20
44.7367184888
 11
33.1336133237
 21
45.1376392057
  0
LWPOLYLINE
  5
2DA
100
AcDbEntity
  8
0
100
AcDbPolyline
 62
7
  6
CONTINUOUS
 90
22
 70
0
 10
32.2406311348
 20
47.344031542
 10
32.1999191413
 20
47.3220956095
 10
32.0219857019
 20
47.2524364269
 10
31.8307853159
 20
47.2169704513
 10
31.6257845868
 20
47.2170724178
 10
31.4075169112
 20
47.2513675912
 10
31.1846416733
 20
47.3184953713
 10
30.9569736267
 20
47.4197757902
 10
30.7246980178
 20
47.5538888156
 10
30.4970299711
 20
47.7155137503
 10
30.2741547333
 20
47.9057567084
 10
30.0558870576
 20
48.1235115757
 10
29.8508863286
 20
48.3601393126
 10
29.6596859426
 20
48.6163987014
 10
29.4817525031
 20
48.8915309598
 10
29.324145205
 20
49.1746207016
 10
29.1876812592
 20
49.4659878568
 10
29.0715434548
 20
49.7653124955
 10
28.9803393539
 20
50.0607194414
 10
28.9156048107
 20
50.3482503025
 10
28.875803971
 20
50.6318634708
 10
28.8609368349
 20
50.9115589464
  0
LWPOLYLINE
  5
2DB
100
AcDbEntity
  8
RACCORDO
100
AcDbPolyline
 62
253
  6
CONTINUOUS
 90
19
 70
0
 10
32.507298341
 20
46.2173597811
 10
32.487923242
 20
46.2074527264
 10
32.4671413558
 20
46.1985467105
 10
32.4451073421
 20
46.1907080188
 10
32.4219851886
 20
46.1839949957
 10
32.397946967
 20
46.1784576036
 10
32.3731715498
 20
46.1741370549
 10
32.3478433173
 20
46.171065513
 10
32.3221507733
 20
46.1692658472
 10
32.2962851161
 20
46.1687514605
 10
32.2704388371
 20
46.1695261933
 10
32.2448043133
 20
46.1715842916
 10
32.2195723586
 20
46.1749104452
 10
32.1949307633
 20
46.1794799074
 10
32.1710629358
 20
46.1852586761
 10
32.1481465572
 20
46.1922037369
 10
32.1263521996
 20
46.200263397
 10
32.1058420615
 20
46.2093776754
 10
32.0867687955
 20
46.2194787385
  0
LWPOLYLINE
  5
2DC
100
AcDbEntity
  8
RACCORDO
100
AcDbPolyline
 62
253
  6
CONTINUOUS
 90
19
 70
0
 10
32.507298341
 20
44.9676718736
 10
32.4879228501
 20
44.9577646377
 10
32.4671405484
 20
44.9488584918
 10
32.4451061099
 20
44.9410197208
 10
32.4219835275
 20
44.9343066651
 10
32.3979448928
 20
44.9287692874
 10
32.3731691151
 20
44.9244487997
 10
32.3478405858
 20
44.9213773572
 10
32.3221478184
 20
44.9195778203
 10
32.2962820463
 20
44.919063582
 10
32.2704357709
 20
44.9198384681
 10
32.2448013612
 20
44.9218967098
 10
32.2195696344
 20
44.9252229815
 10
32.1949284057
 20
44.9297925143
 10
32.1710610322
 20
44.9355712962
 10
32.1481450878
 20
44.9425163307
 10
32.1263511088
 20
44.9505759383
 10
32.1058413176
 20
44.9596901325
 10
32.0867683609
 20
44.9697910827
  0
LINE
  5
2DD
100
AcDbEntity
  8
DRAFT
100
AcDbLine
 62
7
  6
CONTINUOUS
 10
26.199148828
 20
21.1250184737
 11
25.2541979419
 21
20.8904450196
  0
LINE
  5
2DE
100
AcDbEntity
  8
RACCORDO
100
AcDbLine
 62
7
  6
CONTINUOUS
 10
27.4820420091
 20
-0.8942607999
 11
27.6756967538
 21
-1.0060746224
  0
LINE
  5
2DF
100
AcDbEntity
  8
RACCORDO
100
AcDbLine
 62
7
  6
CONTINUOUS
 10
24.6660703735
 20
1.7403959903
 11
24.8400387023
 21
1.6399488577
  0
LINE
  5
2E0
100
AcDbEntity
  8
RACCORDO
100
AcDbLine
 62
253
  6
CONTINUOUS
 10
24.6660703735
 20
1.8080299805
 11
24.7978992499
 21
1.7319136395
  0
LINE
  5
2E1
100
AcDbEntity
  8
RACCORDO
100
AcDbLine
 62
253
  6
CONTINUOUS
 10
24.7978992499
 20
2.0706797151
 11
24.6660703735
 21
2.1467960561
  0
LINE
  5
2E2
100
AcDbEntity
  8
RACCORDO
100
AcDbLine
 62
253
  6
CONTINUOUS
 10
24.9392779005
 20
2.3127783267
 11
24.7825722633
 21
2.4032581976
  0
LINE
  5
2E3
100
AcDbEntity
  8
RACCORDO
100
AcDbLine
 62
7
  6
CONTINUOUS
 10
27.4820420091
 20
4.0045608608
 11
27.6756967538
 21
3.8927470383
  0
LINE
  5
2E4
100
AcDbEntity
  8
0
100
AcDbLine
 62
7
  6
CONTINUOUS
 10
27.3370790436
 20
-1.9618879206
 11
27.4820420091
 21
-2.0483633714
  0
LINE
  5
2E5
100
AcDbEntity
  8
0
100
AcDbLine
 62
7
  6
CONTINUOUS
 10
27.3370790436
 20
2.9369337402
 11
27.4820420091
 21
2.8504582893
  0
LWPOLYLINE
  5
2E6
100
AcDbEntity
  8
RACCORDO
100
AcDbPolyline
 62
253
  6
CONTINUOUS
 90
25
 70
0
 10
31.4281429443
 20
-13.2530556794
 10
31.5475740699
 20
-13.3613699675
 10
31.6650256922
 20
-13.475811396
 10
31.7805142766
 20
-13.5963294123
 10
31.8930802769
 20
-13.7219226388
 10
32.002699327
 20
-13.852633317
 10
32.109395793
 20
-13.9884192054
 10
32.2122832266
 20
-14.1281522014
 10
32.311329975
 20
-14.2718653147
 10
32.406567691
 20
-14.4195255357
 10
32.4972048852
 20
-14.5699057327
 10
32.5832031483
 20
-14.7230284377
 10
32.6646008895
 20
-14.8788711188
 10
32.7407218473
 20
-15.0361390484
 10
32.8115221594
 20
-15.1948444063
 10
32.8770456881
 20
-15.3549750128
 10
32.9367477587
 20
-15.5151996015
 10
32.9905797638
 20
-15.6755189948
 10
33.0385903106
 20
-15.8359323703
 10
33.0803805469
 20
-15.9951059935
 10
33.1158984935
 20
-16.1530293091
 10
33.1451961295
 20
-16.3097128724
 10
33.1680305394
 20
-16.4638546149
 10
33.1843479012
 20
-16.6154325666
 10
33.194202037
 20
-16.7644686976
  0
LWPOLYLINE
  5
2E7
100
AcDbEntity
  8
RACCORDO
100
AcDbPolyline
 62
253
  6
CONTINUOUS
 90
5
 70
0
 10
27.4820420091
 20
-26.6146718597
 10
27.4895356722
 20
-26.6271854418
 10
27.4992710926
 20
-26.6394573074
 10
27.5103059111
 20
-26.6499434739
 10
27.5238316596
 20
-26.6593143329
  0
LWPOLYLINE
  5
2E8
100
AcDbEntity
  8
RACCORDO
100
AcDbPolyline
 62
253
  6
CONTINUOUS
 90
11
 70
0
 10
22.5589435829
 20
64.6450215116
 10
22.5637216421
 20
64.6548014
 10
22.5761286032
 20
64.6774681617
 10
22.589490306
 20
64.6993812124
 10
22.6037072919
 20
64.7203774431
 10
22.6186737099
 20
64.7403005392
 10
22.6342781955
 20
64.7590022645
 10
22.6504047045
 20
64.7763435267
 10
22.6669332489
 20
64.7921952624
 10
22.6837407791
 20
64.8064394238
 10
22.7007021973
 20
64.8189699618
  0
LWPOLYLINE
  5
2E9
100
AcDbEntity
  8
RACCORDO
100
AcDbPolyline
 62
7
  6
CONTINUOUS
 90
4
 70
0
 10
29.4172180967
 20
53.290837635
 10
29.4100520422
 20
53.2825258226
 10
29.4039867438
 20
53.2759940912
 10
29.399405913
 20
53.2713939103
  0
LWPOLYLINE
  5
2EA
100
AcDbEntity
  8
RACCORDO
100
AcDbPolyline
 62
253
  6
CONTINUOUS
 90
3
 70
0
 10
30.5445088356
 20
50.2979254907
 10
30.5512933817
 20
50.3046284886
 10
30.5569906597
 20
50.3123751701
  0
LWPOLYLINE
  5
2EB
100
AcDbEntity
  8
RACCORDO
100
AcDbPolyline
 62
7
  6
CONTINUOUS
 90
7
 70
0
 10
29.399405913
 20
53.2713939103
 10
29.3809175185
 20
53.2526590538
 10
29.3628607771
 20
53.2382287059
 10
29.3438603676
 20
53.2257214734
 10
29.323884195
 20
53.2152114975
 10
29.3029643542
 20
53.2066246371
 10
29.2811008454
 20
53.1999608923
  0
LWPOLYLINE
  5
2EC
100
AcDbEntity
  8
DRAFT
100
AcDbPolyline
 62
7
  6
CONTINUOUS
 90
30
 70
0
 10
36.0451242477
 20
46.6427145487
 10
36.1351469836
 20
46.7004322065
 10
36.265330633
 20
46.7959337518
 10
36.3887993343
 20
46.901544297
 10
36.5056565347
 20
47.0174492597
 10
36.615798787
 20
47.1434632223
 10
36.7184059837
 20
47.2786545699
 10
36.8133264221
 20
47.4229303502
 10
36.9007118049
 20
47.5763835154
 10
36.9801971325
 20
47.7383613081
 10
37.0518099675
 20
47.9090567891
 10
37.1155227472
 20
48.0882768974
 10
37.170887784
 20
48.2747896926
 10
37.2178167459
 20
48.4685181832
 10
37.2563979648
 20
48.6695393607
 10
37.2864487487
 20
48.8768522588
 10
37.3079378366
 20
49.0905615618
 10
37.3208964894
 20
49.3105625854
 10
37.325235798
 20
49.5355403103
 10
37.3208964894
 20
49.7655289601
 10
37.3079378366
 20
50.0004943112
 10
37.2864487487
 20
50.2390186742
 10
37.2563979648
 20
50.4810334643
 10
37.2178167459
 20
50.7266072663
 10
37.170887784
 20
50.9745281458
 10
37.1155227472
 20
51.2249750977
 10
37.0518099675
 20
51.4777691271
 10
36.9801971325
 20
51.7311613149
 10
36.9007118049
 20
51.9849267714
 10
36.8133264221
 20
52.2392903863
  0
LWPOLYLINE
  5
2ED
100
AcDbEntity
  8
DRAFT
100
AcDbPolyline
 62
7
  6
CONTINUOUS
 90
53
 70
0
 10
34.8580566517
 20
45.9230672202
 10
34.9262903884
 20
45.9662182921
 10
35.0633221569
 20
46.0644642173
 10
35.1931406058
 20
46.1737584988
 10
35.3156622538
 20
46.294032503
 10
35.4307269803
 20
46.4251968503
 10
35.5379529175
 20
46.5668886438
 10
35.6369522388
 20
46.7185936451
 10
35.7274472816
 20
46.8797960169
 10
35.8093807799
 20
47.0502952059
 10
35.8827176847
 20
47.2300198445
 10
35.9473514139
 20
47.4188362973
 10
36.0030382659
 20
47.6161778308
 10
36.0495679009
 20
47.8212973609
 10
36.0868298153
 20
48.0334994574
 10
36.1148298696
 20
48.2525582503
 10
36.1335591017
 20
48.4784051516
 10
36.1429596058
 20
48.7108654596
 10
36.1429596058
 20
48.9492108384
 10
36.1335591017
 20
49.192526613
 10
36.1148298696
 20
49.4400015619
 10
36.0868298153
 20
49.6913941158
 10
36.0495679009
 20
49.9466253371
 10
36.0030382659
 20
50.2054761233
 10
35.9473514139
 20
50.4671234377
 10
35.8827176847
 20
50.7305773007
 10
35.8093807799
 20
50.9949895588
 10
35.7274472816
 20
51.2601034979
 10
35.6369522388
 20
51.5258072768
 10
35.5379529175
 20
51.7918342128
 10
35.4307269803
 20
52.0573478308
 10
35.3156622538
 20
52.3213860402
 10
35.1931406058
 20
52.5831449724
 10
35.0633221569
 20
52.8423503446
 10
34.9262903884
 20
53.0988371214
 10
34.7821813765
 20
53.3522952992
 10
34.6314012381
 20
53.6019578783
 10
34.4744550394
 20
53.8469866988
 10
34.3118113655
 20
54.0866927364
 10
34.1436948083
 20
54.3207859463
 10
33.9702677255
 20
54.5490420384
 10
33.7917600976
 20
54.7711257933
 10
33.6086498415
 20
54.9864109628
 10
33.4214817863
 20
55.1942549342
 10
33.2307506353
 20
55.3941319948
 10
33.0367579791
 20
55.5857492549
 10
32.8397745362
 20
55.7688413007
 10
32.6401322906
 20
55.9430837918
 10
32.4383150131
 20
56.108038931
 10
32.2348260277
 20
56.2632930043
 10
32.0301169119
 20
56.4085084372
 10
31.8245839285
 20
56.5434110474
 10
31.6186532815
 20
56.6677256892
  0
LINE
  5
2EE
100
AcDbEntity
  8
DRAFT
100
AcDbLine
 62
7
  6
CONTINUOUS
 10
36.0451186808
 20
46.6427240344
 11
34.8580566517
 21
45.9230672202
  0
LWPOLYLINE
  5
2EF
100
AcDbEntity
  8
RACCORDO
100
AcDbPolyline
 62
253
  6
CONTINUOUS
 90
13
 70
0
 10
32.399991132
 20
44.736718829
 10
32.4123373956
 20
44.7441833107
 10
32.4280393982
 20
44.7560288486
 10
32.4424918347
 20
44.7698075181
 10
32.4556275824
 20
44.7854545861
 10
32.4673801531
 20
44.8029035305
 10
32.4776969567
 20
44.8220711276
 10
32.4865342373
 20
44.8428636033
 10
32.4938479504
 20
44.8651866403
 10
32.4996019753
 20
44.8889397192
 10
32.5037740756
 20
44.9140131927
 10
32.5063437145
 20
44.9402968519
 10
32.507294555
 20
44.9676741372
  0
LINE
  5
2F0
100
AcDbEntity
  8
DRAFT
100
AcDbLine
 62
7
  6
CONTINUOUS
 10
34.7790716792
 20
45.877462287
 11
34.8580566517
 21
45.9230672202
  0
LINE
  5
2F1
100
AcDbEntity
  8
RACCORDO
100
AcDbLine
 62
7
  6
CONTINUOUS
 10
27.6756967538
 20
41.4503797708
 11
24.9392779005
 21
39.8704110592
  0
LINE
  5
2F2
100
AcDbEntity
  8
RACCORDO
100
AcDbLine
 62
7
  6
CONTINUOUS
 10
27.6756967538
 20
36.5515581101
 11
24.9392779005
 21
34.9715893984
  0
LINE
  5
2F3
100
AcDbEntity
  8
0
100
AcDbLine
 62
7
  6
CONTINUOUS
 10
24.6660703735
 20
39.8957832973
 11
27.4820420091
 21
41.4695023816
  0
LINE
  5
2F4
100
AcDbEntity
  8
0
100
AcDbLine
 62
7
  6
CONTINUOUS
 10
27.4820420091
 20
40.4080910218
 11
24.6660703735
 21
38.8343719374
  0
LINE
  5
2F5
100
AcDbEntity
  8
0
100
AcDbLine
 62
7
  6
CONTINUOUS
 10
24.6660703735
 20
34.9969616365
 11
27.4820420091
 21
36.5706807209
  0
LINE
  5
2F6
100
AcDbEntity
  8
RACCORDO
100
AcDbLine
 62
7
  6
CONTINUOUS
 10
27.6756967538
 20
40.6766641191
 11
24.9392779005
 21
39.2051066138
  0
LINE
  5
2F7
100
AcDbEntity
  8
RACCORDO
100
AcDbLine
 62
7
  6
CONTINUOUS
 10
27.6756967538
 20
35.7778424583
 11
24.9392779005
 21
34.3062849531
  0
LWPOLYLINE
  5
2F8
100
AcDbEntity
  8
0
100
AcDbPolyline
 62
7
  6
CONTINUOUS
 90
6
 70
0
 10
31.9261233263
 20
-13.8220055821
 10
31.8725211233
 20
-13.7599727607
 10
31.6561646256
 20
-13.5441245812
 10
31.4321290467
 20
-13.3534596158
 10
31.2034440835
 20
-13.1905562812
 10
31.0881318525
 20
-13.1201087071
  0
LWPOLYLINE
  5
2F9
100
AcDbEntity
  8
RACCORDO
100
AcDbPolyline
 62
253
  6
CONTINUOUS
 90
16
 70
0
 10
32.0192671335
 20
-12.0112342248
 10
31.8788588546
 20
-11.8351690319
 10
31.7364499566
 20
-11.6645565768
 10
31.5920404397
 20
-11.4993968593
 10
31.4453690947
 20
-11.3395092854
 10
31.2966971307
 20
-11.1850744492
 10
31.1468081747
 20
-11.0366341333
 10
30.9961610401
 20
-10.8945541098
 10
30.8442969135
 20
-10.7584686066
 10
30.6906229822
 20
-10.6278220895
 10
30.5346218859
 20
-10.502132403
 10
30.3768109849
 20
-10.3818817026
 10
30.2181495471
 20
-10.2679609212
 10
30.0589573284
 20
-10.1606670365
 10
29.8989145728
 20
-10.0597030708
 10
29.7380212805
 20
-9.9650690241
  0
LWPOLYLINE
  5
2FA
100
AcDbEntity
  8
RACCORDO
100
AcDbPolyline
 62
253
  6
CONTINUOUS
 90
16
 70
0
 10
32.3385192151
 20
-11.746060638
 10
32.1916228632
 20
-11.5616595071
 10
32.0421641386
 20
-11.3826287766
 10
31.8903918329
 20
-11.2091666894
 10
31.7366043126
 20
-11.0415128018
 10
31.5809986129
 20
-10.8797826327
 10
31.4236624296
 20
-10.7239852613
 10
31.2650494865
 20
-10.5744851424
 10
31.1051817241
 20
-10.4312194698
 10
30.9434654531
 20
-10.2936449133
 10
30.7798524321
 20
-10.1617822471
 10
30.6148167427
 20
-10.0360750291
 10
30.4485290978
 20
-9.9167006407
 10
30.2811978315
 20
-9.803860316
 10
30.1130696291
 20
-9.6977720068
 10
29.9443779747
 20
-9.5986335202
  0
LWPOLYLINE
  5
2FB
100
AcDbEntity
  8
RACCORDO
100
AcDbPolyline
 62
7
  6
CONTINUOUS
 90
3
 70
0
 10
31.8930241069
 20
-16.0021552577
 10
31.9008482985
 20
-16.0129168255
 10
31.9075145539
 20
-16.024069024
  0
LWPOLYLINE
  5
2FC
100
AcDbEntity
  8
RACCORDO
100
AcDbPolyline
 62
7
  6
CONTINUOUS
 90
4
 70
0
 10
31.1428704064
 20
-15.390425054
 10
31.1593241816
 20
-15.4137481358
 10
31.1775751401
 20
-15.4349789699
 10
31.1974103451
 20
-15.4537821558
  0
LWPOLYLINE
  5
2FD
100
AcDbEntity
  8
RACCORDO
100
AcDbPolyline
 62
7
  6
CONTINUOUS
 90
3
 70
0
 10
29.3344241289
 20
-17.0549552942
 10
29.3385416112
 20
-17.0608809032
 10
29.3620121879
 20
-17.096401336
  0
LWPOLYLINE
  5
2FE
100
AcDbEntity
  8
RACCORDO
100
AcDbPolyline
 62
253
  6
CONTINUOUS
 90
13
 70
0
 10
29.3679549783
 20
-17.0052316403
 10
29.3093644163
 20
-16.920202974
 10
29.2514817523
 20
-16.8326977386
 10
29.1943069862
 20
-16.742715934
 10
29.1377854261
 20
-16.6503639192
 10
29.081971764
 20
-16.5555353352
 10
29.0270300757
 20
-16.4579111054
 10
28.972885574
 20
-16.357422324
 10
28.919613046
 20
-16.2541378967
 10
28.8676009288
 20
-16.1479454648
 10
28.8169787014
 20
-16.0388075753
 10
28.7676168846
 20
-15.9267616811
 10
28.7195154787
 20
-15.8118077823
  0
LINE
  5
2FF
100
AcDbEntity
  8
RACCORDO
100
AcDbLine
 62
7
  6
CONTINUOUS
 10
29.2450667188
 20
-16.9237867533
 11
29.3344223393
 21
-17.0549526398
  0
LWPOLYLINE
  5
300
100
AcDbEntity
  8
RACCORDO
100
AcDbPolyline
 62
253
  6
CONTINUOUS
 90
3
 70
0
 10
29.3679549783
 20
-17.0052316403
 10
29.3958795529
 20
-17.0467585927
 10
29.4221876138
 20
-17.0890686008
  0
LWPOLYLINE
  5
301
100
AcDbEntity
  8
RACCORDO
100
AcDbPolyline
 62
7
  6
CONTINUOUS
 90
14
 70
0
 10
29.3620121879
 20
-17.096401336
 10
29.3841781784
 20
-17.1330227893
 10
29.4048663026
 20
-17.1704620889
 10
29.4239043901
 20
-17.2083805467
 10
29.4411831644
 20
-17.2465047596
 10
29.4566065148
 20
-17.2845415304
 10
29.470070996
 20
-17.3221019169
 10
29.4815502244
 20
-17.3589190003
 10
29.4910314891
 20
-17.3946977038
 10
29.4985007498
 20
-17.4289942941
 10
29.5040323858
 20
-17.4615714268
 10
29.5077248599
 20
-17.4921949988
 10
29.5096948428
 20
-17.5204397891
 10
29.5101557595
 20
-17.5413083225
  0
LWPOLYLINE
  5
302
100
AcDbEntity
  8
RACCORDO
100
AcDbPolyline
 62
253
  6
CONTINUOUS
 90
9
 70
0
 10
29.3344223393
 20
-17.0549526398
 10
29.3341058202
 20
-17.0544273925
 10
29.33356614
 20
-17.0509563081
 10
29.3348620544
 20
-17.0462346144
 10
29.3379839272
 20
-17.0402974479
 10
29.3429085248
 20
-17.0331890006
 10
29.3495991937
 20
-17.0249621808
 10
29.358006141
 20
-17.015678214
 10
29.3680667984
 20
-17.0054061968
  0
LWPOLYLINE
  5
303
100
AcDbEntity
  8
RACCORDO
100
AcDbPolyline
 62
253
  6
CONTINUOUS
 90
22
 70
0
 10
28.7195154787
 20
52.1785983981
 10
28.776914678
 20
52.2735284279
 10
28.8396973057
 20
52.3610409929
 10
28.9078633618
 20
52.441136093
 10
28.9816370574
 20
52.5140007409
 10
29.0607941813
 20
52.5794479239
 10
29.1446621
 20
52.6369166044
 10
29.2332768695
 20
52.6863332231
 10
29.3266024337
 20
52.7277713394
 10
29.4238579913
 20
52.7608905935
 10
29.5250739208
 20
52.7856212592
 10
29.6302198436
 20
52.8020330628
 10
29.7384238227
 20
52.8099948231
 10
29.849711333
 20
52.8094371678
 10
29.9640568997
 20
52.8004294693
 10
30.080512161
 20
52.7830486635
 10
30.1990947178
 20
52.7572255909
 10
30.3197869692
 20
52.7230294111
 10
30.441587752
 20
52.6807445383
 10
30.5645066322
 20
52.6303037781
 10
30.6885340437
 20
52.5717743248
 10
30.8126401249
 20
52.5056421762
  0
LWPOLYLINE
  5
304
100
AcDbEntity
  8
RACCORDO
100
AcDbPolyline
 62
7
  6
CONTINUOUS
 90
5
 70
0
 10
29.458958311
 20
53.3497851036
 10
29.4447669402
 20
53.327164949
 10
29.4299267112
 20
53.3060993524
 10
29.4144504855
 20
53.2865943771
 10
29.398126877
 20
53.2687900944
  0
LINE
  5
305
100
AcDbEntity
  8
RACCORDO
100
AcDbLine
 62
7
  6
CONTINUOUS
 10
30.9806445661
 20
48.514951336
 11
30.9808220494
 21
48.5151722855
  0
LWPOLYLINE
  5
306
100
AcDbEntity
  8
RACCORDO
100
AcDbPolyline
 62
7
  6
CONTINUOUS
 90
6
 70
0
 10
31.131966232
 20
49.2898978382
 10
31.1231904639
 20
49.279530095
 10
31.1155267498
 20
49.2677373129
 10
31.1091299885
 20
49.2546211151
 10
31.1041399917
 20
49.2403325905
 10
31.100467044
 20
49.2240221734
  0
LINE
  5
307
100
AcDbEntity
  8
RACCORDO
100
AcDbLine
 62
253
  6
CONTINUOUS
 10
30.9460460254
 20
48.5014284442
 11
30.9875059668
 21
48.5495384567
  0
LWPOLYLINE
  5
308
100
AcDbEntity
  8
RACCORDO
100
AcDbPolyline
 62
253
  6
CONTINUOUS
 90
14
 70
0
 10
31.9239404514
 20
49.0055689937
 10
31.9215199938
 20
49.0027711675
 10
31.9188034593
 20
49.0001988795
 10
31.9157858609
 20
48.997855181
 10
31.9124218518
 20
48.9958218866
 10
31.908700979
 20
48.9940870071
 10
31.9046336955
 20
48.9926625317
 10
31.9002060131
 20
48.9916662413
 10
31.8953987311
 20
48.9910994038
 10
31.8902310502
 20
48.9909607514
 10
31.8847465846
 20
48.9913642616
 10
31.8789598725
 20
48.992347927
 10
31.8728563757
 20
48.9938737551
 10
31.8664360943
 20
48.9959417458
  0
LWPOLYLINE
  5
309
100
AcDbEntity
  8
RACCORDO
100
AcDbPolyline
 62
253
  6
CONTINUOUS
 90
14
 70
0
 10
30.9808198796
 20
48.5151700139
 10
30.9796649465
 20
48.5138607187
 10
30.9767190526
 20
48.5108304886
 10
30.9737505434
 20
48.5081941314
 10
30.9707993227
 20
48.5059595836
 10
30.9679081465
 20
48.5041275571
 10
30.9650770367
 20
48.5026664474
 10
30.9622774368
 20
48.5015390592
 10
30.9595256612
 20
48.5007298534
 10
30.9568319046
 20
48.5002357453
 10
30.9541411381
 20
48.5000556627
 10
30.9514328157
 20
48.5001949483
 10
30.9487326276
 20
48.500652678
 10
30.9460460542
 20
48.5014284195
  0
LWPOLYLINE
  5
30A
100
AcDbEntity
  8
0
100
AcDbPolyline
 62
7
  6
CONTINUOUS
 90
3
 70
0
 10
32.4939903852
 20
47.5569664053
 10
32.3575264394
 20
47.4231843941
 10
32.2406311348
 20
47.344031542
  0
LINE
  5
30B
100
AcDbEntity
  8
0
100
AcDbLine
 62
7
  6
CONTINUOUS
 10
27.4820420091
 20
35.509269361
 11
24.6660703735
 21
33.9355502767
  0
LINE
  5
30C
100
AcDbEntity
  8
0
100
AcDbLine
 62
7
  6
CONTINUOUS
 10
26.325441474
 20
16.8064018325
 11
26.4700859714
 21
16.720116359
  0
LWPOLYLINE
  5
30D
100
AcDbEntity
  8
RACCORDO
100
AcDbPolyline
 62
253
  6
CONTINUOUS
 90
42
 70
0
 10
33.1304647576
 20
-11.2967375032
 10
33.3019766447
 20
-11.5239112991
 10
33.4682875893
 20
-11.7569176207
 10
33.6290564537
 20
-11.9952785238
 10
33.783953468
 20
-12.2385050819
 10
33.9326609064
 20
-12.4860983867
 10
34.0748737382
 20
-12.7375505714
 10
34.2103002544
 20
-12.9923458532
 10
34.338662669
 20
-13.2499615969
 10
34.4596976873
 20
-13.5098693857
 10
34.5731570428
 20
-13.7715360994
 10
34.6788080048
 20
-14.0344250016
 10
34.7764338588
 20
-14.2979968468
 10
34.8658343531
 20
-14.5617109912
 10
34.9468261106
 20
-14.8250265065
 10
35.019243002
 20
-15.0874032829
 10
35.0829364858
 20
-15.3483031347
 10
35.1377759126
 20
-15.6071908995
 10
35.1836487943
 20
-15.8635355405
 10
35.2204610359
 20
-16.1168112366
 10
35.2481371294
 20
-16.3664984732
 10
35.2666203063
 20
-16.6120851021
 10
35.2758726532
 20
-16.8530673914
 10
35.2758751889
 20
-17.0889510182
 10
35.2666279096
 20
-17.3192520976
 10
35.2481497929
 20
-17.5434981802
 10
35.2204787438
 20
-17.7612293539
 10
35.1836714998
 20
-17.9719991352
 10
35.1378035031
 20
-18.1753753574
 10
35.0829688544
 20
-18.3709406536
 10
35.0192801574
 20
-18.5582934932
 10
34.946868308
 20
-18.7370491257
 10
34.8658817105
 20
-18.9068414699
 10
34.7764859242
 20
-19.0673232909
 10
34.6788633776
 20
-19.218166447
 10
34.5732148888
 20
-19.3590600467
 10
34.4597591428
 20
-19.4897127012
 10
34.3387314648
 20
-19.6098546957
 10
34.2103783595
 20
-19.7192425289
 10
34.0749581404
 20
-19.8176557566
 10
33.932746828
 20
-19.9048923915
 10
33.9164527023
 20
-19.9139347261
  0
LWPOLYLINE
  5
30E
100
AcDbEntity
  8
RACCORDO
100
AcDbPolyline
 62
253
  6
CONTINUOUS
 90
11
 70
0
 10
32.3163034672
 20
-14.0969447003
 10
32.4044320263
 20
-14.2266722422
 10
32.4891209624
 20
-14.3585722943
 10
32.5703702756
 20
-14.4926448567
 10
32.6483397995
 20
-14.6291832411
 10
32.7228697004
 20
-14.7678941358
 10
32.7934804777
 20
-14.9078976055
 10
32.8601381603
 20
-15.0491850475
 10
32.9228767193
 20
-15.1917650645
 10
32.9813185677
 20
-15.3347835293
 10
33.0354398842
 20
-15.4782512308
  0
LWPOLYLINE
  5
30F
100
AcDbEntity
  8
RACCORDO
100
AcDbPolyline
 62
253
  6
CONTINUOUS
 90
16
 70
0
 10
32.746151914
 20
-13.9927458376
 10
32.6332549216
 20
-13.8265432505
 10
32.6167534502
 20
-13.8001707403
 10
32.6012163855
 20
-13.7731957556
 10
32.5867007615
 20
-13.7457182945
 10
32.5732642725
 20
-13.7178434348
 10
32.5609588908
 20
-13.6896859077
 10
32.5498345353
 20
-13.6613650867
 10
32.5399328031
 20
-13.6329819169
 10
32.5312840828
 20
-13.6046252876
 10
32.523918109
 20
-13.5763945894
 10
32.517870859
 20
-13.5484120511
 10
32.5131709543
 20
-13.5207983338
 10
32.5098340777
 20
-13.4936607258
 10
32.5078737244
 20
-13.4670979223
 10
32.5073011959
 20
-13.4412135435
  0
LWPOLYLINE
  5
310
100
AcDbEntity
  8
RACCORDO
100
AcDbPolyline
 62
7
  6
CONTINUOUS
 90
38
 70
0
 10
33.2295203235
 20
-13.5227440943
 10
33.3316684768
 20
-13.6736997336
 10
33.4295257026
 20
-13.8272938437
 10
33.5230920009
 20
-13.9835264243
 10
33.6125881665
 20
-14.1428126026
 10
33.6977934046
 20
-14.3047372516
 10
33.7780453315
 20
-14.4680549902
 10
33.8532638674
 20
-14.632676458
 10
33.923529092
 20
-14.7986910155
 10
33.9884188614
 20
-14.9651213628
 10
34.047941407
 20
-15.132109036
 10
34.1020884973
 20
-15.299512499
 10
34.1504132935
 20
-15.4659298425
 10
34.1928272945
 20
-15.6311547374
 10
34.2294190014
 20
-15.7953935128
 10
34.2600070796
 20
-15.9578632475
 10
34.2845876941
 20
-16.1187937636
 10
34.3031646798
 20
-16.2779552391
 10
34.315568207
 20
-16.4338752872
 10
34.3217416656
 20
-16.5862784788
 10
34.3217416656
 20
-16.735440243
 10
34.315568207
 20
-16.8807144794
 10
34.3031646798
 20
-17.0223112452
 10
34.2845876941
 20
-17.1600204832
 10
34.2600070796
 20
-17.2925659218
 10
34.2294190014
 20
-17.4197133107
 10
34.1928272945
 20
-17.5416969001
 10
34.1504132935
 20
-17.6579431698
 10
34.1020884973
 20
-17.7685562499
 10
34.047941407
 20
-17.8734320102
 10
33.9884188614
 20
-17.9716845398
 10
33.923529092
 20
-18.0631818079
 10
33.8532638674
 20
-18.1480558453
 10
33.7780453315
 20
-18.2258168334
 10
33.6977934046
 20
-18.2964616583
 10
33.6125881665
 20
-18.3599934341
 10
33.5230920009
 20
-18.4159316837
 10
33.5069147498
 20
-18.4249741764
  0
LWPOLYLINE
  5
311
100
AcDbEntity
  8
RACCORDO
100
AcDbPolyline
 62
253
  6
CONTINUOUS
 90
16
 70
0
 10
32.3163034672
 20
-14.0969447003
 10
32.2884242597
 20
-14.0554162487
 10
32.2621637674
 20
-14.013118415
 10
32.2375219905
 20
-13.9700511992
 10
32.2144191876
 20
-13.9260445308
 10
32.1929351
 20
-13.8812684804
 10
32.1733089516
 20
-13.8362332595
 10
32.1555628221
 20
-13.7909447796
 10
32.1396746319
 20
-13.7453971291
 10
32.125817365
 20
-13.7000827859
 10
32.1140077726
 20
-13.6549779443
 10
32.1042291035
 20
-13.6101064098
 10
32.0966040887
 20
-13.5660320766
 10
32.0911736383
 20
-13.5229429095
 10
32.0878968421
 20
-13.4806509437
 10
32.0867737001
 20
-13.4391561793
  0
LWPOLYLINE
  5
312
100
AcDbEntity
  8
RACCORDO
100
AcDbPolyline
 62
253
  6
CONTINUOUS
 90
39
 70
0
 10
32.746151914
 20
-13.9927458376
 10
32.838233582
 20
-14.1361679731
 10
32.9267198048
 20
-14.2821903679
 10
33.0114316928
 20
-14.4305179408
 10
33.0921997979
 20
-14.5808541263
 10
33.1688640236
 20
-14.7329016737
 10
33.2412697331
 20
-14.8863551573
 10
33.3092707484
 20
-15.0409061124
 10
33.3727316378
 20
-15.1962486636
 10
33.4315267281
 20
-15.3520787409
 10
33.4855332375
 20
-15.5080747663
 10
33.5346355089
 20
-15.6639030748
 10
33.5787369877
 20
-15.8192555483
 10
33.6177480012
 20
-15.9738144151
 10
33.6515837173
 20
-16.1272337561
 10
33.6801767203
 20
-16.27918394
 10
33.7034794265
 20
-16.4293837744
 10
33.721452822
 20
-16.5775644741
 10
33.7340599977
 20
-16.7233999505
 10
33.7412809935
 20
-16.866628249
 10
33.7431017809
 20
-17.0070760153
 10
33.7395058619
 20
-17.1444712432
 10
33.7304878458
 20
-17.2785124218
 10
33.7160462968
 20
-17.4089781554
 10
33.6961664395
 20
-17.5357281136
 10
33.6708824577
 20
-17.6583446745
 10
33.6403216916
 20
-17.7762328195
 10
33.6045405487
 20
-17.8892693832
 10
33.563660968
 20
-17.9971496182
 10
33.5180516169
 20
-18.0991434126
 10
33.4680380873
 20
-18.1949292369
 10
33.4137151725
 20
-18.2846898662
 10
33.3551680857
 20
-18.3685285794
 10
33.2927354104
 20
-18.4461922405
 10
33.226467069
 20
-18.5178330465
 10
33.1558803646
 20
-18.5839950538
 10
33.0806665122
 20
-18.6447813234
 10
33.0012761255
 20
-18.6996502058
 10
32.9305846721
 20
-18.7415072425
  0
LWPOLYLINE
  5
313
100
AcDbEntity
  8
RACCORDO
100
AcDbPolyline
 62
7
  6
CONTINUOUS
 90
3
 70
0
 10
30.9592696049
 20
-14.3824319975
 10
30.9654447629
 20
-14.3922244046
 10
30.9709287173
 20
-14.402787315
  0
LWPOLYLINE
  5
314
100
AcDbEntity
  8
RACCORDO
100
AcDbPolyline
 62
253
  6
CONTINUOUS
 90
7
 70
0
 10
31.1429436946
 20
-15.37277147
 10
31.1512638971
 20
-15.3863114304
 10
31.1604616515
 20
-15.3994559652
 10
31.1700196049
 20
-15.4115530457
 10
31.1797653062
 20
-15.4223853289
 10
31.1898712065
 20
-15.4321701577
 10
31.2003373058
 20
-15.4409075321
  0
LWPOLYLINE
  5
315
100
AcDbEntity
  8
RACCORDO
100
AcDbPolyline
 62
253
  6
CONTINUOUS
 90
9
 70
0
 10
29.4221876138
 20
-17.0890686008
 10
29.4468791609
 20
-17.1321616645
 10
29.4700360685
 20
-17.1762114677
 10
29.4915764623
 20
-17.2210443264
 10
29.5112547201
 20
-17.2661391894
 10
29.5290469369
 20
-17.3114872028
 10
29.5449770176
 20
-17.3570972204
 10
29.5588710547
 20
-17.4024747522
 10
29.5707122099
 20
-17.4476437489
  0
LINE
  5
316
100
AcDbEntity
  8
RACCORDO
100
AcDbLine
 62
7
  6
CONTINUOUS
 10
31.1285621727
 20
-15.3654542635
 11
31.1428704064
 21
-15.390425054
  0
LWPOLYLINE
  5
317
100
AcDbEntity
  8
RACCORDO
100
AcDbPolyline
 62
7
  6
CONTINUOUS
 90
8
 70
0
 10
28.7522793476
 20
-16.0327345631
 10
28.7790022327
 20
-16.0910569883
 10
28.8476820509
 20
-16.234158759
 10
28.9201251524
 20
-16.3758323794
 10
28.9962084027
 20
-16.515849226
 10
29.0758153474
 20
-16.654000291
 10
29.1588163582
 20
-16.7900597291
 10
29.2450667188
 20
-16.9237867533
  0
LWPOLYLINE
  5
318
100
AcDbEntity
  8
RACCORDO
100
AcDbPolyline
 62
253
  6
CONTINUOUS
 90
3
 70
0
 10
30.5569906597
 20
50.3123751701
 10
30.5614986727
 20
50.3210253039
 10
30.5649194175
 20
50.3307191213
  0
LWPOLYLINE
  5
319
100
AcDbEntity
  8
RACCORDO
100
AcDbPolyline
 62
253
  6
CONTINUOUS
 90
43
 70
0
 10
32.9369275908
 20
47.3143512024
 10
32.8772461621
 20
47.2230502808
 10
32.8117434398
 20
47.1385649909
 10
32.7409635549
 20
47.0615970904
 10
32.6648624509
 20
46.9922091162
 10
32.5834841843
 20
46.9303385314
 10
32.4975050551
 20
46.876499482
 10
32.4068868412
 20
46.8307589433
 10
32.3116677647
 20
46.79304994
 10
32.212638792
 20
46.763685693
 10
32.1097681524
 20
46.7427356747
 10
32.0030876166
 20
46.7301304126
 10
31.8934834638
 20
46.7259747107
 10
31.7809311597
 20
46.7303390207
 10
31.6654552386
 20
46.7431528909
 10
31.5480155818
 20
46.7643097705
 10
31.4285958654
 20
46.7938792582
 10
31.3072124134
 20
46.8317917552
 10
31.1848740788
 20
46.8777319146
 10
31.0615734723
 20
46.9317662574
 10
30.9373179832
 20
46.9938282626
 10
30.8131386324
 20
47.0634030203
 10
30.689036477
 20
47.1405523686
 10
30.56501046
 20
47.2252144694
 10
30.4420884309
 20
47.3166888985
 10
30.3202793881
 20
47.4150318662
 10
30.1995743333
 20
47.5201871622
 10
30.0809741213
 20
47.6312857308
 10
29.9644956674
 20
47.7483770371
 10
29.8501220563
 20
47.8714116161
 10
29.7388033969
 20
47.9993720169
 10
29.6305641249
 20
48.1323001777
 10
29.5253798047
 20
48.2701541603
 10
29.4241272376
 20
48.4117906997
 10
29.3268384133
 20
48.5572427846
 10
29.2334813423
 20
48.7064774263
 10
29.1448368567
 20
48.8582523936
 10
29.0609422868
 20
49.0125956555
 10
28.9817603023
 20
49.1694792429
 10
28.9079597451
 20
49.3275770181
 10
28.8397635624
 20
49.4864469351
 10
28.7769488069
 20
49.6465310397
 10
28.7195154787
 20
49.8078293321
  0
LWPOLYLINE
  5
31A
100
AcDbEntity
  8
RACCORDO
100
AcDbPolyline
 62
253
  6
CONTINUOUS
 90
15
 70
0
 10
30.9884615735
 20
48.4692867963
 10
30.9853791349
 20
48.4646811012
 10
30.9820468469
 20
48.4606797324
 10
30.9784590328
 20
48.4572915605
 10
30.9746213692
 20
48.454507715
 10
30.9706713648
 20
48.4522774308
 10
30.9666431262
 20
48.4506138409
 10
30.9625025468
 20
48.4495038123
 10
30.9582848149
 20
48.448857181
 10
30.9540218774
 20
48.4486436482
 10
30.9496817873
 20
48.4488935127
 10
30.9452038923
 20
48.449607507
 10
30.940567975
 20
48.4507858754
 10
30.9357942527
 20
48.4524283737
 10
30.9308827255
 20
48.4545350018
  0
LINE
  5
31B
100
AcDbEntity
  8
RACCORDO
100
AcDbLine
 62
253
  6
CONTINUOUS
 10
31.926059845
 20
49.0085954095
 11
31.9239404514
 21
49.0055689937
  0
LINE
  5
31C
100
AcDbEntity
  8
RACCORDO
100
AcDbLine
 62
253
  6
CONTINUOUS
 10
31.4222416076
 20
49.4917847518
 11
31.5125021494
 21
49.6175023763
  0
LWPOLYLINE
  5
31D
100
AcDbEntity
  8
RACCORDO
100
AcDbPolyline
 62
253
  6
CONTINUOUS
 90
3
 70
0
 10
31.2801790064
 20
49.3942139735
 10
31.3026167529
 20
49.4248063035
 10
31.4683870803
 20
49.6519556175
  0
LINE
  5
31E
100
AcDbEntity
  8
RACCORDO
100
AcDbLine
 62
253
  6
CONTINUOUS
 10
30.7709809443
 20
48.6025088149
 11
31.0626554863
 21
48.9982587727
  0
LINE
  5
31F
100
AcDbEntity
  8
RACCORDO
100
AcDbLine
 62
253
  6
CONTINUOUS
 10
30.7529795608
 20
48.6806640841
 11
31.0844287014
 21
49.1282673743
  0
LINE
  5
320
100
AcDbEntity
  8
DRAFT
100
AcDbLine
 62
7
  6
CONTINUOUS
 10
32.104988212
 20
16.8048436109
 11
32.7997523984
 21
16.4036954771
  0
LINE
  5
321
100
AcDbEntity
  8
DRAFT
100
AcDbLine
 62
7
  6
CONTINUOUS
 10
26.1971900514
 20
21.4174406258
 11
26.4513985552
 21
21.2706638218
  0
LWPOLYLINE
  5
322
100
AcDbEntity
  8
RACCORDO
100
AcDbPolyline
 62
7
  6
CONTINUOUS
 90
4
 70
0
 10
31.9075145539
 20
-16.024069024
 10
31.9128590214
 20
-16.0352983136
 10
31.916581644
 20
-16.0457997547
 10
31.9186227698
 20
-16.0547325048
  0
LWPOLYLINE
  5
323
100
AcDbEntity
  8
RACCORDO
100
AcDbPolyline
 62
253
  6
CONTINUOUS
 90
8
 70
0
 10
31.9191905615
 20
-16.0265954882
 10
31.9222223953
 20
-16.0331270062
 10
31.9248914822
 20
-16.039538164
 10
31.9272080878
 20
-16.0457980007
 10
31.9291619466
 20
-16.0519374771
 10
31.9307827533
 20
-16.0580437718
 10
31.9320804062
 20
-16.0641459441
 10
31.9330450069
 20
-16.0702149346
  0
LINE
  5
324
100
AcDbEntity
  8
RACCORDO
100
AcDbLine
 62
7
  6
CONTINUOUS
 10
31.116752615
 20
-15.3395124761
 11
31.1285621727
 21
-15.3654542635
  0
LWPOLYLINE
  5
325
100
AcDbEntity
  8
RACCORDO
100
AcDbPolyline
 62
7
  6
CONTINUOUS
 90
13
 70
0
 10
28.7522744069
 20
-16.0327419363
 10
28.7517007209
 20
-16.0314618934
 10
28.7462950232
 20
-16.0180795886
 10
28.7413612443
 20
-16.0033437523
 10
28.7368903641
 20
-15.9872479371
 10
28.7328914026
 20
-15.9697985904
 10
28.7294003065
 20
-15.9510235245
 10
28.7264170329
 20
-15.9308868576
 10
28.7239416247
 20
-15.9094244715
 10
28.7220101576
 20
-15.8867718251
 10
28.7206346569
 20
-15.8629740712
 10
28.7198030972
 20
-15.8379860569
 10
28.7195154787
 20
-15.8118077823
  0
LWPOLYLINE
  5
326
100
AcDbEntity
  8
RACCORDO
100
AcDbPolyline
 62
7
  6
CONTINUOUS
 90
5
 70
0
 10
30.9709287173
 20
-14.402787315
 10
30.9756222036
 20
-14.4139595814
 10
30.9794783959
 20
-14.4258387305
 10
30.9822346906
 20
-14.4380360989
 10
30.9827802389
 20
-14.4414791084
  0
LWPOLYLINE
  5
327
100
AcDbEntity
  8
RACCORDO
100
AcDbPolyline
 62
253
  6
CONTINUOUS
 90
6
 70
0
 10
30.983783783
 20
-14.4085524859
 10
30.9866785676
 20
-14.415774688
 10
30.989382738
 20
-14.4233029711
 10
30.9917757741
 20
-14.4310173889
 10
30.9938175029
 20
-14.4388779592
 10
30.9955480975
 20
-14.4469246642
  0
LINE
  5
328
100
AcDbEntity
  8
RACCORDO
100
AcDbLine
 62
7
  6
CONTINUOUS
 10
29.5980249466
 20
53.686512157
 11
29.5721068382
 21
53.615425823
  0
LINE
  5
329
100
AcDbEntity
  8
RACCORDO
100
AcDbLine
 62
7
  6
CONTINUOUS
 10
29.5721068382
 20
53.615425823
 11
29.535250843
 21
53.5159433145
  0
LWPOLYLINE
  5
32A
100
AcDbEntity
  8
RACCORDO
100
AcDbPolyline
 62
253
  6
CONTINUOUS
 90
33
 70
0
 10
28.7536331322
 20
51.8866090103
 10
28.7733897697
 20
51.9374611633
 10
28.7947351361
 20
51.9874230558
 10
28.8176972517
 20
52.036418091
 10
28.8420422503
 20
52.0838825489
 10
28.8680268798
 20
52.1302555866
 10
28.896542647
 20
52.1768145623
 10
28.9280072158
 20
52.2236930236
 10
28.9623378779
 20
52.2702251598
 10
28.9998243334
 20
52.3162945684
 10
29.0406064686
 20
52.3615510124
 10
29.0848820941
 20
52.4056971807
 10
29.1330753395
 20
52.4485980815
 10
29.1854206599
 20
52.4898619651
 10
29.2420645309
 20
52.5290064364
 10
29.3033388076
 20
52.5656500875
 10
29.3695719576
 20
52.5993397245
 10
29.4407918248
 20
52.629440581
 10
29.5168425137
 20
52.655294374
 10
29.5979835656
 20
52.6764152784
 10
29.6841264161
 20
52.6922079382
 10
29.7744505835
 20
52.7020649012
 10
29.8688926357
 20
52.7056185635
 10
29.9673734867
 20
52.7025082697
 10
30.0688773866
 20
52.6925006013
 10
30.1731252187
 20
52.6754575782
 10
30.2800017929
 20
52.6512342675
 10
30.3886227238
 20
52.6199211102
 10
30.4986258647
 20
52.5815831387
 10
30.6098499038
 20
52.5362375582
 10
30.7216641822
 20
52.4841249876
 10
30.8336732341
 20
52.4254547581
 10
30.8820390868
 20
52.3981328464
  0
LINE
  5
32B
100
AcDbEntity
  8
RACCORDO
100
AcDbLine
 62
7
  6
CONTINUOUS
 10
29.535250843
 20
53.5159433145
 11
29.5231248889
 21
53.4849545009
  0
LWPOLYLINE
  5
32C
100
AcDbEntity
  8
RACCORDO
100
AcDbPolyline
 62
7
  6
CONTINUOUS
 90
6
 70
0
 10
29.5231248889
 20
53.4849545009
 10
29.5108516254
 20
53.4552021289
 10
29.4984603423
 20
53.4266743921
 10
29.4856830328
 20
53.3995853953
 10
29.4725136851
 20
53.3739658795
 10
29.458958311
 20
53.3497851036
  0
LINE
  5
32D
100
AcDbEntity
  8
RACCORDO
100
AcDbLine
 62
253
  6
CONTINUOUS
 10
31.8938101014
 20
49.0589752681
 11
31.9221773784
 21
49.1174373498
  0
LINE
  5
32E
100
AcDbEntity
  8
RACCORDO
100
AcDbLine
 62
7
  6
CONTINUOUS
 10
31.9188646713
 20
49.0551801544
 11
31.9188253965
 21
49.0551001238
  0
LWPOLYLINE
  5
32F
100
AcDbEntity
  8
RACCORDO
100
AcDbPolyline
 62
7
  6
CONTINUOUS
 90
7
 70
0
 10
33.1146254288
 20
46.6771953175
 10
33.1130100079
 20
46.6740241413
 10
33.1035485707
 20
46.6495115362
 10
33.0961617776
 20
46.6232648275
 10
33.0909081005
 20
46.5954429403
 10
33.0877290675
 20
46.5658869493
 10
33.0866246787
 20
46.5345968547
  0
LWPOLYLINE
  5
330
100
AcDbEntity
  8
RACCORDO
100
AcDbPolyline
 62
253
  6
CONTINUOUS
 90
17
 70
0
 10
31.9188253965
 20
49.0551001238
 10
31.9186435647
 20
49.0547461217
 10
31.9179170703
 20
49.0535548209
 10
31.9170742395
 20
49.0525022984
 10
31.9161118741
 20
49.0516057981
 10
31.9150279156
 20
49.0508800609
 10
31.9138168027
 20
49.050336475
 10
31.9124671361
 20
49.0499916948
 10
31.9109723372
 20
49.0498652978
 10
31.9093312613
 20
49.0499753284
 10
31.9075388884
 20
49.0503413328
 10
31.9055954933
 20
49.0509907907
 10
31.903504416
 20
49.0519406071
 10
31.9012690479
 20
49.0531949437
 10
31.8988984529
 20
49.0547687001
 10
31.8964066799
 20
49.0566887359
 10
31.8938101015
 20
49.058975268
  0
LINE
  5
331
100
AcDbEntity
  8
RACCORDO
100
AcDbLine
 62
7
  6
CONTINUOUS
 10
30.9811372516
 20
48.5159024695
 11
30.9806445661
 21
48.514951336
  0
LINE
  5
332
100
AcDbEntity
  8
RACCORDO
100
AcDbLine
 62
253
  6
CONTINUOUS
 10
30.9911736831
 20
48.4745209709
 11
30.9884615735
 21
48.4692867963
  0
LINE
  5
333
100
AcDbEntity
  8
DRAFT
100
AcDbLine
 62
7
  6
CONTINUOUS
 10
32.7997523984
 20
22.5756777948
 11
32.104988212
 21
22.1460252002
  0
LINE
  5
334
100
AcDbEntity
  8
DRAFT
100
AcDbLine
 62
7
  6
CONTINUOUS
 10
26.4513985552
 20
21.2706638218
 11
26.199148828
 21
21.1250184737
  0
LINE
  5
335
100
AcDbEntity
  8
0
100
AcDbLine
 62
7
  6
CONTINUOUS
 10
24.7812817853
 20
20.6261535859
 11
26.4700859714
 21
21.5699498031
  0
LINE
  5
336
100
AcDbEntity
  8
0
100
AcDbLine
 62
7
  6
CONTINUOUS
 10
26.4700859714
 20
16.720116359
 11
24.7812817853
 21
15.7763201417
  0
LINE
  5
337
100
AcDbEntity
  8
DRAFT
100
AcDbLine
 62
7
  6
CONTINUOUS
 10
26.4513985552
 20
16.8741374746
 11
26.199148828
 21
16.7384857345
  0
LWPOLYLINE
  5
338
100
AcDbEntity
  8
RACCORDO
100
AcDbPolyline
 62
253
  6
CONTINUOUS
 90
3
 70
0
 10
32.60812465
 20
46.4455014847
 10
32.5917197024
 20
46.4417236471
 10
32.5709285209
 20
46.4390015833
  0
LWPOLYLINE
  5
339
100
AcDbEntity
  8
RACCORDO
100
AcDbPolyline
 62
253
  6
CONTINUOUS
 90
16
 70
0
 10
32.0192670942
 20
44.8695692998
 10
32.0273454396
 20
44.8710802844
 10
32.034978994
 20
44.8734001891
 10
32.0421677575
 20
44.8765290137
 10
32.0489417357
 20
44.8804890531
 10
32.055270923
 20
44.8852580125
 10
32.0610653019
 20
44.8907690078
 10
32.0663164293
 20
44.8970318974
 10
32.0710327484
 20
44.9040368228
 10
32.0751495716
 20
44.911687325
 10
32.0786587944
 20
44.9199945233
 10
32.0815685213
 20
44.9289472984
 10
32.0838383788
 20
44.9384158332
 10
32.0854549089
 20
44.9483568552
 10
32.0864315696
 20
44.9588136368
 10
32.0867683609
 20
44.969786178
  0
LWPOLYLINE
  5
33A
100
AcDbEntity
  8
RACCORDO
100
AcDbPolyline
 62
7
  6
CONTINUOUS
 90
10
 70
0
 10
33.1335992683
 20
45.1376343212
 10
33.1650256282
 20
45.142891118
 10
33.265674433
 20
45.1624356569
 10
33.3644956967
 20
45.1857904471
 10
33.4613954004
 20
45.2129019498
 10
33.5563469054
 20
45.2437305905
 10
33.6493835529
 20
45.2782629275
 10
33.7404709412
 20
45.3164698654
 10
33.8295144465
 20
45.3582944716
 10
33.9164527023
 20
45.4036874173
  0
LWPOLYLINE
  5
33B
100
AcDbEntity
  8
RACCORDO
100
AcDbPolyline
 62
7
  6
CONTINUOUS
 90
6
 70
0
 10
32.2700397591
 20
44.694552077
 10
32.2915293899
 20
44.6979764856
 10
32.3210077683
 20
44.7048049429
 10
32.3497224582
 20
44.713973429
 10
32.3774747996
 20
44.7254012885
 10
32.3999665183
 20
44.7367053873
  0
LWPOLYLINE
  5
33C
100
AcDbEntity
  8
RACCORDO
100
AcDbPolyline
 62
253
  6
CONTINUOUS
 90
33
 70
0
 10
33.0354398842
 20
-15.4782512308
 10
33.0852644902
 20
-15.62215738
 10
33.1304862632
 20
-15.7656154839
 10
33.1710747535
 20
-15.9086232359
 10
33.2070604108
 20
-16.0511829426
 10
33.2382284621
 20
-16.1924150294
 10
33.2645465242
 20
-16.3322911893
 10
33.2860469802
 20
-16.4708397294
 10
33.302612206
 20
-16.607265997
 10
33.31422009
 20
-16.7415402644
 10
33.3208927437
 20
-16.8736922593
 10
33.3225788775
 20
-17.0030165118
 10
33.3192565587
 20
-17.1295301271
 10
33.3109477201
 20
-17.2532160001
 10
33.2976668701
 20
-17.3733173445
 10
33.2793465892
 20
-17.4898971652
 10
33.2560542969
 20
-17.6028924573
 10
33.2280067607
 20
-17.7113574206
 10
33.1950961583
 20
-17.8152601891
 10
33.1574303119
 20
-17.9146326287
 10
33.115549456
 20
-18.0086245364
 10
33.0694687689
 20
-18.0970150057
 10
33.0191730723
 20
-18.1800249432
 10
32.9651570663
 20
-18.2574668645
 10
32.9075907074
 20
-18.3292121649
 10
32.846304039
 20
-18.3953894492
 10
32.7812818915
 20
-18.4561970483
 10
32.7123892738
 20
-18.5118221092
 10
32.639761177
 20
-18.5620774848
 10
32.5637874041
 20
-18.606600065
 10
32.4845978896
 20
-18.6452688129
 10
32.402062699
 20
-18.6782047653
 10
32.3161818323
 20
-18.7054079223
  0
LWPOLYLINE
  5
33D
100
AcDbEntity
  8
RACCORDO
100
AcDbPolyline
 62
253
  6
CONTINUOUS
 90
5
 70
0
 10
31.1195577576
 20
-15.3172068334
 10
31.1237657516
 20
-15.3304310641
 10
31.129137664
 20
-15.3443799286
 10
31.1356019033
 20
-15.3587734121
 10
31.1429436946
 20
-15.37277147
  0
LWPOLYLINE
  5
33E
100
AcDbEntity
  8
RACCORDO
100
AcDbPolyline
 62
7
  6
CONTINUOUS
 90
10
 70
0
 10
28.7724469019
 20
-13.5131617019
 10
28.7466736673
 20
-13.4003658358
 10
28.7404868408
 20
-13.3691273239
 10
28.7350726526
 20
-13.3372975975
 10
28.7304050826
 20
-13.3046870263
 10
28.7265101509
 20
-13.2714852406
 10
28.7234659185
 20
-13.2382611306
 10
28.7212984059
 20
-13.2052043265
 10
28.7199815926
 20
-13.172125198
 10
28.7195154787
 20
-13.1390237453
  0
LWPOLYLINE
  5
33F
100
AcDbEntity
  8
RACCORDO
100
AcDbPolyline
 62
253
  6
CONTINUOUS
 90
6
 70
0
 10
29.5707122099
 20
-17.4476437489
 10
29.5805173215
 20
-17.4925802599
 10
29.5881629967
 20
-17.5367179431
 10
29.5936081045
 20
-17.5798680178
 10
29.5968937759
 20
-17.6222192647
 10
29.5980200108
 20
-17.6637716837
  0
LWPOLYLINE
  5
340
100
AcDbEntity
  8
RACCORDO
100
AcDbPolyline
 62
253
  6
CONTINUOUS
 90
7
 70
0
 10
29.8152355264
 20
-14.7767837101
 10
29.8167684265
 20
-14.7838398668
 10
29.8192617942
 20
-14.7901159515
 10
29.8226448246
 20
-14.7954337401
 10
29.8268214484
 20
-14.7996422214
 10
29.8316730606
 20
-14.8026218859
 10
29.8330189676
 20
-14.8031804746
  0
LWPOLYLINE
  5
341
100
AcDbEntity
  8
RACCORDO
100
AcDbPolyline
 62
7
  6
CONTINUOUS
 90
9
 70
0
 10
28.7724469019
 20
-13.5131617019
 10
28.7890467526
 20
-13.5966772999
 10
28.8034326844
 20
-13.6815599271
 10
28.8156032203
 20
-13.7677067574
 10
28.8255598373
 20
-13.855220617
 10
28.8333069661
 20
-13.944409984
 10
28.8388460837
 20
-14.0353776843
 10
28.8421757131
 20
-14.128020892
 10
28.8432958543
 20
-14.222339607
  0
LWPOLYLINE
  5
342
100
AcDbEntity
  8
RACCORDO
100
AcDbPolyline
 62
7
  6
CONTINUOUS
 90
17
 70
0
 10
29.5108544863
 20
-19.5195426673
 10
29.5140242959
 20
-19.5555534562
 10
29.5197393006
 20
-19.5918149874
 10
29.5278778081
 20
-19.6278324102
 10
29.538400134
 20
-19.6636264028
 10
29.5512818604
 20
-19.6991652344
 10
29.5663033887
 20
-19.7338885505
 10
29.5834303001
 20
-19.7677973739
 10
29.6026526144
 20
-19.8008496958
 10
29.6236346043
 20
-19.8324642759
 10
29.6463259934
 20
-19.8626105607
 10
29.6707506531
 20
-19.8912690518
 10
29.6965535808
 20
-19.9180040681
 10
29.7237125874
 20
-19.9427822876
 10
29.7522635394
 20
-19.9655693566
 10
29.7818655637
 20
-19.9860477666
 10
29.7979565362
 20
-19.9959378919
  0
LWPOLYLINE
  5
343
100
AcDbEntity
  8
RACCORDO
100
AcDbPolyline
 62
253
  6
CONTINUOUS
 90
10
 70
0
 10
29.5101569866
 20
-11.8770132926
 10
29.511510173
 20
-11.8934131764
 10
29.515074673
 20
-11.9082142299
 10
29.520835368
 20
-11.9227828453
 10
29.5287493984
 20
-11.9370105948
 10
29.5387578744
 20
-11.9507915806
 10
29.5507862981
 20
-11.9640232118
 10
29.5647451402
 20
-11.976607002
 10
29.5805305176
 20
-11.9884493
 10
29.5980249466
 20
-11.9994619658
  0
LINE
  5
344
100
AcDbEntity
  8
0
100
AcDbLine
 62
253
  6
CONTINUOUS
 10
22.8547091981
 20
-29.1291315005
 11
22.8547091981
 21
64.1117741093
  0
LINE
  5
345
100
AcDbEntity
  8
0
100
AcDbLine
 62
253
  6
CONTINUOUS
 10
23.5300472208
 20
-29.118474303
 11
23.5300472208
 21
64.1224313068
  0
LINE
  5
346
100
AcDbEntity
  8
0
100
AcDbLine
 62
7
  6
CONTINUOUS
 10
24.6660703735
 20
-3.6220824558
 11
24.6660703735
 21
-2.560671096
  0
LINE
  5
347
100
AcDbEntity
  8
0
100
AcDbLine
 62
7
  6
CONTINUOUS
 10
24.6660703735
 20
1.276739205
 11
24.6660703735
 21
2.3381505648
  0
LINE
  5
348
100
AcDbEntity
  8
0
100
AcDbLine
 62
7
  6
CONTINUOUS
 10
24.6660703735
 20
33.9355502767
 11
24.6660703735
 21
34.9969616365
  0
LINE
  5
349
100
AcDbEntity
  8
0
100
AcDbLine
 62
7
  6
CONTINUOUS
 10
24.6660703735
 20
38.8343719374
 11
24.6660703735
 21
39.8957832973
  0
LINE
  5
34A
100
AcDbEntity
  8
0
100
AcDbLine
 62
7
  6
CONTINUOUS
 10
24.7812817853
 20
-25.4186876739
 11
24.7812817853
 21
-20.5606895269
  0
LINE
  5
34B
100
AcDbEntity
  8
0
100
AcDbLine
 62
7
  6
CONTINUOUS
 10
24.7812817853
 20
15.7763201417
 11
24.7812817853
 21
20.6261535859
  0
LINE
  5
34C
100
AcDbEntity
  8
0
100
AcDbLine
 62
7
  6
CONTINUOUS
 10
24.7812817853
 20
56.9631632545
 11
24.7812817853
 21
61.8211614015
  0
LINE
  5
34D
100
AcDbEntity
  8
RACCORDO
100
AcDbLine
 62
7
  6
CONTINUOUS
 10
24.7978992499
 20
-3.1669080212
 11
24.7978992499
 21
-2.8281419456
  0
LINE
  5
34E
100
AcDbEntity
  8
RACCORDO
100
AcDbLine
 62
7
  6
CONTINUOUS
 10
24.7978992499
 20
1.7319136395
 11
24.7978992499
 21
2.0706797151
  0
LINE
  5
34F
100
AcDbEntity
  8
RACCORDO
100
AcDbLine
 62
7
  6
CONTINUOUS
 10
24.7978992499
 20
34.3907247112
 11
24.7978992499
 21
34.7294907868
  0
LINE
  5
350
100
AcDbEntity
  8
RACCORDO
100
AcDbLine
 62
7
  6
CONTINUOUS
 10
24.7978992499
 20
39.289546372
 11
24.7978992499
 21
39.6283124476
  0
LINE
  5
351
100
AcDbEntity
  8
DRAFT
100
AcDbLine
 62
7
  6
CONTINUOUS
 10
24.8347079646
 20
20.6560110592
 11
24.8347079646
 21
16.4384271487
  0
LINE
  5
352
100
AcDbEntity
  8
DRAFT
100
AcDbLine
 62
7
  6
CONTINUOUS
 10
24.8347079646
 20
-20.5308320536
 11
24.8347079646
 21
-24.7524983155
  0
LINE
  5
353
100
AcDbEntity
  8
DRAFT
100
AcDbLine
 62
7
  6
CONTINUOUS
 10
24.8347079646
 20
57.6293526129
 11
24.8347079646
 21
61.8510188748
  0
LINE
  5
354
100
AcDbEntity
  8
DRAFT
100
AcDbLine
 62
7
  6
CONTINUOUS
 10
26.199148828
 20
21.1250184737
 11
26.199148828
 21
16.7384857345
  0
LINE
  5
355
100
AcDbEntity
  8
DRAFT
100
AcDbLine
 62
7
  6
CONTINUOUS
 10
26.199148828
 20
-20.0659069905
 11
26.199148828
 21
-24.4524397297
  0
LINE
  5
356
100
AcDbEntity
  8
DRAFT
100
AcDbLine
 62
7
  6
CONTINUOUS
 10
26.199148828
 20
57.9294111987
 11
26.199148828
 21
62.3159439379
  0
LINE
  5
357
100
AcDbEntity
  8
DRAFT
100
AcDbLine
 62
7
  6
CONTINUOUS
 10
26.4513985552
 20
21.2706638218
 11
26.4513985552
 21
16.8741374746
  0
LINE
  5
358
100
AcDbEntity
  8
DRAFT
100
AcDbLine
 62
7
  6
CONTINUOUS
 10
26.4513985552
 20
-19.9202616424
 11
26.4513985552
 21
-24.3167879896
  0
LINE
  5
359
100
AcDbEntity
  8
DRAFT
100
AcDbLine
 62
7
  6
CONTINUOUS
 10
26.4513985552
 20
58.0650629388
 11
26.4513985552
 21
62.461589286
  0
LINE
  5
35A
100
AcDbEntity
  8
0
100
AcDbLine
 62
7
  6
CONTINUOUS
 10
26.4700859714
 20
62.7649576187
 11
26.4700859714
 21
57.9069594718
  0
LINE
  5
35B
100
AcDbEntity
  8
0
100
AcDbLine
 62
7
  6
CONTINUOUS
 10
26.4700859714
 20
21.5699498031
 11
26.4700859714
 21
16.720116359
  0
LINE
  5
35C
100
AcDbEntity
  8
0
100
AcDbLine
 62
7
  6
CONTINUOUS
 10
26.4700859714
 20
-19.6168933097
 11
26.4700859714
 21
-24.4748914566
  0
LWPOLYLINE
  5
35D
100
AcDbEntity
  8
RACCORDO
100
AcDbPolyline
 62
253
  6
CONTINUOUS
 90
19
 70
0
 10
27.4617294871
 20
66.4396798684
 10
27.462518879
 20
66.4612469755
 10
27.464881181
 20
66.4835651497
 10
27.4687988138
 20
66.5064682899
 10
27.4742426217
 20
66.5297859382
 10
27.4811720916
 20
66.5533445563
 10
27.4895356558
 20
66.5769688172
 10
27.4992710725
 20
66.6004829
 10
27.5103058881
 20
66.6237117979
 10
27.5225579787
 20
66.6464826291
 10
27.5359361625
 20
66.668625923
 10
27.5503408723
 20
66.6899768722
 10
27.5656648959
 20
66.7103765607
 10
27.5817941834
 20
66.7296731609
 10
27.5986086929
 20
66.7477230564
 10
27.6159832764
 20
66.7643919036
 10
27.6337886206
 20
66.779555642
 10
27.6518922099
 20
66.7931014164
 10
27.6701593071
 20
66.8049284114
  0
LINE
  5
35E
100
AcDbEntity
  8
RACCORDO
100
AcDbLine
 62
253
  6
CONTINUOUS
 10
30.5672528941
 20
50.3414566223
 11
30.6847040861
 21
51.0427616516
  0
LINE
  5
35F
100
AcDbEntity
  8
RACCORDO
100
AcDbLine
 62
253
  6
CONTINUOUS
 10
30.6355283726
 20
50.3336467183
 11
30.7529795647
 21
51.0349517482
  0
LINE
  5
360
100
AcDbEntity
  8
RACCORDO
100
AcDbLine
 62
7
  6
CONTINUOUS
 10
31.100460874
 20
49.2239960177
 11
30.983009683
 21
48.5226909942
  0
LINE
  5
361
100
AcDbEntity
  8
RACCORDO
100
AcDbLine
 62
253
  6
CONTINUOUS
 10
31.1144187503
 20
49.195323548
 11
30.9969675594
 21
48.4940185248
  0
LWPOLYLINE
  5
362
100
AcDbEntity
  8
RACCORDO
100
AcDbPolyline
 62
7
  6
CONTINUOUS
 90
4
 70
0
 10
31.9189989581
 20
49.0560437827
 10
31.918866628
 20
49.0553522775
 10
31.9187655887
 20
49.0549606413
 10
31.9188558475
 20
49.0551624971
  0
LWPOLYLINE
  5
363
100
AcDbEntity
  8
RACCORDO
100
AcDbPolyline
 62
7
  6
CONTINUOUS
 90
5
 70
0
 10
30.9829979471
 20
48.5226201118
 10
30.982583913
 20
48.5205038499
 10
30.9820007167
 20
48.5182679564
 10
30.9814094351
 20
48.5165505764
 10
30.9811372516
 20
48.5159024695
  0
LWPOLYLINE
  5
364
100
AcDbEntity
  8
RACCORDO
100
AcDbPolyline
 62
253
  6
CONTINUOUS
 90
16
 70
0
 10
29.7961879847
 20
50.4930410295
 10
29.796604625
 20
50.4949845808
 10
29.7972184075
 20
50.4969193447
 10
29.7980315502
 20
50.4988349753
 10
29.7990393265
 20
50.5007186988
 10
29.8002507261
 20
50.502561172
 10
29.8016885683
 20
50.5043561111
 10
29.8033556357
 20
50.5060904885
 10
29.8052530736
 20
50.5077519298
 10
29.8074014505
 20
50.5093332202
 10
29.8097984898
 20
50.5108171161
 10
29.8124497678
 20
50.5121922375
 10
29.8153886142
 20
50.5134545928
 10
29.8186261311
 20
50.5145872162
 10
29.822155137
 20
50.5155672558
 10
29.8254756085
 20
50.5162828206
  0
LINE
  5
365
100
AcDbEntity
  8
RACCORDO
100
AcDbLine
 62
253
  6
CONTINUOUS
 10
30.5649194175
 20
50.3307191213
 11
30.5672528941
 21
50.3414566223
  0
LINE
  5
366
100
AcDbEntity
  8
RACCORDO
100
AcDbLine
 62
253
  6
CONTINUOUS
 10
31.1167522269
 20
49.2060610489
 11
31.1144187503
 21
49.195323548
  0
LWPOLYLINE
  5
367
100
AcDbEntity
  8
RACCORDO
100
AcDbPolyline
 62
253
  6
CONTINUOUS
 90
19
 70
0
 10
30.6847040861
 20
51.0427616516
 10
30.6862650492
 20
51.0498893148
 10
30.6881963413
 20
51.0563884984
 10
30.6904979622
 20
51.0622592025
 10
30.693210072
 20
51.067493376
 10
30.6962925106
 20
51.07209907
 10
30.6996247987
 20
51.0761004376
 10
30.7032126125
 20
51.0794886081
 10
30.7070502758
 20
51.0822724523
 10
30.7110002798
 20
51.0845027353
 10
30.7150285175
 20
51.0861663242
 10
30.7191690959
 20
51.087276352
 10
30.7233868271
 20
51.0879229827
 10
30.7276497641
 20
51.088136515
 10
30.7319898539
 20
51.0878866502
 10
30.7364677489
 20
51.087172656
 10
30.7411036665
 20
51.0859942884
 10
30.7458773893
 20
51.0843517913
 10
30.7507889173
 20
51.0822451648
  0
LWPOLYLINE
  5
368
100
AcDbEntity
  8
RACCORDO
100
AcDbPolyline
 62
253
  6
CONTINUOUS
 90
4
 70
0
 10
30.9969675594
 20
48.4940185248
 10
30.9954065962
 20
48.4868908607
 10
30.9934753041
 20
48.480391676
 10
30.9911736831
 20
48.4745209709
  0
LWPOLYLINE
  5
369
100
AcDbEntity
  8
RACCORDO
100
AcDbPolyline
 62
253
  6
CONTINUOUS
 90
10
 70
0
 10
29.8152355289
 20
50.180279249
 10
29.8167684185
 20
50.1867246084
 10
29.8192617703
 20
50.193566638
 10
29.822644784
 20
50.2006110451
 10
29.8268213955
 20
50.2076577894
 10
29.831673003
 20
50.2145067611
 10
29.8370618339
 20
50.2209634637
 10
29.8428348598
 20
50.2268445414
 10
29.8488281428
 20
50.2319829851
 10
29.8548714889
 20
50.2362328734
  0
LWPOLYLINE
  5
36A
100
AcDbEntity
  8
RACCORDO
100
AcDbPolyline
 62
253
  6
CONTINUOUS
 90
10
 70
0
 10
30.4813343387
 20
49.660065559
 10
30.4828672388
 20
49.6665109526
 10
30.4853606065
 20
49.6733530099
 10
30.4887436369
 20
49.6803974347
 10
30.4929202607
 20
49.6874441839
 10
30.4977718729
 20
49.6942931486
 10
30.5031607006
 20
49.7007498362
 10
30.5089337155
 20
49.706630894
 10
30.5149269791
 20
49.7117693156
 10
30.5209702986
 20
49.7160191833
  0
LINE
  5
36B
100
AcDbEntity
  8
DRAFT
100
AcDbLine
 62
7
  6
CONTINUOUS
 10
32.7997523984
 20
16.4036954771
 11
32.104988212
 21
16.0025459659
  0
LWPOLYLINE
  5
36C
100
AcDbEntity
  8
RACCORDO
100
AcDbPolyline
 62
7
  6
CONTINUOUS
 90
7
 70
0
 10
29.2811008454
 20
53.1999608923
 10
29.2111369898
 20
53.1808627993
 10
29.1430412638
 20
53.1582986806
 10
29.0768136675
 20
53.132268536
 10
29.0124232132
 20
53.1027587521
 10
28.9499008884
 20
53.0697829425
 10
28.9151002179
 20
53.0494306069
  0
LINE
  5
36D
100
AcDbEntity
  8
RACCORDO
100
AcDbLine
 62
253
  6
CONTINUOUS
 10
29.7961879876
 20
50.493040991
 11
29.858571709
 21
50.5048902142
  0
LINE
  5
36E
100
AcDbEntity
  8
RACCORDO
100
AcDbLine
 62
7
  6
CONTINUOUS
 10
32.2701465164
 20
44.694562741
 11
32.2700401714
 21
44.6945489168
  0
LWPOLYLINE
  5
36F
100
AcDbEntity
  8
RACCORDO
100
AcDbPolyline
 62
253
  6
CONTINUOUS
 90
15
 70
0
 10
32.5709285209
 20
46.4390015833
 10
32.5498199063
 20
46.438480076
 10
32.5285509387
 20
46.4401630159
 10
32.5072799076
 20
46.4440378912
 10
32.4861651245
 20
46.4500758759
 10
32.4653637266
 20
46.4582320494
 10
32.445030523
 20
46.4684457293
 10
32.4253168576
 20
46.4806409113
 10
32.4063694708
 20
46.494726834
 10
32.388329382
 20
46.510598673
 10
32.371330865
 20
46.5281383061
 10
32.3555004592
 20
46.5472151743
 10
32.3409559922
 20
46.5676872872
 10
32.3278057082
 20
46.5894022869
 10
32.316147482
 20
46.6121985568
  0
LWPOLYLINE
  5
370
100
AcDbEntity
  8
RACCORDO
100
AcDbPolyline
 62
253
  6
CONTINUOUS
 90
15
 70
0
 10
32.2597351126
 20
44.6935005055
 10
32.2391867902
 20
44.6930844176
 10
32.2185393171
 20
44.6948925553
 10
32.1979874778
 20
44.6989122947
 10
32.1776842327
 20
44.7051137186
 10
32.1577806962
 20
44.7134506695
 10
32.1384249978
 20
44.7238610991
 10
32.1197611961
 20
44.7362675241
 10
32.1019282107
 20
44.7505775949
 10
32.0850587737
 20
44.766684789
 10
32.0692784183
 20
44.7844692331
 10
32.0547045646
 20
44.8037985915
 10
32.0414456735
 20
44.8245290181
 10
32.0296004335
 20
44.846506219
 10
32.0192570047
 20
44.8695666298
  0
LINE
  5
371
100
AcDbEntity
  8
RACCORDO
100
AcDbLine
 62
7
  6
CONTINUOUS
 10
24.6660703735
 20
34.399207062
 11
24.8400387023
 21
34.2987599294
  0
LINE
  5
372
100
AcDbEntity
  8
RACCORDO
100
AcDbLine
 62
253
  6
CONTINUOUS
 10
24.6660703735
 20
34.4668410522
 11
24.7978992499
 21
34.3907247112
  0
LINE
  5
373
100
AcDbEntity
  8
RACCORDO
100
AcDbLine
 62
253
  6
CONTINUOUS
 10
24.7978992499
 20
34.7294907868
 11
24.6660703735
 21
34.8056071278
  0
LINE
  5
374
100
AcDbEntity
  8
RACCORDO
100
AcDbLine
 62
253
  6
CONTINUOUS
 10
24.9392779005
 20
34.9715893984
 11
24.7825722633
 21
35.0620692693
  0
LINE
  5
375
100
AcDbEntity
  8
0
100
AcDbLine
 62
7
  6
CONTINUOUS
 10
27.3370790436
 20
35.5957448119
 11
27.4820420091
 21
35.509269361
  0
LWPOLYLINE
  5
376
100
AcDbEntity
  8
DRAFT
100
AcDbPolyline
 62
7
  6
CONTINUOUS
 90
26
 70
0
 10
36.8133264221
 20
-13.0783317571
 10
36.7184059837
 20
-12.8244442338
 10
36.615798787
 20
-12.5707646674
 10
36.5056565347
 20
-12.3175611927
 10
36.3887993343
 20
-12.0667124641
 10
36.265330633
 20
-11.8185233575
 10
36.1351469836
 20
-11.572688997
 10
35.9987581526
 20
-11.3301734101
 10
35.8559610258
 20
-11.0907061475
 10
35.7069587174
 20
-10.8545576584
 10
35.5528703369
 20
-10.6235033182
 10
35.3938478925
 20
-10.397839154
 10
35.2297393761
 20
-10.1772691387
 10
35.0612078723
 20
-9.9626805668
 10
34.888048772
 20
-9.7538807555
 10
34.7104666844
 20
-9.5510623874
 10
34.5297385215
 20
-9.3556908052
 10
34.3460059487
 20
-9.1679831453
 10
34.1591273005
 20
-8.9877222712
 10
33.9699544925
 20
-8.8157221159
 10
33.7783526716
 20
-8.6519141917
 10
33.5844566909
 20
-8.4963669864
 10
33.3895230257
 20
-8.3500998963
 10
33.1939705011
 20
-8.21345272
 10
32.997380292
 20
-8.0860856588
 10
32.7997523984
 20
-7.9679987128
  0
LWPOLYLINE
  5
377
100
AcDbEntity
  8
RACCORDO
100
AcDbPolyline
 62
253
  6
CONTINUOUS
 90
16
 70
0
 10
34.6463599406
 20
-15.3153999804
 10
34.587239527
 20
-15.0851752525
 10
34.5209639293
 20
-14.8534996724
 10
34.4478814103
 20
-14.6215911489
 10
34.3679552917
 20
-14.3894474711
 10
34.2812222518
 20
-14.1570708499
 10
34.1881405886
 20
-13.9256858277
 10
34.0886791865
 20
-13.6953027146
 10
33.9828691611
 20
-13.4659112005
 10
33.8712621563
 20
-13.238704897
 10
33.7538332447
 20
-13.0137015881
 10
33.6306073538
 20
-12.7908834898
 10
33.5022109091
 20
-12.5713908629
 10
33.3688527194
 20
-12.355603794
 10
33.2303239759
 20
-12.1431421964
 10
33.0866246787
 20
-11.9340060701
  0
LWPOLYLINE
  5
378
100
AcDbEntity
  8
RACCORDO
100
AcDbPolyline
 62
253
  6
CONTINUOUS
 90
7
 70
0
 10
30.4813343387
 20
-15.0257642301
 10
30.4828672393
 20
-15.0328203736
 10
30.4853606038
 20
-15.0390964518
 10
30.488743629
 20
-15.0444142401
 10
30.4929202478
 20
-15.0486227259
 10
30.4977718567
 20
-15.0516023976
 10
30.4991832459
 20
-15.0521855818
  0
LWPOLYLINE
  5
379
100
AcDbEntity
  8
RACCORDO
100
AcDbPolyline
 62
7
  6
CONTINUOUS
 90
16
 70
0
 10
33.0928638417
 20
-20.0299430466
 10
33.0963754611
 20
-20.0472436292
 10
33.1000034895
 20
-20.0638807361
 10
33.1036968707
 20
-20.0797620467
 10
33.10738742
 20
-20.0948083289
 10
33.111026778
 20
-20.1089158722
 10
33.1145844191
 20
-20.121964976
 10
33.1179711766
 20
-20.1338521015
 10
33.1211287113
 20
-20.1445364121
 10
33.1240711299
 20
-20.153982547
 10
33.1267159591
 20
-20.1620942804
 10
33.1289862862
 20
-20.1687991588
 10
33.1309042802
 20
-20.1740399444
 10
33.1323655023
 20
-20.1777027392
 10
33.1332779996
 20
-20.1796738366
 10
33.1335766653
 20
-20.1799914624
  0
LWPOLYLINE
  5
37A
100
AcDbEntity
  8
RACCORDO
100
AcDbPolyline
 62
253
  6
CONTINUOUS
 90
15
 70
0
 10
30.7529795646
 20
-14.2826703958
 10
30.752247925
 20
-14.279007549
 10
30.7518282465
 20
-14.2756556816
 10
30.7516900363
 20
-14.2726221527
 10
30.7517948108
 20
-14.2699118032
 10
30.7521233897
 20
-14.2675221652
 10
30.7526773176
 20
-14.2654461149
 10
30.7534416172
 20
-14.2636755116
 10
30.7543855219
 20
-14.2622081371
 10
30.7554892502
 20
-14.2610403093
 10
30.7567282802
 20
-14.2601622123
 10
30.7580900138
 20
-14.2595495027
 10
30.7595758048
 20
-14.2591806918
 10
30.7611579571
 20
-14.2590468124
 10
30.7621893956
 20
-14.2590769533
  0
LWPOLYLINE
  5
37B
100
AcDbEntity
  8
RACCORDO
100
AcDbPolyline
 62
253
  6
CONTINUOUS
 90
13
 70
0
 10
30.6355283726
 20
-15.8000233644
 10
30.6326150851
 20
-15.7839400989
 10
30.6284021404
 20
-15.7669644911
 10
30.6228122747
 20
-15.7492165611
 10
30.615726831
 20
-15.7306963536
 10
30.6071445287
 20
-15.7117509515
 10
30.5972785322
 20
-15.6930564532
 10
30.5862019486
 20
-15.6748320469
 10
30.5740309279
 20
-15.6573012166
 10
30.5612139086
 20
-15.6410695735
 10
30.5480416769
 20
-15.6263840486
 10
30.534575487
 20
-15.6132052766
 10
30.5209702986
 20
-15.6016029601
  0
LWPOLYLINE
  5
37C
100
AcDbEntity
  8
RACCORDO
100
AcDbPolyline
 62
7
  6
CONTINUOUS
 90
7
 70
0
 10
33.0928638417
 20
-20.0299430466
 10
33.0909855478
 20
-20.0194666048
 10
33.0894426273
 20
-20.0086132376
 10
33.0882350801
 20
-19.9973829449
 10
33.0873629063
 20
-19.9857757269
 10
33.0868261058
 20
-19.9737915834
 10
33.0866246787
 20
-19.9614305146
  0
LINE
  5
37D
100
AcDbEntity
  8
RACCORDO
100
AcDbLine
 62
253
  6
CONTINUOUS
 10
30.9955480975
 20
-14.4469246642
 11
30.9969675579
 21
-14.4551575039
  0
LWPOLYLINE
  5
37E
100
AcDbEntity
  8
RACCORDO
100
AcDbPolyline
 62
253
  6
CONTINUOUS
 90
13
 70
0
 10
30.5672528941
 20
-15.8063718877
 10
30.5652295539
 20
-15.7940368949
 10
30.5621138868
 20
-15.7812572832
 10
30.5579058929
 20
-15.7680330525
 10
30.5525339804
 20
-15.754084188
 10
30.5460697411
 20
-15.7396907045
 10
30.5387279499
 20
-15.7256926466
 10
30.5304077474
 20
-15.7121526862
 10
30.521209993
 20
-15.6990081514
 10
30.5116520396
 20
-15.6869110709
 10
30.5019063382
 20
-15.6760787877
 10
30.4918004379
 20
-15.6662939589
 10
30.4813343387
 20
-15.6575565845
  0
LWPOLYLINE
  5
37F
100
AcDbEntity
  8
RACCORDO
100
AcDbPolyline
 62
253
  6
CONTINUOUS
 90
3
 70
0
 10
31.1144187503
 20
-15.2920922289
 10
31.1164420905
 20
-15.3044272217
 10
31.1195577576
 20
-15.3172068334
  0
LWPOLYLINE
  5
380
100
AcDbEntity
  8
RACCORDO
100
AcDbPolyline
 62
7
  6
CONTINUOUS
 90
4
 70
0
 10
31.1002505293
 20
-15.2785625845
 10
31.1015207765
 20
-15.2865989114
 10
31.1076846515
 20
-15.3131200406
 10
31.116752615
 20
-15.3395124761
  0
LINE
  5
381
100
AcDbEntity
  8
RACCORDO
100
AcDbLine
 62
253
  6
CONTINUOUS
 10
30.6847040824
 20
-16.6433065828
 11
30.5672528941
 21
-15.8063718877
  0
LINE
  5
382
100
AcDbEntity
  8
RACCORDO
100
AcDbLine
 62
253
  6
CONTINUOUS
 10
30.7529795608
 20
-16.6369580594
 11
30.6355283726
 21
-15.8000233644
  0
LINE
  5
383
100
AcDbEntity
  8
RACCORDO
100
AcDbLine
 62
7
  6
CONTINUOUS
 10
30.9828080895
 20
-14.4416924322
 11
31.1002592842
 21
-15.2786271734
  0
LINE
  5
384
100
AcDbEntity
  8
RACCORDO
100
AcDbLine
 62
253
  6
CONTINUOUS
 10
30.9969675579
 20
-14.4551575039
 11
31.1144187503
 21
-15.2920922289
  0
LWPOLYLINE
  5
385
100
AcDbEntity
  8
RACCORDO
100
AcDbPolyline
 62
253
  6
CONTINUOUS
 90
9
 70
0
 10
30.7507889173
 20
-14.2353769787
 10
30.7513650303
 20
-14.2401568667
 10
30.7524114716
 20
-14.2445960589
 10
30.7539140909
 20
-14.2486345222
 10
30.7558525689
 20
-14.2522176427
 10
30.7582006917
 20
-14.2552969636
 10
30.7609267054
 20
-14.2578308411
 10
30.7639937458
 20
-14.2597850076
 10
30.7644255088
 20
-14.2599998805
  0
LINE
  5
386
100
AcDbEntity
  8
RACCORDO
100
AcDbLine
 62
253
  6
CONTINUOUS
 10
31.9330450069
 20
-16.0702149346
 11
31.9336765556
 21
-16.0762507432
  0
LWPOLYLINE
  5
387
100
AcDbEntity
  8
RACCORDO
100
AcDbPolyline
 62
7
  6
CONTINUOUS
 90
17
 70
0
 10
29.5108544863
 20
45.7980794761
 10
29.5140242959
 20
45.7620686872
 10
29.5197393006
 20
45.7258071561
 10
29.5278778081
 20
45.6897897332
 10
29.538400134
 20
45.6539957406
 10
29.5512818604
 20
45.6184569091
 10
29.5663033887
 20
45.583733593
 10
29.5834303001
 20
45.5498247695
 10
29.6026526144
 20
45.5167724477
 10
29.6236346043
 20
45.4851578675
 10
29.6463259934
 20
45.4550115827
 10
29.6707506531
 20
45.4263530916
 10
29.6965535808
 20
45.3996180754
 10
29.7237125874
 20
45.3748398558
 10
29.7522635394
 20
45.3520527868
 10
29.7818655637
 20
45.3315743768
 10
29.7979565362
 20
45.3216842515
  0
LWPOLYLINE
  5
388
100
AcDbEntity
  8
RACCORDO
100
AcDbPolyline
 62
253
  6
CONTINUOUS
 90
10
 70
0
 10
31.2003373058
 20
-16.0726998865
 10
31.1998083985
 20
-16.0650640498
 10
31.2002985058
 20
-16.0570653524
 10
31.2017937115
 20
-16.0489309347
 10
31.2042515576
 20
-16.040891792
 10
31.2076022493
 20
-16.0331762148
 10
31.2117506372
 20
-16.0260033059
 10
31.2165789192
 20
-16.0195767581
 10
31.2219499857
 20
-16.0140790702
 10
31.227711313
 20
-16.0096663642
  0
LWPOLYLINE
  5
389
100
AcDbEntity
  8
RACCORDO
100
AcDbPolyline
 62
253
  6
CONTINUOUS
 90
10
 70
0
 10
31.8664360943
 20
-16.3216803976
 10
31.8659071921
 20
-16.3140445451
 10
31.8663973072
 20
-16.3060458348
 10
31.8678925216
 20
-16.2979114088
 10
31.8703503753
 20
-16.2898722633
 10
31.8737010717
 20
-16.2821566887
 10
31.8778494599
 20
-16.2749837868
 10
31.8826777367
 20
-16.2685572491
 10
31.8880487918
 20
-16.2630595721
 10
31.8938101015
 20
-16.2586468754
  0
LWPOLYLINE
  5
38A
100
AcDbEntity
  8
RACCORDO
100
AcDbPolyline
 62
253
  6
CONTINUOUS
 90
10
 70
0
 10
29.7479950928
 20
-15.0222133775
 10
29.7465318814
 20
-14.9982746312
 10
29.7454344749
 20
-14.9745413379
 10
29.7447028735
 20
-14.9510134976
 10
29.74433708
 20
-14.927687233
 10
29.7443370916
 20
-14.9045664213
 10
29.7447028992
 20
-14.8816626947
 10
29.7454345
 20
-14.8589799305
 10
29.7465318968
 20
-14.8365142514
 10
29.7479950898
 20
-14.8142656575
  0
LWPOLYLINE
  5
38B
100
AcDbEntity
  8
RACCORDO
100
AcDbPolyline
 62
253
  6
CONTINUOUS
 90
7
 70
0
 10
29.7961879905
 20
-15.0267223802
 10
29.7947662088
 20
-15.0034763272
 10
29.7936994572
 20
-14.9804090161
 10
29.7929880915
 20
-14.9575281459
 10
29.7926323494
 20
-14.9348413529
 10
29.7926323495
 20
-14.9123562091
 10
29.7929880915
 20
-14.8900802189
  0
LINE
  5
38C
100
AcDbEntity
  8
RACCORDO
100
AcDbLine
 62
7
  6
CONTINUOUS
 10
31.9205663249
 20
-16.0824299838
 11
31.9191488889
 21
-16.0592558014
  0
LINE
  5
38D
100
AcDbEntity
  8
RACCORDO
100
AcDbLine
 62
253
  6
CONTINUOUS
 10
31.9336765556
 20
-16.0762507432
 11
31.9351397653
 21
-16.1001894881
  0
LWPOLYLINE
  5
38E
100
AcDbEntity
  8
RACCORDO
100
AcDbPolyline
 62
253
  6
CONTINUOUS
 90
10
 70
0
 10
29.7479950928
 20
50.2954087659
 10
29.7465318814
 20
50.3193475122
 10
29.7454344749
 20
50.3430808055
 10
29.7447028735
 20
50.3666086458
 10
29.74433708
 20
50.3899349105
 10
29.7443370916
 20
50.4130557222
 10
29.7447028992
 20
50.4359594488
 10
29.7454345
 20
50.4586422129
 10
29.7465318968
 20
50.481107892
 10
29.7479950898
 20
50.503356486
  0
LWPOLYLINE
  5
38F
100
AcDbEntity
  8
RACCORDO
100
AcDbPolyline
 62
253
  6
CONTINUOUS
 90
7
 70
0
 10
29.7961879905
 20
50.2908997632
 10
29.7947662088
 20
50.3141458162
 10
29.7936994572
 20
50.3372131273
 10
29.7929880915
 20
50.3600939976
 10
29.7926323494
 20
50.3827807905
 10
29.7926323495
 20
50.4052659343
 10
29.7929880915
 20
50.4275419245
  0
LWPOLYLINE
  5
390
100
AcDbEntity
  8
0
100
AcDbPolyline
 62
7
  6
CONTINUOUS
 90
19
 70
0
 10
32.8207348095
 20
-16.6924009196
 10
32.8058676734
 20
-16.412705444
 10
32.7660668338
 20
-16.1290922756
 10
32.7013322905
 20
-15.8415614145
 10
32.6101281896
 20
-15.5461544686
 10
32.4939903852
 20
-15.24682983
 10
32.3575264394
 20
-14.9554626748
 10
32.1999191413
 20
-14.672372933
 10
32.0219857019
 20
-14.3972406745
 10
31.8307853159
 20
-14.1409812858
 10
31.6257845868
 20
-13.9043535488
 10
31.4075169112
 20
-13.6865986816
 10
31.1846416733
 20
-13.4963557235
 10
30.9569736267
 20
-13.3347307888
 10
30.7246980178
 20
-13.2006177633
 10
30.4970299711
 20
-13.0993373444
 10
30.2741547333
 20
-13.0322095644
 10
30.0558870576
 20
-12.9979143909
 10
29.8508863286
 20
-12.9978124245
  0
LWPOLYLINE
  5
391
100
AcDbEntity
  8
RACCORDO
100
AcDbPolyline
 62
7
  6
CONTINUOUS
 90
17
 70
0
 10
33.1304647576
 20
-11.2967375032
 10
33.1324319023
 20
-11.3340546757
 10
33.1334476735
 20
-11.3711777177
 10
33.1336668543
 20
-11.4079370134
 10
33.1332779996
 20
-11.4441395914
 10
33.1323655023
 20
-11.4796741972
 10
33.1309042802
 20
-11.5145238867
 10
33.1289862862
 20
-11.5485590371
 10
33.1267159591
 20
-11.5816986969
 10
33.1240711299
 20
-11.6140289502
 10
33.1211287113
 20
-11.6455037868
 10
33.1179711766
 20
-11.6760144363
 10
33.1145844191
 20
-11.7055659159
 10
33.111026778
 20
-11.7341535068
 10
33.10738742
 20
-11.7616540013
 10
33.1036968707
 20
-11.7879016786
 10
33.1000034895
 20
-11.8128096197
  0
LWPOLYLINE
  5
392
100
AcDbEntity
  8
0
100
AcDbPolyline
 62
7
  6
CONTINUOUS
 90
5
 70
0
 10
33.068222183
 20
-16.549504812
 10
33.0548348143
 20
-16.2763731546
 10
33.0148537495
 20
-15.9914757367
 10
32.9488196639
 20
-15.6986653069
 10
32.8801534501
 20
-15.4752118538
  0
LWPOLYLINE
  5
393
100
AcDbEntity
  8
RACCORDO
100
AcDbPolyline
 62
253
  6
CONTINUOUS
 90
3
 70
0
 10
31.9351397653
 20
-16.1001894881
 10
31.9362371704
 20
-16.1239227802
 10
31.936968771
 20
-16.1474506196
  0
LWPOLYLINE
  5
394
100
AcDbEntity
  8
RACCORDO
100
AcDbPolyline
 62
7
  6
CONTINUOUS
 90
13
 70
0
 10
33.0866246787
 20
-13.112411296
 10
33.0877290675
 20
-13.1449767112
 10
33.0909081005
 20
-13.1782037697
 10
33.0961617776
 20
-13.2120924716
 10
33.1035485707
 20
-13.2468692638
 10
33.1130100079
 20
-13.2823076994
 10
33.1243706737
 20
-13.3177284373
 10
33.1376664411
 20
-13.3531190468
 10
33.152861437
 20
-13.3884919586
 10
33.1696726267
 20
-13.4232051241
 10
33.1880056652
 20
-13.4570445271
 10
33.2079548975
 20
-13.4902241838
 10
33.2295203235
 20
-13.5227440943
  0
LWPOLYLINE
  5
395
100
AcDbEntity
  8
RACCORDO
100
AcDbPolyline
 62
253
  6
CONTINUOUS
 90
16
 70
0
 10
32.5072945439
 20
-12.1915216588
 10
32.5063437096
 20
-12.1633539137
 10
32.5037740714
 20
-12.1343672892
 10
32.4996019607
 20
-12.1046972233
 10
32.4938479322
 20
-12.0744782633
 10
32.4865342242
 20
-12.0438451194
 10
32.4776969285
 20
-12.0129381583
 10
32.4673801131
 20
-11.981901942
 10
32.4556275564
 20
-11.9508813946
 10
32.4424917975
 20
-11.9200204822
 10
32.4280393336
 20
-11.8894618824
 10
32.4123373215
 20
-11.8593484461
 10
32.3954544238
 20
-11.8298211778
 10
32.3774690662
 20
-11.8010117325
 10
32.358462761
 20
-11.7730490497
 10
32.338518006
 20
-11.7460622675
  0
LWPOLYLINE
  5
396
100
AcDbEntity
  8
RACCORDO
100
AcDbPolyline
 62
253
  6
CONTINUOUS
 90
22
 70
0
 10
30.3310170571
 20
64.6197260684
 10
30.3306091187
 20
64.6322404964
 10
30.329431973
 20
64.6450072544
 10
30.3274856199
 20
64.6580263426
 10
30.3247505042
 20
64.6713768108
 10
30.3212461812
 20
64.6849796091
 10
30.3170313166
 20
64.6985975878
 10
30.3120942193
 20
64.7122273352
 10
30.3064465804
 20
64.725872263
 10
30.3001821396
 20
64.7393054569
 10
30.2932905188
 20
64.7525233858
 10
30.2857820961
 20
64.7655295808
 10
30.2777817453
 20
64.7781077199
 10
30.2692812217
 20
64.7902505959
 10
30.26028877
 20
64.8019654159
 10
30.250953998
 20
64.8130574796
 10
30.2412687524
 20
64.8235179803
 10
30.2312411865
 20
64.8333557247
 10
30.221045369
 20
64.8424024311
 10
30.2107393229
 20
64.8506020058
 10
30.2002650253
 20
64.8580105427
 10
30.189622476
 20
64.8646280416
  0
LWPOLYLINE
  5
397
100
AcDbEntity
  8
RACCORDO
100
AcDbPolyline
 62
253
  6
CONTINUOUS
 90
22
 70
0
 10
29.5980256308
 20
-19.615808366
 10
29.5984267983
 20
-19.6282276867
 10
29.5995872333
 20
-19.640899507
 10
29.601506936
 20
-19.6538238268
 10
29.6042049328
 20
-19.667078707
 10
29.6076621972
 20
-19.6805860867
 10
29.6118216499
 20
-19.694111784
 10
29.6166946094
 20
-19.7076518438
 10
29.6222697571
 20
-19.7212102212
 10
29.6284560584
 20
-19.7345645992
 10
29.6352636633
 20
-19.7477116619
 10
29.6426824217
 20
-19.7606547253
 10
29.6505908486
 20
-19.7731814194
 10
29.6589970247
 20
-19.7852849349
 10
29.6678928692
 20
-19.7969720813
 10
29.677132655
 20
-19.8080509168
 10
29.686722582
 20
-19.8185119518
 10
29.6966564501
 20
-19.8283646759
 10
29.7067699325
 20
-19.8374456168
 10
29.7170082534
 20
-19.8457002835
 10
29.7274261884
 20
-19.8531831669
 10
29.7380237377
 20
-19.859894267
  0
LWPOLYLINE
  5
398
100
AcDbEntity
  8
RACCORDO
100
AcDbPolyline
 62
253
  6
CONTINUOUS
 90
22
 70
0
 10
29.5980256309
 20
45.7018137772
 10
29.5984267983
 20
45.6893944566
 10
29.5995872333
 20
45.6767226364
 10
29.601506936
 20
45.6637983166
 10
29.6042049328
 20
45.6505434365
 10
29.6076621972
 20
45.6370360567
 10
29.6118216499
 20
45.6235103594
 10
29.6166946094
 20
45.6099702996
 10
29.6222697571
 20
45.5964119222
 10
29.6284560584
 20
45.5830575442
 10
29.6352636633
 20
45.5699104815
 10
29.6426824217
 20
45.5569674182
 10
29.6505908486
 20
45.544440724
 10
29.6589970247
 20
45.5323372085
 10
29.6678928692
 20
45.5206500622
 10
29.677132655
 20
45.5095712267
 10
29.686722582
 20
45.4991101917
 10
29.6966564501
 20
45.4892574675
 10
29.7067699325
 20
45.4801765267
 10
29.7170082534
 20
45.47192186
 10
29.7274261884
 20
45.4644389765
 10
29.7380237377
 20
45.4577278764
  0
LWPOLYLINE
  5
399
100
AcDbEntity
  8
RACCORDO
100
AcDbPolyline
 62
253
  6
CONTINUOUS
 90
16
 70
0
 10
32.0867683597
 20
-12.1893998022
 10
32.0864315837
 20
-12.1780385041
 10
32.0854549452
 20
-12.1664540392
 10
32.083838444
 20
-12.1546464076
 10
32.0815686233
 20
-12.1425567918
 10
32.0786589401
 20
-12.1302440093
 10
32.0751497648
 20
-12.1178845121
 10
32.0710329948
 20
-12.1054800676
 10
32.0663167328
 20
-12.0930289084
 10
32.0610656573
 20
-12.0807021843
 10
32.0552713405
 20
-12.0685000212
 10
32.0489422102
 20
-12.0564222932
 10
32.0421682281
 20
-12.0446397723
 10
32.0349793816
 20
-12.0332093827
 10
32.0273456834
 20
-12.0220742002
 10
32.0192671335
 20
-12.0112342248
  0
LINE
  5
39A
100
AcDbEntity
  8
RACCORDO
100
AcDbLine
 62
7
  6
CONTINUOUS
 10
29.5101620403
 20
-19.4933101567
 11
29.5108544863
 21
-19.5195426673
  0
LINE
  5
39B
100
AcDbEntity
  8
RACCORDO
100
AcDbLine
 62
7
  6
CONTINUOUS
 10
29.5101620403
 20
45.8243119867
 11
29.5108544863
 21
45.7980794761
  0
LWPOLYLINE
  5
39C
100
AcDbEntity
  8
RACCORDO
100
AcDbPolyline
 62
253
  6
CONTINUOUS
 90
10
 70
0
 10
30.9308827255
 20
-16.8630871416
 10
30.9307847256
 20
-16.8580311972
 10
30.9311661696
 20
-16.8527675619
 10
30.9320219002
 20
-16.8473674168
 10
30.9333403462
 20
-16.8419037891
 10
30.9351036787
 20
-16.8364505652
 10
30.9372880522
 20
-16.8310814914
 10
30.9398639274
 20
-16.8258691759
 10
30.9427964703
 20
-16.8208841065
 10
30.9460460239
 20
-16.8161936986
  0
LWPOLYLINE
  5
39D
100
AcDbEntity
  8
RACCORDO
100
AcDbPolyline
 62
253
  6
CONTINUOUS
 90
10
 70
0
 10
30.9308827255
 20
48.4545350018
 10
30.9307847256
 20
48.4595909462
 10
30.9311661696
 20
48.4648545815
 10
30.9320219002
 20
48.4702547266
 10
30.9333403462
 20
48.4757183543
 10
30.9351036787
 20
48.4811715782
 10
30.9372880522
 20
48.486540652
 10
30.9398639274
 20
48.4917529676
 10
30.9427964703
 20
48.4967380369
 10
30.9460460239
 20
48.5014284449
  0
LINE
  5
39E
100
AcDbEntity
  8
RACCORDO
100
AcDbLine
 62
253
  6
CONTINUOUS
 10
31.936968771
 20
-16.1474506196
 11
31.937334564
 21
-16.1707768835
  0
LWPOLYLINE
  5
39F
100
AcDbEntity
  8
RACCORDO
100
AcDbPolyline
 62
253
  6
CONTINUOUS
 90
11
 70
0
 10
29.5101569809
 20
-19.4933185033
 10
29.5101684151
 20
-19.4948308156
 10
29.5115105135
 20
-19.5097541545
 10
29.5150753121
 20
-19.5245551588
 10
29.520836261
 20
-19.5391236424
 10
29.528750449
 20
-19.5533511544
 10
29.5387589664
 20
-19.5671318383
 10
29.5507873573
 20
-19.5803631849
 10
29.5647461258
 20
-19.5929467343
 10
29.5805313757
 20
-19.6047888146
 10
29.5980256308
 20
-19.6158012889
  0
LWPOLYLINE
  5
3A0
100
AcDbEntity
  8
RACCORDO
100
AcDbPolyline
 62
253
  6
CONTINUOUS
 90
11
 70
0
 10
29.5101569809
 20
-17.5413529259
 10
29.5101683831
 20
-17.5428631214
 10
29.511510161
 20
-17.5577864421
 10
29.5150746518
 20
-17.5725875015
 10
29.5208353401
 20
-17.5871561247
 10
29.5287494565
 20
-17.6013840238
 10
29.5387580636
 20
-17.6151651507
 10
29.5507862705
 20
-17.6283965225
 10
29.5647442267
 20
-17.6409795899
 10
29.5805280101
 20
-17.6528209159
 10
29.598020011
 20
-17.663832454
  0
LWPOLYLINE
  5
3A1
100
AcDbEntity
  8
RACCORDO
100
AcDbPolyline
 62
253
  6
CONTINUOUS
 90
11
 70
0
 10
29.5101569809
 20
-9.9250140115
 10
29.5101684142
 20
-9.9265262618
 10
29.5115105023
 20
-9.941449595
 10
29.5150752892
 20
-9.9562505941
 10
29.5208362266
 20
-9.970819076
 10
29.5287504065
 20
-9.9850465918
 10
29.53875892
 20
-9.9988272822
 10
29.5507873079
 20
-10.012058633
 10
29.5647460719
 20
-10.0246421828
 10
29.5805313165
 20
-10.0364842616
 10
29.5980255647
 20
-10.0474967327
  0
LWPOLYLINE
  5
3A2
100
AcDbEntity
  8
RACCORDO
100
AcDbPolyline
 62
253
  6
CONTINUOUS
 90
11
 70
0
 10
29.5101569809
 20
45.8243036402
 10
29.5101684151
 20
45.8227913278
 10
29.5115105135
 20
45.8078679889
 10
29.5150753121
 20
45.7930669847
 10
29.520836261
 20
45.778498501
 10
29.528750449
 20
45.7642709891
 10
29.5387589664
 20
45.7504903052
 10
29.5507873573
 20
45.7372589585
 10
29.5647461258
 20
45.7246754091
 10
29.5805313757
 20
45.7128333288
 10
29.5980256309
 20
45.7018208545
  0
LWPOLYLINE
  5
3A3
100
AcDbEntity
  8
RACCORDO
100
AcDbPolyline
 62
253
  6
CONTINUOUS
 90
11
 70
0
 10
29.5101569809
 20
55.3926081319
 10
29.5101684142
 20
55.3910958816
 10
29.5115105023
 20
55.3761725485
 10
29.5150752892
 20
55.3613715493
 10
29.5208362266
 20
55.3468030674
 10
29.5287504065
 20
55.3325755516
 10
29.53875892
 20
55.3187948612
 10
29.5507873079
 20
55.3055635104
 10
29.5647460719
 20
55.2929799606
 10
29.5805313165
 20
55.2811378818
 10
29.5980255647
 20
55.2701254108
  0
LINE
  5
3A4
100
AcDbEntity
  8
RACCORDO
100
AcDbLine
 62
253
  6
CONTINUOUS
 10
27.461729487
 20
66.4396798684
 11
27.461729487
 21
66.3431394359
  0
LINE
  5
3A5
100
AcDbEntity
  8
RACCORDO
100
AcDbLine
 62
253
  6
CONTINUOUS
 10
27.461729487
 20
-1.8948549459
 11
27.461729487
 21
-2.0362462455
  0
LINE
  5
3A6
100
AcDbEntity
  8
RACCORDO
100
AcDbLine
 62
253
  6
CONTINUOUS
 10
27.461729487
 20
2.8625754152
 11
27.461729487
 21
3.0039667148
  0
LINE
  5
3A7
100
AcDbEntity
  8
RACCORDO
100
AcDbLine
 62
253
  6
CONTINUOUS
 10
27.461729487
 20
35.521386487
 11
27.461729487
 21
35.6627777865
  0
LINE
  5
3A8
100
AcDbEntity
  8
RACCORDO
100
AcDbLine
 62
253
  6
CONTINUOUS
 10
27.461729487
 20
40.4202081477
 11
27.461729487
 21
40.5615994473
  0
LINE
  5
3A9
100
AcDbEntity
  8
0
100
AcDbLine
 62
7
  6
CONTINUOUS
 10
27.4820420091
 20
-26.9098832998
 11
27.4820420091
 21
-2.0483633714
  0
LINE
  5
3AA
100
AcDbEntity
  8
0
100
AcDbLine
 62
7
  6
CONTINUOUS
 10
27.4820420091
 20
-0.9869520116
 11
27.4820420091
 21
2.8504582893
  0
LINE
  5
3AB
100
AcDbEntity
  8
0
100
AcDbLine
 62
7
  6
CONTINUOUS
 10
27.4820420091
 20
3.9118696492
 11
27.4820420091
 21
35.509269361
  0
LINE
  5
3AC
100
AcDbEntity
  8
0
100
AcDbLine
 62
7
  6
CONTINUOUS
 10
27.4820420091
 20
36.5706807209
 11
27.4820420091
 21
40.4080910218
  0
LINE
  5
3AD
100
AcDbEntity
  8
0
100
AcDbLine
 62
7
  6
CONTINUOUS
 10
27.4820420091
 20
41.4695023816
 11
27.4820420091
 21
66.33102231
  0
LINE
  5
3AE
100
AcDbEntity
  8
DRAFT
100
AcDbLine
 62
7
  6
CONTINUOUS
 10
27.6756967538
 20
-1.7797902741
 11
27.6756967538
 21
-1.0060746224
  0
LINE
  5
3AF
100
AcDbEntity
  8
DRAFT
100
AcDbLine
 62
7
  6
CONTINUOUS
 10
27.6756967538
 20
3.1190313866
 11
27.6756967538
 21
3.8927470383
  0
LINE
  5
3B0
100
AcDbEntity
  8
DRAFT
100
AcDbLine
 62
7
  6
CONTINUOUS
 10
27.6756967538
 20
35.7778424583
 11
27.6756967538
 21
36.5515581101
  0
LINE
  5
3B1
100
AcDbEntity
  8
DRAFT
100
AcDbLine
 62
7
  6
CONTINUOUS
 10
27.6756967538
 20
40.6766641191
 11
27.6756967538
 21
41.4503797708
  0
LINE
  5
3B2
100
AcDbEntity
  8
RACCORDO
100
AcDbLine
 62
7
  6
CONTINUOUS
 10
28.7195154787
 20
-15.8118077823
 11
28.7195154787
 21
-15.5097928113
  0
LINE
  5
3B3
100
AcDbEntity
  8
RACCORDO
100
AcDbLine
 62
7
  6
CONTINUOUS
 10
28.7195154787
 20
-13.1390237453
 11
28.7195154787
 21
-12.8370087744
  0
LINE
  5
3B4
100
AcDbEntity
  8
RACCORDO
100
AcDbLine
 62
7
  6
CONTINUOUS
 10
28.7195154787
 20
49.0827590384
 11
28.7195154787
 21
49.8078293321
  0
LINE
  5
3B5
100
AcDbEntity
  8
RACCORDO
100
AcDbLine
 62
7
  6
CONTINUOUS
 10
28.7195154787
 20
52.1785983981
 11
28.7195154787
 21
52.9036686918
  0
LINE
  5
3B6
100
AcDbEntity
  8
RACCORDO
100
AcDbLine
 62
7
  6
CONTINUOUS
 10
29.5101569809
 20
55.3926081319
 11
29.5101569809
 21
53.5627740487
  0
LINE
  5
3B7
100
AcDbEntity
  8
RACCORDO
100
AcDbLine
 62
7
  6
CONTINUOUS
 10
29.5101569809
 20
47.6198192483
 11
29.5101569809
 21
45.8243036402
  0
LINE
  5
3B8
100
AcDbEntity
  8
RACCORDO
100
AcDbLine
 62
7
  6
CONTINUOUS
 10
29.5101569809
 20
-9.9250140115
 11
29.5101569809
 21
-11.8769795876
  0
LINE
  5
3B9
100
AcDbEntity
  8
RACCORDO
100
AcDbLine
 62
7
  6
CONTINUOUS
 10
29.5101569809
 20
-17.5413529259
 11
29.5101569809
 21
-19.4933185033
  0
LINE
  5
3BA
100
AcDbEntity
  8
RACCORDO
100
AcDbLine
 62
253
  6
CONTINUOUS
 10
29.5980200108
 20
-17.6637716837
 11
29.5980256308
 21
-19.615808366
  0
LINE
  5
3BB
100
AcDbEntity
  8
RACCORDO
100
AcDbLine
 62
253
  6
CONTINUOUS
 10
29.5980255647
 20
55.2701317999
 11
29.5980249466
 21
53.686512157
  0
LINE
  5
3BC
100
AcDbEntity
  8
RACCORDO
100
AcDbLine
 62
253
  6
CONTINUOUS
 10
29.5980249466
 20
47.2854348603
 11
29.5980256309
 21
45.7018137772
  0
LINE
  5
3BD
100
AcDbEntity
  8
RACCORDO
100
AcDbLine
 62
253
  6
CONTINUOUS
 10
29.5980255647
 20
-10.0474903435
 11
29.5980249466
 21
-11.9994619652
  0
LINE
  5
3BE
100
AcDbEntity
  8
RACCORDO
100
AcDbLine
 62
253
  6
CONTINUOUS
 10
30.331017648
 20
-9.2073570955
 11
30.331017648
 21
45.0445780151
  0
LINE
  5
3BF
100
AcDbEntity
  8
RACCORDO
100
AcDbLine
 62
253
  6
CONTINUOUS
 10
30.3310170571
 20
-28.0154339001
 11
30.3310175947
 21
-20.2730441052
  0
LINE
  5
3C0
100
AcDbEntity
  8
RACCORDO
100
AcDbLine
 62
253
  6
CONTINUOUS
 10
30.331017648
 20
56.1102650479
 11
30.3310170571
 21
64.6197260684
  0
LINE
  5
3C1
100
AcDbEntity
  8
RACCORDO
100
AcDbLine
 62
253
  6
CONTINUOUS
 10
30.7515471935
 20
-28.0175471316
 11
30.7515471935
 21
-20.4395216462
  0
LINE
  5
3C2
100
AcDbEntity
  8
RACCORDO
100
AcDbLine
 62
253
  6
CONTINUOUS
 10
30.7515471935
 20
-9.1505793056
 11
30.7515471935
 21
44.8781004972
  0
LINE
  5
3C3
100
AcDbEntity
  8
RACCORDO
100
AcDbLine
 62
253
  6
CONTINUOUS
 10
30.7515471935
 20
56.1670428379
 11
30.7515471935
 21
64.6176007025
  0
LINE
  5
3C4
100
AcDbEntity
  8
RACCORDO
100
AcDbLine
 62
7
  6
CONTINUOUS
 10
31.6186532815
 20
65.1182552302
 11
31.6186532815
 21
56.6677256892
  0
LINE
  5
3C5
100
AcDbEntity
  8
DRAFT
100
AcDbLine
 62
7
  6
CONTINUOUS
 10
31.6186532815
 20
44.686048007
 11
31.6186532815
 21
-8.6498964542
  0
LINE
  5
3C6
100
AcDbEntity
  8
RACCORDO
100
AcDbLine
 62
7
  6
CONTINUOUS
 10
31.6186532815
 20
-20.6315741364
 11
31.6186532815
 21
-27.5512455381
  0
LWPOLYLINE
  5
3C7
100
AcDbEntity
  8
RACCORDO
100
AcDbPolyline
 62
7
  6
CONTINUOUS
 90
5
 70
0
 10
31.9226913585
 20
-16.1730744388
 10
31.9226910896
 20
-16.1507372035
 10
31.9223371468
 20
-16.1281789565
 10
31.9216290089
 20
-16.1054070601
 10
31.9205663249
 20
-16.0824299838
  0
LWPOLYLINE
  5
3C8
100
AcDbEntity
  8
RACCORDO
100
AcDbPolyline
 62
7
  6
CONTINUOUS
 90
5
 70
0
 10
31.9226913585
 20
49.1445477047
 10
31.9226910896
 20
49.16688494
 10
31.9223371468
 20
49.1894431869
 10
31.9216290089
 20
49.2122150833
 10
31.9205663249
 20
49.2351921597
  0
LWPOLYLINE
  5
3C9
100
AcDbEntity
  8
RACCORDO
100
AcDbPolyline
 62
253
  6
CONTINUOUS
 90
5
 70
0
 10
31.937334564
 20
49.1468452599
 10
31.9373345524
 20
49.1237244487
 10
31.9369687452
 20
49.1008207223
 10
31.9362371455
 20
49.078137958
 10
31.9351397501
 20
49.0556722785
  0
LWPOLYLINE
  5
3CA
100
AcDbEntity
  8
RACCORDO
100
AcDbPolyline
 62
253
  6
CONTINUOUS
 90
5
 70
0
 10
31.937334564
 20
-16.1707768835
 10
31.9373345524
 20
-16.1938976947
 10
31.9369687452
 20
-16.2168014211
 10
31.9362371455
 20
-16.2394841854
 10
31.9351397501
 20
-16.2619498649
  0
LINE
  5
3CB
100
AcDbEntity
  8
RACCORDO
100
AcDbLine
 62
253
  6
CONTINUOUS
 10
32.0867737001
 20
-13.4391561793
 11
32.0867683597
 21
-12.1893998022
  0
LINE
  5
3CC
100
AcDbEntity
  8
RACCORDO
100
AcDbLine
 62
253
  6
CONTINUOUS
 10
32.0867683609
 20
44.969786178
 11
32.0867687955
 21
46.219478738
  0
LINE
  5
3CD
100
AcDbEntity
  8
RACCORDO
100
AcDbLine
 62
253
  6
CONTINUOUS
 10
32.0867683609
 20
-20.3478359654
 11
32.0867687955
 21
-19.0981434055
  0
LINE
  5
3CE
100
AcDbEntity
  8
RACCORDO
100
AcDbLine
 62
253
  6
CONTINUOUS
 10
32.086773696
 20
51.8784660178
 11
32.0867683597
 21
53.1282223412
  0
LWPOLYLINE
  5
3CF
100
AcDbEntity
  8
RACCORDO
100
AcDbPolyline
 62
7
  6
CONTINUOUS
 90
25
 70
0
 10
28.7195154787
 20
-12.8370087744
 10
28.7198011028
 20
-12.8104433371
 10
28.720627307
 20
-12.7841680716
 10
28.7219940912
 20
-12.7581829777
 10
28.7239130925
 20
-12.7324246345
 10
28.7263726737
 20
-12.706956463
 10
28.7293379245
 20
-12.6819687259
 10
28.7328085285
 20
-12.65749687
 10
28.7367848019
 20
-12.6335054485
 10
28.7412327826
 20
-12.6100783836
 10
28.7461435595
 20
-12.587235716
 10
28.7515260437
 20
-12.564957405
 10
28.7573730058
 20
-12.5432672515
 10
28.7636744193
 20
-12.5221568081
 10
28.7704403108
 20
-12.5016345223
 10
28.7776935312
 20
-12.4817495372
 10
28.7854928567
 20
-12.4623777799
 10
28.7937795112
 20
-12.4436433235
 10
28.8024000175
 20
-12.42596753
 10
28.8113223362
 20
-12.4094518292
 10
28.8205785067
 20
-12.3939947914
 10
28.8301111709
 20
-12.3797134894
 10
28.8399680726
 20
-12.3665690999
 10
28.850101468
 20
-12.3546004462
 10
28.8600464165
 20
-12.3442954572
  0
LINE
  5
3D0
100
AcDbEntity
  8
RACCORDO
100
AcDbLine
 62
7
  6
CONTINUOUS
 10
28.8432958543
 20
51.0952825365
 11
28.8421672795
 21
50.9989321471
  0
LINE
  5
3D1
100
AcDbEntity
  8
RACCORDO
100
AcDbLine
 62
7
  6
CONTINUOUS
 10
28.8432958543
 20
-14.222339607
 11
28.8421672795
 21
-14.3186899963
  0
LWPOLYLINE
  5
3D2
100
AcDbEntity
  8
RACCORDO
100
AcDbPolyline
 62
7
  6
CONTINUOUS
 90
9
 70
0
 10
28.7195154787
 20
49.8078293321
 10
28.7199919603
 20
49.8419060359
 10
28.7213205121
 20
49.877325069
 10
28.7235011342
 20
49.9140864315
 10
28.7265651307
 20
49.9524404319
 10
28.7304811974
 20
49.9921367616
 10
28.7351554221
 20
50.0324244955
 10
28.7405565008
 20
50.0730533251
 10
28.7467157375
 20
50.1142735588
  0
LWPOLYLINE
  5
3D3
100
AcDbEntity
  8
RACCORDO
100
AcDbPolyline
 62
7
  6
CONTINUOUS
 90
9
 70
0
 10
28.7195154787
 20
-15.5097928113
 10
28.7199919603
 20
-15.4757161076
 10
28.7213205121
 20
-15.4402970744
 10
28.7235011342
 20
-15.4035357119
 10
28.7265651307
 20
-15.3651817115
 10
28.7304811974
 20
-15.3254853818
 10
28.7351554221
 20
-15.2851976479
 10
28.7405565008
 20
-15.2445688184
 10
28.7467157375
 20
-15.2033485846
  0
LINE
  5
3D4
100
AcDbEntity
  8
RACCORDO
100
AcDbLine
 62
7
  6
CONTINUOUS
 10
31.9223385681
 20
49.122437853
 11
31.9226913585
 21
49.1445477047
  0
LWPOLYLINE
  5
3D5
100
AcDbEntity
  8
RACCORDO
100
AcDbPolyline
 62
7
  6
CONTINUOUS
 90
9
 70
0
 10
29.5101558165
 20
-11.877013293
 10
29.5098215777
 20
-11.8940988772
 10
29.5086188462
 20
-11.9127813424
 10
29.5066412858
 20
-11.9297405881
 10
29.5039991309
 20
-11.9449428415
 10
29.5008640953
 20
-11.9581357973
 10
29.497541849
 20
-11.9688805168
 10
29.4943531093
 20
-11.9770786784
 10
29.4928886044
 20
-11.9802822077
  0
LWPOLYLINE
  5
3D6
100
AcDbEntity
  8
RACCORDO
100
AcDbPolyline
 62
253
  6
CONTINUOUS
 90
8
 70
0
 10
30.9308827259
 20
50.9782612603
 10
30.9307847269
 20
50.9738705853
 10
30.9311661739
 20
50.969815347
 10
30.9320219085
 20
50.9661503856
 10
30.9333403585
 20
50.9629252636
 10
30.9351036943
 20
50.9601835955
 10
30.9372880698
 20
50.9579624578
 10
30.9383349119
 20
50.9571850354
  0
LWPOLYLINE
  5
3D7
100
AcDbEntity
  8
RACCORDO
100
AcDbPolyline
 62
253
  6
CONTINUOUS
 90
8
 70
0
 10
30.9308827259
 20
-14.3393608831
 10
30.9307847269
 20
-14.3437515581
 10
30.9311661739
 20
-14.3478067964
 10
30.9320219085
 20
-14.3514717578
 10
30.9333403585
 20
-14.3546968798
 10
30.9351036943
 20
-14.3574385479
 10
30.9372880698
 20
-14.3596596856
 10
30.9383349119
 20
-14.3604371081
  0
LWPOLYLINE
  5
3D8
100
AcDbEntity
  8
RACCORDO
100
AcDbPolyline
 62
253
  6
CONTINUOUS
 90
14
 70
0
 10
32.5073010446
 20
46.2173581646
 10
32.5078722453
 20
46.2423012379
 10
32.5098288269
 20
46.2663630216
 10
32.5131605083
 20
46.2894532204
 10
32.5178554359
 20
46.3114901355
 10
32.5238988183
 20
46.3323822717
 10
32.5312610497
 20
46.3520368732
 10
32.5399051462
 20
46.3703711185
 10
32.5498024181
 20
46.3873226987
 10
32.5609240466
 20
46.4028401061
 10
32.5732300773
 20
46.4168705798
 10
32.5866702045
 20
46.429349761
 10
32.601191094
 20
46.4402205859
 10
32.6086205872
 20
46.4447256764
  0
LWPOLYLINE
  5
3D9
100
AcDbEntity
  8
RACCORDO
100
AcDbPolyline
 62
7
  6
CONTINUOUS
 90
14
 70
0
 10
29.510155885
 20
53.5627854903
 10
29.5095369925
 20
53.5388851567
 10
29.5071397104
 20
53.5101527805
 10
29.5032174984
 20
53.4832086324
 10
29.4980423839
 20
53.4580488803
 10
29.4918169738
 20
53.4345059726
 10
29.4847699374
 20
53.4126376206
 10
29.4771085705
 20
53.3924404345
 10
29.4689212483
 20
53.3736708873
 10
29.4603557693
 20
53.3563130567
 10
29.4515918959
 20
53.34041681
 10
29.4427279601
 20
53.3258884219
 10
29.4338650448
 20
53.3126706028
 10
29.4252428483
 20
53.3009067568
  0
LWPOLYLINE
  5
3DA
100
AcDbEntity
  8
RACCORDO
100
AcDbPolyline
 62
253
  6
CONTINUOUS
 90
16
 70
0
 10
29.5980249466
 20
-11.9994619652
 10
29.5969014194
 20
-12.0396997622
 10
29.593619358
 20
-12.0782467755
 10
29.5881787624
 20
-12.1151030052
 10
29.5805388494
 20
-12.1504107574
 10
29.5707404022
 20
-12.184027726
 10
29.5589057709
 20
-12.2155269924
 10
29.5450189999
 20
-12.2448634462
 10
29.5290960449
 20
-12.2720821979
 10
29.5113071221
 20
-12.29689166
 10
29.4916229621
 20
-12.3192769258
 10
29.4700728344
 20
-12.339252902
 10
29.4469147634
 20
-12.3565727215
 10
29.4222347573
 20
-12.3711540952
 10
29.3959468081
 20
-12.3830793121
 10
29.3680509156
 20
-12.3923483724
  0
LWPOLYLINE
  5
3DB
100
AcDbEntity
  8
RACCORDO
100
AcDbPolyline
 62
253
  6
CONTINUOUS
 90
16
 70
0
 10
32.0867687955
 20
46.219478738
 10
32.087889312
 20
46.259662944
 10
32.0911625719
 20
46.2981612537
 10
32.0965885753
 20
46.3349736672
 10
32.1042078823
 20
46.3702418672
 10
32.1139799329
 20
46.4038241709
 10
32.1257830464
 20
46.4352955297
 10
32.1396330967
 20
46.4646111466
 10
32.15551421
 20
46.4918158187
 10
32.1732570841
 20
46.5166188883
 10
32.1928901344
 20
46.5390052528
 10
32.2143849454
 20
46.5589900149
 10
32.2374869687
 20
46.5763278246
 10
32.2621113546
 20
46.5909368987
 10
32.2883429527
 20
46.6028990203
 10
32.3161817631
 20
46.6122141896
  0
LWPOLYLINE
  5
3DC
100
AcDbEntity
  8
RACCORDO
100
AcDbPolyline
 62
253
  6
CONTINUOUS
 90
4
 70
0
 10
29.7929880915
 20
50.4275419245
 10
29.7936994565
 20
50.4496013266
 10
29.7947662072
 20
50.471436778
 10
29.7961879876
 20
50.493040991
  0
LWPOLYLINE
  5
3DD
100
AcDbEntity
  8
RACCORDO
100
AcDbPolyline
 62
253
  6
CONTINUOUS
 90
4
 70
0
 10
29.7929880915
 20
-14.8900802189
 10
29.7936994565
 20
-14.8680208168
 10
29.7947662072
 20
-14.8461853655
 10
29.7961879876
 20
-14.8245811524
  0
LINE
  5
3DE
100
AcDbEntity
  8
RACCORDO
100
AcDbLine
 62
7
  6
CONTINUOUS
 10
31.9216334293
 20
49.1005627059
 11
31.9223385681
 21
49.122437853
  0
LINE
  5
3DF
100
AcDbEntity
  8
RACCORDO
100
AcDbLine
 62
7
  6
CONTINUOUS
 10
28.8421672795
 20
50.9989321471
 11
28.838827818
 21
50.9006485657
  0
LINE
  5
3E0
100
AcDbEntity
  8
RACCORDO
100
AcDbLine
 62
7
  6
CONTINUOUS
 10
28.8421672795
 20
-14.3186899963
 11
28.838827818
 21
-14.4169735777
  0
LWPOLYLINE
  5
3E1
100
AcDbEntity
  8
RACCORDO
100
AcDbPolyline
 62
253
  6
CONTINUOUS
 90
14
 70
0
 10
29.5101569809
 20
53.5628304596
 10
29.5103634503
 20
53.5671232835
 10
29.5116708277
 20
53.5751442563
 10
29.5142089588
 20
53.5840401874
 10
29.5179526523
 20
53.5933603195
 10
29.5228708938
 20
53.6031306374
 10
29.5289427377
 20
53.6134105212
 10
29.5360849815
 20
53.623789828
 10
29.5442177904
 20
53.6342393353
 10
29.5532993867
 20
53.6448503887
 10
29.5632798731
 20
53.6553856564
 10
29.5741035987
 20
53.6657824009
 10
29.5857060355
 20
53.676151348
 10
29.5980249466
 20
53.686512157
  0
LINE
  5
3E2
100
AcDbEntity
  8
RACCORDO
100
AcDbLine
 62
7
  6
CONTINUOUS
 10
31.9205768248
 20
49.078930408
 11
31.9216334293
 21
49.1005627059
  0
LWPOLYLINE
  5
3E3
100
AcDbEntity
  8
0
100
AcDbPolyline
 62
7
  6
CONTINUOUS
 90
8
 70
0
 10
33.068222183
 20
48.7681173315
 10
33.0548348143
 20
48.5104450719
 10
33.0148537495
 20
48.2717167854
 10
32.9488196639
 20
48.0551608624
 10
32.8576255553
 20
47.8637058504
 10
32.7425046674
 20
47.69994085
 10
32.6050138128
 20
47.5660805018
 10
32.488390844
 20
47.4864541203
  0
LWPOLYLINE
  5
3E4
100
AcDbEntity
  8
RACCORDO
100
AcDbPolyline
 62
7
  6
CONTINUOUS
 90
8
 70
0
 10
28.838827818
 20
50.9006485657
 10
28.8332774697
 20
50.8004317923
 10
28.8255130356
 20
50.6983725278
 10
28.8155377147
 20
50.5943800713
 10
28.8033611043
 20
50.4881823201
 10
28.7889864032
 20
50.3796885735
 10
28.7724104125
 20
50.2689895324
 10
28.7467157375
 20
50.1142735588
  0
LWPOLYLINE
  5
3E5
100
AcDbEntity
  8
RACCORDO
100
AcDbPolyline
 62
7
  6
CONTINUOUS
 90
8
 70
0
 10
28.838827818
 20
-14.4169735777
 10
28.8332774697
 20
-14.5171903511
 10
28.8255130356
 20
-14.6192496156
 10
28.8155377147
 20
-14.7232420722
 10
28.8033611043
 20
-14.8294398233
 10
28.7889864032
 20
-14.9379335699
 10
28.7724104125
 20
-15.0486326111
 10
28.7467157375
 20
-15.2033485846
  0
LINE
  5
3E6
100
AcDbEntity
  8
0
100
AcDbLine
 62
7
  6
CONTINUOUS
 10
28.875803971
 20
51.1740862259
 11
28.8609368349
 21
50.9115589464
  0
LINE
  5
3E7
100
AcDbEntity
  8
0
100
AcDbLine
 62
7
  6
CONTINUOUS
 10
28.875803971
 20
-14.1435359175
 11
28.8609368349
 21
-14.406063197
  0
LWPOLYLINE
  5
3E8
100
AcDbEntity
  8
0
100
AcDbPolyline
 62
7
  6
CONTINUOUS
 90
6
 70
0
 10
32.8207348095
 20
48.6252212238
 10
32.8058676734
 20
48.3626939443
 10
32.7660668338
 20
48.125041788
 10
32.7013322905
 20
47.9122647548
 10
32.6101281896
 20
47.7221780185
 10
32.4939903852
 20
47.5569664053
  0
LINE
  5
3E9
100
AcDbEntity
  8
RACCORDO
100
AcDbLine
 62
253
  6
CONTINUOUS
 10
31.9351397501
 20
49.0556722785
 11
31.9336765592
 21
49.0334236837
  0
LINE
  5
3EA
100
AcDbEntity
  8
RACCORDO
100
AcDbLine
 62
7
  6
CONTINUOUS
 10
31.9191697813
 20
49.0575485094
 11
31.9205768248
 21
49.078930408
  0
LINE
  5
3EB
100
AcDbEntity
  8
RACCORDO
100
AcDbLine
 62
7
  6
CONTINUOUS
 10
31.9191697814
 20
49.0575485097
 11
31.919174799
 21
49.05761441
  0
LWPOLYLINE
  5
3EC
100
AcDbEntity
  8
RACCORDO
100
AcDbPolyline
 62
253
  6
CONTINUOUS
 90
6
 70
0
 10
31.2003373058
 20
49.8767146113
 10
31.1998084035
 20
49.8708489135
 10
31.2002985187
 20
49.8657294817
 10
31.2017937331
 20
49.8615016943
 10
31.2042515868
 20
49.8582856093
 10
31.2049169091
 20
49.8577220713
  0
LWPOLYLINE
  5
3ED
100
AcDbEntity
  8
RACCORDO
100
AcDbPolyline
 62
253
  6
CONTINUOUS
 90
6
 70
0
 10
31.8664361097
 20
49.3565009258
 10
31.8659072077
 20
49.3506352563
 10
31.8663973139
 20
49.3455158379
 10
31.8678925149
 20
49.3412880508
 10
31.8703503556
 20
49.3380719561
 10
31.8710157133
 20
49.3375083856
  0
LWPOLYLINE
  5
3EE
100
AcDbEntity
  8
RACCORDO
100
AcDbPolyline
 62
253
  6
CONTINUOUS
 90
22
 70
0
 10
29.7479950898
 20
50.503356486
 10
29.7483628284
 20
50.5071935897
 10
29.7489680048
 20
50.5109389136
 10
29.7498106188
 20
50.5145924577
 10
29.7508795908
 20
50.5181756052
 10
29.7521860005
 20
50.5216669729
 10
29.7537630875
 20
50.5250024112
 10
29.7556118027
 20
50.528184757
 10
29.7577311951
 20
50.5312111734
 10
29.7601516513
 20
50.5340090003
 10
29.7628681844
 20
50.5365812892
 10
29.7658857812
 20
50.5389249885
 10
29.7692497887
 20
50.5409582839
 10
29.7729706595
 20
50.5426931642
 10
29.7770379409
 20
50.5441176406
 10
29.7814656211
 20
50.5451139319
 10
29.7862729009
 20
50.5456807705
 10
29.7914405795
 20
50.5458194239
 10
29.7969250428
 20
50.5454159147
 10
29.8027117527
 20
50.5444322503
 10
29.8088152472
 20
50.5429064232
 10
29.8152355264
 20
50.5408384333
  0
LWPOLYLINE
  5
3EF
100
AcDbEntity
  8
RACCORDO
100
AcDbPolyline
 62
253
  6
CONTINUOUS
 90
8
 70
0
 10
31.9336765592
 20
49.0334236837
 10
31.9333088222
 20
49.0295865783
 10
31.9327036468
 20
49.0258412531
 10
31.931861033
 20
49.0221877082
 10
31.9307920605
 20
49.0186045604
 10
31.9294856496
 20
49.0151131929
 10
31.9279085614
 20
49.0117777549
 10
31.926059845
 20
49.0085954095
  0
LINE
  5
3F0
100
AcDbEntity
  8
RACCORDO
100
AcDbLine
 62
7
  6
CONTINUOUS
 10
31.9191748557
 20
49.0576144059
 11
31.9189989581
 21
49.0560437827
  0
LWPOLYLINE
  5
3F1
100
AcDbEntity
  8
RACCORDO
100
AcDbPolyline
 62
253
  6
CONTINUOUS
 90
10
 70
0
 10
30.7507889204
 20
48.5585189037
 10
30.7513650338
 20
48.5631856335
 10
30.7524114767
 20
48.5680653155
 10
30.753914098
 20
48.5730919602
 10
30.7558525775
 20
48.5781975911
 10
30.7582007007
 20
48.5833131632
 10
30.7609267133
 20
48.588369497
 10
30.7639937507
 20
48.5932982141
 10
30.7673603366
 20
48.598032662
 10
30.7709809438
 20
48.6025088152
  0
LINE
  5
3F2
100
AcDbEntity
  8
RACCORDO
100
AcDbLine
 62
7
  6
CONTINUOUS
 10
33.1000034895
 20
53.5048125237
 11
33.0928638417
 21
53.4590862279
  0
LINE
  5
3F3
100
AcDbEntity
  8
0
100
AcDbLine
 62
7
  6
CONTINUOUS
 10
29.8508863286
 20
52.319809719
 11
29.6596859426
 21
52.2843437433
  0
LWPOLYLINE
  5
3F4
100
AcDbEntity
  8
RACCORDO
100
AcDbPolyline
 62
7
  6
CONTINUOUS
 90
6
 70
0
 10
29.825304911
 20
50.5162539634
 10
29.8251931966
 20
50.5162395278
 10
29.8256943572
 20
50.516234923
 10
29.826889156
 20
50.5161134918
 10
29.8286207356
 20
50.515785266
 10
29.8307922945
 20
50.5151994855
  0
LINE
  5
3F5
100
AcDbEntity
  8
RACCORDO
100
AcDbLine
 62
253
  6
CONTINUOUS
 10
29.8548714883
 20
50.2362328738
 11
30.4081276403
 21
50.2994721605
  0
LINE
  5
3F6
100
AcDbEntity
  8
RACCORDO
100
AcDbLine
 62
253
  6
CONTINUOUS
 10
29.7961879905
 20
50.2908997632
 11
30.2846655112
 21
50.3456209669
  0
LWPOLYLINE
  5
3F7
100
AcDbEntity
  8
RACCORDO
100
AcDbPolyline
 62
253
  6
CONTINUOUS
 90
3
 70
0
 10
30.736657923
 20
50.3360672113
 10
31.0327141798
 20
50.3679655676
 10
31.0537833794
 20
50.3701733755
  0
LINE
  5
3F8
100
AcDbEntity
  8
RACCORDO
100
AcDbLine
 62
253
  6
CONTINUOUS
 10
30.8921624858
 20
50.410310055
 11
31.0460044109
 21
50.425604817
  0
LWPOLYLINE
  5
3F9
100
AcDbEntity
  8
RACCORDO
100
AcDbPolyline
 62
7
  6
CONTINUOUS
 90
3
 70
0
 10
30.5438077799
 20
50.2566050639
 10
30.558155422
 20
50.2572860199
 10
30.5717730274
 20
50.2597148896
  0
LINE
  5
3FA
100
AcDbEntity
  8
RACCORDO
100
AcDbLine
 62
7
  6
CONTINUOUS
 10
27.4820420091
 20
36.6633719325
 11
27.6756967538
 21
36.5515581101
  0
LINE
  5
3FB
100
AcDbEntity
  8
RACCORDO
100
AcDbLine
 62
7
  6
CONTINUOUS
 10
24.6660703735
 20
39.2980287228
 11
24.8400387023
 21
39.1975815901
  0
LINE
  5
3FC
100
AcDbEntity
  8
RACCORDO
100
AcDbLine
 62
253
  6
CONTINUOUS
 10
24.6660703735
 20
39.365662713
 11
24.7978992499
 21
39.289546372
  0
LINE
  5
3FD
100
AcDbEntity
  8
RACCORDO
100
AcDbLine
 62
253
  6
CONTINUOUS
 10
24.7978992499
 20
39.6283124476
 11
24.6660703735
 21
39.7044287886
  0
LINE
  5
3FE
100
AcDbEntity
  8
RACCORDO
100
AcDbLine
 62
253
  6
CONTINUOUS
 10
24.9392779005
 20
39.8704110592
 11
24.7825722633
 21
39.9608909301
  0
LINE
  5
3FF
100
AcDbEntity
  8
RACCORDO
100
AcDbLine
 62
7
  6
CONTINUOUS
 10
27.4820420091
 20
41.5621935933
 11
27.6756967538
 21
41.4503797708
  0
LINE
  5
400
100
AcDbEntity
  8
0
100
AcDbLine
 62
7
  6
CONTINUOUS
 10
27.3370790436
 20
40.4945664726
 11
27.4820420091
 21
40.4080910218
  0
LINE
  5
401
100
AcDbEntity
  8
RACCORDO
100
AcDbLine
 62
7
  6
CONTINUOUS
 10
31.9186227698
 20
-16.0547325048
 11
31.9191410943
 21
-16.0591345842
  0
LINE
  5
402
100
AcDbEntity
  8
RACCORDO
100
AcDbLine
 62
253
  6
CONTINUOUS
 10
31.9330450069
 20
49.2474072089
 11
31.9336765556
 21
49.2413714002
  0
LWPOLYLINE
  5
403
100
AcDbEntity
  8
0
100
AcDbPolyline
 62
7
  6
CONTINUOUS
 90
7
 70
0
 10
36.8512434623
 20
-13.058757039
 10
36.8320802131
 20
-12.840643921
 10
36.774227747
 20
-12.6064320578
 10
36.6803800267
 20
-12.3704657385
 10
36.5549155593
 20
-12.1437540763
 10
36.4062958491
 20
-11.9400015671
 10
36.2344526086
 20
-11.7601118957
  0
LWPOLYLINE
  5
404
100
AcDbEntity
  8
0
100
AcDbPolyline
 62
7
  6
CONTINUOUS
 90
12
 70
0
 10
37.0633754967
 20
-13.181239417
 10
37.0493929948
 20
-12.9843454764
 10
37.0143802023
 20
-12.7870029405
 10
36.9583371191
 20
-12.5892118094
 10
36.8791047858
 20
-12.3865995654
 10
36.7788421619
 20
-12.1835387261
 10
36.6640261252
 20
-11.9931468446
 10
36.5336958486
 20
-11.816260335
 10
36.3888121592
 20
-11.652042783
 10
36.2387344169
 20
-11.5111024993
 10
36.0831197065
 20
-11.3949762666
 10
36.0121612745
 20
-11.3540057572
  0
LWPOLYLINE
  5
405
100
AcDbEntity
  8
RACCORDO
100
AcDbPolyline
 62
253
  6
CONTINUOUS
 90
10
 70
0
 10
31.2003373058
 20
49.244922257
 10
31.1998083985
 20
49.2525580936
 10
31.2002985058
 20
49.260556791
 10
31.2017937115
 20
49.2686912087
 10
31.2042515576
 20
49.2767303514
 10
31.2076022493
 20
49.2844459286
 10
31.2117506372
 20
49.2916188376
 10
31.2165789192
 20
49.2980453853
 10
31.2219499857
 20
49.3035430732
 10
31.227711313
 20
49.3079557792
  0
LWPOLYLINE
  5
406
100
AcDbEntity
  8
RACCORDO
100
AcDbPolyline
 62
253
  6
CONTINUOUS
 90
10
 70
0
 10
31.8664360943
 20
48.9959417458
 10
31.8659071921
 20
49.0035775983
 10
31.8663973072
 20
49.0115763086
 10
31.8678925216
 20
49.0197107346
 10
31.8703503753
 20
49.0277498801
 10
31.8737010717
 20
49.0354654548
 10
31.8778494599
 20
49.0426383566
 10
31.8826777367
 20
49.0490648944
 10
31.8880487918
 20
49.0545625713
 10
31.8938101015
 20
49.058975268
  0
LINE
  5
407
100
AcDbEntity
  8
RACCORDO
100
AcDbLine
 62
7
  6
CONTINUOUS
 10
31.9205663249
 20
49.2351921597
 11
31.9191488889
 21
49.258366342
  0
LINE
  5
408
100
AcDbEntity
  8
RACCORDO
100
AcDbLine
 62
253
  6
CONTINUOUS
 10
31.9336765556
 20
49.2413714002
 11
31.9351397653
 21
49.2174326553
  0
LWPOLYLINE
  5
409
100
AcDbEntity
  8
0
100
AcDbPolyline
 62
7
  6
CONTINUOUS
 90
19
 70
0
 10
32.8207348095
 20
48.6252212238
 10
32.8058676734
 20
48.9049166994
 10
32.7660668338
 20
49.1885298678
 10
32.7013322905
 20
49.4760607289
 10
32.6101281896
 20
49.7714676748
 10
32.4939903852
 20
50.0707923134
 10
32.3575264394
 20
50.3621594686
 10
32.1999191413
 20
50.6452492105
 10
32.0219857019
 20
50.9203814689
 10
31.8307853159
 20
51.1766408577
 10
31.6257845868
 20
51.4132685946
 10
31.4075169112
 20
51.6310234619
 10
31.1846416733
 20
51.8212664199
 10
30.9569736267
 20
51.9828913546
 10
30.7246980178
 20
52.1170043801
 10
30.4970299711
 20
52.218284799
 10
30.2741547333
 20
52.285412579
 10
30.0558870576
 20
52.3197077525
 10
29.8508863286
 20
52.319809719
  0
LWPOLYLINE
  5
40A
100
AcDbEntity
  8
RACCORDO
100
AcDbPolyline
 62
7
  6
CONTINUOUS
 90
17
 70
0
 10
33.1304647576
 20
54.0208846403
 10
33.1324319023
 20
53.9835674677
 10
33.1334476735
 20
53.9464444257
 10
33.1336668543
 20
53.90968513
 10
33.1332779996
 20
53.873482552
 10
33.1323655023
 20
53.8379479462
 10
33.1309042802
 20
53.8030982568
 10
33.1289862862
 20
53.7690631063
 10
33.1267159591
 20
53.7359234466
 10
33.1240711299
 20
53.7035931932
 10
33.1211287113
 20
53.6721183566
 10
33.1179711766
 20
53.6416077072
 10
33.1145844191
 20
53.6120562276
 10
33.111026778
 20
53.5834686366
 10
33.10738742
 20
53.5559681421
 10
33.1036968707
 20
53.5297204648
 10
33.1000034895
 20
53.5048125237
  0
LWPOLYLINE
  5
40B
100
AcDbEntity
  8
0
100
AcDbPolyline
 62
7
  6
CONTINUOUS
 90
5
 70
0
 10
33.068222183
 20
48.7681173315
 10
33.0548348143
 20
49.0412489888
 10
33.0148537495
 20
49.3261464068
 10
32.9488196639
 20
49.6189568365
 10
32.8801534501
 20
49.8424102897
  0
LWPOLYLINE
  5
40C
100
AcDbEntity
  8
RACCORDO
100
AcDbPolyline
 62
253
  6
CONTINUOUS
 90
3
 70
0
 10
31.9351397653
 20
49.2174326553
 10
31.9362371704
 20
49.1936993632
 10
31.936968771
 20
49.1701715238
  0
LWPOLYLINE
  5
40D
100
AcDbEntity
  8
RACCORDO
100
AcDbPolyline
 62
253
  6
CONTINUOUS
 90
22
 70
0
 10
30.7515471935
 20
64.6176007025
 10
30.7502893684
 20
64.6485219587
 10
30.7470811538
 20
64.6804221445
 10
30.7419414195
 20
64.7131234553
 10
30.7349003719
 20
64.7464439239
 10
30.7259974901
 20
64.7801973356
 10
30.7152813018
 20
64.8141942667
 10
30.7028119657
 20
64.8482447978
 10
30.6886599357
 20
64.8821590115
 10
30.6729036689
 20
64.9157469508
 10
30.6556311638
 20
64.9488207568
 10
30.6369394088
 20
64.9811958374
 10
30.6169328281
 20
65.0126913275
 10
30.5957227964
 20
65.043130933
 10
30.5734280002
 20
65.0723445182
 10
30.550173703
 20
65.1001691666
 10
30.5260891429
 20
65.126448904
 10
30.5013087263
 20
65.1510366609
 10
30.4759722473
 20
65.1737956888
 10
30.45022124
 20
65.194598683
 10
30.4241981902
 20
65.2133284941
 10
30.3980476508
 20
65.2298798702
  0
LWPOLYLINE
  5
40E
100
AcDbEntity
  8
RACCORDO
100
AcDbPolyline
 62
7
  6
CONTINUOUS
 90
13
 70
0
 10
33.0866246787
 20
52.2052108474
 10
33.0877290675
 20
52.1726454322
 10
33.0909081005
 20
52.1394183737
 10
33.0961617776
 20
52.1055296719
 10
33.1035485707
 20
52.0707528796
 10
33.1130100079
 20
52.035314444
 10
33.1243706737
 20
51.9998937061
 10
33.1376664411
 20
51.9645030967
 10
33.152861437
 20
51.9291301849
 10
33.1696726267
 20
51.8944170194
 10
33.1880056652
 20
51.8605776163
 10
33.2079548975
 20
51.8273979596
 10
33.2295203235
 20
51.7948780492
  0
LWPOLYLINE
  5
40F
100
AcDbEntity
  8
RACCORDO
100
AcDbPolyline
 62
253
  6
CONTINUOUS
 90
16
 70
0
 10
32.5072945439
 20
53.1261004847
 10
32.5063437096
 20
53.1542682297
 10
32.5037740714
 20
53.1832548542
 10
32.4996019607
 20
53.2129249201
 10
32.4938479322
 20
53.2431438802
 10
32.4865342242
 20
53.273777024
 10
32.4776969285
 20
53.3046839851
 10
32.4673801131
 20
53.3357202014
 10
32.4556275564
 20
53.3667407489
 10
32.4424917975
 20
53.3976016612
 10
32.4280393336
 20
53.4281602611
 10
32.4123373215
 20
53.4582736973
 10
32.3954544238
 20
53.4878009657
 10
32.3774690662
 20
53.516610411
 10
32.358462761
 20
53.5445730937
 10
32.338518006
 20
53.5715598759
  0
LWPOLYLINE
  5
410
100
AcDbEntity
  8
RACCORDO
100
AcDbPolyline
 62
7
  6
CONTINUOUS
 90
22
 70
0
 10
31.6186532815
 20
65.1182552302
 10
31.6176730567
 20
65.1492636584
 10
31.6147203784
 20
65.1812768644
 10
31.6098061473
 20
65.2141212094
 10
31.602943206
 20
65.2476629417
 10
31.5941682561
 20
65.2816724207
 10
31.5835662309
 20
65.3158204396
 10
31.5712542376
 20
65.3498036957
 10
31.5572840703
 20
65.3835453646
 10
31.5416497205
 20
65.4170519161
 10
31.524352126
 20
65.4502638007
 10
31.5055357237
 20
65.4828547654
 10
31.4854220944
 20
65.5144410213
 10
31.4642215651
 20
65.5447343518
 10
31.44198524
 20
65.5737041672
 10
31.4187105204
 20
65.6013589059
 10
31.3944380407
 20
65.6276153012
 10
31.3693719182
 20
65.6522202791
 10
31.3437547922
 20
65.6749356733
 10
31.3177671915
 20
65.6956148712
 10
31.2915185303
 20
65.7141798686
 10
31.2651537388
 20
65.730534398
  0
LWPOLYLINE
  5
411
100
AcDbEntity
  8
RACCORDO
100
AcDbPolyline
 62
253
  6
CONTINUOUS
 90
16
 70
0
 10
32.0867683597
 20
53.1282223412
 10
32.0864315837
 20
53.1395836393
 10
32.0854549452
 20
53.1511681042
 10
32.083838444
 20
53.1629757358
 10
32.0815686233
 20
53.1750653516
 10
32.0786589401
 20
53.1873781341
 10
32.0751497648
 20
53.1997376313
 10
32.0710329948
 20
53.2121420758
 10
32.0663167328
 20
53.224593235
 10
32.0610656573
 20
53.2369199591
 10
32.0552713405
 20
53.2491221222
 10
32.0489422102
 20
53.2611998502
 10
32.0421682281
 20
53.2729823711
 10
32.0349793816
 20
53.2844127608
 10
32.0273456834
 20
53.2955479433
 10
32.0192671335
 20
53.3063879186
  0
LWPOLYLINE
  5
412
100
AcDbEntity
  8
RACCORDO
100
AcDbPolyline
 62
253
  6
CONTINUOUS
 90
11
 70
0
 10
33.194202037
 20
-16.7644686976
 10
33.1975114971
 20
-16.9097268498
 10
33.1942219903
 20
-17.0511760721
 10
33.1843878077
 20
-17.1888473157
 10
33.1680903734
 20
-17.3215972751
 10
33.1452758189
 20
-17.4493853121
 10
33.1159980126
 20
-17.572252065
 10
33.0804999837
 20
-17.6891761435
 10
33.0387297656
 20
-17.8001080698
 10
32.9907393248
 20
-17.9050973216
 10
32.9369275904
 20
-18.0032709416
  0
LWPOLYLINE
  5
413
100
AcDbEntity
  8
RACCORDO
100
AcDbPolyline
 62
253
  6
CONTINUOUS
 90
11
 70
0
 10
33.194202037
 20
48.5531534467
 10
33.1975114971
 20
48.4078952946
 10
33.1942219903
 20
48.2664460723
 10
33.1843878078
 20
48.1287748287
 10
33.1680903735
 20
47.9960248692
 10
33.1452758191
 20
47.8682368322
 10
33.1159980128
 20
47.7453700792
 10
33.080499984
 20
47.6284460007
 10
33.0387297659
 20
47.5175140743
 10
32.9907393251
 20
47.4125248224
 10
32.9369275908
 20
47.3143512024
  0
LWPOLYLINE
  5
414
100
AcDbEntity
  8
RACCORDO
100
AcDbPolyline
 62
7
  6
CONTINUOUS
 90
31
 70
0
 10
33.1389328611
 20
-16.8282921427
 10
33.1359164308
 20
-16.6932564904
 10
33.1268406047
 20
-16.5544888857
 10
33.1116825565
 20
-16.4123972075
 10
33.0904455887
 20
-16.267423212
 10
33.0631519446
 20
-16.1199861079
 10
33.0298326181
 20
-15.9704658857
 10
32.990536584
 20
-15.8192674514
 10
32.9453525562
 20
-15.6668784488
 10
32.8943973559
 20
-15.5137960544
 10
32.8377967503
 20
-15.3604751071
 10
32.7756969633
 20
-15.2073743828
 10
32.7082809987
 20
-15.0549906671
 10
32.6357348385
 20
-14.9037762474
 10
32.5582632842
 20
-14.7541828517
 10
32.47611011
 20
-14.6066953104
 10
32.3895159263
 20
-14.4617504246
 10
32.2987359299
 20
-14.3197760112
 10
32.2040653396
 20
-14.1812268839
 10
32.1057907833
 20
-14.0465085371
 10
32.0042097322
 20
-13.9160117153
 10
31.8996600967
 20
-13.7901472085
 10
31.7924667987
 20
-13.6692764411
 10
31.6829591282
 20
-13.5537381621
 10
31.5715052168
 20
-13.443882679
 10
31.4584638924
 20
-13.3400187483
 10
31.344181164
 20
-13.242416176
 10
31.2290273704
 20
-13.1513397086
 10
31.1133757125
 20
-13.067027578
 10
30.9975908862
 20
-12.9896842733
 10
30.8820390868
 20
-12.919489297
  0
LWPOLYLINE
  5
415
100
AcDbEntity
  8
RACCORDO
100
AcDbPolyline
 62
7
  6
CONTINUOUS
 90
31
 70
0
 10
33.1389328611
 20
48.4893300007
 10
33.1359164308
 20
48.6243656531
 10
33.1268406047
 20
48.7631332578
 10
33.1116825565
 20
48.9052249359
 10
33.0904455887
 20
49.0501989314
 10
33.0631519446
 20
49.1976360355
 10
33.0298326181
 20
49.3471562577
 10
32.990536584
 20
49.4983546921
 10
32.9453525562
 20
49.6507436946
 10
32.8943973559
 20
49.803826089
 10
32.8377967503
 20
49.9571470363
 10
32.7756969633
 20
50.1102477606
 10
32.7082809987
 20
50.2626314764
 10
32.6357348385
 20
50.4138458961
 10
32.5582632842
 20
50.5634392917
 10
32.47611011
 20
50.7109268331
 10
32.3895159263
 20
50.8558717189
 10
32.2987359299
 20
50.9978461323
 10
32.2040653396
 20
51.1363952596
 10
32.1057907833
 20
51.2711136063
 10
32.0042097322
 20
51.4016104281
 10
31.8996600967
 20
51.527474935
 10
31.7924667987
 20
51.6483457023
 10
31.6829591282
 20
51.7638839814
 10
31.5715052168
 20
51.8737394644
 10
31.4584638924
 20
51.9776033951
 10
31.344181164
 20
52.0752059674
 10
31.2290273704
 20
52.1662824348
 10
31.1133757125
 20
52.2505945655
 10
30.9975908862
 20
52.3279378701
 10
30.8820390868
 20
52.3981328464
  0
LINE
  5
416
100
AcDbEntity
  8
RACCORDO
100
AcDbLine
 62
253
  6
CONTINUOUS
 10
31.936968771
 20
49.1701715238
 11
31.937334564
 21
49.1468452599
  0
LINE
  5
417
100
AcDbEntity
  8
DRAFT
100
AcDbLine
 62
7
  6
CONTINUOUS
 10
32.104988212
 20
22.1460252002
 11
32.104988212
 21
16.0025459659
  0
LINE
  5
418
100
AcDbEntity
  8
RACCORDO
100
AcDbLine
 62
253
  6
CONTINUOUS
 10
32.507298341
 20
-20.3499502694
 11
32.507298341
 21
-19.1002623628
  0
LINE
  5
419
100
AcDbEntity
  8
RACCORDO
100
AcDbLine
 62
253
  6
CONTINUOUS
 10
32.507298341
 20
-13.4412118362
 11
32.507298341
 21
-12.1915239263
  0
LINE
  5
41A
100
AcDbEntity
  8
RACCORDO
100
AcDbLine
 62
253
  6
CONTINUOUS
 10
32.507298341
 20
44.9676718741
 11
32.507298341
 21
46.2173597806
  0
LINE
  5
41B
100
AcDbEntity
  8
RACCORDO
100
AcDbLine
 62
253
  6
CONTINUOUS
 10
32.507298341
 20
51.8764103073
 11
32.507298341
 21
53.1260982171
  0
LINE
  5
41C
100
AcDbEntity
  8
DRAFT
100
AcDbLine
 62
7
  6
CONTINUOUS
 10
32.5343661825
 20
67.3243702104
 11
32.5343661825
 21
66.3484515666
  0
LINE
  5
41D
100
AcDbEntity
  8
DRAFT
100
AcDbLine
 62
7
  6
CONTINUOUS
 10
32.5343661825
 20
22.411558978
 11
32.5343661825
 21
16.5569261521
  0
LINE
  5
41E
100
AcDbEntity
  8
RACCORDO
100
AcDbLine
 62
7
  6
CONTINUOUS
 10
32.7997523984
 20
65.8002093992
 11
32.7997523984
 21
57.3496234306
  0
LINE
  5
41F
100
AcDbEntity
  8
DRAFT
100
AcDbLine
 62
7
  6
CONTINUOUS
 10
32.7997523984
 20
44.9551859298
 11
32.7997523984
 21
22.5756777948
  0
LINE
  5
420
100
AcDbEntity
  8
DRAFT
100
AcDbLine
 62
7
  6
CONTINUOUS
 10
32.7997523984
 20
16.4036954771
 11
32.7997523984
 21
-7.9679987128
  0
LINE
  5
421
100
AcDbEntity
  8
RACCORDO
100
AcDbLine
 62
7
  6
CONTINUOUS
 10
32.7997523984
 20
-20.3624362136
 11
32.7997523984
 21
-26.8208361274
  0
LINE
  5
422
100
AcDbEntity
  8
0
100
AcDbLine
 62
7
  6
CONTINUOUS
 10
33.068222183
 20
49.1702471954
 11
33.068222183
 21
48.7681173315
  0
LINE
  5
423
100
AcDbEntity
  8
0
100
AcDbLine
 62
7
  6
CONTINUOUS
 10
33.068222183
 20
-16.147374948
 11
33.068222183
 21
-16.549504812
  0
LINE
  5
424
100
AcDbEntity
  8
RACCORDO
100
AcDbLine
 62
7
  6
CONTINUOUS
 10
33.0866246787
 20
-19.9614305146
 11
33.0866246787
 21
-18.7830252887
  0
LINE
  5
425
100
AcDbEntity
  8
RACCORDO
100
AcDbLine
 62
7
  6
CONTINUOUS
 10
33.0866246787
 20
-13.112411296
 11
33.0866246787
 21
-11.9340060701
  0
LINE
  5
426
100
AcDbEntity
  8
RACCORDO
100
AcDbLine
 62
7
  6
CONTINUOUS
 10
33.0866246787
 20
45.3561916288
 11
33.0866246787
 21
46.5345968547
  0
LINE
  5
427
100
AcDbEntity
  8
RACCORDO
100
AcDbLine
 62
7
  6
CONTINUOUS
 10
33.0866246787
 20
52.2052108474
 11
33.0866246787
 21
53.3836160733
  0
LINE
  5
428
100
AcDbEntity
  8
RACCORDO
100
AcDbLine
 62
7
  6
CONTINUOUS
 10
31.9223385681
 20
-16.1951842905
 11
31.9226913585
 21
-16.1730744388
  0
LWPOLYLINE
  5
429
100
AcDbEntity
  8
RACCORDO
100
AcDbPolyline
 62
7
  6
CONTINUOUS
 90
7
 70
0
 10
33.0866246787
 20
53.3836160733
 10
33.0868261058
 20
53.3962017642
 10
33.0873629063
 20
53.4087845224
 10
33.0882350801
 20
53.4213643479
 10
33.0894426273
 20
53.4339412406
 10
33.0909855478
 20
53.4465152006
 10
33.0928638417
 20
53.4590862279
  0
LWPOLYLINE
  5
42A
100
AcDbEntity
  8
RACCORDO
100
AcDbPolyline
 62
7
  6
CONTINUOUS
 90
7
 70
0
 10
33.0866246787
 20
-11.9340060701
 10
33.0868261058
 20
-11.9214203792
 10
33.0873629063
 20
-11.908837621
 10
33.0882350801
 20
-11.8962577955
 10
33.0894426273
 20
-11.8836809028
 10
33.0909855478
 20
-11.8711069428
 10
33.0928638417
 20
-11.8585359155
  0
LWPOLYLINE
  5
42B
100
AcDbEntity
  8
RACCORDO
100
AcDbPolyline
 62
253
  6
CONTINUOUS
 90
70
 70
0
 10
33.1389328611
 20
48.4893299774
 10
33.136219115
 20
48.3631474604
 10
33.1281323306
 20
48.2409374619
 10
33.1147632918
 20
48.1229439572
 10
33.096243835
 20
48.0095498194
 10
33.0726722974
 20
47.9007996367
 10
33.0440415291
 20
47.7964591225
 10
33.0103730042
 20
47.6966318269
 10
32.9717852705
 20
47.6016907767
 10
32.9283685574
 20
47.5118439615
 10
32.8802301429
 20
47.4273012776
 10
32.8274819192
 20
47.3482483234
 10
32.7702321212
 20
47.2748439083
 10
32.7086111795
 20
47.2072573665
 10
32.6427620979
 20
47.1456474962
 10
32.5728204756
 20
47.0901460242
 10
32.4989353311
 20
47.0408806946
 10
32.4212832568
 20
46.9979782478
 10
32.340054117
 20
46.9615485737
 10
32.2554247036
 20
46.9316752937
 10
32.1675996168
 20
46.9084347908
 10
32.0768288286
 20
46.8918901337
 10
31.9833465118
 20
46.8820731392
 10
31.8873530913
 20
46.8789943156
 10
31.789060555
 20
46.8826537361
 10
31.6887393528
 20
46.8930319961
 10
31.5865830123
 20
46.9100999382
 10
31.4826867942
 20
46.9338495849
 10
31.3772477308
 20
46.9642599349
 10
31.2705435989
 20
47.0012746226
 10
31.1627900362
 20
47.0448415193
 10
31.0540873781
 20
47.0949575772
 10
30.9448341614
 20
47.1514764162
 10
30.8357009865
 20
47.214041112
 10
30.7268254816
 20
47.2825379083
 10
30.6185778327
 20
47.3566990925
 10
30.5119643612
 20
47.4357263355
 10
30.4072036163
 20
47.5192850539
 10
30.304505564
 20
47.6070354922
 10
30.2048048205
 20
47.6979420739
 10
30.1082917409
 20
47.7915259688
 10
30.0150338213
 20
47.8874175166
 10
29.9256911969
 20
47.9845879251
 10
29.8403804554
 20
48.0825038592
 10
29.7590367439
 20
48.1808354817
 10
29.6819605485
 20
48.2787953077
 10
29.6092117885
 20
48.3758458784
 10
29.540605955
 20
48.471775497
 10
29.4760289864
 20
48.5663024627
 10
29.4154476541
 20
48.659033311
 10
29.3586831416
 20
48.7498025903
 10
29.3054063523
 20
48.8387291553
 10
29.2555164662
 20
48.925597269
 10
29.2088883692
 20
49.0102419758
 10
29.1651874901
 20
49.0929147874
 10
29.1243071588
 20
49.1734874212
 10
29.0861423366
 20
49.2518365112
 10
29.0503979016
 20
49.3282608833
 10
29.0169795389
 20
49.4026788034
 10
28.9857958889
 20
49.475008746
 10
28.9565932829
 20
49.5455756533
 10
28.9294385323
 20
49.613954098
 10
28.9040987141
 20
49.6804641908
 10
28.8799583136
 20
49.7465684992
 10
28.8570954259
 20
49.8119767845
 10
28.835404789
 20
49.8769110736
 10
28.8141710923
 20
49.9436068952
 10
28.7932713424
 20
50.0127787634
 10
28.7730562413
 20
50.0836228222
 10
28.7536331322
 20
50.1560851966
  0
LWPOLYLINE
  5
42C
100
AcDbEntity
  8
RACCORDO
100
AcDbPolyline
 62
253
  6
CONTINUOUS
 90
70
 70
0
 10
33.1389328611
 20
-16.8282921661
 10
33.1362191127
 20
-16.9544747364
 10
33.1281323213
 20
-17.0766847855
 10
33.1147632708
 20
-17.1946783379
 10
33.0962437977
 20
-17.3080725205
 10
33.0726722392
 20
-17.4168227442
 10
33.0440414457
 20
-17.521163294
 10
33.0103728921
 20
-17.6209906187
 10
32.9717851261
 20
-17.7159316923
 10
32.9283683768
 20
-17.805778526
 10
32.8802299223
 20
-17.8903212235
 10
32.8274816552
 20
-17.9693741859
 10
32.7702318103
 20
-18.0427786038
 10
32.7086108184
 20
-18.1103651429
 10
32.6427616835
 20
-18.1719750045
 10
32.5728200055
 20
-18.2274764617
 10
32.4989348029
 20
-18.2767417701
 10
32.4212826686
 20
-18.3196441892
 10
32.3400534678
 20
-18.3560738293
 10
32.2554239929
 20
-18.3859470686
 10
32.1675988443
 20
-18.4091875247
 10
32.0768279931
 20
-18.4257321292
 10
31.9833456128
 20
-18.4355490654
 10
31.8873521283
 20
-18.4386278249
 10
31.789059526
 20
-18.4349683346
 10
31.6887382539
 20
-18.4245899983
 10
31.586581842
 20
-18.4075219734
 10
31.4826855556
 20
-18.3837722381
 10
31.377246428
 20
-18.3533617945
 10
31.2705422361
 20
-18.3163470088
 10
31.1627886218
 20
-18.2727800121
 10
31.0540859245
 20
-18.2226638551
 10
30.9448326779
 20
-18.1661449182
 10
30.8356994756
 20
-18.1035801231
 10
30.7268239429
 20
-18.035083224
 10
30.618576269
 20
-17.9609219357
 10
30.5119627777
 20
-17.8818945894
 10
30.4072020172
 20
-17.7983357687
 10
30.3045039546
 20
-17.7105852298
 10
30.2048032106
 20
-17.6196785549
 10
30.1082901437
 20
-17.526094579
 10
30.0150322457
 20
-17.4302029599
 10
29.9256896456
 20
-17.3330324843
 10
29.8403789265
 20
-17.2351164825
 10
29.7590352395
 20
-17.1367847963
 10
29.6819590773
 20
-17.0388249193
 10
29.6092103611
 20
-16.9417743148
 10
29.5406045783
 20
-16.8458446762
 10
29.4760276644
 20
-16.7513177012
 10
29.4154463918
 20
-16.6585868569
 10
29.3586819417
 20
-16.5678175923
 10
29.3054052113
 20
-16.4788910425
 10
29.2555153773
 20
-16.3920229379
 10
29.2088873291
 20
-16.3073782398
 10
29.1651864999
 20
-16.2247054434
 10
29.1243062251
 20
-16.1441328437
 10
29.0861414594
 20
-16.0657837943
 10
29.0503970674
 20
-15.9893594397
 10
29.0169787184
 20
-15.914941475
 10
28.9857950721
 20
-15.8426114634
 10
28.9565924962
 20
-15.7720445491
 10
28.9294378201
 20
-15.7036662143
 10
28.9040980953
 20
-15.6371562937
 10
28.8799577773
 20
-15.5710521432
 10
28.85709494
 20
-15.5056439374
 10
28.8354043462
 20
-15.4407097128
 10
28.814170722
 20
-15.374014055
 10
28.79327108
 20
-15.3048424873
 10
28.7730561044
 20
-15.2339988267
 10
28.7536331322
 20
-15.1615369468
  0
LWPOLYLINE
  5
42D
100
AcDbEntity
  8
RACCORDO
100
AcDbPolyline
 62
253
  6
CONTINUOUS
 90
14
 70
0
 10
32.5073010469
 20
-19.1002639802
 10
32.5078722418
 20
-19.0753210006
 10
32.5098288098
 20
-19.0512592661
 10
32.5131604798
 20
-19.0281690844
 10
32.5178554029
 20
-19.0061321408
 10
32.5238987905
 20
-18.9852399494
 10
32.5312610326
 20
-18.9655853102
 10
32.5399051325
 20
-18.9472510537
 10
32.5498024011
 20
-18.9302994685
 10
32.560924028
 20
-18.9147820587
 10
32.5732300596
 20
-18.9007515826
 10
32.5866701867
 20
-18.8882723977
 10
32.6011910773
 20
-18.8774015683
 10
32.6086205874
 20
-18.8728964672
  0
LWPOLYLINE
  5
42E
100
AcDbEntity
  8
RACCORDO
100
AcDbPolyline
 62
253
  6
CONTINUOUS
 90
16
 70
0
 10
32.0867687955
 20
-19.0981434055
 10
32.087889271
 20
-19.0579594668
 10
32.0911624989
 20
-19.019461335
 10
32.0965884792
 20
-18.9826490101
 10
32.1042077749
 20
-18.9473807737
 10
32.113979823
 20
-18.9137983442
 10
32.1257829347
 20
-18.8823268771
 10
32.1396329803
 20
-18.8530112096
 10
32.1555140895
 20
-18.8258065044
 10
32.1732569626
 20
-18.8010034052
 10
32.1928900115
 20
-18.7786170116
 10
32.2143848243
 20
-18.7586322238
 10
32.2374868663
 20
-18.7412943866
 10
32.2621112925
 20
-18.7266852813
 10
32.2883429478
 20
-18.7147231266
 10
32.3161818323
 20
-18.7054079223
  0
LINE
  5
42F
100
AcDbEntity
  8
RACCORDO
100
AcDbLine
 62
7
  6
CONTINUOUS
 10
31.9216334293
 20
-16.2170594376
 11
31.9223385681
 21
-16.1951842905
  0
LWPOLYLINE
  5
430
100
AcDbEntity
  8
RACCORDO
100
AcDbPolyline
 62
7
  6
CONTINUOUS
 90
12
 70
0
 10
31.6186532815
 20
-27.5512455381
 10
31.6176656663
 20
-27.5811177601
 10
31.6147146041
 20
-27.6097222204
 10
31.6098061473
 20
-27.6368950684
 10
31.6029457833
 20
-27.6625131363
 10
31.594168873
 20
-27.6863883911
 10
31.5835662309
 20
-27.7082931009
 10
31.5712545076
 20
-27.7280589316
 10
31.55728321
 20
-27.745667549
 10
31.5416497205
 20
-27.7611204419
 10
31.5243543335
 20
-27.7743587725
 10
31.5194587716
 20
-27.7775055605
  0
LINE
  5
431
100
AcDbEntity
  8
RACCORDO
100
AcDbLine
 62
7
  6
CONTINUOUS
 10
31.9205768248
 20
-16.2386917354
 11
31.9216334293
 21
-16.2170594376
  0
LWPOLYLINE
  5
432
100
AcDbEntity
  8
0
100
AcDbPolyline
 62
7
  6
CONTINUOUS
 90
8
 70
0
 10
33.068222183
 20
-16.549504812
 10
33.0548348143
 20
-16.8071770715
 10
33.0148537495
 20
-17.045905358
 10
32.9488196639
 20
-17.262461281
 10
32.8576255553
 20
-17.453916293
 10
32.7425046674
 20
-17.6176812934
 10
32.6050138128
 20
-17.7515416417
 10
32.488390844
 20
-17.8311680232
  0
LWPOLYLINE
  5
433
100
AcDbEntity
  8
0
100
AcDbPolyline
 62
7
  6
CONTINUOUS
 90
6
 70
0
 10
32.8207348095
 20
-16.6924009196
 10
32.8058676734
 20
-16.9549281991
 10
32.7660668338
 20
-17.1925803555
 10
32.7013322905
 20
-17.4053573886
 10
32.6101281896
 20
-17.595444125
 10
32.4939903852
 20
-17.7606557381
  0
LINE
  5
434
100
AcDbEntity
  8
RACCORDO
100
AcDbLine
 62
253
  6
CONTINUOUS
 10
31.9351397501
 20
-16.2619498649
 11
31.9336765592
 21
-16.2841984597
  0
LINE
  5
435
100
AcDbEntity
  8
RACCORDO
100
AcDbLine
 62
7
  6
CONTINUOUS
 10
31.9191697813
 20
-16.260073634
 11
31.9205768248
 21
-16.2386917354
  0
LINE
  5
436
100
AcDbEntity
  8
RACCORDO
100
AcDbLine
 62
7
  6
CONTINUOUS
 10
31.9191697814
 20
-16.2600736338
 11
31.919174799
 21
-16.2600077334
  0
LWPOLYLINE
  5
437
100
AcDbEntity
  8
0
100
AcDbPolyline
 62
7
  6
CONTINUOUS
 90
4
 70
0
 10
37.0633754967
 20
52.1363827264
 10
37.0493929948
 20
51.9556354284
 10
37.0143802023
 20
51.7987247877
 10
36.982497887
 20
51.7230204108
  0
LWPOLYLINE
  5
438
100
AcDbEntity
  8
RACCORDO
100
AcDbPolyline
 62
253
  6
CONTINUOUS
 90
6
 70
0
 10
31.2003373058
 20
-15.4409075321
 10
31.1998084035
 20
-15.44677323
 10
31.2002985187
 20
-15.4518926617
 10
31.2017937331
 20
-15.4561204491
 10
31.2042515868
 20
-15.4593365341
 10
31.2049169091
 20
-15.4599000721
  0
LWPOLYLINE
  5
439
100
AcDbEntity
  8
RACCORDO
100
AcDbPolyline
 62
253
  6
CONTINUOUS
 90
6
 70
0
 10
31.8664361097
 20
-15.9611212176
 10
31.8659072077
 20
-15.9669868872
 10
31.8663973139
 20
-15.9721063055
 10
31.8678925149
 20
-15.9763340926
 10
31.8703503556
 20
-15.9795501873
 10
31.8710157133
 20
-15.9801137579
  0
LWPOLYLINE
  5
43A
100
AcDbEntity
  8
RACCORDO
100
AcDbPolyline
 62
253
  6
CONTINUOUS
 90
22
 70
0
 10
29.7479950898
 20
-14.8142656575
 10
29.7483628284
 20
-14.8104285537
 10
29.7489680048
 20
-14.8066832298
 10
29.7498106188
 20
-14.8030296857
 10
29.7508795908
 20
-14.7994465382
 10
29.7521860005
 20
-14.7959551705
 10
29.7537630875
 20
-14.7926197322
 10
29.7556118027
 20
-14.7894373864
 10
29.7577311951
 20
-14.78641097
 10
29.7601516513
 20
-14.7836131431
 10
29.7628681844
 20
-14.7810408543
 10
29.7658857812
 20
-14.778697155
 10
29.7692497887
 20
-14.7766638596
 10
29.7729706595
 20
-14.7749289792
 10
29.7770379409
 20
-14.7735045028
 10
29.7814656211
 20
-14.7725082115
 10
29.7862729009
 20
-14.771941373
 10
29.7914405795
 20
-14.7718027195
 10
29.7969250428
 20
-14.7722062287
 10
29.8027117527
 20
-14.7731898931
 10
29.8088152472
 20
-14.7747157203
 10
29.8152355264
 20
-14.7767837101
  0
LWPOLYLINE
  5
43B
100
AcDbEntity
  8
RACCORDO
100
AcDbPolyline
 62
253
  6
CONTINUOUS
 90
8
 70
0
 10
31.9336765592
 20
-16.2841984597
 10
31.9333088222
 20
-16.2880355651
 10
31.9327036468
 20
-16.2917808903
 10
31.931861033
 20
-16.2954344352
 10
31.9307920605
 20
-16.299017583
 10
31.9294856496
 20
-16.3025089506
 10
31.9279085614
 20
-16.3058443885
 10
31.926059845
 20
-16.3090267339
  0
LWPOLYLINE
  5
43C
100
AcDbEntity
  8
0
100
AcDbPolyline
 62
7
  6
CONTINUOUS
 90
7
 70
0
 10
36.8452930551
 20
52.1464726449
 10
36.8469154358
 20
52.1625328786
 10
36.8485228146
 20
52.1820404516
 10
36.84957892
 20
52.1984870294
 10
36.8505057126
 20
52.2184437486
 10
36.8510606364
 20
52.2386330973
 10
36.8512434623
 20
52.2588651056
  0
LINE
  5
43D
100
AcDbEntity
  8
RACCORDO
100
AcDbLine
 62
7
  6
CONTINUOUS
 10
31.9191748557
 20
-16.2600077376
 11
31.9189989581
 21
-16.2615783607
  0
LWPOLYLINE
  5
43E
100
AcDbEntity
  8
RACCORDO
100
AcDbPolyline
 62
253
  6
CONTINUOUS
 90
10
 70
0
 10
30.7507889204
 20
-16.7591032398
 10
30.7513650338
 20
-16.7544365099
 10
30.7524114767
 20
-16.749556828
 10
30.753914098
 20
-16.7445301832
 10
30.7558525775
 20
-16.7394245523
 10
30.7582007007
 20
-16.7343089802
 10
30.7609267133
 20
-16.7292526464
 10
30.7639937507
 20
-16.7243239293
 10
30.7673603366
 20
-16.7195894814
 10
30.7709809438
 20
-16.7151133282
  0
LINE
  5
43F
100
AcDbEntity
  8
RACCORDO
100
AcDbLine
 62
253
  6
CONTINUOUS
 10
30.5672528941
 20
-14.9761655211
 11
30.6847040861
 21
-14.2748604918
  0
LINE
  5
440
100
AcDbEntity
  8
RACCORDO
100
AcDbLine
 62
253
  6
CONTINUOUS
 10
30.6355283726
 20
-14.9839754252
 11
30.7529795647
 21
-14.2826703952
  0
LINE
  5
441
100
AcDbEntity
  8
RACCORDO
100
AcDbLine
 62
7
  6
CONTINUOUS
 10
31.100460874
 20
-16.0936261257
 11
30.983009683
 21
-16.7949311493
  0
LINE
  5
442
100
AcDbEntity
  8
RACCORDO
100
AcDbLine
 62
253
  6
CONTINUOUS
 10
31.1144187503
 20
-16.1222985955
 11
30.9969675594
 21
-16.8236036187
  0
LWPOLYLINE
  5
443
100
AcDbEntity
  8
RACCORDO
100
AcDbPolyline
 62
253
  6
CONTINUOUS
 90
16
 70
0
 10
29.7961879847
 20
-14.824581114
 10
29.796604625
 20
-14.8226375626
 10
29.7972184075
 20
-14.8207027987
 10
29.7980315502
 20
-14.8187871681
 10
29.7990393265
 20
-14.8169034446
 10
29.8002507261
 20
-14.8150609715
 10
29.8016885683
 20
-14.8132660323
 10
29.8033556357
 20
-14.8115316549
 10
29.8052530736
 20
-14.8098702136
 10
29.8074014505
 20
-14.8082889232
 10
29.8097984898
 20
-14.8068050273
 10
29.8124497678
 20
-14.8054299059
 10
29.8153886142
 20
-14.8041675506
 10
29.8186261311
 20
-14.8030349272
 10
29.822155137
 20
-14.8020548876
 10
29.8254756085
 20
-14.8013393228
  0
LINE
  5
444
100
AcDbEntity
  8
RACCORDO
100
AcDbLine
 62
7
  6
CONTINUOUS
 10
27.6756967538
 20
3.8927470383
 11
24.9392779005
 21
2.3127783267
  0
LINE
  5
445
100
AcDbEntity
  8
RACCORDO
100
AcDbLine
 62
7
  6
CONTINUOUS
 10
27.6756967538
 20
-1.0060746224
 11
24.9392779005
 21
-2.5860433341
  0
LINE
  5
446
100
AcDbEntity
  8
0
100
AcDbLine
 62
7
  6
CONTINUOUS
 10
24.6660703735
 20
2.3381505648
 11
27.4820420091
 21
3.9118696492
  0
LINE
  5
447
100
AcDbEntity
  8
0
100
AcDbLine
 62
7
  6
CONTINUOUS
 10
27.4820420091
 20
2.8504582893
 11
24.6660703735
 21
1.276739205
  0
LINE
  5
448
100
AcDbEntity
  8
0
100
AcDbLine
 62
7
  6
CONTINUOUS
 10
24.6660703735
 20
-2.560671096
 11
27.4820420091
 21
-0.9869520116
  0
LINE
  5
449
100
AcDbEntity
  8
RACCORDO
100
AcDbLine
 62
7
  6
CONTINUOUS
 10
27.6756967538
 20
3.1190313866
 11
24.9392779005
 21
1.6474738813
  0
LINE
  5
44A
100
AcDbEntity
  8
RACCORDO
100
AcDbLine
 62
7
  6
CONTINUOUS
 10
27.6756967538
 20
-1.7797902741
 11
24.9392779005
 21
-3.2513477794
  0
LINE
  5
44B
100
AcDbEntity
  8
DRAFT
100
AcDbLine
 62
7
  6
CONTINUOUS
 10
25.2410551806
 20
62.0781079408
 11
26.199148828
 21
62.3159439379
  0
LINE
  5
44C
100
AcDbEntity
  8
DRAFT
100
AcDbLine
 62
7
  6
CONTINUOUS
 10
24.8347079646
 20
57.6293526129
 11
26.199148828
 21
57.9294111987
  0
LWPOLYLINE
  5
44D
100
AcDbEntity
  8
RACCORDO
100
AcDbPolyline
 62
7
  6
CONTINUOUS
 90
5
 70
0
 10
30.331017648
 20
56.1102650479
 10
30.3468923849
 20
56.1113428014
 10
30.3640539543
 20
56.1120306523
 10
30.3824548678
 20
56.1124037099
 10
30.4020130773
 20
56.1125108502
  0
LWPOLYLINE
  5
44E
100
AcDbEntity
  8
RACCORDO
100
AcDbPolyline
 62
7
  6
CONTINUOUS
 90
6
 70
0
 10
30.4673109937
 20
56.1123298265
 10
30.4910807337
 20
56.1124417843
 10
30.5151457744
 20
56.1129928141
 10
30.5391982076
 20
56.1140489478
 10
30.5632288471
 20
56.115534295
 10
30.5870836969
 20
56.1174398992
  0
LINE
  5
44F
100
AcDbEntity
  8
RACCORDO
100
AcDbLine
 62
7
  6
CONTINUOUS
 10
30.4020130773
 20
56.1125108502
 11
30.4673109937
 21
56.1123298265
  0
LWPOLYLINE
  5
450
100
AcDbEntity
  8
RACCORDO
100
AcDbPolyline
 62
253
  6
CONTINUOUS
 90
6
 70
0
 10
30.5005151729
 20
50.2867169633
 10
30.5098638613
 20
50.2861779641
 10
30.5192581057
 20
50.2869565956
 10
30.5284911976
 20
50.2890895442
 10
30.5369430114
 20
50.2926868699
 10
30.5445088356
 20
50.2979254907
  0
LINE
  5
451
100
AcDbEntity
  8
RACCORDO
100
AcDbLine
 62
253
  6
CONTINUOUS
 10
30.7529795647
 20
51.0349517482
 11
30.8177663713
 21
51.03029542
  0
LINE
  5
452
100
AcDbEntity
  8
RACCORDO
100
AcDbLine
 62
7
  6
CONTINUOUS
 10
30.5289067194
 20
50.2577785095
 11
30.5438077799
 21
50.2566050639
  0
LWPOLYLINE
  5
453
100
AcDbEntity
  8
RACCORDO
100
AcDbPolyline
 62
7
  6
CONTINUOUS
 90
5
 70
0
 10
30.7621986722
 20
51.0585441995
 10
30.7620194533
 20
51.0585617659
 10
30.7622579304
 20
51.0584921869
 10
30.7636510349
 20
51.0579763745
 10
30.7644696257
 20
51.0576009904
  0
LWPOLYLINE
  5
454
100
AcDbEntity
  8
RACCORDO
100
AcDbPolyline
 62
253
  6
CONTINUOUS
 90
10
 70
0
 10
30.6847040824
 20
48.6743155606
 10
30.6910526125
 20
48.6724200385
 10
30.698224859
 20
48.67115804
 10
30.7060171493
 20
48.6705654025
 10
30.7142082028
 20
48.6706589554
 10
30.7225654155
 20
48.671436042
 10
30.7308514646
 20
48.6728745951
 10
30.7388310482
 20
48.6749337637
 10
30.7462775674
 20
48.6775550726
 10
30.7529795608
 20
48.6806640839
  0
LWPOLYLINE
  5
455
100
AcDbEntity
  8
RACCORDO
100
AcDbPolyline
 62
253
  6
CONTINUOUS
 90
10
 70
0
 10
30.5672528941
 20
49.5112502557
 10
30.5736014079
 20
49.5093547436
 10
30.5807736395
 20
49.50809275
 10
30.5885659182
 20
49.5075001134
 10
30.5967569655
 20
49.5075936641
 10
30.605114178
 20
49.5083707469
 10
30.613400233
 20
49.5098092958
 10
30.621379828
 20
49.5118684607
 10
30.6288263624
 20
49.5144897677
 10
30.6355283726
 20
49.517598779
  0
LWPOLYLINE
  5
456
100
AcDbEntity
  8
RACCORDO
100
AcDbPolyline
 62
253
  6
CONTINUOUS
 90
8
 70
0
 10
31.227711313
 20
49.3079557792
 10
31.2150470266
 20
49.3119041025
 10
31.2022529125
 20
49.3144267197
 10
31.1894934207
 20
49.3153394671
 10
31.1768592583
 20
49.3144529644
 10
31.1646681308
 20
49.3115822945
 10
31.1533845554
 20
49.3067053836
 10
31.147661731
 20
49.3031989442
  0
LWPOLYLINE
  5
457
100
AcDbEntity
  8
RACCORDO
100
AcDbPolyline
 62
253
  6
CONTINUOUS
 90
12
 70
0
 10
31.2003373058
 20
49.244922257
 10
31.1906663124
 20
49.2481698906
 10
31.1811564715
 20
49.2500632069
 10
31.1718077831
 20
49.2506022061
 10
31.1624135388
 20
49.2498235747
 10
31.1531804469
 20
49.2476906261
 10
31.144728633
 20
49.2440933003
 10
31.1371628089
 20
49.2388546796
 10
31.1303782627
 20
49.2321516816
 10
31.1246809848
 20
49.2244050002
 10
31.1201729718
 20
49.2157548663
 10
31.1167522269
 20
49.2060610489
  0
LWPOLYLINE
  5
458
100
AcDbEntity
  8
RACCORDO
100
AcDbPolyline
 62
253
  6
CONTINUOUS
 90
15
 70
0
 10
29.8933917335
 20
45.369263581
 10
30.0494261344
 20
45.287259802
 10
30.2061269404
 20
45.2117165392
 10
30.3640115178
 20
45.1423219297
 10
30.5225625003
 20
45.0793878366
 10
30.6802277891
 20
45.023849849
 10
30.8368455845
 20
44.975902726
 10
30.9925776861
 20
44.9353517087
 10
31.1463573939
 20
44.9025481089
 10
31.2980748769
 20
44.8775925716
 10
31.447839966
 20
44.8603844519
 10
31.594915453
 20
44.8509731271
 10
31.7390556021
 20
44.8493750564
 10
31.8805061492
 20
44.8555737807
 10
32.0192670942
 20
44.8695692998
  0
LWPOLYLINE
  5
459
100
AcDbEntity
  8
RACCORDO
100
AcDbPolyline
 62
7
  6
CONTINUOUS
 90
16
 70
0
 10
29.7979624438
 20
45.3216800117
 10
29.9697042054
 20
45.2243435614
 10
30.1415611027
 20
45.1344961273
 10
30.3133224304
 20
45.0522658316
 10
30.4848468965
 20
44.9777457749
 10
30.6558506032
 20
44.9110873729
 10
30.8259159575
 20
44.8524653814
 10
30.994872069
 20
44.8019416644
 10
31.1624798441
 20
44.7595933602
 10
31.3282376193
 20
44.7255319053
 10
31.4919477324
 20
44.6997632808
 10
31.6534205863
 20
44.6822846114
 10
31.8121861526
 20
44.6730949279
 10
31.9679700579
 20
44.672130817
 10
32.1206837168
 20
44.6793136263
 10
32.2701465164
 20
44.694562741
  0
LINE
  5
45A
100
AcDbEntity
  8
RACCORDO
100
AcDbLine
 62
253
  6
CONTINUOUS
 10
29.7380237377
 20
45.4577278764
 11
29.8933917335
 21
45.369263581
  0
LWPOLYLINE
  5
45B
100
AcDbEntity
  8
RACCORDO
100
AcDbPolyline
 62
253
  6
CONTINUOUS
 90
10
 70
0
 10
29.7979562033
 20
45.321683686
 10
29.7852821005
 20
45.3305578151
 10
29.7743908398
 20
45.3409602505
 10
29.7648077953
 20
45.3531432514
 10
29.7566042896
 20
45.3670161398
 10
29.7498413734
 20
45.3824756676
 10
29.7445693759
 20
45.3994067841
 10
29.7408275342
 20
45.4176834828
 10
29.7386436985
 20
45.4371697369
 10
29.7380341227
 20
45.45772052
  0
LWPOLYLINE
  5
45C
100
AcDbEntity
  8
RACCORDO
100
AcDbPolyline
 62
253
  6
CONTINUOUS
 90
12
 70
0
 10
29.5980249466
 20
47.2854348603
 10
29.5846854523
 20
47.3131569723
 10
29.5722171775
 20
47.3419342779
 10
29.5606940756
 20
47.3717389054
 10
29.5501599954
 20
47.402748421
 10
29.5407186263
 20
47.4347210531
 10
29.5324999057
 20
47.4669855693
 10
29.5255241506
 20
47.4995642363
 10
29.5198309923
 20
47.5323368843
 10
29.5154896112
 20
47.564399467
 10
29.5124646022
 20
47.5956078491
 10
29.5112929259
 20
47.6158323436
  0
LWPOLYLINE
  5
45D
100
AcDbEntity
  8
RACCORDO
100
AcDbPolyline
 62
7
  6
CONTINUOUS
 90
3
 70
0
 10
29.5107573809
 20
47.6177443261
 10
29.5230293586
 20
47.5738344429
 10
29.5351574096
 20
47.5288456657
  0
LINE
  5
45E
100
AcDbEntity
  8
RACCORDO
100
AcDbLine
 62
7
  6
CONTINUOUS
 10
29.5351574096
 20
47.5288456657
 11
29.5980249466
 21
47.2854348603
  0
LWPOLYLINE
  5
45F
100
AcDbEntity
  8
RACCORDO
100
AcDbPolyline
 62
7
  6
CONTINUOUS
 90
10
 70
0
 10
28.7724469019
 20
51.8044604415
 10
28.7466736673
 20
51.9172563076
 10
28.7404868408
 20
51.9484948195
 10
28.7350726526
 20
51.980324546
 10
28.7304050826
 20
52.0129351171
 10
28.7265101509
 20
52.0461369028
 10
28.7234659185
 20
52.0793610128
 10
28.7212984059
 20
52.112417817
 10
28.7199815926
 20
52.1454969454
 10
28.7195154787
 20
52.1785983981
  0
LWPOLYLINE
  5
460
100
AcDbEntity
  8
RACCORDO
100
AcDbPolyline
 62
253
  6
CONTINUOUS
 90
7
 70
0
 10
29.8152355264
 20
50.5408384333
 10
29.8167684265
 20
50.5337822767
 10
29.8192617942
 20
50.5275061919
 10
29.8226448246
 20
50.5221884034
 10
29.8268214484
 20
50.517979922
 10
29.8316730606
 20
50.5150002575
 10
29.8330189676
 20
50.5144416688
  0
LWPOLYLINE
  5
461
100
AcDbEntity
  8
RACCORDO
100
AcDbPolyline
 62
253
  6
CONTINUOUS
 90
7
 70
0
 10
30.4813343387
 20
50.2918579133
 10
30.4828672393
 20
50.2848017699
 10
30.4853606038
 20
50.2785256916
 10
30.488743629
 20
50.2732079033
 10
30.4929202478
 20
50.2689994175
 10
30.4977718567
 20
50.2660197459
 10
30.4991832459
 20
50.2654365616
  0
LWPOLYLINE
  5
462
100
AcDbEntity
  8
RACCORDO
100
AcDbPolyline
 62
7
  6
CONTINUOUS
 90
16
 70
0
 10
33.0928638417
 20
45.2876790968
 10
33.0963754611
 20
45.2703785142
 10
33.1000034895
 20
45.2537414073
 10
33.1036968707
 20
45.2378600967
 10
33.10738742
 20
45.2228138146
 10
33.111026778
 20
45.2087062712
 10
33.1145844191
 20
45.1956571674
 10
33.1179711766
 20
45.183770042
 10
33.1211287113
 20
45.1730857314
 10
33.1240711299
 20
45.1636395965
 10
33.1267159591
 20
45.1555278631
 10
33.1289862862
 20
45.1488229846
 10
33.1309042802
 20
45.143582199
 10
33.1323655023
 20
45.1399194042
 10
33.1332779996
 20
45.1379483068
 10
33.1335766653
 20
45.137630681
  0
LWPOLYLINE
  5
463
100
AcDbEntity
  8
RACCORDO
100
AcDbPolyline
 62
253
  6
CONTINUOUS
 90
15
 70
0
 10
30.7529795646
 20
51.0349517476
 10
30.752247925
 20
51.0386145944
 10
30.7518282465
 20
51.0419664618
 10
30.7516900363
 20
51.0449999907
 10
30.7517948108
 20
51.0477103402
 10
30.7521233897
 20
51.0500999783
 10
30.7526773176
 20
51.0521760285
 10
30.7534416172
 20
51.0539466318
 10
30.7543855219
 20
51.0554140064
 10
30.7554892502
 20
51.0565818341
 10
30.7567282802
 20
51.0574599311
 10
30.7580900138
 20
51.0580726407
 10
30.7595758048
 20
51.0584414516
 10
30.7611579571
 20
51.0585753311
 10
30.7621893956
 20
51.0585451902
  0
LWPOLYLINE
  5
464
100
AcDbEntity
  8
RACCORDO
100
AcDbPolyline
 62
7
  6
CONTINUOUS
 90
9
 70
0
 10
28.7724469019
 20
51.8044604415
 10
28.7890467526
 20
51.7209448436
 10
28.8034326844
 20
51.6360622164
 10
28.8156032203
 20
51.549915386
 10
28.8255598373
 20
51.4624015264
 10
28.8333069661
 20
51.3732121595
 10
28.8388460837
 20
51.2822444591
 10
28.8421757131
 20
51.1896012515
 10
28.8432958543
 20
51.0952825365
  0
LWPOLYLINE
  5
465
100
AcDbEntity
  8
RACCORDO
100
AcDbPolyline
 62
253
  6
CONTINUOUS
 90
13
 70
0
 10
30.6355283726
 20
49.517598779
 10
30.6326150851
 20
49.5336820446
 10
30.6284021404
 20
49.5506576523
 10
30.6228122747
 20
49.5684055823
 10
30.615726831
 20
49.5869257898
 10
30.6071445287
 20
49.6058711919
 10
30.5972785322
 20
49.6245656903
 10
30.5862019486
 20
49.6427900966
 10
30.5740309279
 20
49.6603209268
 10
30.5612139086
 20
49.6765525699
 10
30.5480416769
 20
49.6912380948
 10
30.534575487
 20
49.7044168669
 10
30.5209702986
 20
49.7160191833
  0
LWPOLYLINE
  5
466
100
AcDbEntity
  8
RACCORDO
100
AcDbPolyline
 62
7
  6
CONTINUOUS
 90
7
 70
0
 10
33.0928638417
 20
45.2876790968
 10
33.0909855478
 20
45.2981555386
 10
33.0894426273
 20
45.3090089059
 10
33.0882350801
 20
45.3202391985
 10
33.0873629063
 20
45.3318464165
 10
33.0868261058
 20
45.34383056
 10
33.0866246787
 20
45.3561916288
  0
LINE
  5
467
100
AcDbEntity
  8
RACCORDO
100
AcDbLine
 62
253
  6
CONTINUOUS
 10
30.9955480975
 20
50.8706974792
 11
30.9969675579
 21
50.8624646395
  0
LWPOLYLINE
  5
468
100
AcDbEntity
  8
RACCORDO
100
AcDbPolyline
 62
253
  6
CONTINUOUS
 90
13
 70
0
 10
30.5672528941
 20
49.5112502557
 10
30.5652295539
 20
49.5235852485
 10
30.5621138868
 20
49.5363648603
 10
30.5579058929
 20
49.549589091
 10
30.5525339804
 20
49.5635379555
 10
30.5460697411
 20
49.5779314389
 10
30.5387279499
 20
49.5919294968
 10
30.5304077474
 20
49.6054694572
 10
30.521209993
 20
49.618613992
 10
30.5116520396
 20
49.6307110725
 10
30.5019063382
 20
49.6415433557
 10
30.4918004379
 20
49.6513281845
 10
30.4813343387
 20
49.660065559
  0
LWPOLYLINE
  5
469
100
AcDbEntity
  8
RACCORDO
100
AcDbPolyline
 62
253
  6
CONTINUOUS
 90
3
 70
0
 10
31.1144187503
 20
50.0255299145
 10
31.1164420905
 20
50.0131949217
 10
31.1195577576
 20
50.00041531
  0
LWPOLYLINE
  5
46A
100
AcDbEntity
  8
RACCORDO
100
AcDbPolyline
 62
7
  6
CONTINUOUS
 90
4
 70
0
 10
31.1002505293
 20
50.039059559
 10
31.1015207765
 20
50.0310232321
 10
31.1076846515
 20
50.0045021029
 10
31.116752615
 20
49.9781096673
  0
LINE
  5
46B
100
AcDbEntity
  8
RACCORDO
100
AcDbLine
 62
253
  6
CONTINUOUS
 10
30.6847040824
 20
48.6743155606
 11
30.5672528941
 21
49.5112502557
  0
LINE
  5
46C
100
AcDbEntity
  8
RACCORDO
100
AcDbLine
 62
253
  6
CONTINUOUS
 10
30.7529795608
 20
48.6806640841
 11
30.6355283726
 21
49.517598779
  0
LINE
  5
46D
100
AcDbEntity
  8
RACCORDO
100
AcDbLine
 62
7
  6
CONTINUOUS
 10
30.9828080895
 20
50.8759297112
 11
31.1002592842
 21
50.03899497
  0
LINE
  5
46E
100
AcDbEntity
  8
RACCORDO
100
AcDbLine
 62
253
  6
CONTINUOUS
 10
30.9969675579
 20
50.8624646395
 11
31.1144187503
 21
50.0255299145
  0
LWPOLYLINE
  5
46F
100
AcDbEntity
  8
RACCORDO
100
AcDbPolyline
 62
253
  6
CONTINUOUS
 90
9
 70
0
 10
30.7507889173
 20
51.0822451648
 10
30.7513650303
 20
51.0774652767
 10
30.7524114716
 20
51.0730260845
 10
30.7539140909
 20
51.0689876212
 10
30.7558525689
 20
51.0654045007
 10
30.7582006917
 20
51.0623251798
 10
30.7609267054
 20
51.0597913024
 10
30.7639937458
 20
51.0578371359
 10
30.7644255088
 20
51.0576222629
  0
LWPOLYLINE
  5
470
100
AcDbEntity
  8
RACCORDO
100
AcDbPolyline
 62
253
  6
CONTINUOUS
 90
5
 70
0
 10
27.2486363864
 20
66.4702568819
 10
27.2476461318
 20
66.4784847292
 10
27.2433920296
 20
66.5015125656
 10
27.2376139249
 20
66.5249780465
 10
27.2303557755
 20
66.5487026546
  0
LINE
  5
471
100
AcDbEntity
  8
RACCORDO
100
AcDbLine
 62
7
  6
CONTINUOUS
 10
31.9186227698
 20
49.2628896386
 11
31.9191410943
 21
49.2584875592
  0
LWPOLYLINE
  5
472
100
AcDbEntity
  8
0
100
AcDbPolyline
 62
7
  6
CONTINUOUS
 90
7
 70
0
 10
36.8512434623
 20
52.2588651044
 10
36.8320802131
 20
52.4769782224
 10
36.774227747
 20
52.7111900856
 10
36.6803800267
 20
52.947156405
 10
36.5549155593
 20
53.1738680671
 10
36.4062958491
 20
53.3776205763
 10
36.2344526086
 20
53.5575102477
  0
LWPOLYLINE
  5
473
100
AcDbEntity
  8
0
100
AcDbPolyline
 62
7
  6
CONTINUOUS
 90
12
 70
0
 10
37.0633754967
 20
52.1363827264
 10
37.0493929948
 20
52.3332766671
 10
37.0143802023
 20
52.5306192029
 10
36.9583371191
 20
52.7284103341
 10
36.8791047858
 20
52.9310225781
 10
36.7788421619
 20
53.1340834173
 10
36.6640261252
 20
53.3244752988
 10
36.5336958486
 20
53.5013618085
 10
36.3888121592
 20
53.6655793604
 10
36.2387344169
 20
53.8065196442
 10
36.0831197065
 20
53.9226458769
 10
36.0121612745
 20
53.9636163862
  0
LWPOLYLINE
  5
474
100
AcDbEntity
  8
0
100
AcDbPolyline
 62
7
  6
CONTINUOUS
 90
4
 70
0
 10
37.0633754967
 20
-13.181239417
 10
37.0493929948
 20
-13.361986715
 10
37.0143802023
 20
-13.5188973557
 10
36.982497887
 20
-13.5946017327
  0
LWPOLYLINE
  5
475
100
AcDbEntity
  8
0
100
AcDbPolyline
 62
7
  6
CONTINUOUS
 90
7
 70
0
 10
36.8452930551
 20
-13.1711494985
 10
36.8469154358
 20
-13.1550892649
 10
36.8485228146
 20
-13.1355816919
 10
36.84957892
 20
-13.119135114
 10
36.8505057126
 20
-13.0991783948
 10
36.8510606364
 20
-13.0789890461
 10
36.8512434623
 20
-13.0587570378
  0
LINE
  5
476
100
AcDbEntity
  8
RACCORDO
100
AcDbLine
 62
7
  6
CONTINUOUS
 10
33.1000034895
 20
-11.8128096197
 11
33.0928638417
 21
-11.8585359155
  0
LWPOLYLINE
  5
477
100
AcDbEntity
  8
RACCORDO
100
AcDbPolyline
 62
7
  6
CONTINUOUS
 90
4
 70
0
 10
31.9189989581
 20
-16.2615783607
 10
31.918866628
 20
-16.2622698659
 10
31.9187655887
 20
-16.2626615022
 10
31.9188558475
 20
-16.2624596463
  0
LWPOLYLINE
  5
478
100
AcDbEntity
  8
RACCORDO
100
AcDbPolyline
 62
7
  6
CONTINUOUS
 90
5
 70
0
 10
30.9829979471
 20
-16.7950020316
 10
30.982583913
 20
-16.7971182935
 10
30.9820007167
 20
-16.799354187
 10
30.9814094351
 20
-16.8010715671
 10
30.9811372516
 20
-16.8017196739
  0
LINE
  5
479
100
AcDbEntity
  8
RACCORDO
100
AcDbLine
 62
253
  6
CONTINUOUS
 10
30.5649194175
 20
-14.9869030221
 11
30.5672528941
 21
-14.9761655211
  0
LINE
  5
47A
100
AcDbEntity
  8
RACCORDO
100
AcDbLine
 62
253
  6
CONTINUOUS
 10
31.1167522269
 20
-16.1115610945
 11
31.1144187503
 21
-16.1222985955
  0
LWPOLYLINE
  5
47B
100
AcDbEntity
  8
RACCORDO
100
AcDbPolyline
 62
253
  6
CONTINUOUS
 90
19
 70
0
 10
30.6847040861
 20
-14.2748604918
 10
30.6862650492
 20
-14.2677328286
 10
30.6881963413
 20
-14.261233645
 10
30.6904979622
 20
-14.2553629409
 10
30.693210072
 20
-14.2501287674
 10
30.6962925106
 20
-14.2455230734
 10
30.6996247987
 20
-14.2415217058
 10
30.7032126125
 20
-14.2381335353
 10
30.7070502758
 20
-14.2353496911
 10
30.7110002798
 20
-14.2331194081
 10
30.7150285175
 20
-14.2314558192
 10
30.7191690959
 20
-14.2303457914
 10
30.7233868271
 20
-14.2296991608
 10
30.7276497641
 20
-14.2294856284
 10
30.7319898539
 20
-14.2297354932
 10
30.7364677489
 20
-14.2304494874
 10
30.7411036665
 20
-14.2316278551
 10
30.7458773893
 20
-14.2332703522
 10
30.7507889173
 20
-14.2353769787
  0
LWPOLYLINE
  5
47C
100
AcDbEntity
  8
RACCORDO
100
AcDbPolyline
 62
253
  6
CONTINUOUS
 90
4
 70
0
 10
30.9969675594
 20
-16.8236036187
 10
30.9954065962
 20
-16.8307312828
 10
30.9934753041
 20
-16.8372304674
 10
30.9911736831
 20
-16.8431011725
  0
LWPOLYLINE
  5
47D
100
AcDbEntity
  8
RACCORDO
100
AcDbPolyline
 62
253
  6
CONTINUOUS
 90
10
 70
0
 10
29.8152355289
 20
-15.1373428945
 10
29.8167684185
 20
-15.1308975351
 10
29.8192617703
 20
-15.1240555054
 10
29.822644784
 20
-15.1170110983
 10
29.8268213955
 20
-15.109964354
 10
29.831673003
 20
-15.1031153823
 10
29.8370618339
 20
-15.0966586797
 10
29.8428348598
 20
-15.0907776021
 10
29.8488281428
 20
-15.0856391583
 10
29.8548714889
 20
-15.0813892701
  0
LWPOLYLINE
  5
47E
100
AcDbEntity
  8
RACCORDO
100
AcDbPolyline
 62
253
  6
CONTINUOUS
 90
10
 70
0
 10
30.4813343387
 20
-15.6575565845
 10
30.4828672388
 20
-15.6511111908
 10
30.4853606065
 20
-15.6442691335
 10
30.4887436369
 20
-15.6372247087
 10
30.4929202607
 20
-15.6301779595
 10
30.4977718729
 20
-15.6233289948
 10
30.5031607006
 20
-15.6168723072
 10
30.5089337155
 20
-15.6109912494
 10
30.5149269791
 20
-15.6058528278
 10
30.5209702986
 20
-15.6016029601
  0
LWPOLYLINE
  5
47F
100
AcDbEntity
  8
RACCORDO
100
AcDbPolyline
 62
253
  6
CONTINUOUS
 90
33
 70
0
 10
28.7536331322
 20
-13.4310131331
 10
28.7733896186
 20
-13.3801613509
 10
28.7947348949
 20
-13.3301996266
 10
28.8176969968
 20
-13.2812045722
 10
28.8420421356
 20
-13.2337398084
 10
28.8680270191
 20
-13.1873663189
 10
28.8965429624
 20
-13.1408070888
 10
28.9280074877
 20
-13.0939287332
 10
28.9623379837
 20
-13.0473968468
 10
28.9998243108
 20
-13.0013276015
 10
29.0406064438
 20
-12.9560711571
 10
29.0848821275
 20
-12.9119249312
 10
29.1330754362
 20
-12.8690239808
 10
29.1854208091
 20
-12.827760068
 10
29.2420647366
 20
-12.7886155745
 10
29.3033390546
 20
-12.7519719192
 10
29.3695722199
 20
-12.7182822968
 10
29.4407920819
 20
-12.6881814644
 10
29.5168427496
 20
-12.6623276986
 10
29.5979837557
 20
-12.6412068229
 10
29.684126541
 20
-12.625414187
 10
29.774450654
 20
-12.6155572371
 10
29.8688926782
 20
-12.6120035798
 10
29.9673735153
 20
-12.6151138756
 10
30.0688774052
 20
-12.6251215446
 10
30.1731252276
 20
-12.6421645669
 10
30.2800017963
 20
-12.6663878768
 10
30.3886227267
 20
-12.6977010341
 10
30.4986258724
 20
-12.7360390077
 10
30.6098499215
 20
-12.7813845929
 10
30.7216642152
 20
-12.8334971722
 10
30.8336732915
 20
-12.892167417
 10
30.8820390868
 20
-12.919489297
  0
LINE
  5
480
100
AcDbEntity
  8
0
100
AcDbLine
 62
7
  6
CONTINUOUS
 10
27.4820420091
 20
-2.0483633714
 11
24.6660703735
 21
-3.6220824558
  0
LWPOLYLINE
  5
481
100
AcDbEntity
  8
RACCORDO
100
AcDbPolyline
 62
7
  6
CONTINUOUS
 90
3
 70
0
 10
30.499204341
 20
50.2654288518
 10
30.5136835696
 20
50.2608360708
 10
30.5289067194
 20
50.2577785095
  0
LWPOLYLINE
  5
482
100
AcDbEntity
  8
RACCORDO
100
AcDbPolyline
 62
253
  6
CONTINUOUS
 90
3
 70
0
 10
30.4813343387
 20
50.2918579133
 10
30.491005332
 20
50.2886102797
 10
30.5005151729
 20
50.2867169633
  0
LWPOLYLINE
  5
483
100
AcDbEntity
  8
DRAFT
100
AcDbPolyline
 62
7
  6
CONTINUOUS
 90
3
 70
0
 10
31.1892106865
 20
52.1918006059
 10
31.0951062804
 20
52.2237281198
 10
31.0019532112
 20
52.248743018
  0
LINE
  5
484
100
AcDbEntity
  8
RACCORDO
100
AcDbLine
 62
7
  6
CONTINUOUS
 10
29.8307922945
 20
50.5151994855
 11
29.8330189617
 21
50.5144416553
  0
LINE
  5
485
100
AcDbEntity
  8
RACCORDO
100
AcDbLine
 62
253
  6
CONTINUOUS
 10
31.8664360943
 20
48.9959417458
 11
31.2003373058
 21
49.244922257
  0
LINE
  5
486
100
AcDbEntity
  8
RACCORDO
100
AcDbLine
 62
253
  6
CONTINUOUS
 10
31.8938101014
 20
49.0589752681
 11
31.227711313
 21
49.3079557792
  0
LINE
  5
487
100
AcDbEntity
  8
RACCORDO
100
AcDbLine
 62
7
  6
CONTINUOUS
 10
29.8330844211
 20
50.5144170863
 11
30.4991832459
 21
50.2654365616
  0
LINE
  5
488
100
AcDbEntity
  8
RACCORDO
100
AcDbLine
 62
253
  6
CONTINUOUS
 10
29.8152355264
 20
50.5408384333
 11
30.4813343387
 21
50.2918579133
  0
LINE
  5
489
100
AcDbEntity
  8
DRAFT
100
AcDbLine
 62
7
  6
CONTINUOUS
 10
31.2001702317
 20
52.187319806
 11
31.1892106865
 21
52.1918006059
  0
LWPOLYLINE
  5
48A
100
AcDbEntity
  8
RACCORDO
100
AcDbPolyline
 62
253
  6
CONTINUOUS
 90
10
 70
0
 10
29.7479950928
 20
50.2954087659
 10
29.7523247829
 20
50.2935741003
 10
29.7570740436
 20
50.2920403038
 10
29.7621786503
 20
50.2908281189
 10
29.7675695728
 20
50.289953939
 10
29.7731739085
 20
50.2894295865
 10
29.7789158679
 20
50.2892621532
 10
29.7847178006
 20
50.289453904
 10
29.7905012453
 20
50.2900022462
 10
29.7961879904
 20
50.290899765
  0
LWPOLYLINE
  5
48B
100
AcDbEntity
  8
RACCORDO
100
AcDbPolyline
 62
253
  6
CONTINUOUS
 90
19
 70
0
 10
29.8548714889
 20
50.2362328733
 10
29.8489613464
 20
50.2388003451
 10
29.8433368065
 20
50.2415631329
 10
29.8380022061
 20
50.2444835232
 10
29.8329502025
 20
50.247521318
 10
29.8281934916
 20
50.2506470405
 10
29.8237653485
 20
50.2538432638
 10
29.8196680259
 20
50.2570913935
 10
29.8159005019
 20
50.2603564938
 10
29.8124896025
 20
50.2636002359
 10
29.8094573236
 20
50.266781606
 10
29.8067763056
 20
50.2699018542
 10
29.8044000567
 20
50.2729893855
 10
29.8023232781
 20
50.2760152795
 10
29.8005483954
 20
50.2789818971
 10
29.7990469624
 20
50.2819624566
 10
29.7978133327
 20
50.2849683189
 10
29.7968595531
 20
50.2879534526
 10
29.7961879899
 20
50.2908997918
  0
LWPOLYLINE
  5
48C
100
AcDbEntity
  8
0
100
AcDbPolyline
 62
7
  6
CONTINUOUS
 90
8
 70
0
 10
30.9732023078
 20
52.2600045779
 10
30.7445173445
 20
52.3611809067
 10
30.5204817656
 20
52.4292266121
 10
30.304125268
 20
52.463221493
 10
30.098373702
 20
52.4627058266
 10
29.9060095047
 20
52.4276865867
 10
29.7296340718
 20
52.3586373482
 10
29.6882555472
 20
52.3361182653
  0
LWPOLYLINE
  5
48D
100
AcDbEntity
  8
RACCORDO
100
AcDbPolyline
 62
253
  6
CONTINUOUS
 90
6
 70
0
 10
31.1144187503
 20
50.0255299145
 10
31.1090742299
 20
50.0280051198
 10
31.1048854701
 20
50.0309897326
 10
31.1019714224
 20
50.0343989987
 10
31.10041484
 20
50.0381361048
 10
31.1002592842
 20
50.03899497
  0
LWPOLYLINE
  5
48E
100
AcDbEntity
  8
RACCORDO
100
AcDbPolyline
 62
253
  6
CONTINUOUS
 90
6
 70
0
 10
30.9969675579
 20
50.8624646395
 10
30.9916230257
 20
50.8649398574
 10
30.987434262
 20
50.8679244815
 10
30.9845202165
 20
50.8713337564
 10
30.9829636404
 20
50.8750708676
 10
30.9828080895
 20
50.8759297112
  0
LINE
  5
48F
100
AcDbEntity
  8
RACCORDO
100
AcDbLine
 62
7
  6
CONTINUOUS
 10
30.7644255088
 20
51.0576222629
 11
30.764469651
 21
51.0576010442
  0
LWPOLYLINE
  5
490
100
AcDbEntity
  8
RACCORDO
100
AcDbPolyline
 62
253
  6
CONTINUOUS
 90
10
 70
0
 10
30.9308827255
 20
48.4545350018
 10
30.910882172
 20
48.4643935562
 10
30.8908766315
 20
48.474677371
 10
30.8708661041
 20
48.4853864464
 10
30.8508472303
 20
48.4965227255
 10
30.8308233696
 20
48.5080842651
 10
30.8108046004
 20
48.5200652356
 10
30.7907942822
 20
48.532463694
 10
30.7707890555
 20
48.5452815833
 10
30.7507889204
 20
48.5585189036
  0
LWPOLYLINE
  5
491
100
AcDbEntity
  8
RACCORDO
100
AcDbPolyline
 62
253
  6
CONTINUOUS
 90
10
 70
0
 10
30.9460460254
 20
48.5014284442
 10
30.9266246674
 20
48.5110004172
 10
30.9071805766
 20
48.5209954551
 10
30.8877202425
 20
48.531410222
 10
30.8682501605
 20
48.5422412422
 10
30.8487768283
 20
48.5534849006
 10
30.8293067443
 20
48.5651374437
 10
30.8098464065
 20
48.5771949821
 10
30.79040231
 20
48.5896534918
 10
30.7709809443
 20
48.6025088149
  0
LWPOLYLINE
  5
492
100
AcDbEntity
  8
RACCORDO
100
AcDbPolyline
 62
253
  6
CONTINUOUS
 90
4
 70
0
 10
30.7507889173
 20
51.0822451648
 10
30.7707894712
 20
51.0723866122
 10
30.790795012
 20
51.0621027987
 10
30.8108055398
 20
51.0513937241
  0
LINE
  5
493
100
AcDbEntity
  8
0
100
AcDbLine
 62
7
  6
CONTINUOUS
 10
31.0881318525
 20
52.1975134363
 11
30.9732023078
 21
52.2600045779
  0
LWPOLYLINE
  5
494
100
AcDbEntity
  8
RACCORDO
100
AcDbPolyline
 62
253
  6
CONTINUOUS
 90
8
 70
0
 10
31.9336765556
 20
49.2413714002
 10
31.9298249786
 20
49.2434821222
 10
31.9265036033
 20
49.2458403618
 10
31.9237573466
 20
49.2484142283
 10
31.921623348
 20
49.2511689154
 10
31.9201304675
 20
49.2540671707
 10
31.9192988952
 20
49.2570698001
 10
31.9191488889
 20
49.258366342
  0
LWPOLYLINE
  5
495
100
AcDbEntity
  8
RACCORDO
100
AcDbPolyline
 62
7
  6
CONTINUOUS
 90
5
 70
0
 10
30.8415332813
 20
51.0171674662
 10
30.8222081441
 20
51.0279182011
 10
30.8029102631
 20
51.0382463491
 10
30.783647034
 20
51.0481486633
 10
30.7644255088
 20
51.0576222629
  0
LWPOLYLINE
  5
496
100
AcDbEntity
  8
RACCORDO
100
AcDbPolyline
 62
253
  6
CONTINUOUS
 90
3
 70
0
 10
30.8108055398
 20
51.0513937241
 10
30.830824414
 20
51.0402574453
 10
30.8508482751
 20
51.0286959055
  0
LINE
  5
497
100
AcDbEntity
  8
0
100
AcDbLine
 62
7
  6
CONTINUOUS
 10
31.4363288655
 20
51.9965077002
 11
31.0881318525
 21
52.1975134363
  0
LINE
  5
498
100
AcDbEntity
  8
RACCORDO
100
AcDbLine
 62
253
  6
CONTINUOUS
 10
30.8126401249
 20
52.5056421762
 11
30.9368258435
 21
52.4318438686
  0
LWPOLYLINE
  5
499
100
AcDbEntity
  8
RACCORDO
100
AcDbPolyline
 62
253
  6
CONTINUOUS
 90
5
 70
0
 10
30.8508482751
 20
51.0286959055
 10
30.8708670447
 20
51.0167149342
 10
30.8908773633
 20
51.0043164744
 10
30.9108825904
 20
50.9914985831
 10
30.9308827259
 20
50.9782612603
  0
LWPOLYLINE
  5
49A
100
AcDbEntity
  8
RACCORDO
100
AcDbPolyline
 62
253
  6
CONTINUOUS
 90
10
 70
0
 10
29.7479950898
 20
50.503356486
 10
29.7523247909
 20
50.5007434417
 10
29.7570740616
 20
50.4984417947
 10
29.7621786764
 20
50.4964826711
 10
29.7675696039
 20
50.4948925648
 10
29.7731739412
 20
50.4936929793
 10
29.7789158991
 20
50.4929001371
 10
29.7847178273
 20
50.4925247602
 10
29.7905012645
 20
50.492571925
 10
29.7961879995
 20
50.4930409939
  0
LWPOLYLINE
  5
49B
100
AcDbEntity
  8
RACCORDO
100
AcDbPolyline
 62
7
  6
CONTINUOUS
 90
4
 70
0
 10
30.8996063556
 20
50.9824100878
 10
30.8802388168
 20
50.9944103416
 10
30.8608788799
 20
51.0059972364
 10
30.8415332813
 20
51.0171674662
  0
LWPOLYLINE
  5
49C
100
AcDbEntity
  8
RACCORDO
100
AcDbPolyline
 62
7
  6
CONTINUOUS
 90
3
 70
0
 10
30.9383349118
 20
50.9571850354
 10
30.9189740856
 20
50.9700003618
 10
30.8996063556
 20
50.9824100878
  0
LWPOLYLINE
  5
49D
100
AcDbEntity
  8
RACCORDO
100
AcDbPolyline
 62
253
  6
CONTINUOUS
 90
10
 70
0
 10
30.5672528941
 20
50.3414566223
 10
30.5736014242
 20
50.3371804126
 10
30.5807736708
 20
50.3336053317
 10
30.588565961
 20
50.3308329025
 10
30.5967570146
 20
50.3289418546
 10
30.6051142273
 20
50.3279858887
 10
30.6134002763
 20
50.3279921517
 10
30.62137986
 20
50.3289604658
 10
30.6288263792
 20
50.3308633335
 10
30.6355283726
 20
50.3336467183
  0
LWPOLYLINE
  5
49E
100
AcDbEntity
  8
RACCORDO
100
AcDbPolyline
 62
253
  6
CONTINUOUS
 90
10
 70
0
 10
30.6847040861
 20
51.0427616516
 10
30.6910525813
 20
51.0384854623
 10
30.6982247958
 20
51.0349103897
 10
30.7060170625
 20
51.0321379585
 10
30.7142081056
 20
51.0302469016
 10
30.722565322
 20
51.0292909239
 10
30.7308513857
 20
51.0292971764
 10
30.738830992
 20
51.0302654842
 10
30.7462775402
 20
51.0321683527
 10
30.7529795646
 20
51.0349517476
  0
LWPOLYLINE
  5
49F
100
AcDbEntity
  8
RACCORDO
100
AcDbPolyline
 62
253
  6
CONTINUOUS
 90
22
 70
0
 10
30.7507889204
 20
48.5585189036
 10
30.7472818962
 20
48.5609684279
 10
30.743735628
 20
48.5637147726
 10
30.7401501158
 20
48.5667579377
 10
30.7365123809
 20
48.5700926236
 10
30.7328354019
 20
48.5737241299
 10
30.7291581145
 20
48.5776683555
 10
30.7254775863
 20
48.5819280913
 10
30.7217967496
 20
48.5865005465
 10
30.7181633373
 20
48.5913932468
 10
30.7145772002
 20
48.5966005203
 10
30.7110384874
 20
48.6021280389
 10
30.7075953788
 20
48.6080003446
 10
30.7042322646
 20
48.6142385201
 10
30.7009647546
 20
48.6208214825
 10
30.6978878588
 20
48.6277105261
 10
30.694993074
 20
48.6349327309
 10
30.6922889035
 20
48.6424610167
 10
30.6898958671
 20
48.6501754372
 10
30.6878541381
 20
48.6580360103
 10
30.6861235432
 20
48.6660827181
 10
30.6847040824
 20
48.6743155606
  0
LINE
  5
4A0
100
AcDbEntity
  8
RACCORDO
100
AcDbLine
 62
253
  6
CONTINUOUS
 10
30.9308827259
 20
50.9782612603
 11
30.9343897493
 21
50.9758117346
  0
LWPOLYLINE
  5
4A1
100
AcDbEntity
  8
RACCORDO
100
AcDbPolyline
 62
7
  6
CONTINUOUS
 90
5
 70
0
 10
30.9384321369
 20
50.9571202928
 10
30.9408480312
 20
50.9553706519
 10
30.9464847766
 20
50.9504656022
 10
30.9527977357
 20
50.943669894
 10
30.9592696049
 20
50.9351901459
  0
LWPOLYLINE
  5
4A2
100
AcDbEntity
  8
0
100
AcDbPolyline
 62
7
  6
CONTINUOUS
 90
9
 70
0
 10
-25.7736590078
 20
92.1891844547
 10
-25.8045216358
 20
92.2120572852
 10
-25.8309467192
 20
92.236067362
 10
-25.8529342582
 20
92.2612146849
 10
-25.8706115752
 20
92.2877655213
 10
-25.8838513477
 20
92.315453604
 10
-25.8922716079
 20
92.343480131
 10
-25.8957319626
 20
92.3718549611
 10
-25.8958449292
 20
92.3783351232
  0
LWPOLYLINE
  5
4A3
100
AcDbEntity
  8
RACCORDO
100
AcDbPolyline
 62
253
  6
CONTINUOUS
 90
9
 70
0
 10
31.9336765592
 20
49.0334236838
 10
31.9298249746
 20
49.0363127841
 10
31.9265035956
 20
49.0394388757
 10
31.9237573383
 20
49.0427596836
 10
31.9216233413
 20
49.0462302997
 10
31.9201304635
 20
49.0498037897
 10
31.9192988939
 20
49.0534318284
 10
31.9191398781
 20
49.0570653527
 10
31.9191697814
 20
49.0575485097
  0
LWPOLYLINE
  5
4A4
100
AcDbEntity
  8
RACCORDO
100
AcDbPolyline
 62
253
  6
CONTINUOUS
 90
15
 70
0
 10
30.9343897493
 20
50.9758117346
 10
30.9379360169
 20
50.9730653892
 10
30.9415215286
 20
50.9700222241
 10
30.945159263
 20
50.9666875391
 10
30.9488362415
 20
50.9630560344
 10
30.9525135286
 20
50.9591118104
 10
30.9561940566
 20
50.954852076
 10
30.9598748932
 20
50.9502796224
 10
30.9635083054
 20
50.9453869237
 10
30.9670944425
 20
50.9401796519
 10
30.9706331553
 20
50.934652135
 10
30.9740762638
 20
50.9287798313
 10
30.9774393778
 20
50.9225416583
 10
30.9807068875
 20
50.9159586984
 10
30.983783783
 20
50.9090696575
  0
LINE
  5
4A5
100
AcDbEntity
  8
RACCORDO
100
AcDbLine
 62
253
  6
CONTINUOUS
 10
30.4813343387
 20
49.660065559
 11
29.8152355289
 21
50.180279249
  0
LINE
  5
4A6
100
AcDbEntity
  8
RACCORDO
100
AcDbLine
 62
253
  6
CONTINUOUS
 10
30.5209702986
 20
49.7160191833
 11
29.8548714883
 21
50.2362328738
  0
LINE
  5
4A7
100
AcDbEntity
  8
RACCORDO
100
AcDbLine
 62
7
  6
CONTINUOUS
 10
31.2049169091
 20
49.8577220713
 11
31.8710157133
 21
49.3375083856
  0
LINE
  5
4A8
100
AcDbEntity
  8
RACCORDO
100
AcDbLine
 62
253
  6
CONTINUOUS
 10
31.2003373058
 20
49.8767146113
 11
31.8664361097
 21
49.3565009258
  0
LWPOLYLINE
  5
4A9
100
AcDbEntity
  8
RACCORDO
100
AcDbPolyline
 62
7
  6
CONTINUOUS
 90
4
 70
0
 10
31.871221736
 20
49.3373513045
 10
31.8740317413
 20
49.3350708283
 10
31.8839879982
 20
49.3257668449
 10
31.8930241069
 20
49.3154668857
  0
LINE
  5
4AA
100
AcDbEntity
  8
RACCORDO
100
AcDbLine
 62
7
  6
CONTINUOUS
 10
31.1974103451
 20
49.8638399877
 11
31.2049628742
 21
49.857688161
  0
LWPOLYLINE
  5
4AB
100
AcDbEntity
  8
RACCORDO
100
AcDbPolyline
 62
253
  6
CONTINUOUS
 90
19
 70
0
 10
29.8152355289
 20
50.180279249
 10
29.8082820357
 20
50.1860964957
 10
29.8016876569
 20
50.1921339995
 10
29.7954523925
 20
50.1983917604
 10
29.7895631333
 20
50.2049237185
 10
29.7840329885
 20
50.2116759337
 10
29.7789012858
 20
50.2184865854
 10
29.7741728693
 20
50.225359431
 10
29.7698428947
 20
50.2322907131
 10
29.7659361579
 20
50.2391073387
 10
29.7624810877
 20
50.2457535114
 10
29.7594492552
 20
50.2522850276
 10
29.7567801692
 20
50.2586961839
 10
29.7544635642
 20
50.2649560197
 10
29.7525097058
 20
50.2710954956
 10
29.750888899
 20
50.2772017903
 10
29.7495912454
 20
50.2833039634
 10
29.7486266433
 20
50.2893729552
 10
29.7479950928
 20
50.2954087659
  0
LWPOLYLINE
  5
4AC
100
AcDbEntity
  8
RACCORDO
100
AcDbPolyline
 62
253
  6
CONTINUOUS
 90
11
 70
0
 10
31.8664361097
 20
49.3565009258
 10
31.8733896038
 20
49.3506836785
 10
31.8799839835
 20
49.3446461742
 10
31.8862192488
 20
49.3383884128
 10
31.8921085089
 20
49.3318564542
 10
31.8976386546
 20
49.3251042386
 10
31.9027703583
 20
49.3182935863
 10
31.9074987761
 20
49.3114207398
 10
31.911828752
 20
49.3044894565
 10
31.9157354901
 20
49.2976728296
 10
31.9191905615
 20
49.2910266553
  0
LWPOLYLINE
  5
4AD
100
AcDbEntity
  8
RACCORDO
100
AcDbPolyline
 62
253
  6
CONTINUOUS
 90
22
 70
0
 10
30.770980965
 20
48.6025087826
 10
30.7693711073
 20
48.6039193827
 10
30.767784257
 20
48.60554434
 10
30.7662233242
 20
48.6073845351
 10
30.7646886098
 20
48.6094343365
 10
30.7631878517
 20
48.6116996557
 10
30.7617361962
 20
48.6141980959
 10
30.7603411386
 20
48.6169285413
 10
30.7590080908
 20
48.6198891899
 10
30.7577503873
 20
48.6230960935
 10
30.7565797651
 20
48.6265398462
 10
30.7555033061
 20
48.6302227976
 10
30.7545297329
 20
48.6341783976
 10
30.7536727103
 20
48.6384115756
 10
30.7529472942
 20
48.6429053459
 10
30.7523679022
 20
48.6476590352
 10
30.7519584697
 20
48.652676849
 10
30.7517353081
 20
48.6579329338
 10
30.7517037193
 20
48.6633790943
 10
30.7518811397
 20
48.6689886913
 10
30.752297855
 20
48.6747565034
 10
30.7529795608
 20
48.6806640839
  0
LWPOLYLINE
  5
4AE
100
AcDbEntity
  8
RACCORDO
100
AcDbPolyline
 62
253
  6
CONTINUOUS
 90
7
 70
0
 10
30.9969675594
 20
48.4940185248
 10
30.9916230518
 20
48.4988744039
 10
30.9874342952
 20
48.5041720878
 10
30.9845202433
 20
48.5097611389
 10
30.9829636523
 20
48.5154828454
 10
30.9828087314
 20
48.5211747258
 10
30.9829979297
 20
48.5226201163
  0
LWPOLYLINE
  5
4AF
100
AcDbEntity
  8
RACCORDO
100
AcDbPolyline
 62
253
  6
CONTINUOUS
 90
7
 70
0
 10
31.1144187503
 20
49.195323548
 10
31.1090742181
 20
49.2001794535
 10
31.1048854544
 20
49.2054771599
 10
31.1019714089
 20
49.2110662266
 10
31.1004148329
 20
49.2167879386
 10
31.1002599288
 20
49.2224798147
 10
31.100460874
 20
49.2239960177
  0
LWPOLYLINE
  5
4B0
100
AcDbEntity
  8
RACCORDO
100
AcDbPolyline
 62
7
  6
CONTINUOUS
 90
3
 70
0
 10
31.8930241069
 20
49.3154668857
 10
31.9008482985
 20
49.3047053179
 10
31.9075145539
 20
49.2935531194
  0
LWPOLYLINE
  5
4B1
100
AcDbEntity
  8
RACCORDO
100
AcDbPolyline
 62
7
  6
CONTINUOUS
 90
4
 70
0
 10
31.1428704064
 20
49.9271970894
 10
31.1593241816
 20
49.9038740077
 10
31.1775751401
 20
49.8826431735
 10
31.1974103451
 20
49.8638399877
  0
LWPOLYLINE
  5
4B2
100
AcDbEntity
  8
RACCORDO
100
AcDbPolyline
 62
7
  6
CONTINUOUS
 90
15
 70
0
 10
29.2811038364
 20
48.1379574503
 10
29.302898704
 20
48.1061568481
 10
29.3237636651
 20
48.0735080093
 10
29.3436987198
 20
48.0400109339
 10
29.3626731878
 20
48.0056298481
 10
29.3807177493
 20
47.9704005256
 10
29.3979244449
 20
47.9344302876
 10
29.4142560012
 20
47.8977871664
 10
29.4297496917
 20
47.8604031297
 10
29.4446093768
 20
47.8221814011
 10
29.4588227043
 20
47.7831353335
 10
29.4724020265
 20
47.743251574
 10
29.4855882613
 20
47.7023932886
 10
29.4983693648
 20
47.6605560703
 10
29.5107573809
 20
47.6177443261
  0
LWPOLYLINE
  5
4B3
100
AcDbEntity
  8
RACCORDO
100
AcDbPolyline
 62
7
  6
CONTINUOUS
 90
3
 70
0
 10
30.9592696049
 20
50.9351901459
 10
30.9654447629
 20
50.9253977388
 10
30.9709287173
 20
50.9148348285
  0
LWPOLYLINE
  5
4B4
100
AcDbEntity
  8
RACCORDO
100
AcDbPolyline
 62
253
  6
CONTINUOUS
 90
7
 70
0
 10
31.1429436946
 20
49.9448506734
 10
31.1512638971
 20
49.931310713
 10
31.1604616515
 20
49.9181661782
 10
31.1700196049
 20
49.9060690977
 10
31.1797653062
 20
49.8952368146
 10
31.1898712065
 20
49.8854519858
 10
31.2003373058
 20
49.8767146113
  0
LINE
  5
4B5
100
AcDbEntity
  8
RACCORDO
100
AcDbLine
 62
7
  6
CONTINUOUS
 10
31.1285621727
 20
49.9521678799
 11
31.1428704064
 21
49.9271970894
  0
LWPOLYLINE
  5
4B6
100
AcDbEntity
  8
RACCORDO
100
AcDbPolyline
 62
253
  6
CONTINUOUS
 90
11
 70
0
 10
23.7997428773
 20
64.6749277173
 10
23.7949949999
 20
64.6836333467
 10
23.7813736467
 20
64.7059549357
 10
23.7667549431
 20
64.7274711434
 10
23.7512501111
 20
64.7480182722
 10
23.7349771408
 20
64.7674399697
 10
23.7180598017
 20
64.7855885272
 10
23.7006266966
 20
64.8023259684
 10
23.682810411
 20
64.817524964
 10
23.664746515
 20
64.831069826
 10
23.646572434
 20
64.8428574804
  0
LWPOLYLINE
  5
4B7
100
AcDbEntity
  8
RACCORDO
100
AcDbPolyline
 62
7
  6
CONTINUOUS
 90
10
 70
0
 10
28.7195154787
 20
49.0827590384
 10
28.7741622055
 20
48.9729916245
 10
28.8307700077
 20
48.8643847658
 10
28.8893388853
 20
48.7569384625
 10
28.9498996121
 20
48.650603635
 10
29.0124214142
 20
48.5454293628
 10
29.0768119698
 20
48.4415628843
 10
29.1430405051
 20
48.3390532792
 10
29.211137794
 20
48.2378514679
 10
29.2811038364
 20
48.1379574503
  0
LWPOLYLINE
  5
4B8
100
AcDbEntity
  8
RACCORDO
100
AcDbPolyline
 62
7
  6
CONTINUOUS
 90
4
 70
0
 10
31.9075145539
 20
49.2935531194
 10
31.9128590214
 20
49.2823238299
 10
31.916581644
 20
49.2718223887
 10
31.9186227698
 20
49.2628896386
  0
LWPOLYLINE
  5
4B9
100
AcDbEntity
  8
RACCORDO
100
AcDbPolyline
 62
253
  6
CONTINUOUS
 90
8
 70
0
 10
31.9191905615
 20
49.2910266553
 10
31.9222223953
 20
49.2844951372
 10
31.9248914822
 20
49.2780839794
 10
31.9272080878
 20
49.2718241427
 10
31.9291619466
 20
49.2656846663
 10
31.9307827533
 20
49.2595783717
 10
31.9320804062
 20
49.2534761994
 10
31.9330450069
 20
49.2474072089
  0
LINE
  5
4BA
100
AcDbEntity
  8
RACCORDO
100
AcDbLine
 62
7
  6
CONTINUOUS
 10
31.116752615
 20
49.9781096673
 11
31.1285621727
 21
49.9521678799
  0
LWPOLYLINE
  5
4BB
100
AcDbEntity
  8
RACCORDO
100
AcDbPolyline
 62
7
  6
CONTINUOUS
 90
5
 70
0
 10
30.9709287173
 20
50.9148348285
 10
30.9756222036
 20
50.903662562
 10
30.9794783959
 20
50.8917834129
 10
30.9822346906
 20
50.8795860445
 10
30.9827802389
 20
50.8761430351
  0
LWPOLYLINE
  5
4BC
100
AcDbEntity
  8
RACCORDO
100
AcDbPolyline
 62
253
  6
CONTINUOUS
 90
6
 70
0
 10
30.983783783
 20
50.9090696575
 10
30.9866785676
 20
50.9018474554
 10
30.989382738
 20
50.8943191723
 10
30.9917757741
 20
50.8866047545
 10
30.9938175029
 20
50.8787441842
 10
30.9955480975
 20
50.8706974792
  0
LWPOLYLINE
  5
4BD
100
AcDbEntity
  8
RACCORDO
100
AcDbPolyline
 62
253
  6
CONTINUOUS
 90
14
 70
0
 10
27.2303557755
 20
66.5487026546
 10
27.221672799
 20
66.5725059012
 10
27.2116310525
 20
66.5962066995
 10
27.2003069301
 20
66.6196247418
 10
27.187786582
 20
66.6425818717
 10
27.1741652582
 20
66.6649034397
 10
27.1595465855
 20
66.6864196305
 10
27.1440417787
 20
66.706966755
 10
27.1277687933
 20
66.7263884977
 10
27.1108514287
 20
66.7445371053
 10
27.0934183873
 20
66.7612745089
 10
27.075602294
 20
66.7764733763
 10
27.0575386872
 20
66.7900180809
 10
27.0393649887
 20
66.8018055798
  0
LWPOLYLINE
  5
4BE
100
AcDbEntity
  8
RACCORDO
100
AcDbPolyline
 62
253
  6
CONTINUOUS
 90
33
 70
0
 10
33.0354511191
 20
49.8393398573
 10
33.0852757828
 20
49.6954306088
 10
33.1304973927
 20
49.5519695044
 10
33.1710854965
 20
49.4089588552
 10
33.2070705466
 20
49.2663963501
 10
33.2382377678
 20
49.1251616016
 10
33.2645547769
 20
48.9852829168
 10
33.2860539571
 20
48.8467319887
 10
33.302617683
 20
48.7103035088
 10
33.3142238412
 20
48.5760271919
 10
33.320894545
 20
48.4438733232
 10
33.3225785089
 20
48.3145474499
 10
33.3192537872
 20
48.1880324519
 10
33.3109423256
 20
48.0643454494
 10
33.2976586757
 20
47.9442433498
 10
33.2793354202
 20
47.827663214
 10
33.2560399763
 20
47.7146679812
 10
33.2279891476
 20
47.6062033765
 10
33.1950751367
 20
47.5023012819
 10
33.1574057409
 20
47.4029298155
 10
33.1155211555
 20
47.3089390564
 10
33.06943656
 20
47.2205498551
 10
33.0191367747
 20
47.1375413613
 10
32.9651164565
 20
47.0601011031
 10
32.9075453033
 20
46.9883575219
 10
32.8462536171
 20
46.9221821763
 10
32.7812269603
 20
46.8613772702
 10
32.7123280017
 20
46.8057552895
 10
32.6396940725
 20
46.7555037483
 10
32.5637227284
 20
46.710987393
 10
32.4845464881
 20
46.6723278059
 10
32.402032833
 20
46.6394034048
 10
32.3161817631
 20
46.6122141896
  0
LWPOLYLINE
  5
4BF
100
AcDbEntity
  8
RACCORDO
100
AcDbPolyline
 62
253
  6
CONTINUOUS
 90
5
 70
0
 10
31.1195577576
 20
50.00041531
 10
31.1237657516
 20
49.9871910793
 10
31.129137664
 20
49.9732422148
 10
31.1356019033
 20
49.9588487313
 10
31.1429436946
 20
49.9448506734
  0
LWPOLYLINE
  5
4C0
100
AcDbEntity
  8
RACCORDO
100
AcDbPolyline
 62
253
  6
CONTINUOUS
 90
16
 70
0
 10
34.6463599406
 20
50.002222163
 10
34.587239527
 20
50.232446891
 10
34.5209639293
 20
50.4641224711
 10
34.4478814103
 20
50.6960309945
 10
34.3679552917
 20
50.9281746724
 10
34.2812222518
 20
51.1605512935
 10
34.1881405886
 20
51.3919363157
 10
34.0886791865
 20
51.6223194288
 10
33.9828691611
 20
51.851710943
 10
33.8712621563
 20
52.0789172464
 10
33.7538332447
 20
52.3039205554
 10
33.6306073538
 20
52.5267386536
 10
33.5022109091
 20
52.7462312806
 10
33.3688527194
 20
52.9620183494
 10
33.2303239759
 20
53.174479947
 10
33.0866246787
 20
53.3836160733
  0
LINE
  5
4C1
100
AcDbEntity
  8
RACCORDO
100
AcDbLine
 62
253
  6
CONTINUOUS
 10
31.8938101014
 20
-16.2586468754
 11
31.9221773784
 21
-16.2001847936
  0
LINE
  5
4C2
100
AcDbEntity
  8
RACCORDO
100
AcDbLine
 62
7
  6
CONTINUOUS
 10
31.9188646713
 20
-16.262441989
 11
31.9188253965
 21
-16.2625220196
  0
LWPOLYLINE
  5
4C3
100
AcDbEntity
  8
RACCORDO
100
AcDbPolyline
 62
253
  6
CONTINUOUS
 90
17
 70
0
 10
31.9188253965
 20
-16.2625220196
 10
31.9186435647
 20
-16.2628760218
 10
31.9179170703
 20
-16.2640673225
 10
31.9170742395
 20
-16.2651198451
 10
31.9161118741
 20
-16.2660163453
 10
31.9150279156
 20
-16.2667420826
 10
31.9138168027
 20
-16.2672856684
 10
31.9124671361
 20
-16.2676304486
 10
31.9109723372
 20
-16.2677568457
 10
31.9093312613
 20
-16.2676468151
 10
31.9075388884
 20
-16.2672808106
 10
31.9055954933
 20
-16.2666313527
 10
31.903504416
 20
-16.2656815363
 10
31.9012690479
 20
-16.2644271997
 10
31.8988984529
 20
-16.2628534433
 10
31.8964066799
 20
-16.2609334075
 10
31.8938101015
 20
-16.2586468754
  0
LINE
  5
4C4
100
AcDbEntity
  8
RACCORDO
100
AcDbLine
 62
7
  6
CONTINUOUS
 10
30.9811372516
 20
-16.8017196739
 11
30.9806445661
 21
-16.8026708074
  0
LINE
  5
4C5
100
AcDbEntity
  8
RACCORDO
100
AcDbLine
 62
253
  6
CONTINUOUS
 10
30.9911736831
 20
-16.8431011725
 11
30.9884615735
 21
-16.8483353471
  0
LWPOLYLINE
  5
4C6
100
AcDbEntity
  8
RACCORDO
100
AcDbPolyline
 62
253
  6
CONTINUOUS
 90
3
 70
0
 10
30.5569906597
 20
-15.0052469734
 10
30.5614986727
 20
-14.9965968395
 10
30.5649194175
 20
-14.9869030221
  0
LWPOLYLINE
  5
4C7
100
AcDbEntity
  8
RACCORDO
100
AcDbPolyline
 62
253
  6
CONTINUOUS
 90
22
 70
0
 10
28.7195154787
 20
-13.1390237453
 10
28.7769146767
 20
-13.0440937171
 10
28.8396973034
 20
-12.9565811532
 10
28.9078633588
 20
-12.8764860537
 10
28.9816370541
 20
-12.8036214057
 10
29.060794178
 20
-12.7381742222
 10
29.1446620966
 20
-12.6807055411
 10
29.2332768658
 20
-12.6312889221
 10
29.3266024296
 20
-12.5898508056
 10
29.4238579869
 20
-12.5567315513
 10
29.5250739161
 20
-12.5320008852
 10
29.6302198386
 20
-12.5155890812
 10
29.7384238177
 20
-12.5076273205
 10
29.849711328
 20
-12.5081849754
 10
29.9640568949
 20
-12.5171926736
 10
30.0805121564
 20
-12.5345734791
 10
30.1990947134
 20
-12.5603965514
 10
30.319786965
 20
-12.594592731
 10
30.441587748
 20
-12.6368776036
 10
30.5645066285
 20
-12.6873183637
 10
30.6885340402
 20
-12.7458478169
 10
30.8126401217
 20
-12.8119799654
  0
LWPOLYLINE
  5
4C8
100
AcDbEntity
  8
RACCORDO
100
AcDbPolyline
 62
253
  6
CONTINUOUS
 90
13
 70
0
 10
28.7195154787
 20
-12.8370087744
 10
28.7625845196
 20
-12.7829292086
 10
28.8077388496
 20
-12.7318804926
 10
28.8549784688
 20
-12.6838626262
 10
28.9043550901
 20
-12.6388348147
 10
28.9558170006
 20
-12.5968378529
 10
29.0092090607
 20
-12.557994125
 10
29.0645437563
 20
-12.5223090948
 10
29.1218086016
 20
-12.4897772984
 10
29.1808109998
 20
-12.4605047287
 10
29.2414867521
 20
-12.4345267166
 10
29.3039000574
 20
-12.4118079312
 10
29.3680509156
 20
-12.3923483724
  0
LWPOLYLINE
  5
4C9
100
AcDbEntity
  8
RACCORDO
100
AcDbPolyline
 62
253
  6
CONTINUOUS
 90
19
 70
0
 10
29.4506311984
 20
-12.0022029775
 10
29.4330221126
 20
-12.014159833
 10
29.4165083464
 20
-12.0280196998
 10
29.4012128046
 20
-12.0436794342
 10
29.3872493301
 20
-12.0610224914
 10
29.3747218445
 20
-12.0799198076
 10
29.3637235783
 20
-12.100230764
 10
29.3543363935
 20
-12.1218042085
 10
29.3466301647
 20
-12.1444795865
 10
29.3406622526
 20
-12.168088155
 10
29.3364770851
 20
-12.1924542239
 10
29.3341058266
 20
-12.2173964421
 10
29.3335661385
 20
-12.2427291583
 10
29.334862047
 20
-12.2682638363
 10
29.3379839163
 20
-12.2938104271
 10
29.3429085129
 20
-12.3191787628
 10
29.3495991833
 20
-12.3441800243
 10
29.3580061346
 20
-12.3686281459
 10
29.3680667984
 20
-12.3923411674
  0
LWPOLYLINE
  5
4CA
100
AcDbEntity
  8
RACCORDO
100
AcDbPolyline
 62
7
  6
CONTINUOUS
 90
13
 70
0
 10
29.6922386064
 20
-9.579240339
 10
29.6701130438
 20
-9.5940421457
 10
29.6448913519
 20
-9.6140056418
 10
29.6210770799
 20
-9.6365243176
 10
29.5989561657
 20
-9.6615217891
 10
29.5788148538
 20
-9.6888693449
 10
29.5609036337
 20
-9.7184017562
 10
29.5454142308
 20
-9.7499918557
 10
29.5325695923
 20
-9.7833920759
 10
29.5225519479
 20
-9.8182884437
 10
29.5154429473
 20
-9.8544820447
 10
29.5113017242
 20
-9.8918446028
 10
29.510161581
 20
-9.9249799772
  0
LWPOLYLINE
  5
4CB
100
AcDbEntity
  8
RACCORDO
100
AcDbPolyline
 62
253
  6
CONTINUOUS
 90
19
 70
0
 10
29.9443779785
 20
-9.5986335223
 10
29.9261218033
 20
-9.6104667361
 10
29.9080445792
 20
-9.6240275548
 10
29.8902808467
 20
-9.6392150515
 10
29.8729628135
 20
-9.6559161925
 10
29.8562193696
 20
-9.6740066787
 10
29.840175129
 20
-9.6933518709
 10
29.8249495005
 20
-9.7138077931
 10
29.8106558028
 20
-9.7352221999
 10
29.7974004202
 20
-9.7574357082
 10
29.7852820046
 20
-9.7802829955
 10
29.7743907484
 20
-9.8035940167
 10
29.7648077147
 20
-9.8271952649
 10
29.7566042263
 20
-9.8509110735
 10
29.7498413288
 20
-9.8745649503
 10
29.7445693465
 20
-9.8979808767
 10
29.7408275165
 20
-9.9209845875
 10
29.7386436908
 20
-9.9434048686
 10
29.7380341237
 20
-9.9650748561
  0
LWPOLYLINE
  5
4CC
100
AcDbEntity
  8
RACCORDO
100
AcDbPolyline
 62
7
  6
CONTINUOUS
 90
7
 70
0
 10
29.1209288084
 20
-12.1434148332
 10
29.0676103382
 20
-12.1773257786
 10
29.0155987926
 20
-12.2136310519
 10
28.9649529965
 20
-12.2523124308
 10
28.9157552726
 20
-12.2933271576
 10
28.8680343884
 20
-12.3366712271
 10
28.8600463649
 20
-12.3442947509
  0
LINE
  5
4CD
100
AcDbEntity
  8
RACCORDO
100
AcDbLine
 62
253
  6
CONTINUOUS
 10
29.9443779747
 20
-9.5986335202
 11
30.5870836969
 21
-9.2001822443
  0
LINE
  5
4CE
100
AcDbEntity
  8
RACCORDO
100
AcDbLine
 62
7
  6
CONTINUOUS
 10
30.25302525
 20
-9.2325660978
 11
29.6920908828
 21
-9.5793301307
  0
LINE
  5
4CF
100
AcDbEntity
  8
RACCORDO
100
AcDbLine
 62
253
  6
CONTINUOUS
 10
29.495095789
 20
-11.9751692695
 11
29.4506311981
 21
-12.0022029776
  0
LINE
  5
4D0
100
AcDbEntity
  8
DRAFT
100
AcDbLine
 62
7
  6
CONTINUOUS
 10
29.5089138627
 20
-11.908198744
 11
29.1209288084
 21
-12.1434148332
  0
LINE
  5
4D1
100
AcDbEntity
  8
RACCORDO
100
AcDbLine
 62
7
  6
CONTINUOUS
 10
29.4938563888
 20
-11.9836965411
 11
29.4934440576
 21
-11.9839465232
  0
LINE
  5
4D2
100
AcDbEntity
  8
DRAFT
100
AcDbLine
 62
7
  6
CONTINUOUS
 10
32.7997523984
 20
-7.9679987128
 11
31.6186532815
 21
-8.6498964542
  0
LINE
  5
4D3
100
AcDbEntity
  8
RACCORDO
100
AcDbLine
 62
7
  6
CONTINUOUS
 10
31.6186532815
 20
-8.6498964542
 11
30.7515471935
 21
-9.1505793056
  0
LWPOLYLINE
  5
4D4
100
AcDbEntity
  8
RACCORDO
100
AcDbPolyline
 62
253
  6
CONTINUOUS
 90
6
 70
0
 10
29.1209288084
 20
-12.1434148332
 10
29.1820747674
 20
-12.1086235967
 10
29.2464283952
 20
-12.0766280023
 10
29.3126881294
 20
-12.0482076978
 10
29.3807803024
 20
-12.0233913971
 10
29.4506311981
 20
-12.0022029776
  0
LWPOLYLINE
  5
4D5
100
AcDbEntity
  8
RACCORDO
100
AcDbPolyline
 62
253
  6
CONTINUOUS
 90
4
 70
0
 10
29.4934440576
 20
-11.9839465232
 10
29.4842288928
 20
-11.989119747
 10
29.4678685235
 20
-11.996529687
 10
29.450629809
 20
-12.0022001074
  0
LWPOLYLINE
  5
4D6
100
AcDbEntity
  8
RACCORDO
100
AcDbPolyline
 62
7
  6
CONTINUOUS
 90
10
 70
0
 10
30.7515471935
 20
-9.1505793056
 10
30.7363397732
 20
-9.1587908756
 10
30.7201658953
 20
-9.1664179718
 10
30.7030911156
 20
-9.1734185117
 10
30.6851540497
 20
-9.1797614899
 10
30.6664620099
 20
-9.1853982116
 10
30.6472021614
 20
-9.1902759046
 10
30.6275051571
 20
-9.1943712159
 10
30.6074332577
 20
-9.1976769151
 10
30.5870836969
 20
-9.2001822443
  0
LWPOLYLINE
  5
4D7
100
AcDbEntity
  8
RACCORDO
100
AcDbPolyline
 62
7
  6
CONTINUOUS
 90
5
 70
0
 10
30.2530300501
 20
-9.2325742261
 10
30.2719438569
 20
-9.2224904747
 10
30.2905628877
 20
-9.2153284114
 10
30.3102541514
 20
-9.2102839517
 10
30.331017648
 20
-9.2073570955
  0
LWPOLYLINE
  5
4D8
100
AcDbEntity
  8
0
100
AcDbPolyline
 62
7
  6
CONTINUOUS
 90
3
 70
0
 10
29.6596859426
 20
-13.0332784001
 10
29.4817525031
 20
-13.1029375827
 10
29.4410405097
 20
-13.1248735152
  0
LWPOLYLINE
  5
4D9
100
AcDbEntity
  8
RACCORDO
100
AcDbPolyline
 62
253
  6
CONTINUOUS
 90
12
 70
0
 10
29.9443780258
 20
55.7189866287
 10
29.9178657306
 20
55.7325609034
 10
29.891551361
 20
55.7437997138
 10
29.8655737384
 20
55.7526503352
 10
29.8400705145
 20
55.7590603481
 10
29.8151798366
 20
55.7629939165
 10
29.791039827
 20
55.7644381169
 10
29.7677862301
 20
55.7633802554
 10
29.7455494854
 20
55.7598178298
 10
29.7244492076
 20
55.7537801718
 10
29.7046019528
 20
55.7453014655
 10
29.6922142529
 20
55.7383667512
  0
LWPOLYLINE
  5
4DA
100
AcDbEntity
  8
RACCORDO
100
AcDbPolyline
 62
253
  6
CONTINUOUS
 90
22
 70
0
 10
29.7380212805
 20
55.3525531193
 10
29.7274305355
 20
55.3580770587
 10
29.7170179342
 20
55.3626227922
 10
29.7067834765
 20
55.36619032
 10
29.6966719995
 20
55.3687886464
 10
29.6867386662
 20
55.370408767
 10
29.6771489652
 20
55.3710236688
 10
29.66790947
 20
55.3706165331
 10
29.6590136071
 20
55.3692041785
 10
29.6506071441
 20
55.3668100476
 10
29.6426981532
 20
55.3634179766
 10
29.6352785622
 20
55.3590441291
 10
29.6284699222
 20
55.3537604384
 10
29.6222823651
 20
55.3475518733
 10
29.6167057591
 20
55.3404334649
 10
29.6118312593
 20
55.3325222399
 10
29.6076701856
 20
55.3238019477
 10
29.6042112182
 20
55.314288839
 10
29.6015115528
 20
55.304148692
 10
29.5995902547
 20
55.2934367663
 10
29.5984282587
 20
55.2820978022
 10
29.5980255647
 20
55.2701317999
  0
LWPOLYLINE
  5
4DB
100
AcDbEntity
  8
DRAFT
100
AcDbPolyline
 62
7
  6
CONTINUOUS
 90
16
 70
0
 10
-25.895929136
 20
85.5901091264
 10
-25.9620826888
 20
85.628444812
 10
-26.0667753017
 20
85.6961556214
 10
-26.1645740272
 20
85.7668464952
 10
-26.2553922499
 20
85.8405251422
 10
-26.3393165851
 20
85.9171838535
 10
-26.415622676
 20
85.9961622909
 10
-26.4842620917
 20
86.0775050383
 10
-26.5452832631
 20
86.1611675117
 10
-26.5981071258
 20
86.246355621
 10
-26.6426446359
 20
86.3330564818
 10
-26.6789848372
 20
86.4212829786
 10
-26.706815797
 20
86.5102796745
 10
-26.7260678009
 20
86.6000821607
 10
-26.7368105633
 20
86.6906548459
 10
-26.7392215634
 20
86.7577526024
  0
LINE
  5
4DC
100
AcDbEntity
  8
0
100
AcDbLine
 62
7
  6
CONTINUOUS
 10
26.3218424767
 20
57.9953918724
 11
26.4700859714
 21
57.9069594718
  0
LINE
  5
4DD
100
AcDbEntity
  8
RACCORDO
100
AcDbLine
 62
253
  6
CONTINUOUS
 10
30.9368258435
 20
52.4318438686
 11
31.0610902319
 21
52.3504428656
  0
LWPOLYLINE
  5
4DE
100
AcDbEntity
  8
RACCORDO
100
AcDbPolyline
 62
253
  6
CONTINUOUS
 90
16
 70
0
 10
-24.5869605751
 20
92.1222736869
 10
-21.636009386
 20
90.1790382402
 10
-18.6544671723
 20
88.2523948431
 10
-15.6423339341
 20
86.3423434955
 10
-12.5999982664
 20
84.4490819784
 10
-9.5270715742
 20
82.5724125108
 10
-6.4223880719
 20
80.7117417501
 10
-3.2862491129
 20
78.8671581124
 10
-0.1183533439
 20
77.0385731814
 10
3.0833690806
 20
75.2251283663
 10
6.3309967984
 20
73.4206751953
 10
9.6124511717
 20
71.6313621402
 10
12.8935661332
 20
69.8747760248
 10
16.1629529937
 20
68.156779124
 10
19.4320004424
 20
66.4715091629
 10
22.7007084793
 20
64.8189661417
  0
LWPOLYLINE
  5
4DF
100
AcDbEntity
  8
0
100
AcDbPolyline
 62
7
  6
CONTINUOUS
 90
16
 70
0
 10
-25.7736590078
 20
92.1891844547
 10
-22.7504327963
 20
90.1956286595
 10
-19.6952327996
 20
88.2190254899
 10
-16.6080590174
 20
86.2593749459
 10
-13.4886294115
 20
84.3165046653
 10
-10.3372260201
 20
82.3905870104
 10
-7.1546949589
 20
80.4821390678
 10
-3.9410278696
 20
78.5911655284
 10
-0.6962331105
 20
76.7176617013
 10
2.5788181287
 20
74.8621306006
 10
5.884133972
 20
73.0245770524
 10
9.2197062952
 20
71.2049962306
 10
12.5846395357
 20
69.4038766717
 10
15.9786351726
 20
67.6213812213
 10
19.4019917267
 20
65.8573470338
 10
22.8547091981
 20
64.1117741093
  0
LWPOLYLINE
  5
4E0
100
AcDbEntity
  8
0
100
AcDbPolyline
 62
7
  6
CONTINUOUS
 90
16
 70
0
 10
-25.395929136
 20
92.3783351648
 10
-22.3757652102
 20
90.3868009023
 10
-19.3236917726
 20
88.4122209234
 10
-16.239708823
 20
86.4545952283
 10
-13.123563663
 20
84.5137689773
 10
-9.975508991
 20
82.5898970099
 10
-6.7963029025
 20
80.6834438449
 10
-3.5858703926
 20
78.79437511
 10
-0.344286466
 20
76.9227251774
 10
2.9274657674
 20
75.0690616823
 10
6.2293267773
 20
73.2334279316
 10
9.561356094
 20
71.4157806184
 10
12.9227491996
 20
69.6165574575
 10
16.3132379213
 20
67.8359043538
 10
19.733090432
 20
66.0736754023
 10
23.1823067316
 20
64.3298706032
  0
LINE
  5
4E1
100
AcDbEntity
  8
RACCORDO
100
AcDbLine
 62
253
  6
CONTINUOUS
 10
31.0610902319
 20
52.3504428656
 11
31.1844005253
 21
52.2621155557
  0
LWPOLYLINE
  5
4E2
100
AcDbEntity
  8
RACCORDO
100
AcDbPolyline
 62
253
  6
CONTINUOUS
 90
3
 70
0
 10
31.1844005253
 20
52.2621155557
 10
31.3067487835
 20
52.1668041622
 10
31.4281429468
 20
52.0645664618
  0
LWPOLYLINE
  5
4E3
100
AcDbEntity
  8
RACCORDO
100
AcDbPolyline
 62
253
  6
CONTINUOUS
 90
25
 70
0
 10
31.4281429468
 20
52.0645664618
 10
31.5475740722
 20
51.9562521738
 10
31.6650256943
 20
51.8418107452
 10
31.7805142786
 20
51.721292729
 10
31.8930802787
 20
51.5956995027
 10
32.0026993286
 20
51.4649888245
 10
32.1093957944
 20
51.3292029363
 10
32.2122832278
 20
51.1894699404
 10
32.311329976
 20
51.0457568272
 10
32.4065676919
 20
50.8980966063
 10
32.497204886
 20
50.7477164094
 10
32.5832031489
 20
50.5945937046
 10
32.6646008899
 20
50.4387510237
 10
32.7407218476
 20
50.2814830943
 10
32.8115221597
 20
50.1227777365
 10
32.8770456883
 20
49.9626471301
 10
32.9367477589
 20
49.8024225416
 10
32.9905797638
 20
49.6421031484
 10
33.0385903107
 20
49.481689773
 10
33.0803805469
 20
49.32251615
 10
33.1158984935
 20
49.1645928346
 10
33.1451961294
 20
49.0079092715
 10
33.1680305393
 20
48.8537675291
 10
33.1843479012
 20
48.7021895775
 10
33.194202037
 20
48.5531534467
  0
LWPOLYLINE
  5
4E4
100
AcDbEntity
  8
0
100
AcDbPolyline
 62
7
  6
CONTINUOUS
 90
6
 70
0
 10
31.9261233263
 20
51.4956165614
 10
31.8725211233
 20
51.5576493827
 10
31.6561646256
 20
51.7734975622
 10
31.4321290467
 20
51.9641625276
 10
31.2034440835
 20
52.1270658622
 10
31.0881318525
 20
52.1975134363
  0
LWPOLYLINE
  5
4E5
100
AcDbEntity
  8
RACCORDO
100
AcDbPolyline
 62
253
  6
CONTINUOUS
 90
16
 70
0
 10
32.0192671335
 20
53.3063879186
 10
31.8788588546
 20
53.4824531115
 10
31.7364499566
 20
53.6530655666
 10
31.5920404397
 20
53.8182252841
 10
31.4453690947
 20
53.978112858
 10
31.2966971307
 20
54.1325476942
 10
31.1468081747
 20
54.2809880102
 10
30.9961610401
 20
54.4230680336
 10
30.8442969135
 20
54.5591535368
 10
30.6906229822
 20
54.6898000539
 10
30.5346218859
 20
54.8154897404
 10
30.3768109849
 20
54.9357404408
 10
30.2181495471
 20
55.0496612222
 10
30.0589573284
 20
55.1569551069
 10
29.8989145728
 20
55.2579190726
 10
29.7380212805
 20
55.3525531193
  0
LWPOLYLINE
  5
4E6
100
AcDbEntity
  8
RACCORDO
100
AcDbPolyline
 62
253
  6
CONTINUOUS
 90
16
 70
0
 10
32.3385192151
 20
53.5715615055
 10
32.1916228632
 20
53.7559626363
 10
32.0421641386
 20
53.9349933668
 10
31.8903918329
 20
54.108455454
 10
31.7366043126
 20
54.2761093417
 10
31.5809986129
 20
54.4378395107
 10
31.4236624296
 20
54.5936368821
 10
31.2650494865
 20
54.743137001
 10
31.1051817241
 20
54.8864026736
 10
30.9434654531
 20
55.0239772301
 10
30.7798524321
 20
55.1558398963
 10
30.6148167427
 20
55.2815471143
 10
30.4485290978
 20
55.4009215027
 10
30.2811978315
 20
55.5137618274
 10
30.1130696291
 20
55.6198501366
 10
29.9443779747
 20
55.7189886233
  0
LWPOLYLINE
  5
4E7
100
AcDbEntity
  8
RACCORDO
100
AcDbPolyline
 62
253
  6
CONTINUOUS
 90
42
 70
0
 10
33.1304647576
 20
54.0208846403
 10
33.3019766447
 20
53.7937108443
 10
33.4682875893
 20
53.5607045228
 10
33.6290564537
 20
53.3223436196
 10
33.783953468
 20
53.0791170615
 10
33.9326609064
 20
52.8315237567
 10
34.0748737382
 20
52.580071572
 10
34.2103002544
 20
52.3252762903
 10
34.338662669
 20
52.0676605465
 10
34.4596976873
 20
51.8077527577
 10
34.5731570428
 20
51.5460860441
 10
34.6788080048
 20
51.2831971418
 10
34.7764338588
 20
51.0196252966
 10
34.8658343531
 20
50.7559111522
 10
34.9468261106
 20
50.4925956369
 10
35.019243002
 20
50.2302188605
 10
35.0829364858
 20
49.9693190088
 10
35.1377759126
 20
49.710431244
 10
35.1836487943
 20
49.454086603
 10
35.2204610359
 20
49.2008109068
 10
35.2481371294
 20
48.9511236702
 10
35.2666203063
 20
48.7055370413
 10
35.2758726532
 20
48.464554752
 10
35.2758751889
 20
48.2286711252
 10
35.2666279096
 20
47.9983700458
 10
35.2481497929
 20
47.7741239632
 10
35.2204787438
 20
47.5563927895
 10
35.1836714998
 20
47.3456230083
 10
35.1378035031
 20
47.1422467861
 10
35.0829688544
 20
46.9466814898
 10
35.0192801574
 20
46.7593286502
 10
34.946868308
 20
46.5805730177
 10
34.8658817105
 20
46.4107806735
 10
34.7764859242
 20
46.2502988526
 10
34.6788633776
 20
46.0994556964
 10
34.5732148888
 20
45.9585620967
 10
34.4597591428
 20
45.8279094422
 10
34.3387314648
 20
45.7077674477
 10
34.2103783595
 20
45.5983796145
 10
34.0749581404
 20
45.4999663869
 10
33.932746828
 20
45.412729752
 10
33.9164527023
 20
45.4036874173
  0
LWPOLYLINE
  5
4E8
100
AcDbEntity
  8
RACCORDO
100
AcDbPolyline
 62
253
  6
CONTINUOUS
 90
11
 70
0
 10
32.316303548
 20
51.220677313
 10
32.4044339355
 20
51.0909470068
 10
32.4891245569
 20
50.9590440885
 10
32.5703754121
 20
50.824968558
 10
32.6483463501
 20
50.688427075
 10
32.722877522
 20
50.5497129798
 10
32.7934893809
 20
50.4097062931
 10
32.8601479477
 20
50.268415625
 10
32.9228872015
 20
50.1258323654
 10
32.9813295338
 20
49.9828107045
 10
33.0354511191
 20
49.8393398573
  0
LWPOLYLINE
  5
4E9
100
AcDbEntity
  8
RACCORDO
100
AcDbPolyline
 62
253
  6
CONTINUOUS
 90
16
 70
0
 10
32.7461541907
 20
51.3248728592
 10
32.6332549368
 20
51.4910788695
 10
32.6167534726
 20
51.5174513656
 10
32.6012164089
 20
51.544426346
 10
32.586700776
 20
51.5719038199
 10
32.5732642744
 20
51.5997787038
 10
32.5609588873
 20
51.6279362463
 10
32.549834534
 20
51.6562570623
 10
32.5399328053
 20
51.684640217
 10
32.5312840898
 20
51.7129968319
 10
32.5239181194
 20
51.7412275172
 10
32.5178708682
 20
51.7692100443
 10
32.5131709616
 20
51.7968237585
 10
32.5098340827
 20
51.8239613743
 10
32.5078737241
 20
51.8505241941
 10
32.5073011936
 20
51.8764086013
  0
LWPOLYLINE
  5
4EA
100
AcDbEntity
  8
RACCORDO
100
AcDbPolyline
 62
7
  6
CONTINUOUS
 90
38
 70
0
 10
33.2295203235
 20
51.7948780492
 10
33.3316684768
 20
51.6439224098
 10
33.4295257026
 20
51.4903282998
 10
33.5230920009
 20
51.3340957191
 10
33.6125881665
 20
51.1748095408
 10
33.6977934046
 20
51.0128848919
 10
33.7780453315
 20
50.8495671533
 10
33.8532638674
 20
50.6849456854
 10
33.923529092
 20
50.5189311279
 10
33.9884188614
 20
50.3525007807
 10
34.047941407
 20
50.1855131074
 10
34.1020884973
 20
50.0181096444
 10
34.1504132935
 20
49.8516923009
 10
34.1928272945
 20
49.6864674061
 10
34.2294190014
 20
49.5222286307
 10
34.2600070796
 20
49.3597588959
 10
34.2845876941
 20
49.1988283798
 10
34.3031646798
 20
49.0396669043
 10
34.315568207
 20
48.8837468563
 10
34.3217416656
 20
48.7313436646
 10
34.3217416656
 20
48.5821819004
 10
34.315568207
 20
48.436907664
 10
34.3031646798
 20
48.2953108982
 10
34.2845876941
 20
48.1576016602
 10
34.2600070796
 20
48.0250562216
 10
34.2294190014
 20
47.8979088328
 10
34.1928272945
 20
47.7759252433
 10
34.1504132935
 20
47.6596789736
 10
34.1020884973
 20
47.5490658935
 10
34.047941407
 20
47.4441901332
 10
33.9884188614
 20
47.3459376036
 10
33.923529092
 20
47.2544403355
 10
33.8532638674
 20
47.1695662982
 10
33.7780453315
 20
47.0918053101
 10
33.6977934046
 20
47.0211604851
 10
33.6125881665
 20
46.9576287094
 10
33.5230920009
 20
46.9016904597
 10
33.5069147498
 20
46.892647967
  0
LWPOLYLINE
  5
4EB
100
AcDbEntity
  8
RACCORDO
100
AcDbPolyline
 62
253
  6
CONTINUOUS
 90
16
 70
0
 10
32.316303548
 20
51.220677313
 10
32.2884243564
 20
51.2622057336
 10
32.2621638739
 20
51.3045035441
 10
32.2375221005
 20
51.3475707445
 10
32.2144192916
 20
51.3915774127
 10
32.1929351919
 20
51.4363534708
 10
32.1733090353
 20
51.4813886848
 10
32.1555629082
 20
51.5266771293
 10
32.1396747242
 20
51.5722247296
 10
32.1258174588
 20
51.6175390284
 10
32.1140078599
 20
51.6626438194
 10
32.1042291795
 20
51.7075153088
 10
32.0966041497
 20
51.7515896573
 10
32.0911736812
 20
51.7946789184
 10
32.0878968633
 20
51.8369710385
 10
32.086773696
 20
51.8784660178
  0
LWPOLYLINE
  5
4EC
100
AcDbEntity
  8
RACCORDO
100
AcDbPolyline
 62
253
  6
CONTINUOUS
 90
39
 70
0
 10
32.7461541907
 20
51.3248728592
 10
32.8382379661
 20
51.1814471427
 10
32.9267261138
 20
51.0354210532
 10
33.0114397316
 20
50.887089694
 10
33.0922093593
 20
50.7367496523
 10
33.1688748896
 20
50.5846982011
 10
33.241281676
 20
50.4312407874
 10
33.3092835304
 20
50.2766859001
 10
33.3727450113
 20
50.1213394407
 10
33.4315404387
 20
49.9655055009
 10
33.4855470239
 20
49.8095056833
 10
33.5346491021
 20
49.6536736841
 10
33.5787501139
 20
49.4983176486
 10
33.617760386
 20
49.343755366
 10
33.6515950866
 20
49.1903327708
 10
33.6801867987
 20
49.0383795204
 10
33.70348794
 20
48.8881768227
 10
33.7214594992
 20
48.7399934637
 10
33.7340645668
 20
48.5941555734
 10
33.7412831864
 20
48.4509251044
 10
33.7431013292
 20
48.3104753514
 10
33.7395024868
 20
48.1730782652
 10
33.730481261
 20
48.0390354662
 10
33.7160362312
 20
47.9085685306
 10
33.6961526311
 20
47.7818177825
 10
33.6708646675
 20
47.6592008727
 10
33.6402997651
 20
47.5413130132
 10
33.6045143984
 20
47.4282774175
 10
33.5636305382
 20
47.3203987319
 10
33.5180169111
 20
47.218407005
 10
33.467999422
 20
47.1226241864
 10
33.4136726815
 20
47.0328669524
 10
33.3551210039
 20
46.9490307497
 10
33.2926823011
 20
46.8713683182
 10
33.2264067886
 20
46.7997283859
 10
33.1558122285
 20
46.7335677282
 10
33.0805861101
 20
46.6727806602
 10
33.0011823617
 20
46.6179122493
 10
32.9305846721
 20
46.5761149009
  0
LWPOLYLINE
  5
4ED
100
AcDbEntity
  8
DRAFT
100
AcDbPolyline
 62
7
  6
CONTINUOUS
 90
26
 70
0
 10
36.8133264221
 20
52.2392903863
 10
36.7184059837
 20
52.4931779096
 10
36.615798787
 20
52.746857476
 10
36.5056565347
 20
53.0000609508
 10
36.3887993343
 20
53.2509096793
 10
36.265330633
 20
53.499098786
 10
36.1351469836
 20
53.7449331464
 10
35.9987581526
 20
53.9874487333
 10
35.8559610258
 20
54.2269159959
 10
35.7069587174
 20
54.463064485
 10
35.5528703369
 20
54.6941188252
 10
35.3938478925
 20
54.9197829894
 10
35.2297393761
 20
55.1403530047
 10
35.0612078723
 20
55.3549415766
 10
34.888048772
 20
55.563741388
 10
34.7104666844
 20
55.766559756
 10
34.5297385215
 20
55.9619313382
 10
34.3460059487
 20
56.1496389981
 10
34.1591273005
 20
56.3298998722
 10
33.9699544925
 20
56.5019000275
 10
33.7783526716
 20
56.6657079517
 10
33.5844566909
 20
56.821255157
 10
33.3895230257
 20
56.9675222472
 10
33.1939705011
 20
57.1041694234
 10
32.997380292
 20
57.2315364846
 10
32.7997523984
 20
57.3496234306
  0
LWPOLYLINE
  5
4EE
100
AcDbEntity
  8
RACCORDO
100
AcDbPolyline
 62
7
  6
CONTINUOUS
 90
7
 70
0
 10
33.1146254288
 20
-18.6404268259
 10
33.1130100079
 20
-18.6435980022
 10
33.1035485707
 20
-18.6681106072
 10
33.0961617776
 20
-18.6943573159
 10
33.0909081005
 20
-18.7221792032
 10
33.0877290675
 20
-18.7517351941
 10
33.0866246787
 20
-18.7830252887
  0
LWPOLYLINE
  5
4EF
100
AcDbEntity
  8
RACCORDO
100
AcDbPolyline
 62
253
  6
CONTINUOUS
 90
43
 70
0
 10
32.9369275904
 20
-18.0032709416
 10
32.8772461617
 20
-18.0945718632
 10
32.8117434394
 20
-18.179057153
 10
32.7409635544
 20
-18.2560250535
 10
32.6648624504
 20
-18.3254130276
 10
32.5834841838
 20
-18.3872836124
 10
32.4975050546
 20
-18.4411226617
 10
32.4068868406
 20
-18.4868632004
 10
32.311667764
 20
-18.5245722036
 10
32.2126387914
 20
-18.5539364505
 10
32.1097681517
 20
-18.5748864689
 10
32.0030876159
 20
-18.5874917309
 10
31.893483463
 20
-18.5916474327
 10
31.7809311589
 20
-18.5872831227
 10
31.6654552378
 20
-18.5744692524
 10
31.548015581
 20
-18.5533123727
 10
31.4285958646
 20
-18.5237428851
 10
31.3072124127
 20
-18.485830388
 10
31.1848740781
 20
-18.4398902286
 10
31.0615734715
 20
-18.3858558857
 10
30.9373179824
 20
-18.3237938804
 10
30.8131386316
 20
-18.2542191226
 10
30.6890364761
 20
-18.1770697742
 10
30.565010459
 20
-18.0924076733
 10
30.4420884299
 20
-18.0009332442
 10
30.3202793871
 20
-17.9025902764
 10
30.1995743323
 20
-17.7974349804
 10
30.0809741203
 20
-17.6863364117
 10
29.9644956664
 20
-17.5692451053
 10
29.8501220553
 20
-17.4462105263
 10
29.7388033959
 20
-17.3182501254
 10
29.630564124
 20
-17.1853219646
 10
29.5253798038
 20
-17.047467982
 10
29.4241272368
 20
-16.9058314426
 10
29.3268384126
 20
-16.7603793577
 10
29.2334813416
 20
-16.611144716
 10
29.1448368561
 20
-16.4593697487
 10
29.0609422862
 20
-16.3050264869
 10
28.9817603018
 20
-16.1481428994
 10
28.9079597447
 20
-15.9900451243
 10
28.8397635621
 20
-15.8311752076
 10
28.7769488067
 20
-15.6710911033
 10
28.7195154787
 20
-15.5097928113
  0
LWPOLYLINE
  5
4F0
100
AcDbEntity
  8
RACCORDO
100
AcDbPolyline
 62
253
  6
CONTINUOUS
 90
15
 70
0
 10
30.9884615735
 20
-16.8483353471
 10
30.9853791349
 20
-16.8529410423
 10
30.9820468469
 20
-16.8569424111
 10
30.9784590328
 20
-16.8603305829
 10
30.9746213692
 20
-16.8631144284
 10
30.9706713648
 20
-16.8653447126
 10
30.9666431262
 20
-16.8670083025
 10
30.9625025468
 20
-16.8681183311
 10
30.9582848149
 20
-16.8687649624
 10
30.9540218774
 20
-16.8689784952
 10
30.9496817873
 20
-16.8687286308
 10
30.9452038923
 20
-16.8680146364
 10
30.940567975
 20
-16.866836268
 10
30.9357942527
 20
-16.8651937698
 10
30.9308827255
 20
-16.8630871416
  0
LINE
  5
4F1
100
AcDbEntity
  8
RACCORDO
100
AcDbLine
 62
253
  6
CONTINUOUS
 10
31.926059845
 20
-16.3090267339
 11
31.9239404514
 21
-16.3120531497
  0
LINE
  5
4F2
100
AcDbEntity
  8
RACCORDO
100
AcDbLine
 62
253
  6
CONTINUOUS
 10
31.4222416076
 20
-15.8258373916
 11
31.5125021494
 21
-15.7001197671
  0
LWPOLYLINE
  5
4F3
100
AcDbEntity
  8
RACCORDO
100
AcDbPolyline
 62
253
  6
CONTINUOUS
 90
3
 70
0
 10
31.2801790064
 20
-15.9234081699
 10
31.3026167529
 20
-15.89281584
 10
31.4683870803
 20
-15.665666526
  0
LINE
  5
4F4
100
AcDbEntity
  8
RACCORDO
100
AcDbLine
 62
253
  6
CONTINUOUS
 10
30.7709809443
 20
-16.7151133285
 11
31.0626554863
 21
-16.3193633707
  0
LINE
  5
4F5
100
AcDbEntity
  8
RACCORDO
100
AcDbLine
 62
253
  6
CONTINUOUS
 10
30.7529795608
 20
-16.6369580594
 11
31.0844287014
 21
-16.1893547691
  0
LINE
  5
4F6
100
AcDbEntity
  8
RACCORDO
100
AcDbLine
 62
7
  6
CONTINUOUS
 10
30.9806445661
 20
-16.8026708074
 11
30.9808220494
 21
-16.8024498579
  0
LWPOLYLINE
  5
4F7
100
AcDbEntity
  8
RACCORDO
100
AcDbPolyline
 62
7
  6
CONTINUOUS
 90
6
 70
0
 10
31.131966232
 20
-16.0277243052
 10
31.1231904639
 20
-16.0380920484
 10
31.1155267498
 20
-16.0498848305
 10
31.1091299885
 20
-16.0630010284
 10
31.1041399917
 20
-16.0772895529
 10
31.100467044
 20
-16.09359997
  0
LINE
  5
4F8
100
AcDbEntity
  8
RACCORDO
100
AcDbLine
 62
253
  6
CONTINUOUS
 10
30.9460460254
 20
-16.8161936993
 11
30.9875059668
 21
-16.7680836867
  0
LWPOLYLINE
  5
4F9
100
AcDbEntity
  8
RACCORDO
100
AcDbPolyline
 62
253
  6
CONTINUOUS
 90
14
 70
0
 10
31.9239404514
 20
-16.3120531497
 10
31.9215199938
 20
-16.3148509759
 10
31.9188034593
 20
-16.3174232639
 10
31.9157858609
 20
-16.3197669624
 10
31.9124218518
 20
-16.3218002569
 10
31.908700979
 20
-16.3235351363
 10
31.9046336955
 20
-16.3249596118
 10
31.9002060131
 20
-16.3259559021
 10
31.8953987311
 20
-16.3265227396
 10
31.8902310502
 20
-16.326661392
 10
31.8847465846
 20
-16.3262578818
 10
31.8789598725
 20
-16.3252742164
 10
31.8728563757
 20
-16.3237483883
 10
31.8664360943
 20
-16.3216803976
  0
LWPOLYLINE
  5
4FA
100
AcDbEntity
  8
RACCORDO
100
AcDbPolyline
 62
253
  6
CONTINUOUS
 90
14
 70
0
 10
30.9808198796
 20
-16.8024521295
 10
30.9796649465
 20
-16.8037614248
 10
30.9767190526
 20
-16.8067916548
 10
30.9737505434
 20
-16.809428012
 10
30.9707993227
 20
-16.8116625599
 10
30.9679081465
 20
-16.8134945864
 10
30.9650770367
 20
-16.814955696
 10
30.9622774368
 20
-16.8160830843
 10
30.9595256612
 20
-16.8168922901
 10
30.9568319046
 20
-16.8173863981
 10
30.9541411381
 20
-16.8175664807
 10
30.9514328157
 20
-16.8174271951
 10
30.9487326276
 20
-16.8169694655
 10
30.9460460542
 20
-16.816193724
  0
LWPOLYLINE
  5
4FB
100
AcDbEntity
  8
RACCORDO
100
AcDbPolyline
 62
253
  6
CONTINUOUS
 90
3
 70
0
 10
30.5445088356
 20
-15.0196966527
 10
30.5512933817
 20
-15.0129936548
 10
30.5569906597
 20
-15.0052469734
  0
LWPOLYLINE
  5
4FC
100
AcDbEntity
  8
0
100
AcDbPolyline
 62
7
  6
CONTINUOUS
 90
3
 70
0
 10
32.4939903852
 20
-17.7606557381
 10
32.3575264394
 20
-17.8944377493
 10
32.2406311348
 20
-17.9735906014
  0
LWPOLYLINE
  5
4FD
100
AcDbEntity
  8
RACCORDO
100
AcDbPolyline
 62
7
  6
CONTINUOUS
 90
3
 70
0
 10
31.1476301276
 20
-16.0144465213
 10
31.1417242937
 20
-16.0188211855
 10
31.131966232
 20
-16.0277243052
  0
LINE
  5
4FE
100
AcDbEntity
  8
RACCORDO
100
AcDbLine
 62
7
  6
CONTINUOUS
 10
31.5559176335
 20
-15.7340266423
 11
31.1475665869
 21
-16.014488418
  0
LINE
  5
4FF
100
AcDbEntity
  8
RACCORDO
100
AcDbLine
 62
253
  6
CONTINUOUS
 10
31.5901338327
 20
-15.7607490068
 11
31.227711313
 21
-16.0096663642
  0
LWPOLYLINE
  5
500
100
AcDbEntity
  8
0
100
AcDbPolyline
 62
7
  6
CONTINUOUS
 90
7
 70
0
 10
29.4410405097
 20
-13.1248735152
 10
29.324145205
 20
-13.2040263673
 10
29.1876812592
 20
-13.3378083785
 10
29.0715434548
 20
-13.5030199916
 10
28.9803393539
 20
-13.693106728
 10
28.9156048107
 20
-13.9058837612
 10
28.875803971
 20
-14.1435359175
  0
LWPOLYLINE
  5
501
100
AcDbEntity
  8
RACCORDO
100
AcDbPolyline
 62
253
  6
CONTINUOUS
 90
19
 70
0
 10
32.3385192224
 20
-11.7460606475
 10
32.319672953
 20
-11.7573645938
 10
32.3001696266
 20
-11.7696462889
 10
32.2801543981
 20
-11.7828143255
 10
32.2597762318
 20
-11.7967706997
 10
32.2391867933
 20
-11.8114115405
 10
32.2185393208
 20
-11.8266278826
 10
32.1979874821
 20
-11.8423064794
 10
32.1776842376
 20
-11.8583306402
 10
32.1577807015
 20
-11.8745810993
 10
32.1384250034
 20
-11.8909369143
 10
32.1197612019
 20
-11.9072763535
 10
32.1019282163
 20
-11.923477797
 10
32.0850587786
 20
-11.9394206539
 10
32.0692784224
 20
-11.9549862827
 10
32.0547045679
 20
-11.9700588602
 10
32.0414456762
 20
-11.9845262151
 10
32.0296004358
 20
-11.9982806658
 10
32.0192570066
 20
-12.0112198438
  0
LWPOLYLINE
  5
502
100
AcDbEntity
  8
RACCORDO
100
AcDbPolyline
 62
253
  6
CONTINUOUS
 90
19
 70
0
 10
32.65066002
 20
-13.8522121961
 10
32.631734337
 20
-13.8634079197
 10
32.6120386875
 20
-13.8754282908
 10
32.5917196515
 20
-13.8881838519
 10
32.5709284545
 20
-13.90157967
 10
32.5498198261
 20
-13.9155160532
 10
32.5285508479
 20
-13.9298892943
 10
32.5072798099
 20
-13.9445924252
 10
32.4861650235
 20
-13.9595160184
 10
32.4653636268
 20
-13.9745490134
 10
32.4450304291
 20
-13.9895795331
 10
32.4253167732
 20
-14.0044957058
 10
32.4063693981
 20
-14.0191865049
 10
32.3883293228
 20
-14.0335425932
 10
32.3713308204
 20
-14.0474571198
 10
32.3555004282
 20
-14.0608265056
 10
32.3409559731
 20
-14.0735512412
 10
32.3278056996
 20
-14.0855366256
 10
32.316147482
 20
-14.0966934547
  0
LINE
  5
503
100
AcDbEntity
  8
0
100
AcDbLine
 62
7
  6
CONTINUOUS
 10
29.6882555472
 20
-12.9815038781
 11
29.4407681738
 21
-13.1243999858
  0
LINE
  5
504
100
AcDbEntity
  8
RACCORDO
100
AcDbLine
 62
253
  6
CONTINUOUS
 10
31.0952813972
 20
-15.2700057035
 11
30.5209702986
 21
-15.6016029601
  0
LINE
  5
505
100
AcDbEntity
  8
RACCORDO
100
AcDbLine
 62
253
  6
CONTINUOUS
 10
31.2098594272
 20
-15.4684145855
 11
30.6355283726
 21
-15.8000233644
  0
LINE
  5
506
100
AcDbEntity
  8
DRAFT
100
AcDbLine
 62
7
  6
CONTINUOUS
 10
26.4513985552
 20
-19.9202616424
 11
26.199148828
 21
-20.0659069905
  0
LINE
  5
507
100
AcDbEntity
  8
RACCORDO
100
AcDbLine
 62
253
  6
CONTINUOUS
 10
32.6506600202
 20
-13.8522121964
 11
33.2295203235
 21
-13.5227440943
  0
LINE
  5
508
100
AcDbEntity
  8
RACCORDO
100
AcDbLine
 62
253
  6
CONTINUOUS
 10
33.0928638417
 20
-11.8585359155
 11
32.507298341
 21
-12.1915239263
  0
LINE
  5
509
100
AcDbEntity
  8
RACCORDO
100
AcDbLine
 62
253
  6
CONTINUOUS
 10
32.507298341
 20
-13.4412118362
 11
33.0866246787
 21
-13.112411296
  0
LINE
  5
50A
100
AcDbEntity
  8
RACCORDO
100
AcDbLine
 62
253
  6
CONTINUOUS
 10
33.1304647576
 20
-11.2967375032
 11
32.3385192151
 21
-11.746060638
  0
LINE
  5
50B
100
AcDbEntity
  8
0
100
AcDbLine
 62
7
  6
CONTINUOUS
 10
24.7812817853
 20
-20.5606895269
 11
26.4700859714
 21
-19.6168933097
  0
LWPOLYLINE
  5
50C
100
AcDbEntity
  8
RACCORDO
100
AcDbPolyline
 62
253
  6
CONTINUOUS
 90
8
 70
0
 10
30.5916694696
 20
-15.0507755462
 10
30.5944826164
 20
-15.049326889
 10
30.6047270961
 20
-15.0424412931
 10
30.6138236278
 20
-15.0335619277
 10
30.6214719606
 20
-15.0230272605
 10
30.627603647
 20
-15.0111514082
 10
30.6322834103
 20
-14.9980646033
 10
30.6355283726
 20
-14.9839754252
  0
LWPOLYLINE
  5
50D
100
AcDbEntity
  8
RACCORDO
100
AcDbPolyline
 62
253
  6
CONTINUOUS
 90
19
 70
0
 10
32.507298341
 20
-12.1915239291
 10
32.4879228499
 20
-12.2014311697
 10
32.4671405479
 20
-12.2103373199
 10
32.4451061092
 20
-12.218176095
 10
32.4219835265
 20
-12.2248891543
 10
32.3979448916
 20
-12.2304265354
 10
32.3731691136
 20
-12.2347470257
 10
32.3478405839
 20
-12.2378184701
 10
32.3221478162
 20
-12.2396180084
 10
32.2962820439
 20
-12.2401322472
 10
32.2704357682
 20
-12.239357361
 10
32.2448013584
 20
-12.2372991185
 10
32.2195696316
 20
-12.2339728452
 10
32.1949284031
 20
-12.2294033101
 10
32.17106103
 20
-12.2236245252
 10
32.1481450859
 20
-12.2166794872
 10
32.1263511072
 20
-12.2086198753
 10
32.1058413162
 20
-12.1995056762
 10
32.0867683597
 20
-12.1894047205
  0
LWPOLYLINE
  5
50E
100
AcDbEntity
  8
RACCORDO
100
AcDbPolyline
 62
253
  6
CONTINUOUS
 90
19
 70
0
 10
32.507298341
 20
-13.4412118366
 10
32.4879232611
 20
-13.4511188822
 10
32.4671413946
 20
-13.4600248918
 10
32.4451074008
 20
-13.4678635797
 10
32.4219852671
 20
-13.4745766012
 10
32.3979470641
 20
-13.480113994
 10
32.373171662
 20
-13.4844345457
 10
32.3478434407
 20
-13.4875060924
 10
32.3221509035
 20
-13.4893057641
 10
32.2962852478
 20
-13.4898201573
 10
32.2704389638
 20
-13.4890454308
 10
32.2448044297
 20
-13.4869873379
 10
32.2195724613
 20
-13.4836611882
 10
32.1949306082
 20
-13.4790916767
 10
32.1710625377
 20
-13.4733128329
 10
32.1481466051
 20
-13.4663678964
 10
32.1263534911
 20
-13.4583087446
 10
32.1058450253
 20
-13.4491953807
 10
32.0867736999
 20
-13.4390957105
  0
LINE
  5
50F
100
AcDbEntity
  8
RACCORDO
100
AcDbLine
 62
253
  6
CONTINUOUS
 10
31.032323893
 20
-14.7945325736
 11
30.6355283726
 21
-14.9839754252
  0
LINE
  5
510
100
AcDbEntity
  8
RACCORDO
100
AcDbLine
 62
7
  6
CONTINUOUS
 10
31.0383557925
 20
-14.8375147357
 11
30.5912855421
 21
-15.0509603486
  0
LWPOLYLINE
  5
511
100
AcDbEntity
  8
RACCORDO
100
AcDbPolyline
 62
7
  6
CONTINUOUS
 90
9
 70
0
 10
32.6459013104
 20
-18.8611675102
 10
32.683192168
 20
-18.849312527
 10
32.7200084232
 20
-18.8365576953
 10
32.7563308366
 20
-18.8229148289
 10
32.7921581003
 20
-18.8083897017
 10
32.8275056217
 20
-18.7929799178
 10
32.862370745
 20
-18.776689033
 10
32.8967339794
 20
-18.75952868
 10
32.9305846721
 20
-18.7415072425
  0
LWPOLYLINE
  5
512
100
AcDbEntity
  8
RACCORDO
100
AcDbPolyline
 62
7
  6
CONTINUOUS
 90
3
 70
0
 10
30.5717730274
 20
-15.0579072538
 10
30.5845703087
 20
-15.0538537189
 10
30.591723184
 20
-15.0507373477
  0
LINE
  5
513
100
AcDbEntity
  8
RACCORDO
100
AcDbLine
 62
7
  6
CONTINUOUS
 10
32.6081464954
 20
-18.8721146266
 11
32.6459013104
 21
-18.8611675102
  0
LWPOLYLINE
  5
514
100
AcDbEntity
  8
0
100
AcDbPolyline
 62
7
  6
CONTINUOUS
 90
16
 70
0
 10
22.8547091981
 20
64.1117741093
 10
22.8943235504
 20
64.0939544147
 10
22.9359075439
 20
64.0786969027
 10
22.9794611788
 20
64.0660015732
 10
23.0254456138
 20
64.0557949119
 10
23.0733996902
 20
64.0481504332
 10
23.1219399314
 20
64.0432886805
 10
23.1710834126
 20
64.0412907151
 10
23.2208130587
 20
64.0420754757
 10
23.2696941681
 20
64.0456203219
 10
23.3177020227
 20
64.0520056555
 10
23.3648613406
 20
64.0611510748
 10
23.4098115741
 20
64.0727927341
 10
23.4520992074
 20
64.0868426849
 10
23.4921777563
 20
64.1033888758
 10
23.5300472208
 20
64.1224313068
  0
LWPOLYLINE
  5
515
100
AcDbEntity
  8
RACCORDO
100
AcDbPolyline
 62
253
  6
CONTINUOUS
 90
25
 70
0
 10
22.7007084793
 20
64.8189661417
 10
22.7342977179
 20
64.8031811441
 10
22.7692802796
 20
64.7887441186
 10
22.8056561644
 20
64.7756550651
 10
22.8435868069
 20
64.763868031
 10
22.8829107725
 20
64.753428969
 10
22.923143757
 20
64.7444757371
 10
22.964283734
 20
64.7370311018
 10
23.0063327298
 20
64.7310722967
 10
23.0488125196
 20
64.7266688805
 10
23.0917296665
 20
64.7238388232
 10
23.1350776074
 20
64.7225641549
 10
23.1783584271
 20
64.7228605242
 10
23.2215725378
 20
64.7247465972
 10
23.2647195273
 20
64.7282037078
 10
23.3073002445
 20
64.7331915058
 10
23.3493054993
 20
64.7397277228
 10
23.3907444816
 20
64.7477946272
 10
23.4311456108
 20
64.757298674
 10
23.4705092581
 20
64.7682629604
 10
23.5088350521
 20
64.7806643891
 10
23.5456502975
 20
64.7943401239
 10
23.5807974292
 20
64.8092358859
 10
23.6144340123
 20
64.825405954
 10
23.6465600468
 20
64.8428503282
  0
LINE
  5
516
100
AcDbEntity
  8
0
100
AcDbLine
 62
253
  6
CONTINUOUS
 10
-25.7552013894
 20
92.5791161651
 11
-25.395929136
 21
92.3783351648
  0
LINE
  5
517
100
AcDbEntity
  8
DRAFT
100
AcDbLine
 62
7
  6
CONTINUOUS
 10
26.4513985552
 20
62.461589286
 11
26.1935971983
 21
62.6104405584
  0
LINE
  5
518
100
AcDbEntity
  8
RACCORDO
100
AcDbLine
 62
253
  6
CONTINUOUS
 10
30.189622476
 20
64.8646280416
 11
27.461729487
 21
66.4396798684
  0
LINE
  5
519
100
AcDbEntity
  8
RACCORDO
100
AcDbLine
 62
253
  6
CONTINUOUS
 10
-21.5000722001
 20
94.7096105271
 11
-23.1673050173
 21
95.6722492569
  0
LINE
  5
51A
100
AcDbEntity
  8
RACCORDO
100
AcDbLine
 62
253
  6
CONTINUOUS
 10
30.3980476508
 20
65.2298798702
 11
27.6701593069
 21
66.8049284115
  0
LINE
  5
51B
100
AcDbEntity
  8
RACCORDO
100
AcDbLine
 62
253
  6
CONTINUOUS
 10
-21.2916423802
 20
95.0748590702
 11
-22.9588705523
 21
96.0374957215
  0
LINE
  5
51C
100
AcDbEntity
  8
0
100
AcDbLine
 62
253
  6
CONTINUOUS
 10
23.5300472208
 20
64.1224313068
 11
23.1823067316
 21
64.3298706032
  0
LINE
  5
51D
100
AcDbEntity
  8
0
100
AcDbLine
 62
7
  6
CONTINUOUS
 10
27.4820420091
 20
66.33102231
 11
27.1343015199
 21
66.5384616064
  0
LWPOLYLINE
  5
51E
100
AcDbEntity
  8
RACCORDO
100
AcDbPolyline
 62
253
  6
CONTINUOUS
 90
5
 70
0
 10
-21.5000722001
 20
94.7096105271
 10
-21.4929993259
 20
94.7052182176
 10
-21.4864652864
 20
94.7005231428
 10
-21.4805017324
 20
94.695547323
 10
-21.4781654501
 20
94.6932677046
  0
LWPOLYLINE
  5
51F
100
AcDbEntity
  8
RACCORDO
100
AcDbPolyline
 62
253
  6
CONTINUOUS
 90
22
 70
0
 10
-21.2916423802
 20
95.0748590702
 10
-21.2688057947
 20
95.0606025381
 10
-21.2480466279
 20
95.0455551
 10
-21.2293648797
 20
95.0297167561
 10
-21.212681073
 20
95.0129903576
 10
-21.198074685
 20
94.9954730532
 10
-21.1857841469
 20
94.9774562884
 10
-21.1758499446
 20
94.9589350149
 10
-21.1682315923
 20
94.9399142811
 10
-21.1630460637
 20
94.920700677
 10
-21.1603312109
 20
94.9012916634
 10
-21.1600491817
 20
94.8816897795
 10
-21.1622033932
 20
94.8622092332
 10
-21.1668325785
 20
94.8428506831
 10
-21.1738980044
 20
94.8236134706
 10
-21.1832868881
 20
94.8048098279
 10
-21.1950375506
 20
94.7864465117
 10
-21.2091116709
 20
94.7685167653
 10
-21.2252815028
 20
94.7513125516
 10
-21.2434711308
 20
94.7349311913
 10
-21.2637564704
 20
94.7192753636
 10
-21.2861375216
 20
94.7043450684
  0
LWPOLYLINE
  5
520
100
AcDbEntity
  8
DRAFT
100
AcDbPolyline
 62
7
  6
CONTINUOUS
 90
30
 70
0
 10
36.0451242477
 20
-18.6749075947
 10
36.1351469836
 20
-18.6171899369
 10
36.265330633
 20
-18.5216883916
 10
36.3887993343
 20
-18.4160778464
 10
36.5056565347
 20
-18.3001728837
 10
36.615798787
 20
-18.1741589211
 10
36.7184059837
 20
-18.0389675735
 10
36.8133264221
 20
-17.8946917933
 10
36.9007118049
 20
-17.741238628
 10
36.9801971325
 20
-17.5792608354
 10
37.0518099675
 20
-17.4085653544
 10
37.1155227472
 20
-17.229345246
 10
37.170887784
 20
-17.0428324508
 10
37.2178167459
 20
-16.8491039602
 10
37.2563979648
 20
-16.6480827827
 10
37.2864487487
 20
-16.4407698846
 10
37.3079378366
 20
-16.2270605816
 10
37.3208964894
 20
-16.007059558
 10
37.325235798
 20
-15.7820818331
 10
37.3208964894
 20
-15.5520931834
 10
37.3079378366
 20
-15.3171278322
 10
37.2864487487
 20
-15.0786034692
 10
37.2563979648
 20
-14.8365886791
 10
37.2178167459
 20
-14.5910148772
 10
37.170887784
 20
-14.3430939977
 10
37.1155227472
 20
-14.0926470458
 10
37.0518099675
 20
-13.8398530163
 10
36.9801971325
 20
-13.5864608285
 10
36.9007118049
 20
-13.332695372
 10
36.8133264221
 20
-13.0783317571
  0
LWPOLYLINE
  5
521
100
AcDbEntity
  8
DRAFT
100
AcDbPolyline
 62
7
  6
CONTINUOUS
 90
53
 70
0
 10
34.8580566517
 20
-19.3945549232
 10
34.9262903884
 20
-19.3514038514
 10
35.0633221569
 20
-19.2531579261
 10
35.1931406058
 20
-19.1438636446
 10
35.3156622538
 20
-19.0235896405
 10
35.4307269803
 20
-18.8924252931
 10
35.5379529175
 20
-18.7507334996
 10
35.6369522388
 20
-18.5990284983
 10
35.7274472816
 20
-18.4378261265
 10
35.8093807799
 20
-18.2673269375
 10
35.8827176847
 20
-18.0876022989
 10
35.9473514139
 20
-17.8987858461
 10
36.0030382659
 20
-17.7014443126
 10
36.0495679009
 20
-17.4963247826
 10
36.0868298153
 20
-17.284122686
 10
36.1148298696
 20
-17.0650638931
 10
36.1335591017
 20
-16.8392169918
 10
36.1429596058
 20
-16.6067566838
 10
36.1429596058
 20
-16.3684113051
 10
36.1335591017
 20
-16.1250955305
 10
36.1148298696
 20
-15.8776205815
 10
36.0868298153
 20
-15.6262280277
 10
36.0495679009
 20
-15.3709968064
 10
36.0030382659
 20
-15.1121460201
 10
35.9473514139
 20
-14.8504987058
 10
35.8827176847
 20
-14.5870448427
 10
35.8093807799
 20
-14.3226325847
 10
35.7274472816
 20
-14.0575186455
 10
35.6369522388
 20
-13.7918148667
 10
35.5379529175
 20
-13.5257879306
 10
35.4307269803
 20
-13.2602743126
 10
35.3156622538
 20
-12.9962361032
 10
35.1931406058
 20
-12.7344771711
 10
35.0633221569
 20
-12.4752717988
 10
34.9262903884
 20
-12.2187850221
 10
34.7821813765
 20
-11.9653268442
 10
34.6314012381
 20
-11.7156642652
 10
34.4744550394
 20
-11.4706354447
 10
34.3118113655
 20
-11.230929407
 10
34.1436948083
 20
-10.9968361971
 10
33.9702677255
 20
-10.768580105
 10
33.7917600976
 20
-10.5464963501
 10
33.6086498415
 20
-10.3312111806
 10
33.4214817863
 20
-10.1233672092
 10
33.2307506353
 20
-9.9234901487
 10
33.0367579791
 20
-9.7318728885
 10
32.8397745362
 20
-9.5487808427
 10
32.6401322906
 20
-9.3745383517
 10
32.4383150131
 20
-9.2095832124
 10
32.2348260277
 20
-9.0543291391
 10
32.0301169119
 20
-8.9091137062
 10
31.8245839285
 20
-8.774211096
 10
31.6186532815
 20
-8.6498964542
  0
LINE
  5
522
100
AcDbEntity
  8
DRAFT
100
AcDbLine
 62
7
  6
CONTINUOUS
 10
36.0451186808
 20
-18.674898109
 11
34.8580566517
 21
-19.3945549232
  0
LWPOLYLINE
  5
523
100
AcDbEntity
  8
RACCORDO
100
AcDbPolyline
 62
253
  6
CONTINUOUS
 90
13
 70
0
 10
32.399991132
 20
-20.5809033145
 10
32.4123373956
 20
-20.5734388327
 10
32.4280393982
 20
-20.5615932948
 10
32.4424918347
 20
-20.5478146253
 10
32.4556275824
 20
-20.5321675573
 10
32.4673801531
 20
-20.514718613
 10
32.4776969567
 20
-20.4955510158
 10
32.4865342373
 20
-20.4747585401
 10
32.4938479504
 20
-20.4524355031
 10
32.4996019753
 20
-20.4286824242
 10
32.5037740756
 20
-20.4036089507
 10
32.5063437145
 20
-20.3773252915
 10
32.507294555
 20
-20.3499480062
  0
LINE
  5
524
100
AcDbEntity
  8
0
100
AcDbLine
 62
7
  6
CONTINUOUS
 10
32.488390844
 20
-17.8311680232
 11
32.2409034706
 21
-17.9740641308
  0
LINE
  5
525
100
AcDbEntity
  8
DRAFT
100
AcDbLine
 62
7
  6
CONTINUOUS
 10
34.7790716792
 20
-19.4401598564
 11
34.8580566517
 21
-19.3945549232
  0
LINE
  5
526
100
AcDbEntity
  8
0
100
AcDbLine
 62
7
  6
CONTINUOUS
 10
26.4700859714
 20
-24.4748914566
 11
24.7812817853
 21
-25.4186876739
  0
LINE
  5
527
100
AcDbEntity
  8
DRAFT
100
AcDbLine
 62
7
  6
CONTINUOUS
 10
33.5069131048
 20
-18.42497128
 11
32.9305846721
 21
-18.7415072425
  0
LINE
  5
528
100
AcDbEntity
  8
DRAFT
100
AcDbLine
 62
7
  6
CONTINUOUS
 10
34.7790716792
 20
-19.4401598564
 11
33.9164527023
 21
-19.9139347261
  0
LINE
  5
529
100
AcDbEntity
  8
RACCORDO
100
AcDbLine
 62
253
  6
CONTINUOUS
 10
33.0866246787
 20
-18.7830252887
 11
32.507298341
 21
-19.1002623628
  0
LINE
  5
52A
100
AcDbEntity
  8
RACCORDO
100
AcDbLine
 62
253
  6
CONTINUOUS
 10
32.507298341
 20
-20.3499502694
 11
33.0928638417
 21
-20.0299430466
  0
LINE
  5
52B
100
AcDbEntity
  8
RACCORDO
100
AcDbLine
 62
7
  6
CONTINUOUS
 10
32.3999911904
 20
-20.5809036546
 11
33.1336133237
 21
-20.1799829377
  0
LWPOLYLINE
  5
52C
100
AcDbEntity
  8
0
100
AcDbPolyline
 62
7
  6
CONTINUOUS
 90
22
 70
0
 10
32.2406311348
 20
-17.9735906014
 10
32.1999191413
 20
-17.9955265339
 10
32.0219857019
 20
-18.0651857165
 10
31.8307853159
 20
-18.1006516921
 10
31.6257845868
 20
-18.1005497257
 10
31.4075169112
 20
-18.0662545522
 10
31.1846416733
 20
-17.9991267722
 10
30.9569736267
 20
-17.8978463533
 10
30.7246980178
 20
-17.7637333278
 10
30.4970299711
 20
-17.6021083931
 10
30.2741547333
 20
-17.411865435
 10
30.0558870576
 20
-17.1941105678
 10
29.8508863286
 20
-16.9574828308
 10
29.6596859426
 20
-16.7012234421
 10
29.4817525031
 20
-16.4260911836
 10
29.324145205
 20
-16.1430014418
 10
29.1876812592
 20
-15.8516342866
 10
29.0715434548
 20
-15.552309648
 10
28.9803393539
 20
-15.2569027021
 10
28.9156048107
 20
-14.969371841
 10
28.875803971
 20
-14.6857586726
 10
28.8609368349
 20
-14.406063197
  0
LINE
  5
52D
100
AcDbEntity
  8
DRAFT
100
AcDbLine
 62
7
  6
CONTINUOUS
 10
26.4513985552
 20
-24.3167879896
 11
26.199148828
 21
-24.4524397297
  0
LWPOLYLINE
  5
52E
100
AcDbEntity
  8
RACCORDO
100
AcDbPolyline
 62
253
  6
CONTINUOUS
 90
19
 70
0
 10
32.507298341
 20
-19.1002623624
 10
32.4879232423
 20
-19.1101694169
 10
32.4671413563
 20
-19.1190754327
 10
32.4451073429
 20
-19.1269141244
 10
32.4219851898
 20
-19.1336271474
 10
32.3979469684
 20
-19.1391645395
 10
32.3731715514
 20
-19.1434850883
 10
32.3478433191
 20
-19.1465566303
 10
32.3221507751
 20
-19.1483562961
 10
32.296285118
 20
-19.148870683
 10
32.270438839
 20
-19.1480959502
 10
32.244804315
 20
-19.1460378521
 10
32.2195723601
 20
-19.1427116985
 10
32.1949307645
 20
-19.1381422363
 10
32.1710629368
 20
-19.1323634676
 10
32.1481465579
 20
-19.1254184068
 10
32.1263522001
 20
-19.1173587466
 10
32.1058420617
 20
-19.1082444682
 10
32.0867687955
 20
-19.0981434049
  0
LWPOLYLINE
  5
52F
100
AcDbEntity
  8
RACCORDO
100
AcDbPolyline
 62
253
  6
CONTINUOUS
 90
19
 70
0
 10
32.507298341
 20
-20.3499502699
 10
32.4879228501
 20
-20.3598575058
 10
32.4671405484
 20
-20.3687636516
 10
32.4451061099
 20
-20.3766024227
 10
32.4219835275
 20
-20.3833154783
 10
32.3979448928
 20
-20.3888528561
 10
32.3731691151
 20
-20.3931733438
 10
32.3478405858
 20
-20.3962447862
 10
32.3221478184
 20
-20.3980443231
 10
32.2962820463
 20
-20.3985585614
 10
32.2704357709
 20
-20.3977836753
 10
32.2448013612
 20
-20.3957254337
 10
32.2195696344
 20
-20.392399162
 10
32.1949284057
 20
-20.3878296292
 10
32.1710610322
 20
-20.3820508472
 10
32.1481450878
 20
-20.3751058128
 10
32.1263511088
 20
-20.3670462051
 10
32.1058413176
 20
-20.3579320109
 10
32.0867683609
 20
-20.3478310607
  0
LWPOLYLINE
  5
530
100
AcDbEntity
  8
RACCORDO
100
AcDbPolyline
 62
253
  6
CONTINUOUS
 90
31
 70
0
 10
33.0866246787
 20
-19.9614305146
 10
33.2302786667
 20
-19.9182583492
 10
33.3687813703
 20
-19.865779502
 10
33.5021327895
 20
-19.803993973
 10
33.6305492059
 20
-19.7327607023
 10
33.7538143379
 20
-19.6522207498
 10
33.8712793402
 20
-19.5627972947
 10
33.9829132831
 20
-19.4644430533
 10
34.0887470963
 20
-19.3572053094
 10
34.1882247236
 20
-19.2416490942
 10
34.2813117368
 20
-19.117731773
 10
34.3680425641
 20
-18.9854959805
 10
34.4479644333
 20
-18.8456346529
 10
34.5210418814
 20
-18.6981079335
 10
34.5873103716
 20
-18.542955679
 10
34.6464235209
 20
-18.3809903954
 10
34.6983439994
 20
-18.2121760092
 10
34.7431091372
 20
-18.0365485939
 10
34.7804845419
 20
-17.8550288757
 10
34.8104313952
 20
-17.6675857441
 10
34.8329885154
 20
-17.4742503096
 10
34.8480379653
 20
-17.2760366301
 10
34.8555402805
 20
-17.0729193317
 10
34.8555349254
 20
-16.8649237884
 10
34.8480223556
 20
-16.6531401798
 10
34.8329633303
 20
-16.4375492895
 10
34.8103970904
 20
-16.218170334
 10
34.7804418136
 20
-15.9961511424
 10
34.7430589419
 20
-15.7714778632
 10
34.6982870333
 20
-15.5441643479
 10
34.6463599406
 20
-15.3153999804
  0
LWPOLYLINE
  5
531
100
AcDbEntity
  8
RACCORDO
100
AcDbPolyline
 62
253
  6
CONTINUOUS
 90
12
 70
0
 10
-22.9588705523
 20
96.0374957215
 10
-22.9855506879
 20
96.051448115
 10
-23.0120623248
 20
96.0630511735
 10
-23.038256364
 20
96.0722405981
 10
-23.0639849645
 20
96.0789659072
 10
-23.0891041942
 20
96.0831895807
 10
-23.1134748383
 20
96.0848872708
 10
-23.1369604281
 20
96.0840496474
 10
-23.1594289755
 20
96.0806818559
 10
-23.1807555343
 20
96.0748023445
 10
-23.200820977
 20
96.0664439385
 10
-23.2145447867
 20
96.0588421635
  0
LWPOLYLINE
  5
532
100
AcDbEntity
  8
RACCORDO
100
AcDbPolyline
 62
253
  6
CONTINUOUS
 90
22
 70
0
 10
-23.1673050173
 20
95.6722492569
 10
-23.1779475665
 20
95.6779215071
 10
-23.1884218642
 20
95.6826084266
 10
-23.1987279103
 20
95.6863100156
 10
-23.2089237277
 20
95.6890371836
 10
-23.2189512936
 20
95.690779021
 10
-23.2286365393
 20
95.6915027991
 10
-23.2379713112
 20
95.6911902962
 10
-23.246963763
 20
95.6898597339
 10
-23.2554642866
 20
95.6875330495
 10
-23.2634646374
 20
95.684193515
 10
-23.2709730601
 20
95.6798578584
 10
-23.2778646808
 20
95.6745982003
 10
-23.2841291216
 20
95.6683990257
 10
-23.2897767605
 20
95.6612758497
 10
-23.2947138579
 20
95.6533473386
 10
-23.2989287225
 20
95.6445965798
 10
-23.3024330455
 20
95.6350404859
 10
-23.3051681612
 20
95.6248484608
 10
-23.3071145143
 20
95.6140769724
 10
-23.30829166
 20
95.6026695527
 10
-23.3086995984
 20
95.5906262018
  0
LINE
  5
533
100
AcDbEntity
  8
0
100
AcDbLine
 62
7
  6
CONTINUOUS
 10
-21.9300560075
 20
94.8609484257
 11
-21.570783754
 21
94.6601674254
  0
LINE
  5
534
100
AcDbEntity
  8
RACCORDO
100
AcDbLine
 62
7
  6
CONTINUOUS
 10
-22.1215159365
 20
96.5553283765
 11
31.2651537388
 21
65.730534398
  0
LINE
  5
535
100
AcDbEntity
  8
RACCORDO
100
AcDbLine
 62
7
  6
CONTINUOUS
 10
32.4462528557
 20
66.412488567
 11
31.7600746378
 21
66.8086792702
  0
LINE
  5
536
100
AcDbEntity
  8
RACCORDO
100
AcDbLine
 62
7
  6
CONTINUOUS
 10
-20.0351127463
 20
97.6773284935
 11
32.5343661825
 21
67.3243702104
  0
LINE
  5
537
100
AcDbEntity
  8
RACCORDO
100
AcDbLine
 62
253
  6
CONTINUOUS
 10
32.7997523984
 20
-26.8208361274
 11
31.6186532815
 21
-27.5512455381
  0
LINE
  5
538
100
AcDbEntity
  8
RACCORDO
100
AcDbLine
 62
7
  6
CONTINUOUS
 10
32.7005566718
 20
-27.0470969022
 11
31.5194575549
 21
-27.777506313
  0
LWPOLYLINE
  5
539
100
AcDbEntity
  8
RACCORDO
100
AcDbPolyline
 62
253
  6
CONTINUOUS
 90
12
 70
0
 10
30.642191141
 20
-28.2496173279
 10
30.6556311638
 20
-28.241537839
 10
30.6729036689
 20
-28.2283419353
 10
30.6886599357
 20
-28.2128144027
 10
30.7028119657
 20
-28.1950419838
 10
30.7152813018
 20
-28.1751236557
 10
30.7259974901
 20
-28.1531711457
 10
30.7349003719
 20
-28.1293072923
 10
30.7419414195
 20
-28.1036648192
 10
30.7470811538
 20
-28.0763871241
 10
30.7502893684
 20
-28.0476274736
 10
30.7515471935
 20
-28.0175471316
  0
LINE
  5
53A
100
AcDbEntity
  8
RACCORDO
100
AcDbLine
 62
7
  6
CONTINUOUS
 10
31.5194587716
 20
-27.7775055605
 11
31.510736069
 21
-27.7825419394
  0
LINE
  5
53B
100
AcDbEntity
  8
0
100
AcDbLine
 62
7
  6
CONTINUOUS
 10
23.5300472208
 20
-29.118474303
 11
27.4820420091
 21
-26.9098832998
  0
LINE
  5
53C
100
AcDbEntity
  8
RACCORDO
100
AcDbLine
 62
253
  6
CONTINUOUS
 10
31.6186532815
 20
-27.5512455381
 11
30.7515471935
 21
-28.0175471316
  0
LINE
  5
53D
100
AcDbEntity
  8
RACCORDO
100
AcDbLine
 62
7
  6
CONTINUOUS
 10
31.5107348511
 20
-27.7825426925
 11
30.642070106
 21
-28.2496824814
  0
LWPOLYLINE
  5
53E
100
AcDbEntity
  8
RACCORDO
100
AcDbPolyline
 62
253
  6
CONTINUOUS
 90
19
 70
0
 10
30.7515471935
 20
-28.0175471322
 10
30.7321716783
 20
-28.0274543797
 10
30.7113893492
 20
-28.0363605346
 10
30.6893548807
 20
-28.044199312
 10
30.6662322663
 20
-28.0509123711
 10
30.6421935982
 20
-28.0564497492
 10
30.6174177865
 20
-28.0607702341
 10
30.5920892216
 20
-28.0638416707
 10
30.5663964194
 20
-28.0656411982
 10
30.5405306182
 20
-28.0661554239
 10
30.5146843174
 20
-28.0653805224
 10
30.4890498892
 20
-28.0633222631
 10
30.4638181623
 20
-28.0599959743
 10
30.4391769614
 20
-28.0554264295
 10
30.4153096311
 20
-28.0496476417
 10
30.3923937236
 20
-28.0427026033
 10
30.3705997694
 20
-28.0346429902
 10
30.3500899982
 20
-28.0255287902
 10
30.3310170571
 20
-28.0154278329
  0
LWPOLYLINE
  5
53F
100
AcDbEntity
  8
RACCORDO
100
AcDbPolyline
 62
7
  6
CONTINUOUS
 90
10
 70
0
 10
-22.3417842921
 20
96.5935953755
 10
-22.3205837628
 20
96.5994058727
 10
-22.2983474377
 20
96.6026990424
 10
-22.2750727181
 20
96.6034764066
 10
-22.2508002385
 20
96.6017042632
 10
-22.2257341159
 20
96.5973657749
 10
-22.2001169899
 20
96.590496178
 10
-22.1741293892
 20
96.5811588779
 10
-22.1478807281
 20
96.5694107132
 10
-22.1215159365
 20
96.5553283765
  0
ELLIPSE
  5
540
100
AcDbEntity
  8
RACCORDO
100
AcDbEllipse
 62
7
  6
CONTINUOUS
 10
-20.0350050423
 20
97.2689689825
 30
0.0
 11
-0.2500882309
 21
0.4331376414
 31
0.0
 40
0.5771558487
 41
-0.7852941622
 42
-0.0174471532
  0
ELLIPSE
  5
541
100
AcDbEntity
  8
RACCORDO
100
AcDbEllipse
 62
7
  6
CONTINUOUS
 10
32.4461451517
 20
-26.616543373
 30
0.0
 11
-0.2500882309
 21
0.4331376414
 31
0.0
 40
0.5771558487
 41
-3.1241455003
 42
-2.3563950755
  0
ELLIPSE
  5
542
100
AcDbEntity
  8
RACCORDO
100
AcDbEllipse
 62
7
  6
CONTINUOUS
 10
32.4461451517
 20
66.0042534299
 30
0.0
 11
-0.2500120911
 21
0.4330057209
 31
0.0
 40
0.5775075436
 41
-2.3560905478
 42
-0.7855988075
  0
ELLIPSE
  5
543
100
AcDbEntity
  8
RACCORDO
100
AcDbEllipse
 62
7
  6
CONTINUOUS
 10
24.9417891251
 20
-3.0866783945
 30
0.0
 11
0.1026656474
 21
0.17165654
 31
0.0
 40
0.5873179545
 41
-3.917905871
 42
-2.3645628367
  0
ELLIPSE
  5
544
100
AcDbEntity
  8
RACCORDO
100
AcDbEllipse
 62
7
  6
CONTINUOUS
 10
24.9417891251
 20
-2.7479123189
 30
0.0
 11
0.1026656474
 21
0.17165654
 31
0.0
 40
0.5873179545
 41
0.8119364019
 42
2.3652794362
  0
ELLIPSE
  5
545
100
AcDbEntity
  8
RACCORDO
100
AcDbEllipse
 62
7
  6
CONTINUOUS
 10
24.9417891251
 20
1.8121432663
 30
0.0
 11
0.1026656474
 21
0.17165654
 31
0.0
 40
0.5873179545
 41
-3.917905871
 42
-2.3645628367
  0
ELLIPSE
  5
546
100
AcDbEntity
  8
RACCORDO
100
AcDbEllipse
 62
7
  6
CONTINUOUS
 10
24.9417891251
 20
2.1509093419
 30
0.0
 11
0.1026656474
 21
0.17165654
 31
0.0
 40
0.5873179545
 41
0.8119364019
 42
2.3652794362
  0
ELLIPSE
  5
547
100
AcDbEntity
  8
RACCORDO
100
AcDbEllipse
 62
7
  6
CONTINUOUS
 10
24.9417891251
 20
34.470954338
 30
0.0
 11
0.1026656474
 21
0.17165654
 31
0.0
 40
0.5873179545
 41
-3.917905871
 42
-2.3645628367
  0
ELLIPSE
  5
548
100
AcDbEntity
  8
RACCORDO
100
AcDbEllipse
 62
7
  6
CONTINUOUS
 10
24.9417891251
 20
34.8097204136
 30
0.0
 11
0.1026656474
 21
0.17165654
 31
0.0
 40
0.5873179545
 41
0.8119364019
 42
2.3652794362
  0
ELLIPSE
  5
549
100
AcDbEntity
  8
RACCORDO
100
AcDbEllipse
 62
7
  6
CONTINUOUS
 10
24.9417891251
 20
39.3697759987
 30
0.0
 11
0.1026656474
 21
0.17165654
 31
0.0
 40
0.5873179545
 41
-3.917905871
 42
-2.3645628367
  0
ELLIPSE
  5
54A
100
AcDbEntity
  8
RACCORDO
100
AcDbEllipse
 62
7
  6
CONTINUOUS
 10
24.9417891251
 20
39.7085420743
 30
0.0
 11
0.1026656474
 21
0.17165654
 31
0.0
 40
0.5873179545
 41
0.8119364019
 42
2.3652794362
  0
ENDSEC
  0
SECTION
  2
OBJECTS
  0
DICTIONARY
  5
C
100
AcDbDictionary
280
0
281
1
  3
ACAD_GROUP
350
D
  3
ACAD_MLINESTYLE
350
17
  3
ACAD_LAYOUT
350
1A
  3
ACAD_PLOTSETTINGS
350
19
  3
ACAD_PLOTSTYLENAME
350
E
  0
DICTIONARY
  5
D
102
{ACAD_REACTORS
330
C
102
}
100
AcDbDictionary
280
0
281
1
  0
ACDBDICTIONARYWDFLT
  5
E
102
{ACAD_REACTORS
330
C
102
}
100
AcDbDictionary
281
1
  3
Normal
350
F
100
AcDbDictionaryWithDefault
340
F
  0
DICTIONARY
  5
17
102
{ACAD_REACTORS
330
C
102
}
100
AcDbDictionary
280
0
281
1
  3
Standard
350
18
  0
DICTIONARY
  5
19
102
{ACAD_REACTORS
330
C
102
}
100
AcDbDictionary
281
1
  0
DICTIONARY
  5
1A
102
{ACAD_REACTORS
330
C
102
}
100
AcDbDictionary
281
1
  3
Model
350
54B
  3
Layout1
350
54C
  0
ACDBPLACEHOLDER
  5
F
102
{ACAD_REACTORS
330
E
102
}
  0
MLINESTYLE
  5
18
102
{ACAD_REACTORS
330
17
102
}
100
AcDbMlineStyle
  2
STANDARD
 70
0
  3

 62
256
 51
90.0
 52
90.0
 71
2
 49
0.5
 62
256
  6
BYLAYER
 49
-0.5
 62
256
  6
BYLAYER
  0
LAYOUT
  5
54B
102
{ACAD_REACTORS
330
1A
102
}
100
AcDbPlotSettings
  1

  2
none_device
  4
ISO_A4_(297.00_x_210.00_MM)
  6

 40
0.0
 41
0.0
 42
0.0
 43
0.0
 44
297.0
 45
210.0
 46
0.0
 47
0.0
 48
0.0
 49
0.0
140
0.0
141
0.0
142
1.0
143
1.0
 70
1024
 72
1
 73
0
 74
0
  7

 75
0
147
1.0
148
0.0
149
0.0
100
AcDbLayout
  1
Model
 70
0
 71
0
 10
0.0
 20
0.0
 11
297.0
 21
210.0
 12
0.0
 22
0.0
 32
0.0
 14
0.0
 24
0.0
 34
0.0
 15
0.0
 25
0.0
 35
0.0
146
0.0
 13
0.0
 23
0.0
 33
0.0
 16
1.0
 26
0.0
 36
0.0
 17
0.0
 27
1.0
 37
0.0
 76
0
330
216
345
0
346
0
  0
LAYOUT
  5
54C
102
{ACAD_REACTORS
330
1A
102
}
100
AcDbPlotSettings
  1

  2
none_device
  4
ISO_A4_(297.00_x_210.00_MM)
  6

 40
0.0
 41
0.0
 42
0.0
 43
0.0
 44
297.0
 45
210.0
 46
0.0
 47
0.0
 48
0.0
 49
0.0
140
0.0
141
0.0
142
1.0
143
1.0
 70
0
 72
1
 73
0
 74
0
  7

 75
0
147
1.0
148
0.0
149
0.0
100
AcDbLayout
  1
Layout1
 70
0
 71
1
 10
0.0
 20
0.0
 11
297.0
 21
210.0
 12
0.0
 22
0.0
 32
0.0
 14
0.0
 24
0.0
 34
0.0
 15
0.0
 25
0.0
 35
0.0
146
0.0
 13
0.0
 23
0.0
 33
0.0
 16
1.0
 26
0.0
 36
0.0
 17
0.0
 27
1.0
 37
0.0
 76
0
330
217
345
0
346
0
  0
ENDSEC
  0
EOF
