  0
SECTION
  2
HEADER
  9
$ACADVER
  1
AC1015
  9
$DWGCODEPAGE
  3
ANSI_1252
  9
$EXTMAX
 10
297.0
 20
210.0
 30
0.0
  9
$EXTMIN
 10
0.0
 20
0.0
 30
0.0
  9
$LIMMIN
 10
0.0
 20
0.0
  9
$LIMMAX
 10
297.0
 20
210.0
  9
$VIEWCTR
 10
148.5
 20
105.0
  9
$VIEWSIZE
 40
210.0
  9
$CLAYER
  8
0
  9
$LTSCALE
 40
16.335
  9
$CELTYPE
  6
BYLAYER
  9
$DIMSCALE
 40
1.0
  9
$DIMASZ
 40
3.0
  9
$DIMEXO
 40
0.5
  9
$DIMDLI
 40
11.286
  9
$DIMEXE
 40
1.5
  9
$DIMCEN
 40
2.673
  9
$DIMLFAC
 40
1.0
  9
$DIMBLK
  1
_FILLED
  9
$DIMALT
 70
0
  9
$DIMALTF
 40
0.0393700787
  9
$DIMTXT
 40
3.0
  9
$DIMTOL
 70
1
  9
$DIMLIM
 70
0
  9
$DIMTFAC
 40
1.0
  9
$DIMTP
 40
0.01
  9
$DIMTM
 40
0.01
  9
$DIMGAP
 40
0.625
  9
$DIMDSEP
 70
44
  9
$AUNITS
 70
0
  9
$PDMODE
 70
3
  9
$PDSIZE
 40
3.0
  9
$HANDSEED
  5
55F
  9
$TILEMODE
 70
1
  9
$MEASUREMENT
 70
1
  9
$INSUNITS
 70
4
  0
ENDSEC
  0
SECTION
  2
CLASSES
  0
CLASS
  1
ACDBDICTIONARYWDFLT
  2
AcDbDictionaryWithDefault
  3
AutoCAD 2000
 90
0
280
0
281
0
  0
CLASS
  1
ACDBPLACEHOLDER
  2
AcDbPlaceHolder
  3
AutoCAD 2000
 90
0
280
0
281
0
  0
CLASS
  1
LAYOUT
  2
AcDbLayout
  3
AutoCAD 2000
 90
0
280
0
281
0
  0
ENDSEC
  0
SECTION
  2
TABLES
  0
TABLE
  2
VPORT
  5
8
100
AcDbSymbolTable
 70
2
  0
VPORT
  5
1F4
100
AcDbSymbolTableRecord
100
AcDbViewportTableRecord
  2
*ACTIVE
 70
0
 10
0.0
 20
0.0
 11
1.0
 21
1.0
 12
148.5
 22
105.0
 13
0.0
 23
0.0
 14
1.0
 24
1.0
 15
0.0
 25
0.0
 16
0.0
 26
0.0
 36
1.0
 17
0.0
 27
0.0
 37
0.0
 40
210.0
 41
1.4142857143
 42
50.0
 43
0.0
 44
0.0
 50
0.0
 51
0.0
 71
0
 72
100
 73
1
 74
1
 75
0
 76
0
 77
0
 78
0
  0
ENDTAB
  0
TABLE
  2
LTYPE
  5
5
100
AcDbSymbolTable
 70
6
  0
LTYPE
  5
14
100
AcDbSymbolTableRecord
100
AcDbLinetypeTableRecord
  2
BYBLOCK
 70
0
  3

 72
65
 73
0
 40
0.0
  0
LTYPE
  5
15
100
AcDbSymbolTableRecord
100
AcDbLinetypeTableRecord
  2
BYLAYER
 70
0
  3

 72
65
 73
0
 40
0.0
  0
LTYPE
  5
16
100
AcDbSymbolTableRecord
100
AcDbLinetypeTableRecord
  2
CONTINUOUS
 70
64
  3
Solid line
 72
65
 73
0
 40
0.0
  0
LTYPE
  5
1F5
100
AcDbSymbolTableRecord
100
AcDbLinetypeTableRecord
  2
CENTER
 70
64
  3
____ _ ____ _ ____ _ ____ _ ____ _ ____ _ ____
 72
65
 73
4
 40
0.6
 49
0.375
 74
0
 49
-0.075
 74
0
 49
0.075
 74
0
 49
-0.075
 74
0
  0
LTYPE
  5
1F6
100
AcDbSymbolTableRecord
100
AcDbLinetypeTableRecord
  2
HIDDEN
 70
64
  3
- - - - - - - - - - - - - - - - - - - -
 72
65
 73
2
 40
0.2
 49
0.1
 74
0
 49
-0.1
 74
0
  0
LTYPE
  5
1F7
100
AcDbSymbolTableRecord
100
AcDbLinetypeTableRecord
  2
PHANTOM
 70
64
  3
_____ _ _ _____ _ _ _____ _ _ _____
 72
65
 73
6
 40
0.8
 49
0.45
 74
0
 49
-0.05
 74
0
 49
0.1
 74
0
 49
-0.05
 74
0
 49
0.1
 74
0
 49
-0.05
 74
0
  0
LTYPE
  5
1F8
100
AcDbSymbolTableRecord
100
AcDbLinetypeTableRecord
  2
DOT
 70
64
  3
. . . . . . . . . . . . . . . . . . . .
 72
65
 73
2
 40
0.2
 49
0.1
 74
0
 49
-0.1
 74
0
  0
LTYPE
  5
1F9
100
AcDbSymbolTableRecord
100
AcDbLinetypeTableRecord
  2
DASHED
 70
64
  3
- - - - - - - - - - - - - - - - - - - -
 72
65
 73
2
 40
0.2
 49
0.1
 74
0
 49
-0.1
 74
0
  0
ENDTAB
  0
TABLE
  2
LAYER
  5
2
100
AcDbSymbolTable
 70
36
  0
LAYER
  5
10
100
AcDbSymbolTableRecord
100
AcDbLayerTableRecord
  2
0
 70
0
 62
7
  6
CONTINUOUS
370
-3
390
F
  0
LAYER
  5
1FA
100
AcDbSymbolTableRecord
100
AcDbLayerTableRecord
  2
DEFAULT_1
 70
0
 62
7
  6
CENTER
370
-3
390
F
  0
LAYER
  5
1FB
100
AcDbSymbolTableRecord
100
AcDbLayerTableRecord
  2
DEFAULT_2
 70
0
 62
7
  6
HIDDEN
370
-3
390
F
  0
LAYER
  5
1FC
100
AcDbSymbolTableRecord
100
AcDbLayerTableRecord
  2
DEFAULT_3
 70
0
 62
7
  6
PHANTOM
370
-3
390
F
  0
LAYER
  5
1FD
100
AcDbSymbolTableRecord
100
AcDbLayerTableRecord
  2
ASSI
 70
0
 62
7
  6
CONTINUOUS
370
-3
390
F
  0
LAYER
  5
1FE
100
AcDbSymbolTableRecord
100
AcDbLayerTableRecord
  2
COLOR1
 70
0
 62
7
  6
CONTINUOUS
370
-3
390
F
  0
LAYER
  5
1FF
100
AcDbSymbolTableRecord
100
AcDbLayerTableRecord
  2
COLOR15
 70
0
 62
7
  6
CONTINUOUS
370
-3
390
F
  0
LAYER
  5
200
100
AcDbSymbolTableRecord
100
AcDbLayerTableRecord
  2
COLOR16
 70
0
 62
7
  6
CONTINUOUS
370
-3
390
F
  0
LAYER
  5
201
100
AcDbSymbolTableRecord
100
AcDbLayerTableRecord
  2
COLOR5
 70
0
 62
7
  6
CONTINUOUS
370
-3
390
F
  0
LAYER
  5
202
100
AcDbSymbolTableRecord
100
AcDbLayerTableRecord
  2
COLOR7
 70
0
 62
7
  6
CONTINUOUS
370
-3
390
F
  0
LAYER
  5
203
100
AcDbSymbolTableRecord
100
AcDbLayerTableRecord
  2
COORDINATE
 70
0
 62
7
  6
CONTINUOUS
370
-3
390
F
  0
LAYER
  5
204
100
AcDbSymbolTableRecord
100
AcDbLayerTableRecord
  2
COPY_PUBLISH
 70
0
 62
7
  6
CONTINUOUS
370
-3
390
F
  0
LAYER
  5
205
100
AcDbSymbolTableRecord
100
AcDbLayerTableRecord
  2
CORNICE_BASE
 70
0
 62
7
  6
CONTINUOUS
370
-3
390
F
  0
LAYER
  5
206
100
AcDbSymbolTableRecord
100
AcDbLayerTableRecord
  2
COSMETICI
 70
0
 62
7
  6
CONTINUOUS
370
-3
390
F
  0
LAYER
  5
207
100
AcDbSymbolTableRecord
100
AcDbLayerTableRecord
  2
CURVE
 70
0
 62
7
  6
CONTINUOUS
370
-3
390
F
  0
LAYER
  5
208
100
AcDbSymbolTableRecord
100
AcDbLayerTableRecord
  2
DRAFT
 70
0
 62
7
  6
CONTINUOUS
370
-3
390
F
  0
LAYER
  5
209
100
AcDbSymbolTableRecord
100
AcDbLayerTableRecord
  2
ELVOX
 70
0
 62
7
  6
CONTINUOUS
370
-3
390
F
  0
LAYER
  5
20A
100
AcDbSymbolTableRecord
100
AcDbLayerTableRecord
  2
IMPORT_IGES
 70
0
 62
7
  6
CONTINUOUS
370
-3
390
F
  0
LAYER
  5
20B
100
AcDbSymbolTableRecord
100
AcDbLayerTableRecord
  2
INTF_1
 70
0
 62
7
  6
CONTINUOUS
370
-3
390
F
  0
LAYER
  5
20C
100
AcDbSymbolTableRecord
100
AcDbLayerTableRecord
  2
INTF_11
 70
0
 62
7
  6
CONTINUOUS
370
-3
390
F
  0
LAYER
  5
20D
100
AcDbSymbolTableRecord
100
AcDbLayerTableRecord
  2
INTF_7
 70
0
 62
7
  6
CONTINUOUS
370
-3
390
F
  0
LAYER
  5
20E
100
AcDbSymbolTableRecord
100
AcDbLayerTableRecord
  2
INTF_RED
 70
0
 62
7
  6
CONTINUOUS
370
-3
390
F
  0
LAYER
  5
20F
100
AcDbSymbolTableRecord
100
AcDbLayerTableRecord
  2
INTF_YELLOW
 70
0
 62
7
  6
CONTINUOUS
370
-3
390
F
  0
LAYER
  5
210
100
AcDbSymbolTableRecord
100
AcDbLayerTableRecord
  2
NOTE
 70
0
 62
7
  6
CONTINUOUS
370
-3
390
F
  0
LAYER
  5
211
100
AcDbSymbolTableRecord
100
AcDbLayerTableRecord
  2
PIANI
 70
0
 62
7
  6
CONTINUOUS
370
-3
390
F
  0
LAYER
  5
212
100
AcDbSymbolTableRecord
100
AcDbLayerTableRecord
  2
PUNTI
 70
0
 62
7
  6
CONTINUOUS
370
-3
390
F
  0
LAYER
  5
213
100
AcDbSymbolTableRecord
100
AcDbLayerTableRecord
  2
RACCORDO
 70
0
 62
7
  6
CONTINUOUS
370
-3
390
F
  0
LAYER
  5
214
100
AcDbSymbolTableRecord
100
AcDbLayerTableRecord
  2
RIFERIMENTO_GEOMETRIA
 70
0
 62
7
  6
CONTINUOUS
370
-3
390
F
  0
LAYER
  5
215
100
AcDbSymbolTableRecord
100
AcDbLayerTableRecord
  2
SIMBOLI
 70
0
 62
7
  6
CONTINUOUS
370
-3
390
F
  0
LAYER
  5
216
100
AcDbSymbolTableRecord
100
AcDbLayerTableRecord
  2
SMUSSO
 70
0
 62
7
  6
CONTINUOUS
370
-3
390
F
  0
LAYER
  5
217
100
AcDbSymbolTableRecord
100
AcDbLayerTableRecord
  2
SNAPLINE
 70
0
 62
7
  6
CONTINUOUS
370
-3
390
F
  0
LAYER
  5
218
100
AcDbSymbolTableRecord
100
AcDbLayerTableRecord
  2
SUPERFICI
 70
0
 62
7
  6
CONTINUOUS
370
-3
390
F
  0
LAYER
  5
219
100
AcDbSymbolTableRecord
100
AcDbLayerTableRecord
  2
TRASH
 70
0
 62
7
  6
CONTINUOUS
370
-3
390
F
  0
ENDTAB
  0
TABLE
  2
STYLE
  5
3
100
AcDbSymbolTable
 70
1
  0
STYLE
  5
11
100
AcDbSymbolTableRecord
100
AcDbTextStyleTableRecord
  2
STANDARD
 70
0
 40
0.0
 41
0.8
 50
0.0
 71
0
 42
0.2
  3
txt
  4

  0
STYLE
  5
21A
100
AcDbSymbolTableRecord
100
AcDbTextStyleTableRecord
  2
TEXTSTYLE_1
 70
0
 40
0.0
 41
0.8
 50
0.0
 71
0
 42
0.2
  3
gdt
  4

  0
ENDTAB
  0
TABLE
  2
VIEW
  5
6
100
AcDbSymbolTable
 70
0
  0
ENDTAB
  0
TABLE
  2
UCS
  5
7
100
AcDbSymbolTable
 70
0
  0
ENDTAB
  0
TABLE
  2
APPID
  5
9
100
AcDbSymbolTable
 70
1
  0
APPID
  5
21B
100
AcDbSymbolTableRecord
100
AcDbRegAppTableRecord
  2
ACAD
 70
0
  0
ENDTAB
  0
TABLE
  2
BLOCK_RECORD
  5
1
100
AcDbSymbolTable
 70
0
  0
BLOCK_RECORD
  5
21C
100
AcDbSymbolTableRecord
100
AcDbBlockTableRecord
  2
*Model_Space
  0
BLOCK_RECORD
  5
21D
100
AcDbSymbolTableRecord
100
AcDbBlockTableRecord
  2
*Paper_Space
  0
ENDTAB
  0
TABLE
  2
DIMSTYLE
  5
A
100
AcDbSymbolTable
 70
1
100
AcDbDimStyleTable
 71
0
  0
DIMSTYLE
105
21E
100
AcDbSymbolTableRecord
100
AcDbDimStyleTableRecord
  2
STANDARD
 70
0
  3

  4

 40
1.0
 41
3.0
 42
0.5
 43
0.38
 44
1.5
 45
0.0
 46
0.0
 47
0.01
 48
0.01
140
3.0
141
0.09
142
0.0
143
25.4
144
1.0
145
0.0
146
1.0
147
0.625
 71
1.0
 72
0.0
 73
0
 74
0
 75
0
 76
0
 77
1
 78
8
170
0
171
2
172
0
173
0
174
0
175
0
176
0
177
0
178
0
270
2
271
2
272
2
273
2
274
2
275
0
280
0
281
0
282
0
283
1
284
8
285
0
286
0
287
3
288
0
340
11
278
44
  0
ENDTAB
  0
ENDSEC
  0
SECTION
  2
BLOCKS
  0
BLOCK
  5
20
100
AcDbEntity
  8
0
100
AcDbBlockBegin
  2
*Model_Space
 70
0
 10
0.0
 20
0.0
 30
0.0
  3
*Model_Space
  1

  0
ENDBLK
  5
21
100
AcDbEntity
  8
0
100
AcDbBlockEnd
  0
BLOCK
  5
1C
100
AcDbEntity
  8
0
100
AcDbBlockBegin
  2
*Paper_Space
 70
0
 10
0.0
 20
0.0
 30
0.0
  3
*Paper_Space
  1

  0
ENDBLK
  5
1D
100
AcDbEntity
  8
0
100
AcDbBlockEnd
  0
ENDSEC
  0
SECTION
  2
ENTITIES
  0
LWPOLYLINE
  5
21F
100
AcDbEntity
  8
RACCORDO
100
AcDbPolyline
 62
7
  6
CONTINUOUS
 90
6
 70
0
 10
-67.0163250257
 20
67.4311812366
 10
-67.0771353414
 20
67.3912434515
 10
-67.1658441382
 20
67.3205365941
 10
-67.2489959865
 20
67.2384605255
 10
-67.3250348892
 20
67.1470911085
 10
-67.3917045254
 20
67.0509267809
  0
LINE
  5
220
100
AcDbEntity
  8
DRAFT
100
AcDbLine
 62
7
  6
CONTINUOUS
 10
-62.8667056325
 20
69.9468902952
 11
-67.0171292376
 21
67.4306943795
  0
LINE
  5
221
100
AcDbEntity
  8
RACCORDO
100
AcDbLine
 62
7
  6
CONTINUOUS
 10
-67.0163537844
 20
67.4311638105
 11
-67.0171582902
 21
67.4306767663
  0
LINE
  5
222
100
AcDbEntity
  8
RACCORDO
100
AcDbLine
 62
253
  6
CONTINUOUS
 10
-58.8680670974
 20
69.5841828709
 11
-64.5338781159
 21
66.1986217433
  0
LINE
  5
223
100
AcDbEntity
  8
RACCORDO
100
AcDbLine
 62
253
  6
CONTINUOUS
 10
-64.9687673361
 20
65.322540884
 11
-65.1073392942
 21
65.2397240425
  0
LINE
  5
224
100
AcDbEntity
  8
ASSI
100
AcDbLine
 62
7
  6
CONTINUOUS
 10
-68.1349411444
 20
67.0212438528
 11
-69.6937568315
 21
66.1212032116
  0
LINE
  5
225
100
AcDbEntity
  8
0
100
AcDbLine
 62
253
  6
CONTINUOUS
 10
-65.6357582154
 20
65.7582498661
 11
-67.1002090626
 21
64.9126943008
  0
LINE
  5
226
100
AcDbEntity
  8
ASSI
100
AcDbLine
 62
253
  6
CONTINUOUS
 10
-65.6357582154
 20
65.7582498661
 11
-67.1002090626
 21
64.9126943008
  0
LINE
  5
227
100
AcDbEntity
  8
0
100
AcDbLine
 62
7
  6
CONTINUOUS
 10
-62.9265143679
 20
62.3007558109
 11
-63.4926143556
 21
61.9738967729
  0
LINE
  5
228
100
AcDbEntity
  8
ASSI
100
AcDbLine
 62
7
  6
CONTINUOUS
 10
-62.9265143679
 20
62.3007558109
 11
-63.4926143556
 21
61.9738967729
  0
LWPOLYLINE
  5
229
100
AcDbEntity
  8
0
100
AcDbPolyline
 62
7
  6
CONTINUOUS
 90
24
 70
0
 10
-69.6937066103
 20
66.1212322086
 10
-69.620990973
 20
66.1584104995
 10
-69.5406966614
 20
66.1892836688
 10
-69.456410289
 20
66.2116037733
 10
-69.3683460393
 20
66.2251497758
 10
-69.2763603542
 20
66.2300155476
 10
-69.1805834244
 20
66.2260884472
 10
-69.0812078827
 20
66.2132653314
 10
-68.9782513703
 20
66.1917957094
 10
-68.8719607008
 20
66.1617004232
 10
-68.7625121443
 20
66.1229686456
 10
-68.6498668466
 20
66.0759313692
 10
-68.5343391754
 20
66.0207182501
 10
-68.4160757893
 20
65.9573533116
 10
-68.294790996
 20
65.8860284384
 10
-68.1705455729
 20
65.8067262658
 10
-68.043718372
 20
65.7195764033
 10
-67.9145038497
 20
65.6250228616
 10
-67.7831873942
 20
65.523286838
 10
-67.6499473187
 20
65.4144424881
 10
-67.5148246824
 20
65.2987788486
 10
-67.3779823521
 20
65.1765061455
 10
-67.2397043044
 20
65.0477517778
 10
-67.1002090626
 20
64.9126943008
  0
LWPOLYLINE
  5
22A
100
AcDbEntity
  8
ASSI
100
AcDbPolyline
 62
7
  6
CONTINUOUS
 90
24
 70
0
 10
-69.6937066103
 20
66.1212322086
 10
-69.620990973
 20
66.1584104995
 10
-69.5406966614
 20
66.1892836688
 10
-69.456410289
 20
66.2116037733
 10
-69.3683460393
 20
66.2251497758
 10
-69.2763603542
 20
66.2300155476
 10
-69.1805834244
 20
66.2260884472
 10
-69.0812078827
 20
66.2132653314
 10
-68.9782513703
 20
66.1917957094
 10
-68.8719607008
 20
66.1617004232
 10
-68.7625121443
 20
66.1229686456
 10
-68.6498668466
 20
66.0759313692
 10
-68.5343391754
 20
66.0207182501
 10
-68.4160757893
 20
65.9573533116
 10
-68.294790996
 20
65.8860284384
 10
-68.1705455729
 20
65.8067262658
 10
-68.043718372
 20
65.7195764033
 10
-67.9145038497
 20
65.6250228616
 10
-67.7831873942
 20
65.523286838
 10
-67.6499473187
 20
65.4144424881
 10
-67.5148246824
 20
65.2987788486
 10
-67.3779823521
 20
65.1765061455
 10
-67.2397043044
 20
65.0477517778
 10
-67.1002090626
 20
64.9126943008
  0
LINE
  5
22B
100
AcDbEntity
  8
0
100
AcDbLine
 62
7
  6
CONTINUOUS
 10
-62.8379343437
 20
61.5353516201
 11
-62.2708014972
 21
61.8628070178
  0
LINE
  5
22C
100
AcDbEntity
  8
ASSI
100
AcDbLine
 62
7
  6
CONTINUOUS
 10
-62.8379343437
 20
61.5353516201
 11
-62.2708014972
 21
61.8628070178
  0
LWPOLYLINE
  5
22D
100
AcDbEntity
  8
RACCORDO
100
AcDbPolyline
 62
7
  6
CONTINUOUS
 90
11
 70
0
 10
2.198631448
 20
-91.3337926773
 10
2.2189790881
 20
-91.3338094931
 10
2.23942974
 20
-91.3330291075
 10
2.259610027
 20
-91.3314679293
 10
2.2794459591
 20
-91.329124212
 10
2.2990115263
 20
-91.3259997021
 10
2.318155322
 20
-91.3221160476
 10
2.3369460918
 20
-91.3174464167
 10
2.3553150902
 20
-91.3120176412
 10
2.3729046731
 20
-91.3059318654
 10
2.389595626
 20
-91.2992231375
  0
LWPOLYLINE
  5
22E
100
AcDbEntity
  8
RACCORDO
100
AcDbPolyline
 62
253
  6
CONTINUOUS
 90
10
 70
0
 10
1.4227323037
 20
-94.5633710001
 10
1.3974574717
 20
-94.5596926394
 10
1.3717730964
 20
-94.5573059508
 10
1.3458712281
 20
-94.5562287802
 10
1.319945543
 20
-94.556469182
 10
1.2941898956
 20
-94.5580253587
 10
1.268796869
 20
-94.5608856743
 10
1.2439563347
 20
-94.5650287411
 10
1.2198540333
 20
-94.5704235804
 10
1.2100257256
 20
-94.5732241715
  0
LWPOLYLINE
  5
22F
100
AcDbEntity
  8
RACCORDO
100
AcDbPolyline
 62
253
  6
CONTINUOUS
 90
13
 70
0
 10
1.9992132085
 20
-94.766022119
 10
2.02413476
 20
-94.7698096356
 10
2.0494165774
 20
-94.7723431473
 10
2.0748761018
 20
-94.7736043597
 10
2.1003294911
 20
-94.7735841655
 10
2.1255929475
 20
-94.7722827107
 10
2.1504840447
 20
-94.7697093929
 10
2.1748230452
 20
-94.765882794
 10
2.1984341981
 20
-94.7608305457
 10
2.2211470083
 20
-94.75458913
 10
2.2427974676
 20
-94.747203616
 10
2.2632292389
 20
-94.7387273341
 10
2.2822947854
 20
-94.7292214911
  0
LWPOLYLINE
  5
230
100
AcDbEntity
  8
0
100
AcDbPolyline
 62
7
  6
CONTINUOUS
 90
10
 70
0
 10
-8.0567928335
 20
-100.6299488057
 10
-8.6522863164
 20
-100.4239146069
 10
-9.2404600301
 20
-100.2114602982
 10
-9.8213139746
 20
-99.9925858797
 10
-10.3950744815
 20
-99.7672005449
 10
-10.9615152193
 20
-99.5353951003
 10
-11.519957193
 20
-99.2974419651
 10
-12.0701740711
 20
-99.0534319459
 10
-12.6123921851
 20
-98.8032742361
 10
-13.1466115352
 20
-98.5469688357
  0
LWPOLYLINE
  5
231
100
AcDbEntity
  8
ASSI
100
AcDbPolyline
 62
7
  6
CONTINUOUS
 90
10
 70
0
 10
-8.0567928335
 20
-100.6299488057
 10
-8.6522863164
 20
-100.4239146069
 10
-9.2404600301
 20
-100.2114602982
 10
-9.8213139746
 20
-99.9925858797
 10
-10.3950744815
 20
-99.7672005449
 10
-10.9615152193
 20
-99.5353951003
 10
-11.519957193
 20
-99.2974419651
 10
-12.0701740711
 20
-99.0534319459
 10
-12.6123921851
 20
-98.8032742361
 10
-13.1466115352
 20
-98.5469688357
  0
LINE
  5
232
100
AcDbEntity
  8
RACCORDO
100
AcDbLine
 62
7
  6
CONTINUOUS
 10
-36.4629779702
 20
56.7809541354
 11
-36.5824149107
 21
56.7167266031
  0
LINE
  5
233
100
AcDbEntity
  8
RACCORDO
100
AcDbLine
 62
253
  6
CONTINUOUS
 10
-35.7264723661
 20
56.6982336699
 11
-36.153076804
 21
56.4688321611
  0
LWPOLYLINE
  5
234
100
AcDbEntity
  8
RACCORDO
100
AcDbPolyline
 62
253
  6
CONTINUOUS
 90
15
 70
0
 10
-36.4353111713
 20
56.7947491336
 10
-36.3929415977
 20
56.8119987362
 10
-36.3487303254
 20
56.825556642
 10
-36.3027824874
 20
56.8353853175
 10
-36.2552370755
 20
56.8414497169
 10
-36.206258894
 20
56.8437288427
 10
-36.1559763773
 20
56.8422212916
 10
-36.1045356915
 20
56.8369353511
 10
-36.0521392013
 20
56.8279000794
 10
-35.9989395194
 20
56.8151596941
 10
-35.9450784229
 20
56.7987650669
 10
-35.8907481676
 20
56.7787900454
 10
-35.836112534
 20
56.7553182311
 10
-35.7813049973
 20
56.7284340716
 10
-35.7264723661
 20
56.6982336699
  0
LWPOLYLINE
  5
235
100
AcDbEntity
  8
RACCORDO
100
AcDbPolyline
 62
7
  6
CONTINUOUS
 90
4
 70
0
 10
2.1385799745
 20
-91.3289426128
 10
2.1584941206
 20
-91.3313565024
 10
2.1785112784
 20
-91.3329731905
 10
2.198631448
 20
-91.3337926773
  0
LINE
  5
236
100
AcDbEntity
  8
RACCORDO
100
AcDbLine
 62
7
  6
CONTINUOUS
 10
2.2906263694
 20
-91.2913974577
 11
2.0715319915
 21
-91.2595249022
  0
LINE
  5
237
100
AcDbEntity
  8
ASSI
100
AcDbLine
 62
7
  6
CONTINUOUS
 10
2.2906263694
 20
-91.2913974577
 11
2.0715319915
 21
-91.2595249022
  0
LINE
  5
238
100
AcDbEntity
  8
RACCORDO
100
AcDbLine
 62
7
  6
CONTINUOUS
 10
2.0715319915
 20
-91.2595249022
 11
1.8528231056
 21
-91.226786492
  0
LINE
  5
239
100
AcDbEntity
  8
ASSI
100
AcDbLine
 62
7
  6
CONTINUOUS
 10
2.0715319915
 20
-91.2595249022
 11
1.8528231056
 21
-91.226786492
  0
LINE
  5
23A
100
AcDbEntity
  8
RACCORDO
100
AcDbLine
 62
7
  6
CONTINUOUS
 10
1.8528231056
 20
-91.226786492
 11
1.6345038463
 21
-91.1931828536
  0
LINE
  5
23B
100
AcDbEntity
  8
ASSI
100
AcDbLine
 62
7
  6
CONTINUOUS
 10
1.8528231056
 20
-91.226786492
 11
1.6345038463
 21
-91.1931828536
  0
LWPOLYLINE
  5
23C
100
AcDbEntity
  8
RACCORDO
100
AcDbPolyline
 62
7
  6
CONTINUOUS
 90
3
 70
0
 10
1.6345038463
 20
-91.1931828536
 10
1.4165907521
 20
-91.1587164936
 10
1.3077854832
 20
-91.1411596364
  0
LWPOLYLINE
  5
23D
100
AcDbEntity
  8
ASSI
100
AcDbPolyline
 62
7
  6
CONTINUOUS
 90
3
 70
0
 10
1.6345038463
 20
-91.1931828536
 10
1.4165907521
 20
-91.1587164936
 10
1.3077854832
 20
-91.1411596364
  0
LINE
  5
23E
100
AcDbEntity
  8
0
100
AcDbLine
 62
7
  6
CONTINUOUS
 10
-13.1466115352
 20
-97.9377109967
 11
-13.3390289872
 21
-97.8415190743
  0
LINE
  5
23F
100
AcDbEntity
  8
ASSI
100
AcDbLine
 62
7
  6
CONTINUOUS
 10
-13.1466115352
 20
-97.9377109967
 11
-13.3390289872
 21
-97.8415190743
  0
LWPOLYLINE
  5
240
100
AcDbEntity
  8
0
100
AcDbPolyline
 62
7
  6
CONTINUOUS
 90
16
 70
0
 10
-13.9061450856
 20
-98.1689648018
 10
-17.3817077681
 20
-96.4133089236
 10
-20.8275500052
 20
-94.6389557374
 10
-24.2436717969
 20
-92.8459052435
 10
-27.6303773471
 20
-91.0339915551
 10
-30.9873624518
 20
-89.2033805588
 10
-34.3137144993
 20
-87.3545699148
 10
-37.6094251609
 20
-85.4875546749
 10
-40.8745027651
 20
-83.6023397872
 10
-44.1080596856
 20
-81.6994377561
 10
-47.3100873525
 20
-79.7788437729
 10
-50.4805943356
 20
-77.8405626463
 10
-53.618718718
 20
-75.885121307
 10
-56.724173194
 20
-73.9126953986
 10
-59.7972450692
 20
-71.9231092774
 10
-62.8379343437
 20
-69.9163629436
  0
LWPOLYLINE
  5
241
100
AcDbEntity
  8
ASSI
100
AcDbPolyline
 62
7
  6
CONTINUOUS
 90
16
 70
0
 10
-13.9061450856
 20
-98.1689648018
 10
-17.3817077681
 20
-96.4133089236
 10
-20.8275500052
 20
-94.6389557374
 10
-24.2436717969
 20
-92.8459052435
 10
-27.6303773471
 20
-91.0339915551
 10
-30.9873624518
 20
-89.2033805588
 10
-34.3137144993
 20
-87.3545699148
 10
-37.6094251609
 20
-85.4875546749
 10
-40.8745027651
 20
-83.6023397872
 10
-44.1080596856
 20
-81.6994377561
 10
-47.3100873525
 20
-79.7788437729
 10
-50.4805943356
 20
-77.8405626463
 10
-53.618718718
 20
-75.885121307
 10
-56.724173194
 20
-73.9126953986
 10
-59.7972450692
 20
-71.9231092774
 10
-62.8379343437
 20
-69.9163629436
  0
LINE
  5
242
100
AcDbEntity
  8
0
100
AcDbLine
 62
7
  6
CONTINUOUS
 10
-62.8379343437
 20
-69.2102263564
 11
-62.9265143679
 21
-69.1509587527
  0
LINE
  5
243
100
AcDbEntity
  8
ASSI
100
AcDbLine
 62
7
  6
CONTINUOUS
 10
-62.8379343437
 20
-69.2102263564
 11
-62.9265143679
 21
-69.1509587527
  0
LWPOLYLINE
  5
244
100
AcDbEntity
  8
0
100
AcDbPolyline
 62
7
  6
CONTINUOUS
 90
10
 70
0
 10
-63.4926143556
 20
-69.4778177908
 10
-63.9365197311
 20
-69.1693662334
 10
-64.3697776802
 20
-68.8562962899
 10
-64.792388203
 20
-68.5386079604
 10
-65.2045085706
 20
-68.2161705636
 10
-65.6059815118
 20
-67.8891147808
 10
-65.996335213
 20
-67.557832655
 10
-66.3754124029
 20
-67.2224548673
 10
-66.7433703528
 20
-66.8828507366
 10
-67.1002090626
 20
-66.5390202628
  0
LWPOLYLINE
  5
245
100
AcDbEntity
  8
ASSI
100
AcDbPolyline
 62
7
  6
CONTINUOUS
 90
10
 70
0
 10
-63.4926143556
 20
-69.4778177908
 10
-63.9365197311
 20
-69.1693662334
 10
-64.3697776802
 20
-68.8562962899
 10
-64.792388203
 20
-68.5386079604
 10
-65.2045085706
 20
-68.2161705636
 10
-65.6059815118
 20
-67.8891147808
 10
-65.996335213
 20
-67.557832655
 10
-66.3754124029
 20
-67.2224548673
 10
-66.7433703528
 20
-66.8828507366
 10
-67.1002090626
 20
-66.5390202628
  0
LWPOLYLINE
  5
246
100
AcDbEntity
  8
0
100
AcDbPolyline
 62
7
  6
CONTINUOUS
 90
40
 70
0
 10
-67.1002090626
 20
-66.5390202628
 10
-67.2396980825
 20
-66.3966072522
 10
-67.377971826
 20
-66.2456931615
 10
-67.5148117772
 20
-66.086351473
 10
-67.6499344247
 20
-65.918618317
 10
-67.7831763915
 20
-65.74263531
 10
-67.914495166
 20
-65.5586529942
 10
-68.0437123536
 20
-65.3666525907
 10
-68.1705425945
 20
-65.1668928663
 10
-68.2947902144
 20
-64.9600983385
 10
-68.4160763156
 20
-64.7466789897
 10
-68.5343402222
 20
-64.526620511
 10
-68.6498667502
 20
-64.3000394667
 10
-68.7625080937
 20
-64.0669033525
 10
-68.8719513552
 20
-63.8276239573
 10
-68.9782382899
 20
-63.5829978744
 10
-69.0811932023
 20
-63.3331291726
 10
-69.1805684603
 20
-63.0783918787
 10
-69.2763469051
 20
-62.8200590805
 10
-69.3683366209
 20
-62.5584989625
 10
-69.4564061667
 20
-62.2939314204
 10
-69.5406968485
 20
-62.0274707483
 10
-69.6209943352
 20
-61.7597905293
 10
-69.697300347
 20
-61.4908482253
 10
-69.7700937887
 20
-61.2206854324
 10
-69.8393185331
 20
-60.949376944
 10
-69.9047978586
 20
-60.6774195441
 10
-69.9668222683
 20
-60.4054725427
 10
-70.0253605697
 20
-60.13368695
 10
-70.0802731098
 20
-59.8624778967
 10
-70.1317396995
 20
-59.5929057558
 10
-70.1797523086
 20
-59.3253653975
 10
-70.2242737464
 20
-59.0600117374
 10
-70.2655037698
 20
-58.797541809
 10
-70.3034758988
 20
-58.5383298669
 10
-70.3381981673
 20
-58.2825000521
 10
-70.3698609313
 20
-58.0303606543
 10
-70.3985545819
 20
-57.7821610032
 10
-70.4242704297
 20
-57.5380913133
 10
-70.4470600397
 20
-57.2983565334
  0
LWPOLYLINE
  5
247
100
AcDbEntity
  8
ASSI
100
AcDbPolyline
 62
7
  6
CONTINUOUS
 90
40
 70
0
 10
-67.1002090626
 20
-66.5390202628
 10
-67.2396980825
 20
-66.3966072522
 10
-67.377971826
 20
-66.2456931615
 10
-67.5148117772
 20
-66.086351473
 10
-67.6499344247
 20
-65.918618317
 10
-67.7831763915
 20
-65.74263531
 10
-67.914495166
 20
-65.5586529942
 10
-68.0437123536
 20
-65.3666525907
 10
-68.1705425945
 20
-65.1668928663
 10
-68.2947902144
 20
-64.9600983385
 10
-68.4160763156
 20
-64.7466789897
 10
-68.5343402222
 20
-64.526620511
 10
-68.6498667502
 20
-64.3000394667
 10
-68.7625080937
 20
-64.0669033525
 10
-68.8719513552
 20
-63.8276239573
 10
-68.9782382899
 20
-63.5829978744
 10
-69.0811932023
 20
-63.3331291726
 10
-69.1805684603
 20
-63.0783918787
 10
-69.2763469051
 20
-62.8200590805
 10
-69.3683366209
 20
-62.5584989625
 10
-69.4564061667
 20
-62.2939314204
 10
-69.5406968485
 20
-62.0274707483
 10
-69.6209943352
 20
-61.7597905293
 10
-69.697300347
 20
-61.4908482253
 10
-69.7700937887
 20
-61.2206854324
 10
-69.8393185331
 20
-60.949376944
 10
-69.9047978586
 20
-60.6774195441
 10
-69.9668222683
 20
-60.4054725427
 10
-70.0253605697
 20
-60.13368695
 10
-70.0802731098
 20
-59.8624778967
 10
-70.1317396995
 20
-59.5929057558
 10
-70.1797523086
 20
-59.3253653975
 10
-70.2242737464
 20
-59.0600117374
 10
-70.2655037698
 20
-58.797541809
 10
-70.3034758988
 20
-58.5383298669
 10
-70.3381981673
 20
-58.2825000521
 10
-70.3698609313
 20
-58.0303606543
 10
-70.3985545819
 20
-57.7821610032
 10
-70.4242704297
 20
-57.5380913133
 10
-70.4470600397
 20
-57.2983565334
  0
LWPOLYLINE
  5
248
100
AcDbEntity
  8
0
100
AcDbPolyline
 62
7
  6
CONTINUOUS
 90
17
 70
0
 10
-70.4470600397
 20
64.4360732983
 10
-70.4242699244
 20
64.5909071867
 10
-70.3985535125
 20
64.7402754175
 10
-70.3698593535
 20
64.8839135919
 10
-70.3381962841
 20
65.0215221579
 10
-70.3034739843
 20
65.1528669854
 10
-70.2655021355
 20
65.2777785454
 10
-70.2242731291
 20
65.3960117049
 10
-70.1797533996
 20
65.5072656778
 10
-70.1317421899
 20
65.6113067897
 10
-70.0802759099
 20
65.7079000783
 10
-70.0253628417
 20
65.7967822831
 10
-69.9668234417
 20
65.8777470567
 10
-69.9047967974
 20
65.9505508105
 10
-69.8393143369
 20
66.0150677476
 10
-69.770087552
 20
66.0713339117
 10
-69.6937066103
 20
66.1212322086
  0
LWPOLYLINE
  5
249
100
AcDbEntity
  8
ASSI
100
AcDbPolyline
 62
7
  6
CONTINUOUS
 90
17
 70
0
 10
-70.4470600397
 20
64.4360732983
 10
-70.4242699244
 20
64.5909071867
 10
-70.3985535125
 20
64.7402754175
 10
-70.3698593535
 20
64.8839135919
 10
-70.3381962841
 20
65.0215221579
 10
-70.3034739843
 20
65.1528669854
 10
-70.2655021355
 20
65.2777785454
 10
-70.2242731291
 20
65.3960117049
 10
-70.1797533996
 20
65.5072656778
 10
-70.1317421899
 20
65.6113067897
 10
-70.0802759099
 20
65.7079000783
 10
-70.0253628417
 20
65.7967822831
 10
-69.9668234417
 20
65.8777470567
 10
-69.9047967974
 20
65.9505508105
 10
-69.8393143369
 20
66.0150677476
 10
-69.770087552
 20
66.0713339117
 10
-69.6937066103
 20
66.1212322086
  0
LWPOLYLINE
  5
24A
100
AcDbEntity
  8
RACCORDO
100
AcDbPolyline
 62
7
  6
CONTINUOUS
 90
10
 70
0
 10
-58.3215981056
 20
26.2291198013
 10
-58.3424622304
 20
26.2025789872
 10
-58.3638477525
 20
26.1777453882
 10
-58.3856416589
 20
26.1546818607
 10
-58.4076926294
 20
26.1334779844
 10
-58.4299046196
 20
26.1140849249
 10
-58.452281017
 20
26.0963658228
 10
-58.4747790782
 20
26.0803095173
 10
-58.4972718316
 20
26.0659599046
 10
-58.5167726992
 20
26.054856375
  0
LWPOLYLINE
  5
24B
100
AcDbEntity
  8
RACCORDO
100
AcDbPolyline
 62
253
  6
CONTINUOUS
 90
17
 70
0
 10
-59.2246409099
 20
33.4941296505
 10
-59.2768778062
 20
33.4388725688
 10
-59.3029823987
 20
33.4117666432
 10
-59.3291462857
 20
33.3853418489
 10
-59.3553194895
 20
33.3596811417
 10
-59.3813584046
 20
33.3346520452
 10
-59.4070539684
 20
33.3104385194
 10
-59.4325901936
 20
33.2870153061
 10
-59.4584245305
 20
33.2638662385
 10
-59.4844331412
 20
33.2410417743
 10
-59.5107178453
 20
33.2185627263
 10
-59.5380860801
 20
33.1958359453
 10
-59.5669336098
 20
33.1725173067
 10
-59.5968478909
 20
33.148987291
 10
-59.6274207199
 20
33.1257367716
 10
-59.658633052
 20
33.1028263013
 10
-59.6806392859
 20
33.0872090557
  0
LINE
  5
24C
100
AcDbEntity
  8
RACCORDO
100
AcDbLine
 62
253
  6
CONTINUOUS
 10
-58.7610703424
 20
27.1830804322
 11
-59.330765015
 21
26.8223306497
  0
LINE
  5
24D
100
AcDbEntity
  8
RACCORDO
100
AcDbLine
 62
253
  6
CONTINUOUS
 10
-58.1032520682
 20
27.2651315406
 11
-59.1824261322
 21
26.5817623122
  0
LWPOLYLINE
  5
24E
100
AcDbEntity
  8
RACCORDO
100
AcDbPolyline
 62
253
  6
CONTINUOUS
 90
19
 70
0
 10
-58.1305958712
 20
34.2541022384
 10
-58.1059446039
 20
34.2695783275
 10
-58.0814809386
 20
34.2874221535
 10
-58.0573910576
 20
34.3074979175
 10
-58.0338582998
 20
34.3296528323
 10
-58.0110617618
 20
34.3537182898
 10
-57.9891749351
 20
34.3795111444
 10
-57.9683643921
 20
34.4068351007
 10
-57.9487885148
 20
34.4354822092
 10
-57.9305962867
 20
34.4652344548
 10
-57.9139261636
 20
34.4958654076
 10
-57.8989050186
 20
34.5271419486
 10
-57.8856471735
 20
34.5588260482
 10
-57.8742535326
 20
34.5906765719
 10
-57.864810813
 20
34.6224511167
 10
-57.8573908837
 20
34.6539078589
 10
-57.85205022
 20
34.6848073916
 10
-57.8488294727
 20
34.7149145468
 10
-57.8477531587
 20
34.7440001865
  0
LWPOLYLINE
  5
24F
100
AcDbEntity
  8
RACCORDO
100
AcDbPolyline
 62
253
  6
CONTINUOUS
 90
22
 70
0
 10
-58.7728348388
 20
34.6249229692
 10
-58.7516979764
 20
34.6380403352
 10
-58.7306793199
 20
34.6529107568
 10
-58.7098964142
 20
34.6694510725
 10
-58.6894654857
 20
34.6875687822
 10
-58.6695007925
 20
34.7071625643
 10
-58.6501139851
 20
34.7281228424
 10
-58.6314134825
 20
34.7503323981
 10
-58.6135038656
 20
34.7736670266
 10
-58.596485292
 20
34.7979962312
 10
-58.5804529367
 20
34.8231839532
 10
-58.565496459
 20
34.8490893324
 10
-58.5516995016
 20
34.8755674957
 10
-58.5391392227
 20
34.9024703662
 10
-58.5278858645
 20
34.9296474923
 10
-58.5180023603
 20
34.9569468885
 10
-58.5095439827
 20
34.9842158854
 10
-58.5025580344
 20
35.0113019838
 10
-58.4970835836
 20
35.0380537072
 10
-58.4931512457
 20
35.0643214491
 10
-58.4907830119
 20
35.0899583097
 10
-58.4899921263
 20
35.1148209172
  0
LINE
  5
250
100
AcDbEntity
  8
RACCORDO
100
AcDbLine
 62
253
  6
CONTINUOUS
 10
-59.2246409099
 20
33.4941296505
 11
-58.3377154724
 21
34.0062275844
  0
LINE
  5
251
100
AcDbEntity
  8
RACCORDO
100
AcDbLine
 62
253
  6
CONTINUOUS
 10
-59.6806392859
 20
32.9042888976
 11
-58.1963156553
 21
33.7613159172
  0
LINE
  5
252
100
AcDbEntity
  8
0
100
AcDbLine
 62
7
  6
CONTINUOUS
 10
-11.4666562455
 20
53.6186187336
 11
-11.7494989579
 21
53.4553088963
  0
LINE
  5
253
100
AcDbEntity
  8
0
100
AcDbLine
 62
7
  6
CONTINUOUS
 10
-21.3416683128
 20
47.9169105289
 11
-11.7494989579
 21
53.4553088963
  0
LINE
  5
254
100
AcDbEntity
  8
RACCORDO
100
AcDbLine
 62
253
  6
CONTINUOUS
 10
-58.1305958712
 20
34.2541022384
 11
-58.4543480903
 21
34.0735855782
  0
LINE
  5
255
100
AcDbEntity
  8
RACCORDO
100
AcDbLine
 62
253
  6
CONTINUOUS
 10
-57.7719661753
 20
33.6444991076
 11
-58.1032520682
 21
33.4597818473
  0
LWPOLYLINE
  5
256
100
AcDbEntity
  8
RACCORDO
100
AcDbPolyline
 62
253
  6
CONTINUOUS
 90
11
 70
0
 10
-59.2266326095
 20
25.6731166872
 10
-59.224878502
 20
25.6740943486
 10
-59.216531564
 20
25.6797909413
 10
-59.2089820999
 20
25.6867768271
 10
-59.2022875564
 20
25.6949988533
 10
-59.1964988669
 20
25.704394464
 10
-59.1916600666
 20
25.714892185
 10
-59.1878079673
 20
25.7264121559
 10
-59.1849718757
 20
25.7388667384
 10
-59.1831733694
 20
25.7521611817
 10
-59.1824261322
 20
25.7661943461
  0
LINE
  5
257
100
AcDbEntity
  8
RACCORDO
100
AcDbLine
 62
253
  6
CONTINUOUS
 10
-58.1963156553
 20
27.5560920727
 11
-59.6806392859
 21
26.7578708587
  0
LINE
  5
258
100
AcDbEntity
  8
RACCORDO
100
AcDbLine
 62
7
  6
CONTINUOUS
 10
-58.2394830274
 20
27.4635732109
 11
-59.6806392859
 21
26.6885660127
  0
LINE
  5
259
100
AcDbEntity
  8
RACCORDO
100
AcDbLine
 62
253
  6
CONTINUOUS
 10
-58.3215981056
 20
26.2291198013
 11
-59.1824261322
 21
25.7661943461
  0
LINE
  5
25A
100
AcDbEntity
  8
RACCORDO
100
AcDbLine
 62
7
  6
CONTINUOUS
 10
-58.5167722786
 20
26.0548566012
 11
-59.2266326095
 21
25.6731166872
  0
LWPOLYLINE
  5
25B
100
AcDbEntity
  8
RACCORDO
100
AcDbPolyline
 62
253
  6
CONTINUOUS
 90
19
 70
0
 10
-57.7719661753
 20
33.6444991076
 10
-57.746132282
 20
33.6577087143
 10
-57.7184226535
 20
33.6695835437
 10
-57.6890435196
 20
33.6800352171
 10
-57.658213535
 20
33.6889859478
 10
-57.6261621526
 20
33.6963691197
 10
-57.5931279157
 20
33.7021297833
 10
-57.5593566822
 20
33.7062250649
 10
-57.5250997954
 20
33.7086244851
 10
-57.4906122129
 20
33.7093101863
 10
-57.4561506094
 20
33.708277065
 10
-57.4219714662
 20
33.7055328104
 10
-57.3883291623
 20
33.7010978466
 10
-57.3554740814
 20
33.6950051809
 10
-57.3236507481
 20
33.6873001581
 10
-57.2930960084
 20
33.6780401231
 10
-57.2640372666
 20
33.6672939938
 10
-57.2366907931
 20
33.6551417486
 10
-57.2112601146
 20
33.6416738308
  0
LWPOLYLINE
  5
25C
100
AcDbEntity
  8
RACCORDO
100
AcDbPolyline
 62
253
  6
CONTINUOUS
 90
7
 70
0
 10
-58.1032520682
 20
33.4597818473
 10
-58.1188681523
 20
33.4519346825
 10
-58.1358054774
 20
33.4450616058
 10
-58.1538825719
 20
33.4392362576
 10
-58.1729057522
 20
33.4345210523
 10
-58.1926711982
 20
33.43096651
 10
-58.1963156553
 20
33.4305434898
  0
LWPOLYLINE
  5
25D
100
AcDbEntity
  8
RACCORDO
100
AcDbPolyline
 62
7
  6
CONTINUOUS
 90
11
 70
0
 10
-59.2266326095
 20
25.6731166872
 10
-59.2447360349
 20
25.664521421
 10
-59.263817811
 20
25.6577178849
 10
-59.2836616975
 20
25.6528465183
 10
-59.3040207578
 20
25.6500147584
 10
-59.3246439398
 20
25.6492889091
 10
-59.3453060637
 20
25.6507008773
 10
-59.3658283484
 20
25.6542686569
 10
-59.3858917789
 20
25.6599595894
 10
-59.4051466627
 20
25.6676595145
 10
-59.4214089697
 20
25.6760863882
  0
LWPOLYLINE
  5
25E
100
AcDbEntity
  8
0
100
AcDbPolyline
 62
7
  6
CONTINUOUS
 90
7
 70
0
 10
-9.6178288913
 20
50.0903863312
 10
-9.4547654731
 20
50.1615452674
 10
-9.3155241016
 20
50.2733174779
 10
-9.2033829695
 20
50.423071483
 10
-9.1194717399
 20
50.6118360852
 10
-9.0694881748
 20
50.8267937412
 10
-9.0523943628
 20
51.0700466098
  0
LWPOLYLINE
  5
25F
100
AcDbEntity
  8
RACCORDO
100
AcDbPolyline
 62
253
  6
CONTINUOUS
 90
8
 70
0
 10
-24.6837292866
 20
-66.0845580229
 10
-24.6652012624
 20
-66.0840446591
 10
-24.6459620606
 20
-66.0855584928
 10
-24.6261192739
 20
-66.0890910579
 10
-24.6057838715
 20
-66.0946225988
 10
-24.5850695774
 20
-66.1021221808
 10
-24.5640922345
 20
-66.1115478632
 10
-24.5429691567
 20
-66.1228469337
  0
LWPOLYLINE
  5
260
100
AcDbEntity
  8
RACCORDO
100
AcDbPolyline
 62
253
  6
CONTINUOUS
 90
16
 70
0
 10
-22.5177317247
 20
-71.4354772772
 10
-22.5960548927
 20
-71.4327984231
 10
-22.6736756439
 20
-71.4278994943
 10
-22.7505939783
 20
-71.4207804909
 10
-22.8270053646
 20
-71.411414045
 10
-22.902714334
 20
-71.3998275243
 10
-22.9771344806
 20
-71.3861030329
 10
-23.0502477671
 20
-71.3702233306
 10
-23.1220722308
 20
-71.3522056575
 10
-23.1920755773
 20
-71.3321838381
 10
-23.2602484328
 20
-71.3101384822
 10
-23.3266001712
 20
-71.2860889801
 10
-23.3906266201
 20
-71.2602273271
 10
-23.4521597222
 20
-71.2326175217
 10
-23.5113675348
 20
-71.2031955655
 10
-23.5682500579
 20
-71.1719614584
  0
LWPOLYLINE
  5
261
100
AcDbEntity
  8
RACCORDO
100
AcDbPolyline
 62
253
  6
CONTINUOUS
 90
16
 70
0
 10
-22.5330085679
 20
-71.9898254162
 10
-22.6307210022
 20
-71.9863141328
 10
-22.7279488939
 20
-71.9799997513
 10
-22.8244590261
 20
-71.9708997009
 10
-22.9200157195
 20
-71.9590398852
 10
-23.0143943225
 20
-71.9444491426
 10
-23.1073811812
 20
-71.9271579692
 10
-23.1987607821
 20
-71.9072064034
 10
-23.2883054246
 20
-71.8846446836
 10
-23.3757890898
 20
-71.8595278673
 10
-23.4609950729
 20
-71.8319196447
 10
-23.5437270233
 20
-71.8018857655
 10
-23.6237974212
 20
-71.7694931344
 10
-23.7010169722
 20
-71.7348173085
 10
-23.7751962066
 20
-71.6979433457
 10
-23.8461564844
 20
-71.6589595158
  0
LWPOLYLINE
  5
262
100
AcDbEntity
  8
RACCORDO
100
AcDbPolyline
 62
253
  6
CONTINUOUS
 90
10
 70
0
 10
-35.6152041832
 20
-66.319919468
 10
-35.624640139
 20
-66.3154510131
 10
-35.6344892655
 20
-66.3125117006
 10
-35.6449558523
 20
-66.310964388
 10
-35.6559593792
 20
-66.3108209904
 10
-35.6674151526
 20
-66.3120826224
 10
-35.6792349644
 20
-66.3147395674
 10
-35.6913278359
 20
-66.3187713608
 10
-35.7036007233
 20
-66.3241469681
 10
-35.7159591821
 20
-66.3308250116
  0
LINE
  5
263
100
AcDbEntity
  8
0
100
AcDbLine
 62
7
  6
CONTINUOUS
 10
-13.1466115352
 20
-79.3630134197
 11
-13.3390289872
 21
-79.2668202772
  0
LINE
  5
264
100
AcDbEntity
  8
ASSI
100
AcDbLine
 62
7
  6
CONTINUOUS
 10
-13.1466115352
 20
-79.3630134197
 11
-13.3390289872
 21
-79.2668202772
  0
LWPOLYLINE
  5
265
100
AcDbEntity
  8
0
100
AcDbPolyline
 62
7
  6
CONTINUOUS
 90
6
 70
0
 10
-13.1466115352
 20
-78.4428586379
 10
-14.8516552231
 20
-77.5861500244
 10
-17.80023881
 20
-76.0800634006
 10
-20.7272695193
 20
-74.560251616
 10
-23.6329389381
 20
-73.0266118806
 10
-26.5170554793
 20
-71.4792469844
  0
LWPOLYLINE
  5
266
100
AcDbEntity
  8
ASSI
100
AcDbPolyline
 62
7
  6
CONTINUOUS
 90
6
 70
0
 10
-13.1466115352
 20
-78.4428586379
 10
-14.8516552231
 20
-77.5861500244
 10
-17.80023881
 20
-76.0800634006
 10
-20.7272695193
 20
-74.560251616
 10
-23.6329389381
 20
-73.0266118806
 10
-26.5170554793
 20
-71.4792469844
  0
LWPOLYLINE
  5
267
100
AcDbEntity
  8
RACCORDO
100
AcDbPolyline
 62
7
  6
CONTINUOUS
 90
10
 70
0
 10
-13.1466115352
 20
-78.4023677496
 10
-14.6154296339
 20
-77.6613107892
 10
-17.3110444043
 20
-76.2806424592
 10
-19.9886549016
 20
-74.8881645986
 10
-22.6480907601
 20
-73.483964607
 10
-25.2892051332
 20
-72.0681207199
 10
-27.9118588426
 20
-70.6407081134
 10
-30.5159116852
 20
-69.2018027168
 10
-33.1012187602
 20
-67.7514850455
 10
-35.6152041792
 20
-66.3199194705
  0
LINE
  5
268
100
AcDbEntity
  8
0
100
AcDbLine
 62
7
  6
CONTINUOUS
 10
-13.9061450856
 20
-79.5942660048
 11
-17.3817077681
 21
-77.8386101265
  0
LINE
  5
269
100
AcDbEntity
  8
ASSI
100
AcDbLine
 62
7
  6
CONTINUOUS
 10
-13.9061450856
 20
-79.5942660048
 11
-17.3817077681
 21
-77.8386101265
  0
LWPOLYLINE
  5
26A
100
AcDbEntity
  8
RACCORDO
100
AcDbPolyline
 62
253
  6
CONTINUOUS
 90
9
 70
0
 10
-35.7159591834
 20
-66.3308250126
 10
-35.7283276282
 20
-66.3245305853
 10
-35.7406452696
 20
-66.3194694579
 10
-35.7528182719
 20
-66.3156951199
 10
-35.7647682806
 20
-66.3132497098
 10
-35.7763831533
 20
-66.312174535
 10
-35.787523634
 20
-66.3124904098
 10
-35.7980891322
 20
-66.3141909438
 10
-35.8053085312
 20
-66.3164245306
  0
LINE
  5
26B
100
AcDbEntity
  8
0
100
AcDbLine
 62
7
  6
CONTINUOUS
 10
-17.3817077681
 20
-77.8386101265
 11
-20.8275500052
 21
-76.0642569404
  0
LINE
  5
26C
100
AcDbEntity
  8
ASSI
100
AcDbLine
 62
7
  6
CONTINUOUS
 10
-17.3817077681
 20
-77.8386101265
 11
-20.8275500052
 21
-76.0642569404
  0
LWPOLYLINE
  5
26D
100
AcDbEntity
  8
RACCORDO
100
AcDbPolyline
 62
253
  6
CONTINUOUS
 90
16
 70
0
 10
-38.5387471385
 20
-63.307767984
 10
-38.5543044165
 20
-63.299680035
 10
-38.5712406877
 20
-63.2925753277
 10
-38.5893703948
 20
-63.2865317027
 10
-38.6084949048
 20
-63.2816153752
 10
-38.6284046857
 20
-63.2778802095
 10
-38.6488816017
 20
-63.2753671289
 10
-38.6697013034
 20
-63.2741036673
 10
-38.6906356859
 20
-63.2741036673
 10
-38.7114553876
 20
-63.275367129
 10
-38.7319323036
 20
-63.2778802096
 10
-38.7518420845
 20
-63.2816153753
 10
-38.7709665945
 20
-63.2865317028
 10
-38.7890963016
 20
-63.2925753278
 10
-38.8060325727
 20
-63.2996800352
 10
-38.8215898508
 20
-63.3077679841
  0
LWPOLYLINE
  5
26E
100
AcDbEntity
  8
RACCORDO
100
AcDbPolyline
 62
253
  6
CONTINUOUS
 90
16
 70
0
 10
-38.2583514023
 20
-63.9304889983
 10
-38.2737278886
 20
-63.9224856808
 10
-38.2904548584
 20
-63.9154429841
 10
-38.3083530953
 20
-63.9094363666
 10
-38.3272308337
 20
-63.9045301856
 10
-38.3468858125
 20
-63.9007770083
 10
-38.3671074428
 20
-63.8982170484
 10
-38.3876790645
 20
-63.8968777348
 10
-38.4083802671
 20
-63.8967734185
 10
-38.4289892503
 20
-63.8979052178
 10
-38.449285203
 20
-63.9002610072
 10
-38.4690506674
 20
-63.9038155467
 10
-38.488073868
 20
-63.9085307521
 10
-38.5061509832
 20
-63.9143561032
 10
-38.523088329
 20
-63.9212291859
 10
-38.5387044327
 20
-63.9290763599
  0
LINE
  5
26F
100
AcDbEntity
  8
0
100
AcDbLine
 62
7
  6
CONTINUOUS
 10
-20.8275500052
 20
-76.0642569404
 11
-24.2436717969
 21
-74.2712064465
  0
LINE
  5
270
100
AcDbEntity
  8
ASSI
100
AcDbLine
 62
7
  6
CONTINUOUS
 10
-20.8275500052
 20
-76.0642569404
 11
-24.2436717969
 21
-74.2712064465
  0
LWPOLYLINE
  5
271
100
AcDbEntity
  8
RACCORDO
100
AcDbPolyline
 62
253
  6
CONTINUOUS
 90
19
 70
0
 10
-15.5261565028
 20
-77.1360482633
 10
-15.5066378306
 20
-77.1463651191
 10
-15.4856205189
 20
-77.1556487234
 10
-15.4632680939
 20
-77.1638268445
 10
-15.4397544702
 20
-77.1708358518
 10
-15.4152625964
 20
-77.1766212115
 10
-15.3899830315
 20
-77.1811379103
 10
-15.3641124633
 20
-77.1843508056
 10
-15.3378521804
 20
-77.1862348986
 10
-15.3114065045
 20
-77.1867755298
 10
-15.2849811979
 20
-77.1859684928
 10
-15.2587818644
 20
-77.1838200668
 10
-15.2330123515
 20
-77.1803469681
 10
-15.2078731617
 20
-77.1755762199
 10
-15.1835598903
 20
-77.1695449416
 10
-15.1602617067
 20
-77.1623000598
 10
-15.1381598831
 20
-77.1538979436
 10
-15.1174263843
 20
-77.1444039663
 10
-15.0982225283
 20
-77.1338919966
  0
LWPOLYLINE
  5
272
100
AcDbEntity
  8
0
100
AcDbPolyline
 62
7
  6
CONTINUOUS
 90
4
 70
0
 10
-24.2436717969
 20
-74.2712064465
 10
-27.6303773471
 20
-72.459292758
 10
-30.9873624518
 20
-70.6286817618
 10
-34.3137144993
 20
-68.7798711177
  0
LWPOLYLINE
  5
273
100
AcDbEntity
  8
ASSI
100
AcDbPolyline
 62
7
  6
CONTINUOUS
 90
4
 70
0
 10
-24.2436717969
 20
-74.2712064465
 10
-27.6303773471
 20
-72.459292758
 10
-30.9873624518
 20
-70.6286817618
 10
-34.3137144993
 20
-68.7798711177
  0
LWPOLYLINE
  5
274
100
AcDbEntity
  8
RACCORDO
100
AcDbPolyline
 62
253
  6
CONTINUOUS
 90
5
 70
0
 10
-23.1977217474
 20
-73.2563236203
 10
-25.6004616393
 20
-71.9659955743
 10
-28.1436140176
 20
-70.5797868364
 10
-30.685745278
 20
-69.1742669729
 10
-33.2098603333
 20
-67.757946365
  0
LWPOLYLINE
  5
275
100
AcDbEntity
  8
0
100
AcDbPolyline
 62
7
  6
CONTINUOUS
 90
4
 70
0
 10
-26.5170554793
 20
-71.4792469844
 10
-29.3790443809
 20
-69.9184652975
 10
-32.2189019208
 20
-68.344263729
 10
-35.0366318211
 20
-66.7566453698
  0
LWPOLYLINE
  5
276
100
AcDbEntity
  8
ASSI
100
AcDbPolyline
 62
7
  6
CONTINUOUS
 90
4
 70
0
 10
-26.5170554793
 20
-71.4792469844
 10
-29.3790443809
 20
-69.9184652975
 10
-32.2189019208
 20
-68.344263729
 10
-35.0366318211
 20
-66.7566453698
  0
LWPOLYLINE
  5
277
100
AcDbEntity
  8
0
100
AcDbPolyline
 62
7
  6
CONTINUOUS
 90
10
 70
0
 10
-34.3137144993
 20
-68.7798711177
 10
-37.6094251609
 20
-66.9128558778
 10
-40.8745027651
 20
-65.0276409902
 10
-44.1080596856
 20
-63.1247389591
 10
-47.3100873525
 20
-61.2041449759
 10
-50.4805943356
 20
-59.2658638493
 10
-53.618718718
 20
-57.31042251
 10
-56.724173194
 20
-55.3379966015
 10
-59.7972450692
 20
-53.3484104804
 10
-62.8379343437
 20
-51.3416641465
  0
LWPOLYLINE
  5
278
100
AcDbEntity
  8
ASSI
100
AcDbPolyline
 62
7
  6
CONTINUOUS
 90
10
 70
0
 10
-34.3137144993
 20
-68.7798711177
 10
-37.6094251609
 20
-66.9128558778
 10
-40.8745027651
 20
-65.0276409902
 10
-44.1080596856
 20
-63.1247389591
 10
-47.3100873525
 20
-61.2041449759
 10
-50.4805943356
 20
-59.2658638493
 10
-53.618718718
 20
-57.31042251
 10
-56.724173194
 20
-55.3379966015
 10
-59.7972450692
 20
-53.3484104804
 10
-62.8379343437
 20
-51.3416641465
  0
LINE
  5
279
100
AcDbEntity
  8
RACCORDO
100
AcDbLine
 62
253
  6
CONTINUOUS
 10
-33.2098603333
 20
-67.757946365
 11
-35.7159591834
 21
-66.3308250126
  0
LINE
  5
27A
100
AcDbEntity
  8
0
100
AcDbLine
 62
7
  6
CONTINUOUS
 10
-35.0366318211
 20
-66.7566453698
 11
-37.8316704863
 21
-65.1559278632
  0
LINE
  5
27B
100
AcDbEntity
  8
ASSI
100
AcDbLine
 62
7
  6
CONTINUOUS
 10
-35.0366318211
 20
-66.7566453698
 11
-37.8316704863
 21
-65.1559278632
  0
LWPOLYLINE
  5
27C
100
AcDbEntity
  8
0
100
AcDbPolyline
 62
7
  6
CONTINUOUS
 90
10
 70
0
 10
-37.8316704863
 20
-65.1559278632
 10
-40.6040119854
 20
-63.5421094118
 10
-43.3536622494
 20
-61.9151918129
 10
-46.0800754764
 20
-60.2754981017
 10
-48.7832477542
 20
-58.6230253367
 10
-51.4631829951
 20
-56.9577764593
 10
-54.1193471333
 20
-55.280083329
 10
-56.751562147
 20
-53.5900565656
 10
-59.360006058
 20
-51.8875855491
 10
-61.9446788664
 20
-50.1726702798
  0
LWPOLYLINE
  5
27D
100
AcDbEntity
  8
ASSI
100
AcDbPolyline
 62
7
  6
CONTINUOUS
 90
10
 70
0
 10
-37.8316704863
 20
-65.1559278632
 10
-40.6040119854
 20
-63.5421094118
 10
-43.3536622494
 20
-61.9151918129
 10
-46.0800754764
 20
-60.2754981017
 10
-48.7832477542
 20
-58.6230253367
 10
-51.4631829951
 20
-56.9577764593
 10
-54.1193471333
 20
-55.280083329
 10
-56.751562147
 20
-53.5900565656
 10
-59.360006058
 20
-51.8875855491
 10
-61.9446788664
 20
-50.1726702798
  0
LWPOLYLINE
  5
27E
100
AcDbEntity
  8
RACCORDO
100
AcDbPolyline
 62
7
  6
CONTINUOUS
 90
10
 70
0
 10
-37.7939678182
 20
-65.0619286561
 10
-40.2736146955
 20
-63.6102339085
 10
-42.7860539611
 20
-62.117177913
 10
-45.2790403826
 20
-60.6131190399
 10
-47.752434786
 20
-59.0981411458
 10
-50.2061059128
 20
-57.5723253828
 10
-52.6399238027
 20
-56.0357523099
 10
-55.0537530672
 20
-54.4885070122
 10
-57.4474423895
 20
-52.9306881802
 10
-59.7680095207
 20
-51.3975656832
  0
LWPOLYLINE
  5
27F
100
AcDbEntity
  8
RACCORDO
100
AcDbPolyline
 62
253
  6
CONTINUOUS
 90
11
 70
0
 10
-59.7680702784
 20
-51.3975252846
 10
-59.7724601123
 20
-51.3948195652
 10
-59.782262638
 20
-51.390111586
 10
-59.7928082428
 20
-51.3867421442
 10
-59.8040157769
 20
-51.3847371679
 10
-59.8157989965
 20
-51.3841120859
 10
-59.8280672279
 20
-51.3848717081
 10
-59.8407260654
 20
-51.3870101891
 10
-59.8536780973
 20
-51.3905110729
 10
-59.8668236558
 20
-51.3953474197
 10
-59.8800615838
 20
-51.4014820131
  0
LWPOLYLINE
  5
280
100
AcDbEntity
  8
RACCORDO
100
AcDbPolyline
 62
253
  6
CONTINUOUS
 90
10
 70
0
 10
-59.8800615838
 20
-51.401482013
 10
-57.377832315
 20
-53.0513747975
 10
-54.9015651529
 20
-54.6611618456
 10
-52.4512600976
 20
-56.2308431574
 10
-50.0416927986
 20
-57.7505830163
 10
-47.6580876062
 20
-59.2302171388
 10
-45.256117572
 20
-60.6992526743
 10
-42.8210070464
 20
-62.1675253392
 10
-40.3675316788
 20
-63.6251994171
 10
-37.8956914694
 20
-65.0722749079
  0
LINE
  5
281
100
AcDbEntity
  8
0
100
AcDbLine
 62
7
  6
CONTINUOUS
 10
-62.2708014972
 20
-51.0142087488
 11
-62.6789790728
 21
-50.7418035228
  0
LINE
  5
282
100
AcDbEntity
  8
ASSI
100
AcDbLine
 62
7
  6
CONTINUOUS
 10
-62.2708014972
 20
-51.0142087488
 11
-62.6789790728
 21
-50.7418035228
  0
LINE
  5
283
100
AcDbEntity
  8
0
100
AcDbLine
 62
7
  6
CONTINUOUS
 10
-62.6789790728
 20
-50.7418035228
 11
-62.7954895549
 21
-50.6639177082
  0
LINE
  5
284
100
AcDbEntity
  8
ASSI
100
AcDbLine
 62
7
  6
CONTINUOUS
 10
-62.6789790728
 20
-50.7418035228
 11
-62.7954895549
 21
-50.6639177082
  0
LWPOLYLINE
  5
285
100
AcDbEntity
  8
RACCORDO
100
AcDbPolyline
 62
7
  6
CONTINUOUS
 90
5
 70
0
 10
-59.7680703959
 20
-51.3975254612
 10
-59.7713505184
 20
-51.3952660245
 10
-59.7757610984
 20
-51.3919509533
 10
-59.7791977896
 20
-51.3890624631
 10
-59.7816503265
 20
-51.3867427944
  0
LWPOLYLINE
  5
286
100
AcDbEntity
  8
0
100
AcDbPolyline
 62
7
  6
CONTINUOUS
 90
7
 70
0
 10
-70.4470600397
 20
-57.2983565334
 10
-70.45505192
 20
-57.1971288729
 10
-70.4612691457
 20
-57.0968892751
 10
-70.4657410143
 20
-56.9976443774
 10
-70.4684217453
 20
-56.8994466955
 10
-70.4694173148
 20
-56.8022533821
 10
-70.4694367121
 20
-56.7838654015
  0
LWPOLYLINE
  5
287
100
AcDbEntity
  8
ASSI
100
AcDbPolyline
 62
7
  6
CONTINUOUS
 90
6
 70
0
 10
-70.4470600397
 20
-57.2983565334
 10
-70.45505192
 20
-57.1971288729
 10
-70.4612691457
 20
-57.0968892751
 10
-70.4657410143
 20
-56.9976443774
 10
-70.4684217453
 20
-56.8994466955
 10
-70.4694173148
 20
-56.8022533821
  0
LINE
  5
288
100
AcDbEntity
  8
RACCORDO
100
AcDbLine
 62
7
  6
CONTINUOUS
 10
-70.4694542526
 20
-56.783871156
 11
-70.4694542526
 21
64.0924505685
  0
LINE
  5
289
100
AcDbEntity
  8
ASSI
100
AcDbLine
 62
7
  6
CONTINUOUS
 10
-70.4694173148
 20
-56.8022533821
 11
-70.4694542526
 21
64.0924505685
  0
LINE
  5
28A
100
AcDbEntity
  8
0
100
AcDbLine
 62
253
  6
CONTINUOUS
 10
-70.4470600397
 20
-57.2983565334
 11
-70.4470600397
 21
64.4360732983
  0
LINE
  5
28B
100
AcDbEntity
  8
ASSI
100
AcDbLine
 62
253
  6
CONTINUOUS
 10
-70.4470600397
 20
-57.2983565334
 11
-70.4470600397
 21
64.4360732983
  0
LINE
  5
28C
100
AcDbEntity
  8
0
100
AcDbLine
 62
7
  6
CONTINUOUS
 10
-63.4926143556
 20
61.9738967729
 11
-63.4926143556
 21
-69.4778177908
  0
LINE
  5
28D
100
AcDbEntity
  8
ASSI
100
AcDbLine
 62
7
  6
CONTINUOUS
 10
-63.4926143556
 20
61.9738967729
 11
-63.4926143556
 21
-69.4778177908
  0
LWPOLYLINE
  5
28E
100
AcDbEntity
  8
0
100
AcDbPolyline
 62
7
  6
CONTINUOUS
 90
7
 70
0
 10
-70.4694375618
 20
64.0924630132
 10
-70.4693951352
 20
64.1097103045
 10
-70.4683103678
 20
64.1740910885
 10
-70.4655851786
 20
64.238913638
 10
-70.4611176695
 20
64.3042806403
 10
-70.4549518202
 20
64.3700133129
 10
-70.4470600397
 20
64.4360732983
  0
LWPOLYLINE
  5
28F
100
AcDbEntity
  8
ASSI
100
AcDbPolyline
 62
7
  6
CONTINUOUS
 90
7
 70
0
 10
-70.4694375618
 20
64.0924630132
 10
-70.4693951352
 20
64.1097103045
 10
-70.4683103678
 20
64.1740910885
 10
-70.4655851786
 20
64.238913638
 10
-70.4611176695
 20
64.3042806403
 10
-70.4549518202
 20
64.3700133129
 10
-70.4470600397
 20
64.4360732983
  0
LWPOLYLINE
  5
290
100
AcDbEntity
  8
RACCORDO
100
AcDbPolyline
 62
253
  6
CONTINUOUS
 90
18
 70
0
 10
-60.8412004695
 20
62.4510239578
 10
-60.842205188
 20
62.4295386243
 10
-60.8448728014
 20
62.4073937324
 10
-60.8491836794
 20
62.3847522406
 10
-60.8551060993
 20
62.3617807617
 10
-60.8625964795
 20
62.338648337
 10
-60.8715997004
 20
62.3155251919
 10
-60.8820495095
 20
62.2925814836
 10
-60.8938690094
 20
62.269986049
 10
-60.9069712235
 20
62.247905162
 10
-60.9212597359
 20
62.22650131
 10
-60.9366294013
 20
62.2059319986
 10
-60.9529671183
 20
62.1863485918
 10
-60.9701526618
 20
62.167895199
 10
-60.9880595678
 20
62.1507076138
 10
-61.0065560642
 20
62.1349123152
 10
-61.02550604
 20
62.1206255368
 10
-61.0438970246
 20
62.1085267426
  0
LWPOLYLINE
  5
291
100
AcDbEntity
  8
RACCORDO
100
AcDbPolyline
 62
253
  6
CONTINUOUS
 90
18
 70
0
 10
-60.8272867847
 20
62.4417279008
 10
-60.8282916431
 20
62.4202426538
 10
-60.8309593325
 20
62.3980978048
 10
-60.8352702222
 20
62.3754563121
 10
-60.8411925893
 20
62.3524847885
 10
-60.8486828527
 20
62.3293522758
 10
-60.8576858934
 20
62.3062290001
 10
-60.8681354604
 20
62.2832851197
 10
-60.8799546579
 20
62.2606894729
 10
-60.8930565116
 20
62.2386083352
 10
-60.9073446081
 20
62.217204196
 10
-60.9227138051
 20
62.196634563
 10
-60.9390510046
 20
62.1770508028
 10
-60.9562359853
 20
62.1585970273
 10
-60.9741422872
 20
62.1414090332
 10
-60.9926381425
 20
62.1256133026
 10
-61.0115874449
 20
62.1113260721
 10
-61.0299428926
 20
62.0992497705
  0
LWPOLYLINE
  5
292
100
AcDbEntity
  8
RACCORDO
100
AcDbPolyline
 62
253
  6
CONTINUOUS
 90
19
 70
0
 10
-60.8402141854
 20
62.5734693494
 10
-60.8391878339
 20
62.5949415927
 10
-60.8364985478
 20
62.6170735698
 10
-60.8321661191
 20
62.6397023975
 10
-60.826222433
 20
62.6626615365
 10
-60.8187112327
 20
62.685782016
 10
-60.8096877978
 20
62.7088936781
 10
-60.7992185373
 20
62.7318264298
 10
-60.7873805011
 20
62.7544114946
 10
-60.7742608126
 20
62.7764826551
 10
-60.7599560277
 20
62.7978774759
 10
-60.7445714243
 20
62.8184384992
 10
-60.7282202271
 20
62.8380144037
 10
-60.7110227749
 20
62.8564611181
 10
-60.6931056343
 20
62.8736428816
 10
-60.6746006686
 20
62.8894332429
 10
-60.6556440676
 20
62.9037159909
 10
-60.6363753445
 20
62.9163860101
 10
-60.6169363098
 20
62.9273500539
  0
LWPOLYLINE
  5
293
100
AcDbEntity
  8
RACCORDO
100
AcDbPolyline
 62
253
  6
CONTINUOUS
 90
19
 70
0
 10
-64.711339668
 20
65.6479425841
 10
-64.7124989676
 20
65.6265948459
 10
-64.7155775294
 20
65.6048009955
 10
-64.7205527185
 20
65.582721271
 10
-64.727387955
 20
65.5605180124
 10
-64.7360329831
 20
65.538354468
 10
-64.7464242409
 20
65.5163935939
 10
-64.7584853271
 20
65.4947968563
 10
-64.7721275633
 20
65.473723044
 10
-64.7872506457
 20
65.4533271012
 10
-64.8037433826
 20
65.4337589878
 10
-64.821484512
 20
65.4151625774
 10
-64.8403435933
 20
65.397674599
 10
-64.8601819662
 20
65.381423632
 10
-64.88085377
 20
65.3665291609
 10
-64.9022070164
 20
65.3531006963
 10
-64.9240847069
 20
65.3412369703
 10
-64.9463259869
 20
65.3310252104
 10
-64.9687673286
 20
65.3225404979
  0
LWPOLYLINE
  5
294
100
AcDbEntity
  8
RACCORDO
100
AcDbPolyline
 62
253
  6
CONTINUOUS
 90
19
 70
0
 10
-64.7931283172
 20
65.8746231892
 10
-64.7919026587
 20
65.8959226689
 10
-64.7887491782
 20
65.9176635964
 10
-64.7836911037
 20
65.9396858329
 10
-64.7767656917
 20
65.9618271677
 10
-64.7680239531
 20
65.9839245129
 10
-64.7575302778
 20
66.0058151043
 10
-64.7453619596
 20
66.027337701
 10
-64.7316086276
 20
66.0483337724
 10
-64.7163715857
 20
66.0686486663
 10
-64.6997630665
 20
66.0881327479
 10
-64.6819054045
 20
66.1066425019
 10
-64.6629301352
 20
66.1240415896
 10
-64.6429770261
 20
66.1402018534
 10
-64.6221930471
 20
66.1550042605
 10
-64.6007312884
 20
66.1683397797
 10
-64.5787498323
 20
66.1801101847
 10
-64.5564105893
 20
66.1902287774
 10
-64.5338781049
 20
66.1986210266
  0
LWPOLYLINE
  5
295
100
AcDbEntity
  8
RACCORDO
100
AcDbPolyline
 62
253
  6
CONTINUOUS
 90
13
 70
0
 10
-59.5253933033
 20
33.7611267745
 10
-59.5335339679
 20
33.7293926743
 10
-59.5431887658
 20
33.6980477971
 10
-59.5541076729
 20
33.6671041283
 10
-59.5659989996
 20
33.636412362
 10
-59.5786781418
 20
33.6061184132
 10
-59.5921265161
 20
33.5766751293
 10
-59.6061341163
 20
33.5483308116
 10
-59.6206043814
 20
33.5208188937
 10
-59.6358346551
 20
33.4938432888
 10
-59.6517481287
 20
33.4674833338
 10
-59.6683106516
 20
33.4416668506
 10
-59.6806392859
 20
33.4237725057
  0
LWPOLYLINE
  5
296
100
AcDbEntity
  8
SMUSSO
100
AcDbPolyline
 62
7
  6
CONTINUOUS
 90
4
 70
0
 10
-9.7494023174
 20
49.9912630784
 10
-9.6908700583
 20
50.0292695231
 10
-9.6188410996
 20
50.0895508934
 10
-9.5541453515
 20
50.1604282584
  0
LINE
  5
297
100
AcDbEntity
  8
0
100
AcDbLine
 62
7
  6
CONTINUOUS
 10
-9.4665596049
 20
50.1545729157
 11
-9.7494023174
 21
49.9912630784
  0
LINE
  5
298
100
AcDbEntity
  8
0
100
AcDbLine
 62
7
  6
CONTINUOUS
 10
-17.3418615846
 20
45.6074722534
 11
-9.7494023174
 21
49.9912630784
  0
LWPOLYLINE
  5
299
100
AcDbEntity
  8
RACCORDO
100
AcDbPolyline
 62
253
  6
CONTINUOUS
 90
8
 70
0
 10
-45.8969327222
 20
-53.8363202231
 10
-45.878404698
 20
-53.8358068593
 10
-45.8591654962
 20
-53.837320693
 10
-45.8393227095
 20
-53.840853258
 10
-45.8189873071
 20
-53.8463847989
 10
-45.798273013
 20
-53.853884381
 10
-45.7772956701
 20
-53.8633100634
 10
-45.7561725923
 20
-53.8746091339
  0
LWPOLYLINE
  5
29A
100
AcDbEntity
  8
RACCORDO
100
AcDbPolyline
 62
253
  6
CONTINUOUS
 90
16
 70
0
 10
-43.7309351603
 20
-59.1872394773
 10
-43.8092583283
 20
-59.1845606232
 10
-43.8868790795
 20
-59.1796616945
 10
-43.9637974139
 20
-59.1725426911
 10
-44.0402088002
 20
-59.1631762451
 10
-44.1159177696
 20
-59.1515897245
 10
-44.1903379162
 20
-59.1378652331
 10
-44.2634512027
 20
-59.1219855307
 10
-44.3352756664
 20
-59.1039678576
 10
-44.4052790129
 20
-59.0839460383
 10
-44.4734518684
 20
-59.0619006824
 10
-44.5398036068
 20
-59.0378511803
 10
-44.6038300557
 20
-59.0119895273
 10
-44.6653631578
 20
-58.9843797219
 10
-44.7245709704
 20
-58.9549577656
 10
-44.7814534935
 20
-58.9237236585
  0
LWPOLYLINE
  5
29B
100
AcDbEntity
  8
RACCORDO
100
AcDbPolyline
 62
253
  6
CONTINUOUS
 90
16
 70
0
 10
-43.7462120035
 20
-59.7415876163
 10
-43.8439244378
 20
-59.7380763329
 10
-43.9411523295
 20
-59.7317619515
 10
-44.0376624617
 20
-59.722661901
 10
-44.1332191551
 20
-59.7108020853
 10
-44.2275977581
 20
-59.6962113428
 10
-44.3205846168
 20
-59.6789201693
 10
-44.4119642177
 20
-59.6589686035
 10
-44.5015088602
 20
-59.6364068837
 10
-44.5889925254
 20
-59.6112900675
 10
-44.6741985085
 20
-59.5836818448
 10
-44.7569304589
 20
-59.5536479656
 10
-44.8370008568
 20
-59.5212553346
 10
-44.9142204078
 20
-59.4865795087
 10
-44.9883996422
 20
-59.4497055459
 10
-45.05935992
 20
-59.410721716
  0
LWPOLYLINE
  5
29C
100
AcDbEntity
  8
RACCORDO
100
AcDbPolyline
 62
253
  6
CONTINUOUS
 90
22
 70
0
 10
-58.6960838437
 20
-49.7008259153
 10
-58.6832047404
 20
-49.7028895828
 10
-58.6716411856
 20
-49.7054355724
 10
-58.6613819811
 20
-49.7084360375
 10
-58.6524344176
 20
-49.7118992601
 10
-58.6447603288
 20
-49.7157735972
 10
-58.6382727644
 20
-49.7199485621
 10
-58.6329659964
 20
-49.7243994065
 10
-58.6287910947
 20
-49.7291348014
 10
-58.6256007609
 20
-49.7340960972
 10
-58.6233601398
 20
-49.7392374125
 10
-58.6220630863
 20
-49.7445964896
 10
-58.6216354907
 20
-49.7502258752
 10
-58.622045099
 20
-49.7560813627
 10
-58.6233234139
 20
-49.7621804847
 10
-58.6255317689
 20
-49.7686427067
 10
-58.6286740591
 20
-49.7754366261
 10
-58.6327819872
 20
-49.7825369471
 10
-58.6379872403
 20
-49.7900488417
 10
-58.6443297344
 20
-49.7979528719
 10
-58.6518187187
 20
-49.8061880383
 10
-58.6531663115
 20
-49.8075760934
  0
LWPOLYLINE
  5
29D
100
AcDbEntity
  8
RACCORDO
100
AcDbPolyline
 62
253
  6
CONTINUOUS
 90
10
 70
0
 10
-57.5240530549
 20
-49.7136130498
 10
-57.5335504857
 20
-49.7090842668
 10
-57.5434401441
 20
-49.7061040366
 10
-57.5539523937
 20
-49.7045193592
 10
-57.5650052702
 20
-49.7043424417
 10
-57.5765141405
 20
-49.7055744976
 10
-57.5883899644
 20
-49.7082059711
 10
-57.6005409724
 20
-49.7122164662
 10
-57.6128733935
 20
-49.7175749732
 10
-57.6252920054
 20
-49.7242400677
  0
LWPOLYLINE
  5
29E
100
AcDbEntity
  8
RACCORDO
100
AcDbPolyline
 62
253
  6
CONTINUOUS
 90
11
 70
0
 10
-58.5704377291
 20
-49.8306029983
 10
-58.5829707996
 20
-49.8242329178
 10
-58.5953991124
 20
-49.8191483798
 10
-58.6076280979
 20
-49.8153880738
 10
-58.619564703
 20
-49.8129806127
 10
-58.6311180994
 20
-49.8119443155
 10
-58.6422003747
 20
-49.8122870675
 10
-58.6527272015
 20
-49.8140062606
 10
-58.6626184789
 20
-49.8170888132
 10
-58.6717989419
 20
-49.8215112695
 10
-58.6731259345
 20
-49.8222977558
  0
LINE
  5
29F
100
AcDbEntity
  8
RACCORDO
100
AcDbLine
 62
7
  6
CONTINUOUS
 10
-58.1032520682
 20
-39.6854311564
 11
-58.1442330429
 21
-39.6643397409
  0
LINE
  5
2A0
100
AcDbEntity
  8
RACCORDO
100
AcDbLine
 62
7
  6
CONTINUOUS
 10
-58.1442330429
 20
-39.6643397409
 11
-58.15864613
 21
-39.6567887887
  0
LWPOLYLINE
  5
2A1
100
AcDbEntity
  8
RACCORDO
100
AcDbPolyline
 62
253
  6
CONTINUOUS
 90
19
 70
0
 10
-51.2350489527
 20
-56.5181813002
 10
-51.2155302805
 20
-56.528498156
 10
-51.1945129688
 20
-56.5377817603
 10
-51.1721605438
 20
-56.5459598814
 10
-51.1486469201
 20
-56.5529688888
 10
-51.1241550463
 20
-56.5587542485
 10
-51.0988754814
 20
-56.5632709473
 10
-51.0730049133
 20
-56.5664838425
 10
-51.0467446303
 20
-56.5683679356
 10
-51.0202989544
 20
-56.5689085668
 10
-50.9938736478
 20
-56.5681015298
 10
-50.9676743143
 20
-56.5659531038
 10
-50.9419048014
 20
-56.562480005
 10
-50.9167656116
 20
-56.5577092569
 10
-50.8924523402
 20
-56.5516779786
 10
-50.8691541566
 20
-56.5444330967
 10
-50.847052333
 20
-56.5360309805
 10
-50.8263188342
 20
-56.5265370033
 10
-50.8071149782
 20
-56.5160250336
  0
LWPOLYLINE
  5
2A2
100
AcDbEntity
  8
RACCORDO
100
AcDbPolyline
 62
253
  6
CONTINUOUS
 90
19
 70
0
 10
-59.4627791625
 20
-41.1829557125
 10
-59.4500253703
 20
-41.1897083333
 10
-59.4363061764
 20
-41.1958000425
 10
-59.4217238866
 20
-41.2011849039
 10
-59.4063838687
 20
-41.2058231863
 10
-59.3904039404
 20
-41.2096784845
 10
-59.3739148007
 20
-41.2127197642
 10
-59.3570500278
 20
-41.2149245232
 10
-59.3399272619
 20
-41.2162794663
 10
-59.3226576796
 20
-41.2167758483
 10
-59.3053536774
 20
-41.2164079748
 10
-59.288161602
 20
-41.2151764929
 10
-59.271242555
 20
-41.2130941932
 10
-59.2547213728
 20
-41.2101801889
 10
-59.2387198705
 20
-41.2064597942
 10
-59.2233845149
 20
-41.2019737822
 10
-59.2088311838
 20
-41.1967668123
 10
-59.1951481919
 20
-41.1908817351
 10
-59.1824261322
 20
-41.1843683509
  0
LWPOLYLINE
  5
2A3
100
AcDbEntity
  8
RACCORDO
100
AcDbPolyline
 62
253
  6
CONTINUOUS
 90
19
 70
0
 10
-59.4627791625
 20
-40.3673877464
 10
-59.4500275801
 20
-40.3741392949
 10
-59.436311031
 20
-40.3802301077
 10
-59.42173179
 20
-40.3856142901
 10
-59.4063953541
 20
-40.3902521052
 10
-59.3904193324
 20
-40.3941072488
 10
-59.3739338164
 20
-40.3971488071
 10
-59.3570718604
 20
-40.39935427
 10
-59.3399514232
 20
-40.4007101984
 10
-59.3226843312
 20
-40.4012077811
 10
-59.3053837549
 20
-40.4008414015
 10
-59.2881951354
 20
-40.3996117839
 10
-59.2712777684
 20
-40.3975314876
 10
-59.2547565371
 20
-40.3946193953
 10
-59.2387533408
 20
-40.3909005944
 10
-59.2234132285
 20
-40.3864151299
 10
-59.2088520456
 20
-40.3812070427
 10
-59.1951592508
 20
-40.3753189628
 10
-59.1824261322
 20
-40.3688003848
  0
LWPOLYLINE
  5
2A4
100
AcDbEntity
  8
RACCORDO
100
AcDbPolyline
 62
253
  6
CONTINUOUS
 90
19
 70
0
 10
-58.8823041663
 20
-45.7100112483
 10
-58.8568734878
 20
-45.7234791661
 10
-58.8295270143
 20
-45.7356314113
 10
-58.8004682725
 20
-45.7463775406
 10
-58.7699135328
 20
-45.7556375756
 10
-58.7380901996
 20
-45.7633425984
 10
-58.7052351186
 20
-45.7694352641
 10
-58.6715928147
 20
-45.7738702279
 10
-58.6374136715
 20
-45.7766144825
 10
-58.602952068
 20
-45.7776476038
 10
-58.5684644855
 20
-45.7769619026
 10
-58.5342075987
 20
-45.7745624823
 10
-58.5004363652
 20
-45.7704672008
 10
-58.4674021283
 20
-45.7647065371
 10
-58.4353507459
 20
-45.7573233652
 10
-58.4045207613
 20
-45.7483726346
 10
-58.3751416274
 20
-45.7379209611
 10
-58.347431999
 20
-45.7260461317
 10
-58.3215981056
 20
-45.7128365251
  0
LWPOLYLINE
  5
2A5
100
AcDbEntity
  8
RACCORDO
100
AcDbPolyline
 62
253
  6
CONTINUOUS
 90
19
 70
0
 10
-55.64583729
 20
-41.9637974167
 10
-55.6204066115
 20
-41.9772653344
 10
-55.593060138
 20
-41.9894175796
 10
-55.5640013962
 20
-42.0001637089
 10
-55.5334466565
 20
-42.009423744
 10
-55.5016233233
 20
-42.0171287667
 10
-55.4687682423
 20
-42.0232214324
 10
-55.4351259384
 20
-42.0276563963
 10
-55.4009467952
 20
-42.0304006509
 10
-55.3664851917
 20
-42.0314337721
 10
-55.3319976093
 20
-42.0307480709
 10
-55.2977407225
 20
-42.0283486507
 10
-55.263969489
 20
-42.0242533691
 10
-55.230935252
 20
-42.0184927055
 10
-55.1988838697
 20
-42.0111095336
 10
-55.1680538851
 20
-42.0021588029
 10
-55.1386747511
 20
-41.9917071295
 10
-55.1109651227
 20
-41.9798323001
 10
-55.0851312293
 20
-41.9666226935
  0
LINE
  5
2A6
100
AcDbEntity
  8
RACCORDO
100
AcDbLine
 62
7
  6
CONTINUOUS
 10
-58.15864613
 20
-39.6567887887
 11
-58.2030491181
 21
-39.6330633956
  0
LINE
  5
2A7
100
AcDbEntity
  8
RACCORDO
100
AcDbLine
 62
7
  6
CONTINUOUS
 10
-58.2030491181
 20
-39.6330633956
 11
-58.247942496
 21
-39.6085638121
  0
LINE
  5
2A8
100
AcDbEntity
  8
RACCORDO
100
AcDbLine
 62
7
  6
CONTINUOUS
 10
-58.247942496
 20
-39.6085638121
 11
-58.2908078694
 21
-39.5847252195
  0
LINE
  5
2A9
100
AcDbEntity
  8
RACCORDO
100
AcDbLine
 62
7
  6
CONTINUOUS
 10
-58.2908078694
 20
-39.5847252195
 11
-58.3173640997
 21
-39.5697212378
  0
LINE
  5
2AA
100
AcDbEntity
  8
RACCORDO
100
AcDbLine
 62
7
  6
CONTINUOUS
 10
-58.3173640997
 20
-39.5697212378
 11
-58.3418662979
 21
-39.5557065381
  0
LINE
  5
2AB
100
AcDbEntity
  8
RACCORDO
100
AcDbLine
 62
7
  6
CONTINUOUS
 10
5.7255246466
 20
-89.3507539147
 11
5.861642796
 21
-89.4293468282
  0
LINE
  5
2AC
100
AcDbEntity
  8
RACCORDO
100
AcDbLine
 62
253
  6
CONTINUOUS
 10
-23.8461564844
 20
-71.6589595158
 11
-26.7855441758
 21
-69.961793902
  0
LINE
  5
2AD
100
AcDbEntity
  8
RACCORDO
100
AcDbLine
 62
253
  6
CONTINUOUS
 10
-45.05935992
 20
-59.410721716
 11
-47.9987476114
 21
-57.7135561022
  0
LINE
  5
2AE
100
AcDbEntity
  8
RACCORDO
100
AcDbLine
 62
253
  6
CONTINUOUS
 10
-23.5682500579
 20
-71.1719614584
 11
-26.5076377493
 21
-69.4747958446
  0
LINE
  5
2AF
100
AcDbEntity
  8
RACCORDO
100
AcDbLine
 62
253
  6
CONTINUOUS
 10
-44.7814534935
 20
-58.9237236585
 11
-47.7208411849
 21
-57.2265580447
  0
LINE
  5
2B0
100
AcDbEntity
  8
RACCORDO
100
AcDbLine
 62
7
  6
CONTINUOUS
 10
-59.6806392859
 20
-50.2209469083
 11
-59.5000658547
 21
-50.3252077444
  0
LINE
  5
2B1
100
AcDbEntity
  8
RACCORDO
100
AcDbLine
 62
253
  6
CONTINUOUS
 10
-59.6806392859
 20
-49.1323559423
 11
-58.6960838437
 21
-49.7008259153
  0
LINE
  5
2B2
100
AcDbEntity
  8
RACCORDO
100
AcDbLine
 62
253
  6
CONTINUOUS
 10
-59.6806392859
 20
-48.9092620522
 11
-58.5743867449
 21
-49.5479984048
  0
LINE
  5
2B3
100
AcDbEntity
  8
RACCORDO
100
AcDbLine
 62
253
  6
CONTINUOUS
 10
-59.6806392859
 20
-48.5375083075
 11
-57.6252920054
 21
-49.7242400677
  0
LINE
  5
2B4
100
AcDbEntity
  8
RACCORDO
100
AcDbLine
 62
7
  6
CONTINUOUS
 10
-59.6806392859
 20
-48.4684271884
 11
-57.5240530549
 21
-49.7136130498
  0
LINE
  5
2B5
100
AcDbEntity
  8
RACCORDO
100
AcDbLine
 62
253
  6
CONTINUOUS
 10
-13.1466115352
 20
-72.8519383026
 11
-17.3255437027
 21
-70.4390752434
  0
LINE
  5
2B6
100
AcDbEntity
  8
RACCORDO
100
AcDbLine
 62
253
  6
CONTINUOUS
 10
-24.8208755833
 20
-66.1113645542
 11
-38.5387471383
 21
-58.1908374436
  0
LINE
  5
2B7
100
AcDbEntity
  8
RACCORDO
100
AcDbLine
 62
253
  6
CONTINUOUS
 10
-46.0340790189
 20
-53.8631267543
 11
-58.2460049894
 21
-46.8121137503
  0
LINE
  5
2B8
100
AcDbEntity
  8
RACCORDO
100
AcDbLine
 62
253
  6
CONTINUOUS
 10
-57.9680985629
 20
-46.3251156929
 11
-45.7561725924
 21
-53.3761286969
  0
LINE
  5
2B9
100
AcDbEntity
  8
RACCORDO
100
AcDbLine
 62
253
  6
CONTINUOUS
 10
-38.2608407118
 20
-57.7038393862
 11
-24.5429691568
 21
-65.6243664967
  0
LINE
  5
2BA
100
AcDbEntity
  8
RACCORDO
100
AcDbLine
 62
253
  6
CONTINUOUS
 10
-17.0476372762
 20
-69.952077186
 11
-13.1466115352
 21
-72.2044805575
  0
LINE
  5
2BB
100
AcDbEntity
  8
RACCORDO
100
AcDbLine
 62
253
  6
CONTINUOUS
 10
-57.4184666326
 20
-46.0077661571
 11
-13.1466115352
 21
-71.5697804337
  0
LINE
  5
2BC
100
AcDbEntity
  8
RACCORDO
100
AcDbLine
 62
253
  6
CONTINUOUS
 10
-57.1405602061
 20
-45.5207680996
 11
-13.1466115352
 21
-70.9223226886
  0
LINE
  5
2BD
100
AcDbEntity
  8
RACCORDO
100
AcDbLine
 62
253
  6
CONTINUOUS
 10
-13.1466115352
 20
-68.0533749835
 11
-54.3025390277
 21
-44.2904582542
  0
LINE
  5
2BE
100
AcDbEntity
  8
RACCORDO
100
AcDbLine
 62
7
  6
CONTINUOUS
 10
-59.6806392859
 20
-41.1247999979
 11
-59.4213626383
 21
-41.2745030848
  0
LINE
  5
2BF
100
AcDbEntity
  8
RACCORDO
100
AcDbLine
 62
253
  6
CONTINUOUS
 10
-59.6806392859
 20
-41.0571660077
 11
-59.4627791625
 21
-41.1829557125
  0
LINE
  5
2C0
100
AcDbEntity
  8
RACCORDO
100
AcDbLine
 62
253
  6
CONTINUOUS
 10
-13.1466115352
 20
-67.4059172384
 11
-54.0246326012
 21
-43.8034601968
  0
LINE
  5
2C1
100
AcDbEntity
  8
RACCORDO
100
AcDbLine
 62
253
  6
CONTINUOUS
 10
-59.4627791625
 20
-40.3673877464
 11
-59.6623470837
 21
-40.2521597299
  0
LINE
  5
2C2
100
AcDbEntity
  8
RACCORDO
100
AcDbLine
 62
253
  6
CONTINUOUS
 10
-59.330765015
 20
-40.1282320473
 11
-59.3795352921
 21
-40.1000727005
  0
LINE
  5
2C3
100
AcDbEntity
  8
RACCORDO
100
AcDbLine
 62
253
  6
CONTINUOUS
 10
-59.4214089697
 20
-41.2744763088
 11
-59.4213626383
 21
-41.2745030848
  0
LINE
  5
2C4
100
AcDbEntity
  8
RACCORDO
100
AcDbLine
 62
7
  6
CONTINUOUS
 10
-58.3418662979
 20
-39.5557065381
 11
-58.3540913275
 21
-39.548622121
  0
LWPOLYLINE
  5
2C5
100
AcDbEntity
  8
RACCORDO
100
AcDbPolyline
 62
253
  6
CONTINUOUS
 90
28
 70
0
 10
-57.9680985629
 20
-46.3251156929
 10
-57.9884930617
 20
-46.3130046278
 10
-58.0089265696
 20
-46.2995105374
 10
-58.0293325792
 20
-46.284655189
 10
-58.0496731119
 20
-46.2684435666
 10
-58.0698462847
 20
-46.2509283677
 10
-58.089690512
 20
-46.2322262621
 10
-58.1091354692
 20
-46.2123957686
 10
-58.1281150537
 20
-46.1915001677
 10
-58.1464844053
 20
-46.1696962198
 10
-58.1641613895
 20
-46.1470945363
 10
-58.1811155551
 20
-46.1237509145
 10
-58.1972901249
 20
-46.0997550212
 10
-58.2126175918
 20
-46.0752229922
 10
-58.2270726145
 20
-46.0502126441
 10
-58.2406586701
 20
-46.0247230253
 10
-58.2533321645
 20
-45.9988288892
 10
-58.2650425825
 20
-45.9726250532
 10
-58.2757720836
 20
-45.9461368077
 10
-58.2854899212
 20
-45.9194035527
 10
-58.2941321632
 20
-45.8925640188
 10
-58.3016384397
 20
-45.8657935211
 10
-58.3079824877
 20
-45.8391700714
 10
-58.3131377416
 20
-45.8127983201
 10
-58.3170744402
 20
-45.7868877161
 10
-58.3197908882
 20
-45.7615594073
 10
-58.3212960812
 20
-45.7368509925
 10
-58.3215981056
 20
-45.7128365251
  0
LWPOLYLINE
  5
2C6
100
AcDbEntity
  8
RACCORDO
100
AcDbPolyline
 62
253
  6
CONTINUOUS
 90
31
 70
0
 10
-54.0246326012
 20
-43.8034601968
 10
-54.0789721321
 20
-43.7707885245
 10
-54.1335070716
 20
-43.7347560872
 10
-54.1880934454
 20
-43.6953989486
 10
-54.2426480399
 20
-43.652716294
 10
-54.2969500551
 20
-43.6068098947
 10
-54.3506484209
 20
-43.5579168264
 10
-54.4035902234
 20
-43.5061459152
 10
-54.4556219491
 20
-43.4516212168
 10
-54.5064084334
 20
-43.3946725013
 10
-54.5557892634
 20
-43.3354868755
 10
-54.6036527618
 20
-43.274211407
 10
-54.6497637902
 20
-43.2111637338
 10
-54.6939374298
 20
-43.1466393104
 10
-54.7361432203
 20
-43.0807291289
 10
-54.776383359
 20
-43.0134491455
 10
-54.8145471642
 20
-42.9449875775
 10
-54.8505331182
 20
-42.8755282448
 10
-54.8843337055
 20
-42.8050667806
 10
-54.9158827853
 20
-42.7336841453
 10
-54.9450224569
 20
-42.6616787717
 10
-54.9716098903
 20
-42.5893737641
 10
-54.9955738395
 20
-42.5169292141
 10
-55.0168255032
 20
-42.4445872634
 10
-55.0352453886
 20
-42.3727938664
 10
-55.0507993057
 20
-42.3017404039
 10
-55.0634635421
 20
-42.2316206166
 10
-55.0732026646
 20
-42.1628644942
 10
-55.0800347311
 20
-42.0957185096
 10
-55.0839985946
 20
-42.0302558236
 10
-55.0851312293
 20
-41.9666226935
  0
LWPOLYLINE
  5
2C7
100
AcDbEntity
  8
RACCORDO
100
AcDbPolyline
 62
253
  6
CONTINUOUS
 90
31
 70
0
 10
-54.3025390277
 20
-44.2904582542
 10
-54.3711770683
 20
-44.2489255976
 10
-54.4397593096
 20
-44.2032282118
 10
-54.5082857516
 20
-44.1533660968
 10
-54.577048108
 20
-44.0991578515
 10
-54.645754665
 20
-44.0407848769
 10
-54.7135302817
 20
-43.9787913762
 10
-54.7803462404
 20
-43.9131007727
 10
-54.8462312587
 20
-43.8437896431
 10
-54.9103963484
 20
-43.7716319207
 10
-54.9727829114
 20
-43.6965997621
 10
-55.0334495459
 20
-43.6187210108
 10
-55.0917830578
 20
-43.5388531304
 10
-55.1476709233
 20
-43.4571138782
 10
-55.2012256661
 20
-43.3733854971
 10
-55.2521716641
 20
-43.2881721785
 10
-55.3005108151
 20
-43.2014841126
 10
-55.3462412212
 20
-43.1133111093
 10
-55.3890815668
 20
-43.02412679
 10
-55.4290773604
 20
-42.933787102
 10
-55.4661830934
 20
-42.842436098
 10
-55.4999809246
 20
-42.7509795579
 10
-55.5304271947
 20
-42.6593663645
 10
-55.5575655629
 20
-42.567647635
 10
-55.5811091658
 20
-42.476882501
 10
-55.6009797783
 20
-42.3870772673
 10
-55.6172556255
 20
-42.2982256291
 10
-55.629884519
 20
-42.2113678033
 10
-55.6388490629
 20
-42.1268505287
 10
-55.6441666532
 20
-42.0443270665
 10
-55.64583729
 20
-41.9637974167
  0
LWPOLYLINE
  5
2C8
100
AcDbEntity
  8
RACCORDO
100
AcDbPolyline
 62
253
  6
CONTINUOUS
 90
16
 70
0
 10
-47.9987476114
 20
-57.7135561022
 10
-48.0663135918
 20
-57.6725566067
 10
-48.1303189808
 20
-57.6296444998
 10
-48.1906109005
 20
-57.5849229259
 10
-48.2470430301
 20
-57.5385007085
 10
-48.2994835149
 20
-57.4904877176
 10
-48.347813497
 20
-57.4409939476
 10
-48.3919198031
 20
-57.3901323636
 10
-48.4316914244
 20
-57.3380284934
 10
-48.4670279157
 20
-57.2848157757
 10
-48.4978427972
 20
-57.2306253759
 10
-48.5240661947
 20
-57.1755820349
 10
-48.5456386123
 20
-57.1198129699
 10
-48.5625078771
 20
-57.0634491775
 10
-48.5746313519
 20
-57.0066254504
 10
-48.5819788505
 20
-56.9494764453
  0
LWPOLYLINE
  5
2C9
100
AcDbEntity
  8
RACCORDO
100
AcDbPolyline
 62
253
  6
CONTINUOUS
 90
16
 70
0
 10
-26.7855441758
 20
-69.961793902
 10
-26.8531101562
 20
-69.9207944066
 10
-26.9171155452
 20
-69.8778822996
 10
-26.9774074649
 20
-69.8331607258
 10
-27.0338395945
 20
-69.7867385083
 10
-27.0862800793
 20
-69.7387255175
 10
-27.1346100614
 20
-69.6892317474
 10
-27.1787163675
 20
-69.6383701634
 10
-27.2184879888
 20
-69.5862662932
 10
-27.2538244801
 20
-69.5330535755
 10
-27.2846393616
 20
-69.4788631757
 10
-27.3108627591
 20
-69.4238198347
 10
-27.3324351767
 20
-69.3680507698
 10
-27.3493044415
 20
-69.3116869773
 10
-27.3614279163
 20
-69.2548632503
 10
-27.3687754149
 20
-69.1977142451
  0
LWPOLYLINE
  5
2CA
100
AcDbEntity
  8
RACCORDO
100
AcDbPolyline
 62
253
  6
CONTINUOUS
 90
16
 70
0
 10
-47.7208411849
 20
-57.2265580447
 10
-47.7749845672
 20
-57.1936871855
 10
-47.8260831408
 20
-57.1594196168
 10
-47.8741369056
 20
-57.1237553387
 10
-47.9192576846
 20
-57.0865967503
 10
-47.9613336547
 20
-57.0480414524
 10
-48.0000293473
 20
-57.008382248
 10
-48.0353119164
 20
-56.9676132992
 10
-48.0672142079
 20
-56.9257404439
 10
-48.0954992908
 20
-56.8830739986
 10
-48.1201381278
 20
-56.8396030744
 10
-48.1411597561
 20
-56.7953385601
 10
-48.158414357
 20
-56.750623439
 10
-48.1718519909
 20
-56.7055720388
 10
-48.1815225973
 20
-56.6600700317
 10
-48.1874261762
 20
-56.6141174177
  0
LWPOLYLINE
  5
2CB
100
AcDbEntity
  8
RACCORDO
100
AcDbPolyline
 62
253
  6
CONTINUOUS
 90
16
 70
0
 10
-26.5076377493
 20
-69.4747958446
 10
-26.5617811317
 20
-69.4419249853
 10
-26.6128797052
 20
-69.4076574166
 10
-26.66093347
 20
-69.3719931385
 10
-26.706054249
 20
-69.3348345501
 10
-26.7481302191
 20
-69.2962792522
 10
-26.7868259117
 20
-69.2566200478
 10
-26.8221084808
 20
-69.215851099
 10
-26.8540107723
 20
-69.1739782437
 10
-26.8822958552
 20
-69.1313117984
 10
-26.9069346922
 20
-69.0878408742
 10
-26.9279563205
 20
-69.04357636
 10
-26.9452109214
 20
-68.9988612389
 10
-26.9586485553
 20
-68.9538098386
 10
-26.9683191617
 20
-68.9083078315
 10
-26.9742227406
 20
-68.8623552175
  0
LWPOLYLINE
  5
2CC
100
AcDbEntity
  8
RACCORDO
100
AcDbPolyline
 62
253
  6
CONTINUOUS
 90
28
 70
0
 10
-58.2460049894
 20
-46.8121137503
 10
-58.2823968391
 20
-46.7899552999
 10
-58.3186490063
 20
-46.7654207489
 10
-58.3547614909
 20
-46.7385100975
 10
-58.390912649
 20
-46.7090962198
 10
-58.4269241245
 20
-46.6773062417
 10
-58.46226085
 20
-46.64352154
 10
-58.4969038448
 20
-46.6076905711
 10
-58.5308720896
 20
-46.5698648787
 10
-58.5636874593
 20
-46.5305804713
 10
-58.5952869863
 20
-46.4898616773
 10
-58.6257336382
 20
-46.4476841681
 10
-58.6547381936
 20
-46.4045109665
 10
-58.6822591047
 20
-46.3603941868
 10
-58.7083379192
 20
-46.3152817145
 10
-58.7328100595
 20
-46.2694802293
 10
-58.7556868567
 20
-46.2229733005
 10
-58.7769569797
 20
-46.1757773587
 10
-58.7964218569
 20
-46.1282483756
 10
-58.8140958329
 20
-46.0802924707
 10
-58.8299645632
 20
-46.0320035245
 10
-58.8437864431
 20
-45.9840191496
 10
-58.8555159927
 20
-45.9363212491
 10
-58.8651986919
 20
-45.8889279198
 10
-58.8727293754
 20
-45.8425310648
 10
-58.8780729881
 20
-45.7973613184
 10
-58.881264585
 20
-45.7531880462
 10
-58.8823041663
 20
-45.7100112483
  0
LWPOLYLINE
  5
2CD
100
AcDbEntity
  8
RACCORDO
100
AcDbPolyline
 62
253
  6
CONTINUOUS
 90
5
 70
0
 10
-46.0340790189
 20
-53.8631267543
 10
-46.0251289834
 20
-53.868663439
 10
-46.0168252641
 20
-53.8745607459
 10
-46.0092029592
 20
-53.8807934255
 10
-46.0055261363
 20
-53.8842751548
  0
LWPOLYLINE
  5
2CE
100
AcDbEntity
  8
RACCORDO
100
AcDbPolyline
 62
253
  6
CONTINUOUS
 90
25
 70
0
 10
-45.7561725924
 20
-53.3761286969
 10
-45.7291526987
 20
-53.392840253
 10
-45.7042696527
 20
-53.4104037624
 10
-45.6815234545
 20
-53.4288192252
 10
-45.6608383165
 20
-53.4481699038
 10
-45.6422900263
 20
-53.4683725357
 10
-45.6261059465
 20
-53.4891773331
 10
-45.6123124156
 20
-53.5105960501
 10
-45.6008830952
 20
-53.5326169326
 10
-45.5919663328
 20
-53.5549549314
 10
-45.5855954448
 20
-53.5776118598
 10
-45.5817371147
 20
-53.6005859046
 10
-45.5804397404
 20
-53.6235865761
 10
-45.5817358896
 20
-53.6466154174
 10
-45.5855929945
 20
-53.6696708856
 10
-45.5919617501
 20
-53.6924578622
 10
-45.6008748094
 20
-53.7149729502
 10
-45.6122995194
 20
-53.7372195467
 10
-45.6260886154
 20
-53.7589127255
 10
-45.642267386
 20
-53.7800416237
 10
-45.6608105426
 20
-53.800617104
 10
-45.6814949546
 20
-53.820386829
 10
-45.7042462451
 20
-53.8392666861
 10
-45.729138791
 20
-53.8573407877
 10
-45.7561725924
 20
-53.8746091339
  0
LWPOLYLINE
  5
2CF
100
AcDbEntity
  8
RACCORDO
100
AcDbPolyline
 62
253
  6
CONTINUOUS
 90
5
 70
0
 10
-24.8208755833
 20
-66.1113645542
 10
-24.8119255478
 20
-66.1169012389
 10
-24.8036218285
 20
-66.1227985457
 10
-24.7959995236
 20
-66.1290312253
 10
-24.7923227007
 20
-66.1325129547
  0
LWPOLYLINE
  5
2D0
100
AcDbEntity
  8
RACCORDO
100
AcDbPolyline
 62
253
  6
CONTINUOUS
 90
25
 70
0
 10
-24.5429691568
 20
-65.6243664967
 10
-24.5159492631
 20
-65.6410780529
 10
-24.4910662171
 20
-65.6586415623
 10
-24.4683200189
 20
-65.677057025
 10
-24.4476348809
 20
-65.6964077036
 10
-24.4290865907
 20
-65.7166103355
 10
-24.4129025109
 20
-65.737415133
 10
-24.39910898
 20
-65.7588338499
 10
-24.3876796596
 20
-65.7808547324
 10
-24.3787628972
 20
-65.8031927312
 10
-24.3723920092
 20
-65.8258496597
 10
-24.3685336791
 20
-65.8488237044
 10
-24.3672363048
 20
-65.8718243759
 10
-24.368532454
 20
-65.8948532173
 10
-24.3723895589
 20
-65.9179086854
 10
-24.3787583145
 20
-65.9406956621
 10
-24.3876713738
 20
-65.96321075
 10
-24.3990960838
 20
-65.9854573466
 10
-24.4128851798
 20
-66.0071505253
 10
-24.4290639504
 20
-66.0282794235
 10
-24.447607107
 20
-66.0488549039
 10
-24.468291519
 20
-66.0686246289
 10
-24.4910428095
 20
-66.0875044859
 10
-24.5159353554
 20
-66.1055785875
 10
-24.5429691568
 20
-66.1228469337
  0
LWPOLYLINE
  5
2D1
100
AcDbEntity
  8
RACCORDO
100
AcDbPolyline
 62
253
  6
CONTINUOUS
 90
25
 70
0
 10
-58.5743867449
 20
-49.5479984048
 10
-58.5558784361
 20
-49.5595625612
 10
-58.5392192047
 20
-49.5712476498
 10
-58.5244090506
 20
-49.5830536704
 10
-58.5115103206
 20
-49.5950482415
 10
-58.500460668
 20
-49.6071637447
 10
-58.4910730527
 20
-49.6191973246
 10
-58.4833763508
 20
-49.6310923506
 10
-58.4773416862
 20
-49.6429054532
 10
-58.4726953914
 20
-49.654603669
 10
-58.4693910693
 20
-49.6661367335
 10
-58.4674751168
 20
-49.6775549111
 10
-58.4668130581
 20
-49.6889760313
 10
-58.4673238096
 20
-49.7004025992
 10
-58.4690884549
 20
-49.7118321097
 10
-58.4722157678
 20
-49.7233748762
 10
-58.4766594278
 20
-49.7350744662
 10
-58.4824657556
 20
-49.7468873122
 10
-58.4898824866
 20
-49.758793026
 10
-58.4989277211
 20
-49.7708416176
 10
-58.5095833588
 20
-49.7829830771
 10
-58.5220428349
 20
-49.7950469866
 10
-58.5363706279
 20
-49.8069765404
 10
-58.5525022593
 20
-49.8188285443
 10
-58.5704377291
 20
-49.8306029983
  0
LWPOLYLINE
  5
2D2
100
AcDbEntity
  8
RACCORDO
100
AcDbPolyline
 62
7
  6
CONTINUOUS
 90
13
 70
0
 10
-57.5240508377
 20
-49.7136143301
 10
-57.5098887891
 20
-49.7226038421
 10
-57.4961497349
 20
-49.7330639049
 10
-57.4833433405
 20
-49.7446906897
 10
-57.4715735377
 20
-49.7573992578
 10
-57.4609301697
 20
-49.7711029944
 10
-57.4514761647
 20
-49.7857433408
 10
-57.4433155005
 20
-49.8011871391
 10
-57.4365205693
 20
-49.817318911
 10
-57.4311325944
 20
-49.8340912334
 10
-57.4272208088
 20
-49.8513872211
 10
-57.424851418
 20
-49.8690175284
 10
-57.4240578869
 20
-49.8868153407
  0
LWPOLYLINE
  5
2D3
100
AcDbEntity
  8
RACCORDO
100
AcDbPolyline
 62
253
  6
CONTINUOUS
 90
10
 70
0
 10
-37.8956914694
 20
-65.0722749079
 10
-37.8837383814
 20
-65.0800234287
 10
-37.8718162969
 20
-65.0889580153
 10
-37.8600158144
 20
-65.0990256668
 10
-37.8484126235
 20
-65.110179579
 10
-37.8371153364
 20
-65.1223335983
 10
-37.8262592832
 20
-65.1353499963
 10
-37.815942539
 20
-65.1491076756
 10
-37.8062274132
 20
-65.1635198643
 10
-37.7997764926
 20
-65.1741935404
  0
LWPOLYLINE
  5
2D4
100
AcDbEntity
  8
RACCORDO
100
AcDbPolyline
 62
253
  6
CONTINUOUS
 90
16
 70
0
 10
-38.6793774922
 20
-63.6179991753
 10
-38.6954826801
 20
-63.6012333857
 10
-38.7110147545
 20
-63.583328536
 10
-38.725869959
 20
-63.5644038712
 10
-38.7399485093
 20
-63.5445853406
 10
-38.7531567972
 20
-63.5240049468
 10
-38.7654079401
 20
-63.5027998067
 10
-38.7766198728
 20
-63.4811107715
 10
-38.7867173585
 20
-63.4590823331
 10
-38.7956339748
 20
-63.4368618105
 10
-38.8033098075
 20
-63.4145965127
 10
-38.8096930383
 20
-63.3924350379
 10
-38.8147419276
 20
-63.3705270377
 10
-38.8184229582
 20
-63.3490188939
 10
-38.8207108034
 20
-63.328052783
 10
-38.8215898512
 20
-63.3077679839
  0
LWPOLYLINE
  5
2D5
100
AcDbEntity
  8
RACCORDO
100
AcDbPolyline
 62
253
  6
CONTINUOUS
 90
16
 70
0
 10
-38.4920089617
 20
-63.411574436
 10
-38.4974129917
 20
-63.4058996649
 10
-38.5025549422
 20
-63.3999262674
 10
-38.5074348133
 20
-63.3936542437
 10
-38.512081402
 20
-63.3870379212
 10
-38.5164659111
 20
-63.3801229725
 10
-38.5205019499
 20
-63.3730464148
 10
-38.5241826113
 20
-63.3658051696
 10
-38.5275148023
 20
-63.3584023155
 10
-38.5304328522
 20
-63.350984105
 10
-38.5329284155
 20
-63.3435502843
 10
-38.5350098378
 20
-63.3361011073
 10
-38.5366364847
 20
-63.3287835873
 10
-38.5377948113
 20
-63.3216467291
 10
-38.5384983626
 20
-63.314641528
 10
-38.5387471385
 20
-63.307767984
  0
LWPOLYLINE
  5
2D6
100
AcDbEntity
  8
RACCORDO
100
AcDbPolyline
 62
7
  6
CONTINUOUS
 90
28
 70
0
 10
-48.5706263499
 20
-56.5354888195
 10
-48.6013420368
 20
-56.4920229831
 10
-48.6689230599
 20
-56.4022803935
 10
-48.7384936828
 20
-56.3155669405
 10
-48.8098439565
 20
-56.2321140136
 10
-48.8827230436
 20
-56.1521806598
 10
-48.9568175884
 20
-56.076062918
 10
-49.0318612084
 20
-56.0039741513
 10
-49.1076111559
 20
-55.9360832344
 10
-49.1837646872
 20
-55.872590348
 10
-49.2600142978
 20
-55.8136684181
 10
-49.3361335554
 20
-55.7594040184
 10
-49.4119166565
 20
-55.7098593705
 10
-49.4870703072
 20
-55.6651391672
 10
-49.5613416889
 20
-55.6252996419
 10
-49.6345499179
 20
-55.5903457955
 10
-49.7062368782
 20
-55.5603874391
 10
-49.7763118045
 20
-55.5353435042
 10
-49.845062561
 20
-55.5150498134
 10
-49.9120448604
 20
-55.4996034544
 10
-49.9770921069
 20
-55.4889940978
 10
-50.0407338296
 20
-55.4831740609
 10
-50.1024827432
 20
-55.4822908168
 10
-50.1621086592
 20
-55.4864360934
 10
-50.220315685
 20
-55.4958905994
 10
-50.277052744
 20
-55.5110832443
 10
-50.3316934044
 20
-55.5323167329
 10
-50.3840493252
 20
-55.5599787541
  0
LWPOLYLINE
  5
2D7
100
AcDbEntity
  8
RACCORDO
100
AcDbPolyline
 62
253
  6
CONTINUOUS
 90
5
 70
0
 10
-58.2000480063
 20
-33.1528646872
 10
-58.1969740592
 20
-33.1582383405
 10
-58.1798374479
 20
-33.1914279674
 10
-58.1642349563
 20
-33.2251504508
 10
-58.1502561684
 20
-33.2592103464
  0
LWPOLYLINE
  5
2D8
100
AcDbEntity
  8
RACCORDO
100
AcDbPolyline
 62
253
  6
CONTINUOUS
 90
10
 70
0
 10
-59.5253807308
 20
-33.1894369468
 10
-59.520701562
 20
-33.232200252
 10
-59.5070214546
 20
-33.274392351
 10
-59.4847615875
 20
-33.3147144492
 10
-59.4546072739
 20
-33.3519253247
 10
-59.4174868633
 20
-33.38487954
 10
-59.3745431612
 20
-33.4125627032
 10
-59.3270982467
 20
-33.434122695
 10
-59.2766127716
 20
-33.4488959001
 10
-59.2246409921
 20
-33.4564276365
  0
LWPOLYLINE
  5
2D9
100
AcDbEntity
  8
RACCORDO
100
AcDbPolyline
 62
253
  6
CONTINUOUS
 90
10
 70
0
 10
-59.5253807308
 20
33.7611257502
 10
-59.520701562
 20
33.718362445
 10
-59.5070214546
 20
33.676170346
 10
-59.4847615875
 20
33.6358482478
 10
-59.4546072739
 20
33.5986373723
 10
-59.4174868633
 20
33.565683157
 10
-59.3745431612
 20
33.5379999938
 10
-59.3270982467
 20
33.516440002
 10
-59.2766127716
 20
33.5016667969
 10
-59.2246409921
 20
33.4941350605
  0
LWPOLYLINE
  5
2DA
100
AcDbEntity
  8
RACCORDO
100
AcDbPolyline
 62
253
  6
CONTINUOUS
 90
19
 70
0
 10
-59.1824261322
 20
-40.3688003848
 10
-59.1837873554
 20
-40.3547594316
 10
-59.1861940171
 20
-40.3401939269
 10
-59.1896278279
 20
-40.3252145584
 10
-59.1940626908
 20
-40.3099351656
 10
-59.1994649046
 20
-40.2944718546
 10
-59.2057934249
 20
-40.2789421155
 10
-59.2130001646
 20
-40.2634639588
 10
-59.2210303587
 20
-40.248155013
 10
-59.2298229891
 20
-40.2331316111
 10
-59.2393112466
 20
-40.2185079145
 10
-59.2494230242
 20
-40.2043950654
 10
-59.260081466
 20
-40.190900334
 10
-59.2712055682
 20
-40.1781262794
 10
-59.2827107998
 20
-40.1661699697
 10
-59.2945097309
 20
-40.155122264
 10
-59.3065126975
 20
-40.1450671188
 10
-59.3186284832
 20
-40.1360809495
 10
-59.330765015
 20
-40.1282320473
  0
LWPOLYLINE
  5
2DB
100
AcDbEntity
  8
RACCORDO
100
AcDbPolyline
 62
253
  6
CONTINUOUS
 90
19
 70
0
 10
-59.1824261322
 20
26.5817623122
 10
-59.1837873554
 20
26.5958032654
 10
-59.1861940171
 20
26.6103687701
 10
-59.1896278279
 20
26.6253481386
 10
-59.1940626908
 20
26.6406275314
 10
-59.1994649046
 20
26.6560908424
 10
-59.2057934249
 20
26.6716205815
 10
-59.2130001646
 20
26.6870987382
 10
-59.2210303587
 20
26.702407684
 10
-59.2298229891
 20
26.7174310859
 10
-59.2393112466
 20
26.7320547825
 10
-59.2494230242
 20
26.7461676316
 10
-59.260081466
 20
26.759662363
 10
-59.2712055682
 20
26.7724364176
 10
-59.2827107998
 20
26.7843927273
 10
-59.2945097309
 20
26.795440433
 10
-59.3065126975
 20
26.8054955782
 10
-59.3186284832
 20
26.8144817475
 10
-59.330765015
 20
26.8223306497
  0
LWPOLYLINE
  5
2DC
100
AcDbEntity
  8
RACCORDO
100
AcDbPolyline
 62
7
  6
CONTINUOUS
 90
7
 70
0
 10
-59.5126107457
 20
-26.9031158491
 10
-59.5176366935
 20
-26.7980873362
 10
-59.5328889984
 20
-26.6928183914
 10
-59.5585116088
 20
-26.588461786
 10
-59.5943791842
 20
-26.4864257071
 10
-59.6403140374
 20
-26.3876513029
 10
-59.6806392859
 20
-26.3192431126
  0
LWPOLYLINE
  5
2DD
100
AcDbEntity
  8
RACCORDO
100
AcDbPolyline
 62
7
  6
CONTINUOUS
 90
7
 70
0
 10
-59.5126107457
 20
40.0474468479
 10
-59.5176366935
 20
40.1524753608
 10
-59.5328889984
 20
40.2577443056
 10
-59.5585116088
 20
40.362100911
 10
-59.5943791842
 20
40.46413699
 10
-59.6403140374
 20
40.5629113941
 10
-59.6806392859
 20
40.6313195844
  0
LWPOLYLINE
  5
2DE
100
AcDbEntity
  8
RACCORDO
100
AcDbPolyline
 62
253
  6
CONTINUOUS
 90
19
 70
0
 10
-59.7206875239
 20
-51.3296089083
 10
-59.7213407493
 20
-51.3151339572
 10
-59.723084132
 20
-51.3001585688
 10
-59.7259044019
 20
-51.2847967361
 10
-59.7297800915
 20
-51.2691653943
 10
-59.7346816994
 20
-51.2533835296
 10
-59.7405719155
 20
-51.2375712731
 10
-59.7474059039
 20
-51.2218489884
 10
-59.7551316446
 20
-51.2063363549
 10
-59.7636903299
 20
-51.191151455
 10
-59.7730168115
 20
-51.1764098777
 10
-59.7830400961
 20
-51.1622238375
 10
-59.7936838867
 20
-51.1487013199
 10
-59.8048671626
 20
-51.1359452601
 10
-59.816504796
 20
-51.1240527596
 10
-59.8285082009
 20
-51.1131143461
 10
-59.8407860064
 20
-51.1032132851
 10
-59.8532447527
 20
-51.094424946
 10
-59.8657896025
 20
-51.0868162278
  0
LWPOLYLINE
  5
2DF
100
AcDbEntity
  8
RACCORDO
100
AcDbPolyline
 62
253
  6
CONTINUOUS
 90
19
 70
0
 10
-57.4801899269
 20
-49.9670327481
 10
-57.4808316833
 20
-49.9526993265
 10
-57.48254885
 20
-49.9378338518
 10
-57.4853370581
 20
-49.9225444152
 10
-57.4891875043
 20
-49.9069300233
 10
-57.4940771785
 20
-49.891120963
 10
-57.4999600188
 20
-49.8752787753
 10
-57.5067842518
 20
-49.8595392714
 10
-57.5145029583
 20
-49.8440075551
 10
-57.5230591421
 20
-49.8287990193
 10
-57.5323894137
 20
-49.8140279115
 10
-57.5424218692
 20
-49.7998095089
 10
-57.5530779268
 20
-49.7862556923
 10
-57.5642754153
 20
-49.7734708364
 10
-57.5759295168
 20
-49.7615516478
 10
-57.5879510487
 20
-49.7505893148
 10
-57.6002481253
 20
-49.7406675677
 10
-57.6127268793
 20
-49.7318620844
 10
-57.6252920054
 20
-49.7242400677
  0
LWPOLYLINE
  5
2E0
100
AcDbEntity
  8
RACCORDO
100
AcDbPolyline
 62
253
  6
CONTINUOUS
 90
22
 70
0
 10
-57.7719661753
 20
-45.3954869893
 10
-57.7706175857
 20
-45.426353025
 10
-57.7673273657
 20
-45.4582022539
 10
-57.7621144521
 20
-45.4908568902
 10
-57.7550090866
 20
-45.5241335943
 10
-57.7460509601
 20
-45.5578475824
 10
-57.735288324
 20
-45.5918137917
 10
-57.7227800026
 20
-45.6258449228
 10
-57.708596526
 20
-45.6597484776
 10
-57.6928181674
 20
-45.6933310786
 10
-57.6755339111
 20
-45.7264035375
 10
-57.6568400464
 20
-45.758782489
 10
-57.6368407365
 20
-45.7902875326
 10
-57.6156468725
 20
-45.8207433009
 10
-57.5933776048
 20
-45.8499784773
 10
-57.5701595306
 20
-45.8778276993
 10
-57.5461232818
 20
-45.9041342728
 10
-57.5214023127
 20
-45.9287525753
 10
-57.496134289
 20
-45.9515467913
 10
-57.4704599851
 20
-45.9723899112
 10
-57.4445225958
 20
-45.99116473
 10
-57.4184666326
 20
-46.0077661571
  0
LWPOLYLINE
  5
2E1
100
AcDbEntity
  8
RACCORDO
100
AcDbPolyline
 62
253
  6
CONTINUOUS
 90
10
 70
0
 10
-59.4627791625
 20
-41.1829557125
 10
-59.4622498308
 20
-41.196765219
 10
-59.460665469
 20
-41.2098620739
 10
-59.4580374504
 20
-41.2221478477
 10
-59.454384053
 20
-41.2335325345
 10
-59.4497326597
 20
-41.2439275232
 10
-59.4441217454
 20
-41.2532485402
 10
-59.4375986133
 20
-41.2614232788
 10
-59.43021057
 20
-41.2683978421
 10
-59.4214089697
 20
-41.2744763088
  0
LWPOLYLINE
  5
2E2
100
AcDbEntity
  8
RACCORDO
100
AcDbPolyline
 62
253
  6
CONTINUOUS
 90
11
 70
0
 10
-58.9530040748
 20
-17.9578576638
 10
-58.9519515425
 20
-17.9853985034
 10
-58.9488017793
 20
-18.0115189313
 10
-58.9435782277
 20
-18.0360245456
 10
-58.9363197642
 20
-18.0587329627
 10
-58.9270804101
 20
-18.0794751748
 10
-58.9159289299
 20
-18.0980968073
 10
-58.9029483189
 20
-18.1144592685
 10
-58.8882351858
 20
-18.1284407806
 10
-58.8718990336
 20
-18.139937286
 10
-58.8701710257
 20
-18.1409524087
  0
LWPOLYLINE
  5
2E3
100
AcDbEntity
  8
RACCORDO
100
AcDbPolyline
 62
253
  6
CONTINUOUS
 90
10
 70
0
 10
-59.4627791625
 20
25.7676069845
 10
-59.4622498308
 20
25.753797478
 10
-59.460665469
 20
25.7407006231
 10
-59.4580374504
 20
25.7284148493
 10
-59.454384053
 20
25.7170301625
 10
-59.4497326597
 20
25.7066351738
 10
-59.4441217454
 20
25.6973141568
 10
-59.4375986133
 20
25.6891394182
 10
-59.43021057
 20
25.682164855
 10
-59.4214089697
 20
25.6760863882
  0
LWPOLYLINE
  5
2E4
100
AcDbEntity
  8
RACCORDO
100
AcDbPolyline
 62
253
  6
CONTINUOUS
 90
22
 70
0
 10
-57.2112601146
 20
-45.3983122661
 10
-57.2110560335
 20
-45.4045703297
 10
-57.2104674813
 20
-45.4109541113
 10
-57.2094944583
 20
-45.4174636109
 10
-57.2081273063
 20
-45.4241379847
 10
-57.2063756834
 20
-45.4309380764
 10
-57.2042685635
 20
-45.4377464182
 10
-57.2017999259
 20
-45.4445619188
 10
-57.1989757913
 20
-45.4513856693
 10
-57.1958431951
 20
-45.4581034755
 10
-57.1923970127
 20
-45.4647133079
 10
-57.1886423686
 20
-45.4712171958
 10
-57.1846416723
 20
-45.4775070328
 10
-57.1803906576
 20
-45.4835793585
 10
-57.1758935907
 20
-45.4894376333
 10
-57.1712256791
 20
-45.494984132
 10
-57.1663831281
 20
-45.5002141415
 10
-57.1613697324
 20
-45.5051323749
 10
-57.1562720832
 20
-45.5096552461
 10
-57.1511190443
 20
-45.5137548929
 10
-57.1458817519
 20
-45.5174591774
 10
-57.1405602061
 20
-45.5207680996
  0
LINE
  5
2E5
100
AcDbEntity
  8
0
100
AcDbLine
 62
7
  6
CONTINUOUS
 10
-62.9265143679
 20
62.3007558109
 11
-62.9265143679
 21
-69.1509587527
  0
LINE
  5
2E6
100
AcDbEntity
  8
ASSI
100
AcDbLine
 62
7
  6
CONTINUOUS
 10
-62.9265143679
 20
62.3007558109
 11
-62.9265143679
 21
-69.1509587527
  0
LINE
  5
2E7
100
AcDbEntity
  8
0
100
AcDbLine
 62
7
  6
CONTINUOUS
 10
-62.8379343437
 20
61.5353516201
 11
-62.8379343437
 21
42.960652823
  0
LINE
  5
2E8
100
AcDbEntity
  8
ASSI
100
AcDbLine
 62
7
  6
CONTINUOUS
 10
-62.8379343437
 20
61.5353516201
 11
-62.8379343437
 21
42.960652823
  0
LINE
  5
2E9
100
AcDbEntity
  8
0
100
AcDbLine
 62
7
  6
CONTINUOUS
 10
-62.8379343437
 20
-51.3416641465
 11
-62.8379343437
 21
-69.9163629436
  0
LINE
  5
2EA
100
AcDbEntity
  8
ASSI
100
AcDbLine
 62
7
  6
CONTINUOUS
 10
-62.8379343437
 20
-51.3416641465
 11
-62.8379343437
 21
-69.9163629436
  0
LINE
  5
2EB
100
AcDbEntity
  8
0
100
AcDbLine
 62
7
  6
CONTINUOUS
 10
-62.7954895549
 20
42.9326407782
 11
-62.7954895549
 21
-50.6639177082
  0
LINE
  5
2EC
100
AcDbEntity
  8
ASSI
100
AcDbLine
 62
7
  6
CONTINUOUS
 10
-62.7954895549
 20
42.9326407782
 11
-62.7954895549
 21
-50.6639177082
  0
LINE
  5
2ED
100
AcDbEntity
  8
0
100
AcDbLine
 62
7
  6
CONTINUOUS
 10
-61.9446788664
 20
42.3711361075
 11
-61.9446788664
 21
-50.1726702798
  0
LINE
  5
2EE
100
AcDbEntity
  8
ASSI
100
AcDbLine
 62
7
  6
CONTINUOUS
 10
-61.9446788664
 20
42.3711361075
 11
-61.9446788664
 21
-50.1726702798
  0
LINE
  5
2EF
100
AcDbEntity
  8
0
100
AcDbLine
 62
253
  6
CONTINUOUS
 10
-59.7538625906
 20
-50.479556217
 11
-59.7538625906
 21
40.9258195518
  0
LINE
  5
2F0
100
AcDbEntity
  8
ASSI
100
AcDbLine
 62
253
  6
CONTINUOUS
 10
-59.7538625906
 20
-50.479556217
 11
-59.7538625906
 21
40.9258195518
  0
LINE
  5
2F1
100
AcDbEntity
  8
RACCORDO
100
AcDbLine
 62
253
  6
CONTINUOUS
 10
-59.7206875239
 20
-51.3296089083
 11
-59.7206875239
 21
-51.4288297725
  0
LINE
  5
2F2
100
AcDbEntity
  8
RACCORDO
100
AcDbLine
 62
7
  6
CONTINUOUS
 10
-59.6806392859
 20
-50.4350248908
 11
-59.6806392859
 21
40.8784128927
  0
LINE
  5
2F3
100
AcDbEntity
  8
ASSI
100
AcDbLine
 62
7
  6
CONTINUOUS
 10
-59.6806392859
 20
-50.4350248908
 11
-59.6806392859
 21
40.8784128927
  0
LINE
  5
2F4
100
AcDbEntity
  8
ASSI
100
AcDbLine
 62
7
  6
CONTINUOUS
 10
-59.5126107457
 20
-33.0820226459
 11
-59.5126107457
 21
-26.9031158491
  0
LINE
  5
2F5
100
AcDbEntity
  8
ASSI
100
AcDbLine
 62
7
  6
CONTINUOUS
 10
-59.5126107457
 20
33.8685400511
 11
-59.5126107457
 21
40.0474468479
  0
LINE
  5
2F6
100
AcDbEntity
  8
RACCORDO
100
AcDbLine
 62
253
  6
CONTINUOUS
 10
-59.4627791625
 20
-41.1829557125
 11
-59.4627791625
 21
-40.3673877464
  0
LINE
  5
2F7
100
AcDbEntity
  8
RACCORDO
100
AcDbLine
 62
253
  6
CONTINUOUS
 10
-59.4627791625
 20
25.7676069845
 11
-59.4627791625
 21
26.5831749506
  0
LINE
  5
2F8
100
AcDbEntity
  8
RACCORDO
100
AcDbLine
 62
253
  6
CONTINUOUS
 10
-59.1824261322
 20
-41.1843683509
 11
-59.1824261322
 21
-40.3688003848
  0
LINE
  5
2F9
100
AcDbEntity
  8
RACCORDO
100
AcDbLine
 62
253
  6
CONTINUOUS
 10
-59.1824261322
 20
25.7661943461
 11
-59.1824261322
 21
26.5817623122
  0
LINE
  5
2FA
100
AcDbEntity
  8
RACCORDO
100
AcDbLine
 62
253
  6
CONTINUOUS
 10
-58.8823041663
 20
-45.7100112483
 11
-58.8823041663
 21
-41.0922773159
  0
LINE
  5
2FB
100
AcDbEntity
  8
RACCORDO
100
AcDbLine
 62
253
  6
CONTINUOUS
 10
-58.8823041663
 20
-17.9170443125
 11
-58.8823041663
 21
25.8582853811
  0
LINE
  5
2FC
100
AcDbEntity
  8
RACCORDO
100
AcDbLine
 62
253
  6
CONTINUOUS
 10
-58.4899921263
 20
-31.8357417798
 11
-58.4899921263
 21
-18.1780513152
  0
LINE
  5
2FD
100
AcDbEntity
  8
RACCORDO
100
AcDbLine
 62
253
  6
CONTINUOUS
 10
-58.4899921263
 20
35.1148209172
 11
-58.4899921263
 21
40.1075571626
  0
LINE
  5
2FE
100
AcDbEntity
  8
RACCORDO
100
AcDbLine
 62
253
  6
CONTINUOUS
 10
-58.3215981056
 20
26.2291198013
 11
-58.3215981056
 21
-17.9198695893
  0
LINE
  5
2FF
100
AcDbEntity
  8
RACCORDO
100
AcDbLine
 62
253
  6
CONTINUOUS
 10
-58.3215981056
 20
-40.7214428957
 11
-58.3215981056
 21
-45.7128365251
  0
LINE
  5
300
100
AcDbEntity
  8
RACCORDO
100
AcDbLine
 62
7
  6
CONTINUOUS
 10
-58.1963156553
 20
-39.3944706243
 11
-58.1963156553
 21
-33.1892467798
  0
LINE
  5
301
100
AcDbEntity
  8
RACCORDO
100
AcDbLine
 62
7
  6
CONTINUOUS
 10
-58.1963156553
 20
27.5560920727
 11
-58.1963156553
 21
33.7613159172
  0
LINE
  5
302
100
AcDbEntity
  8
RACCORDO
100
AcDbLine
 62
253
  6
CONTINUOUS
 10
-58.1032520682
 20
33.4597818473
 11
-58.1032520682
 21
27.2651315406
  0
LINE
  5
303
100
AcDbEntity
  8
RACCORDO
100
AcDbLine
 62
253
  6
CONTINUOUS
 10
-58.1032520682
 20
-33.4907808498
 11
-58.1032520682
 21
-39.6854311564
  0
LINE
  5
304
100
AcDbEntity
  8
RACCORDO
100
AcDbLine
 62
253
  6
CONTINUOUS
 10
-57.7719661753
 20
33.6444991076
 11
-57.7719661753
 21
-17.624295324
  0
LINE
  5
305
100
AcDbEntity
  8
RACCORDO
100
AcDbLine
 62
253
  6
CONTINUOUS
 10
-57.7719661753
 20
-33.3060635894
 11
-57.7719661753
 21
-45.3954869893
  0
LINE
  5
306
100
AcDbEntity
  8
RACCORDO
100
AcDbLine
 62
253
  6
CONTINUOUS
 10
-57.4801899269
 20
-49.9670327481
 11
-57.4801899269
 21
-52.9090529577
  0
LINE
  5
307
100
AcDbEntity
  8
RACCORDO
100
AcDbLine
 62
7
  6
CONTINUOUS
 10
-57.4240578869
 20
-49.8868153407
 11
-57.4240578869
 21
-52.9459068713
  0
LINE
  5
308
100
AcDbEntity
  8
RACCORDO
100
AcDbLine
 62
253
  6
CONTINUOUS
 10
-57.2112601146
 20
33.6416738308
 11
-57.2112601146
 21
-17.6271206007
  0
LINE
  5
309
100
AcDbEntity
  8
RACCORDO
100
AcDbLine
 62
253
  6
CONTINUOUS
 10
-57.2112601146
 20
-33.3088888662
 11
-57.2112601146
 21
-45.3983122661
  0
LINE
  5
30A
100
AcDbEntity
  8
RACCORDO
100
AcDbLine
 62
253
  6
CONTINUOUS
 10
-55.64583729
 20
-41.9637974167
 11
-55.64583729
 21
38.2794165346
  0
LINE
  5
30B
100
AcDbEntity
  8
RACCORDO
100
AcDbLine
 62
253
  6
CONTINUOUS
 10
-55.0851312293
 20
-41.9666226935
 11
-55.0851312293
 21
37.9232847125
  0
LINE
  5
30C
100
AcDbEntity
  8
RACCORDO
100
AcDbLine
 62
253
  6
CONTINUOUS
 10
-51.2350489527
 20
-56.9227097418
 11
-51.2350489527
 21
-56.5181813002
  0
LINE
  5
30D
100
AcDbEntity
  8
RACCORDO
100
AcDbLine
 62
253
  6
CONTINUOUS
 10
-50.8071149782
 20
-57.1928827177
 11
-50.8071149782
 21
-56.5160250333
  0
LINE
  5
30E
100
AcDbEntity
  8
RACCORDO
100
AcDbLine
 62
253
  6
CONTINUOUS
 10
-59.5126107457
 20
33.8685606796
 11
-59.5126311687
 21
33.8642631709
  0
LINE
  5
30F
100
AcDbEntity
  8
RACCORDO
100
AcDbLine
 62
253
  6
CONTINUOUS
 10
-59.5126107457
 20
-33.0820020174
 11
-59.5126311687
 21
-33.0862995261
  0
LINE
  5
310
100
AcDbEntity
  8
RACCORDO
100
AcDbLine
 62
253
  6
CONTINUOUS
 10
-60.8402142848
 20
62.5734693008
 11
-60.8412005524
 21
62.4510239172
  0
LWPOLYLINE
  5
311
100
AcDbEntity
  8
RACCORDO
100
AcDbPolyline
 62
253
  6
CONTINUOUS
 90
15
 70
0
 10
-57.7719661753
 20
-17.624295324
 10
-57.7722612267
 20
-17.6471474041
 10
-57.7737448961
 20
-17.6693921289
 10
-57.7764297265
 20
-17.6909412699
 10
-57.780329201
 20
-17.7117371041
 10
-57.7854462561
 20
-17.7316587106
 10
-57.791755527
 20
-17.7505384938
 10
-57.7992358048
 20
-17.7683026933
 10
-57.8078638074
 20
-17.7848916847
 10
-57.8175776214
 20
-17.800192525
 10
-57.8283177681
 20
-17.8141420952
 10
-57.8400526971
 20
-17.8267280066
 10
-57.8527495267
 20
-17.8379303341
 10
-57.866349553
 20
-17.8477106176
 10
-57.8777408374
 20
-17.8544396103
  0
LWPOLYLINE
  5
312
100
AcDbEntity
  8
RACCORDO
100
AcDbPolyline
 62
253
  6
CONTINUOUS
 90
28
 70
0
 10
-57.2112601146
 20
-17.6271206007
 10
-57.2122710309
 20
-17.6687949925
 10
-57.2154225603
 20
-17.709041785
 10
-57.220714703
 20
-17.7478609783
 10
-57.2281745373
 20
-17.7854473017
 10
-57.2377749847
 20
-17.8216060258
 10
-57.2494348107
 20
-17.855752963
 10
-57.2632043093
 20
-17.8878249576
 10
-57.2790331865
 20
-17.9178851652
 10
-57.2966893249
 20
-17.9455388648
 10
-57.3161706899
 20
-17.9707074244
 10
-57.3374793162
 20
-17.993469476
 10
-57.3603891906
 20
-18.0136661951
 10
-57.3848820972
 20
-18.0312791661
 10
-57.410976252
 20
-18.0463268047
 10
-57.4385002899
 20
-18.0587055329
 10
-57.4674860651
 20
-18.0684210917
 10
-57.4979017234
 20
-18.0754677403
 10
-57.5294803374
 20
-18.0797246778
 10
-57.56229055
 20
-18.0811491182
 10
-57.5962637183
 20
-18.0797838475
 10
-57.6309269854
 20
-18.0756364232
 10
-57.6663039788
 20
-18.0686316235
 10
-57.7023710711
 20
-18.0588446702
 10
-57.7385845224
 20
-18.0465087852
 10
-57.7747630863
 20
-18.0317017093
 10
-57.8110880093
 20
-18.0143457018
 10
-57.8475592915
 20
-17.9944407627
  0
LWPOLYLINE
  5
313
100
AcDbEntity
  8
RACCORDO
100
AcDbPolyline
 62
253
  6
CONTINUOUS
 90
19
 70
0
 10
-58.2460049894
 20
-46.8121137503
 10
-58.2449524415
 20
-46.7833572529
 10
-58.2418026351
 20
-46.7535993515
 10
-58.2365790189
 20
-46.7230615255
 10
-58.2293204757
 20
-46.6919710567
 10
-58.2200810334
 20
-46.6605593412
 10
-58.2089294641
 20
-46.6290601673
 10
-58.1959487706
 20
-46.5977079712
 10
-58.1812355674
 20
-46.5667360908
 10
-58.1648993622
 20
-46.5363750326
 10
-58.1470617433
 20
-46.5068507588
 10
-58.1278554707
 20
-46.4783829997
 10
-58.1074234863
 20
-46.4511836174
 10
-58.0859178585
 20
-46.4254550408
 10
-58.0634986436
 20
-46.4013887493
 10
-58.0403326896
 20
-46.3791638437
 10
-58.016592406
 20
-46.3589457273
 10
-57.9924544821
 20
-46.3408848724
 10
-57.9680985631
 20
-46.3251156928
  0
LWPOLYLINE
  5
314
100
AcDbEntity
  8
RACCORDO
100
AcDbPolyline
 62
253
  6
CONTINUOUS
 90
19
 70
0
 10
-54.3025390277
 20
-44.2904582542
 10
-54.301486474
 20
-44.2617016777
 10
-54.2983366528
 20
-44.2319437082
 10
-54.2931130162
 20
-44.2014058277
 10
-54.2858544509
 20
-44.1703153227
 10
-54.2766149883
 20
-44.1389035886
 10
-54.2654634008
 20
-44.1074044071
 10
-54.2524826927
 20
-44.076052214
 10
-54.2377694803
 20
-44.0450803475
 10
-54.2214332703
 20
-44.0147193087
 10
-54.2035956508
 20
-43.9851950584
 10
-54.1843893828
 20
-43.9567273267
 10
-54.1639574068
 20
-43.9295279731
 10
-54.1424517906
 20
-43.9037994248
 10
-54.1200325909
 20
-43.8797331611
 10
-54.0968666554
 20
-43.8575082824
 10
-54.0731263934
 20
-43.837290191
 10
-54.0489884937
 20
-43.8192293581
 10
-54.024632601
 20
-43.8034601969
  0
LWPOLYLINE
  5
315
100
AcDbEntity
  8
RACCORDO
100
AcDbPolyline
 62
253
  6
CONTINUOUS
 90
16
 70
0
 10
-59.4627791625
 20
26.5831749506
 10
-59.4620644916
 20
26.5999833528
 10
-59.4599277104
 20
26.6174471046
 10
-59.4563904277
 20
26.6353896964
 10
-59.4514877908
 20
26.653631808
 10
-59.4452696865
 20
26.6719870669
 10
-59.4378016621
 20
26.6902638894
 10
-59.4291623302
 20
26.7082740224
 10
-59.4194385531
 20
26.7258399617
 10
-59.4087260258
 20
26.7427901483
 10
-59.3971165848
 20
26.7589750389
 10
-59.3847415644
 20
26.7742076259
 10
-59.3717761085
 20
26.7882831456
 10
-59.3583740193
 20
26.8010583547
 10
-59.3446574488
 20
26.8124395568
 10
-59.330765015
 20
26.8223306497
  0
LWPOLYLINE
  5
316
100
AcDbEntity
  8
RACCORDO
100
AcDbPolyline
 62
253
  6
CONTINUOUS
 90
16
 70
0
 10
-59.4627791625
 20
-40.3673877464
 10
-59.4620644916
 20
-40.3505793442
 10
-59.4599277104
 20
-40.3331155924
 10
-59.4563904277
 20
-40.3151730006
 10
-59.4514877908
 20
-40.296930889
 10
-59.4452696865
 20
-40.2785756301
 10
-59.4378016621
 20
-40.2602988076
 10
-59.4291623302
 20
-40.2422886746
 10
-59.4194385531
 20
-40.2247227353
 10
-59.4087260258
 20
-40.2077725487
 10
-59.3971165848
 20
-40.1915876581
 10
-59.3847415644
 20
-40.1763550711
 10
-59.3717761085
 20
-40.1622795514
 10
-59.3583740193
 20
-40.1495043423
 10
-59.3446574488
 20
-40.1381231402
 10
-59.330765015
 20
-40.1282320473
  0
LWPOLYLINE
  5
317
100
AcDbEntity
  8
RACCORDO
100
AcDbPolyline
 62
253
  6
CONTINUOUS
 90
7
 70
0
 10
-59.5126107457
 20
40.0474468479
 10
-59.5143923654
 20
40.0081631211
 10
-59.5286159931
 20
39.9300262296
 10
-59.556907319
 20
39.8531759952
 10
-59.5989563464
 20
39.7784543029
 10
-59.6543023981
 20
39.7066797441
 10
-59.6806392859
 20
39.6803411709
  0
LWPOLYLINE
  5
318
100
AcDbEntity
  8
RACCORDO
100
AcDbPolyline
 62
253
  6
CONTINUOUS
 90
7
 70
0
 10
-59.5126107457
 20
-26.9031158491
 10
-59.5143923654
 20
-26.9423995759
 10
-59.5286159931
 20
-27.0205364674
 10
-59.556907319
 20
-27.0973867018
 10
-59.5989563464
 20
-27.1721083941
 10
-59.6543023981
 20
-27.2438829529
 10
-59.6806392859
 20
-27.2702215261
  0
LWPOLYLINE
  5
319
100
AcDbEntity
  8
RACCORDO
100
AcDbPolyline
 62
253
  6
CONTINUOUS
 90
3
 70
0
 10
-59.5126311687
 20
33.8642631709
 10
-59.5141255865
 20
33.8315388863
 10
-59.5253933033
 20
33.7611267745
  0
LWPOLYLINE
  5
31A
100
AcDbEntity
  8
RACCORDO
100
AcDbPolyline
 62
253
  6
CONTINUOUS
 90
3
 70
0
 10
-59.5126311687
 20
-33.0862995261
 10
-59.5141255865
 20
-33.1190238107
 10
-59.5253933033
 20
-33.1894359225
  0
LWPOLYLINE
  5
31B
100
AcDbEntity
  8
RACCORDO
100
AcDbPolyline
 62
253
  6
CONTINUOUS
 90
10
 70
0
 10
-57.4240578869
 20
-49.8868153407
 10
-57.4246592354
 20
-49.8957635009
 10
-57.4267369868
 20
-49.9056532416
 10
-57.4302833111
 20
-49.9154028068
 10
-57.4352718338
 20
-49.924939646
 10
-57.4416654349
 20
-49.9341927653
 10
-57.4494165214
 20
-49.9430932751
 10
-57.4584673989
 20
-49.9515749252
 10
-57.4687507119
 20
-49.959574596
 10
-57.4801899269
 20
-49.9670327481
  0
LWPOLYLINE
  5
31C
100
AcDbEntity
  8
RACCORDO
100
AcDbPolyline
 62
253
  6
CONTINUOUS
 90
13
 70
0
 10
-59.5253933033
 20
-33.1894359225
 10
-59.5335339679
 20
-33.2211700227
 10
-59.5431887658
 20
-33.2525149
 10
-59.5541076729
 20
-33.2834585687
 10
-59.5659989996
 20
-33.314150335
 10
-59.5786781418
 20
-33.3444442838
 10
-59.5921265161
 20
-33.3738875677
 10
-59.6061341163
 20
-33.4022318854
 10
-59.6206043814
 20
-33.4297438033
 10
-59.6358346551
 20
-33.4567194082
 10
-59.6517481287
 20
-33.4830793632
 10
-59.6683106516
 20
-33.5088958464
 10
-59.6806392859
 20
-33.5267901913
  0
LINE
  5
31D
100
AcDbEntity
  8
RACCORDO
100
AcDbLine
 62
253
  6
CONTINUOUS
 10
0.1753491317
 20
35.493254328
 11
-5.4904618868
 21
32.1076932005
  0
LINE
  5
31E
100
AcDbEntity
  8
0
100
AcDbLine
 62
7
  6
CONTINUOUS
 10
-13.3390289872
 20
33.6101954894
 11
-13.9061450856
 21
33.2827497618
  0
LINE
  5
31F
100
AcDbEntity
  8
ASSI
100
AcDbLine
 62
7
  6
CONTINUOUS
 10
-13.3390289872
 20
33.6101954894
 11
-13.9061450856
 21
33.2827497618
  0
LINE
  5
320
100
AcDbEntity
  8
0
100
AcDbLine
 62
7
  6
CONTINUOUS
 10
-13.1466115352
 20
32.904745728
 11
-12.5805282955
 21
33.2315950958
  0
LINE
  5
321
100
AcDbEntity
  8
ASSI
100
AcDbLine
 62
7
  6
CONTINUOUS
 10
-13.1466115352
 20
32.904745728
 11
-12.5805282955
 21
33.2315950958
  0
LINE
  5
322
100
AcDbEntity
  8
0
100
AcDbLine
 62
253
  6
CONTINUOUS
 10
-6.5923419863
 20
31.6673213232
 11
-8.0567928335
 21
30.8217657579
  0
LINE
  5
323
100
AcDbEntity
  8
ASSI
100
AcDbLine
 62
253
  6
CONTINUOUS
 10
-6.5923419863
 20
31.6673213232
 11
-8.0567928335
 21
30.8217657579
  0
LINE
  5
324
100
AcDbEntity
  8
RACCORDO
100
AcDbLine
 62
253
  6
CONTINUOUS
 10
3.6605545241
 20
33.2885556418
 11
3.5360451044
 21
33.2184556183
  0
LWPOLYLINE
  5
325
100
AcDbEntity
  8
RACCORDO
100
AcDbPolyline
 62
253
  6
CONTINUOUS
 90
11
 70
0
 10
-59.5126107457
 20
-31.4437606501
 10
-59.4066641465
 20
-31.4699837943
 10
-59.3007917089
 20
-31.4989789832
 10
-59.1969585494
 20
-31.5302429836
 10
-59.0937382075
 20
-31.5642675381
 10
-58.9912910095
 20
-31.6011380593
 10
-58.8899764286
 20
-31.6408687886
 10
-58.7888801912
 20
-31.6840261806
 10
-58.6880208561
 20
-31.7309088152
 10
-58.5882386026
 20
-31.7814511371
 10
-58.4899921263
 20
-31.8357417798
  0
LWPOLYLINE
  5
326
100
AcDbEntity
  8
RACCORDO
100
AcDbPolyline
 62
253
  6
CONTINUOUS
 90
10
 70
0
 10
-59.5126107457
 20
-32.0231098148
 10
-59.4739587707
 20
-32.0337332715
 10
-59.3839790917
 20
-32.0609189137
 10
-59.2947780833
 20
-32.0905404716
 10
-59.2061562155
 20
-32.1225335145
 10
-59.1183130182
 20
-32.156962473
 10
-59.0310764827
 20
-32.1944275531
 10
-58.9443892729
 20
-32.2351288232
 10
-58.8583087249
 20
-32.2788662148
 10
-58.7728348388
 20
-32.3256397278
  0
LINE
  5
327
100
AcDbEntity
  8
RACCORDO
100
AcDbLine
 62
253
  6
CONTINUOUS
 10
-13.1466115352
 20
-62.3781228847
 11
-49.6707082643
 21
-41.2895671877
  0
LINE
  5
328
100
AcDbEntity
  8
RACCORDO
100
AcDbLine
 62
7
  6
CONTINUOUS
 10
-13.1466115352
 20
-62.2723356962
 11
-49.5169988017
 21
-41.2725299165
  0
LINE
  5
329
100
AcDbEntity
  8
RACCORDO
100
AcDbLine
 62
7
  6
CONTINUOUS
 10
-58.3377154724
 20
-32.9443351127
 11
-59.5126107457
 21
-32.2659653067
  0
LINE
  5
32A
100
AcDbEntity
  8
RACCORDO
100
AcDbLine
 62
253
  6
CONTINUOUS
 10
-58.7728348388
 20
-32.3256397278
 11
-58.1305958712
 21
-32.6964604586
  0
LINE
  5
32B
100
AcDbEntity
  8
RACCORDO
100
AcDbLine
 62
253
  6
CONTINUOUS
 10
-58.4899921263
 20
-31.8357417798
 11
-57.8477531587
 21
-32.2065625106
  0
LWPOLYLINE
  5
32C
100
AcDbEntity
  8
RACCORDO
100
AcDbPolyline
 62
253
  6
CONTINUOUS
 90
28
 70
0
 10
-58.1305958712
 20
-32.6964604586
 10
-58.1101468438
 20
-32.7086021604
 10
-58.0896452221
 20
-32.7221202484
 10
-58.0691581575
 20
-32.7369922233
 10
-58.0487225177
 20
-32.7532133789
 10
-58.0284422799
 20
-32.7707293602
 10
-58.0084838194
 20
-32.7894189426
 10
-57.9889182224
 20
-32.8092191366
 10
-57.9698095992
 20
-32.8300677157
 10
-57.9513026337
 20
-32.8518111701
 10
-57.9334816789
 20
-32.8743324942
 10
-57.916372267
 20
-32.8975798307
 10
-57.9000216324
 20
-32.9214843703
 10
-57.884494017
 20
-32.9459365363
 10
-57.8698191352
 20
-32.9708729757
 10
-57.8559975386
 20
-32.9962988155
 10
-57.8430683357
 20
-33.0221505133
 10
-57.8310895343
 20
-33.0483212995
 10
-57.8200979404
 20
-33.0747541813
 10
-57.8101234198
 20
-33.1014017244
 10
-57.8012250656
 20
-33.1281303167
 10
-57.7934704962
 20
-33.1547524101
 10
-57.7868813276
 20
-33.1811853207
 10
-57.7814778855
 20
-33.207329325
 10
-57.7772922323
 20
-33.2329782182
 10
-57.7743227606
 20
-33.2580133666
 10
-57.772552013
 20
-33.2823988522
 10
-57.7719661753
 20
-33.3060635894
  0
LWPOLYLINE
  5
32D
100
AcDbEntity
  8
RACCORDO
100
AcDbPolyline
 62
253
  6
CONTINUOUS
 90
31
 70
0
 10
-49.6707082643
 20
-41.2895671877
 10
-49.7250698779
 20
-41.256805621
 10
-49.7796207325
 20
-41.2206819146
 10
-49.834216338
 20
-41.1812339972
 10
-49.8887736437
 20
-41.1384620336
 10
-49.943071035
 20
-41.0924703515
 10
-49.9967557628
 20
-41.0435005989
 10
-50.0496733669
 20
-40.9916654839
 10
-50.1016724941
 20
-40.9370892379
 10
-50.1524220715
 20
-40.8801003999
 10
-50.2017591584
 20
-40.8208912708
 10
-50.2495759852
 20
-40.7596060707
 10
-50.2956500517
 20
-40.6965469621
 10
-50.3397988064
 20
-40.6320048667
 10
-50.3819883106
 20
-40.5660739494
 10
-50.4222229762
 20
-40.4987645767
 10
-50.4603933383
 20
-40.4302601078
 10
-50.4963940674
 20
-40.3607483192
 10
-50.5302124533
 20
-40.2902327728
 10
-50.5617844398
 20
-40.2187881388
 10
-50.5909482724
 20
-40.1467198521
 10
-50.6175505715
 20
-40.0743796368
 10
-50.6415202765
 20
-40.001935021
 10
-50.6627737671
 20
-39.9296212561
 10
-50.68119241
 20
-39.8578910421
 10
-50.6967450056
 20
-39.7869383276
 10
-50.7094123984
 20
-39.7169517676
 10
-50.7191628788
 20
-39.6483558846
 10
-50.7260177413
 20
-39.5813937851
 10
-50.7300190323
 20
-39.5161372584
 10
-50.7312068924
 20
-39.4527296844
  0
LINE
  5
32E
100
AcDbEntity
  8
RACCORDO
100
AcDbLine
 62
7
  6
CONTINUOUS
 10
-49.517004529
 20
-41.2725232443
 11
-49.5653630822
 21
-41.2433180491
  0
LWPOLYLINE
  5
32F
100
AcDbEntity
  8
RACCORDO
100
AcDbPolyline
 62
253
  6
CONTINUOUS
 90
28
 70
0
 10
-57.8477531587
 20
-32.2065625106
 10
-57.8112719157
 20
-32.2287799486
 10
-57.7749367799
 20
-32.2533782499
 10
-57.7387477512
 20
-32.2803574146
 10
-57.7025235571
 20
-32.3098490263
 10
-57.6664454702
 20
-32.3417215014
 10
-57.6310573081
 20
-32.3755800883
 10
-57.5963826435
 20
-32.4114727564
 10
-57.5623979037
 20
-32.4493515363
 10
-57.5295761887
 20
-32.488677769
 10
-57.4979860528
 20
-32.5294151329
 10
-57.4675589418
 20
-32.5715999495
 10
-57.438562293
 20
-32.6148025251
 10
-57.4110279793
 20
-32.6589804668
 10
-57.3849241278
 20
-32.7041761673
 10
-57.3604225577
 20
-32.7500871115
 10
-57.3375051985
 20
-32.7967526605
 10
-57.3161901206
 20
-32.8441334531
 10
-57.2967033538
 20
-32.89180889
 10
-57.2790429829
 20
-32.9398597287
 10
-57.2632109231
 20
-32.9882052118
 10
-57.24943895
 20
-33.0361824672
 10
-57.2377773731
 20
-33.0837964123
 10
-57.2281758829
 20
-33.1310421298
 10
-57.2207153272
 20
-33.1772419963
 10
-57.2154226552
 20
-33.2221701373
 10
-57.2122709177
 20
-33.2660524272
 10
-57.2112601146
 20
-33.3088888662
  0
LINE
  5
330
100
AcDbEntity
  8
RACCORDO
100
AcDbLine
 62
7
  6
CONTINUOUS
 10
-49.5653630822
 20
-41.2433180491
 11
-49.621145227
 21
-41.2064654742
  0
LWPOLYLINE
  5
331
100
AcDbEntity
  8
RACCORDO
100
AcDbPolyline
 62
7
  6
CONTINUOUS
 90
29
 70
0
 10
-49.621145227
 20
-41.2064654742
 10
-49.6774477597
 20
-41.1658321321
 10
-49.7340591067
 20
-41.1214682526
 10
-49.7907208904
 20
-41.0734812846
 10
-49.8471385059
 20
-41.0220345119
 10
-49.9030846078
 20
-40.9672649203
 10
-49.9583385065
 20
-40.9093245447
 10
-50.01263822
 20
-40.8484268738
 10
-50.0657745546
 20
-40.7847570084
 10
-50.1175463908
 20
-40.7185165036
 10
-50.1677262852
 20
-40.6499594009
 10
-50.216128949
 20
-40.5793099525
 10
-50.2625818192
 20
-40.5068032418
 10
-50.3068957624
 20
-40.432720893
 10
-50.3489163609
 20
-40.3573136616
 10
-50.3885037653
 20
-40.2808408014
 10
-50.4255083019
 20
-40.2036068262
 10
-50.4598127473
 20
-40.1258785709
 10
-50.4913158289
 20
-40.0479286956
 10
-50.5199108143
 20
-39.9700813777
 10
-50.5455235558
 20
-39.8926117051
 10
-50.5680989645
 20
-39.8157930639
 10
-50.5875828872
 20
-39.7399587481
 10
-50.6039536538
 20
-39.665375944
 10
-50.6172068748
 20
-39.5923091041
 10
-50.6273481785
 20
-39.5210944319
 10
-50.6344131358
 20
-39.4520095342
 10
-50.6384644231
 20
-39.3852638854
 10
-50.6396016925
 20
-39.3281353951
  0
LWPOLYLINE
  5
332
100
AcDbEntity
  8
RACCORDO
100
AcDbPolyline
 62
253
  6
CONTINUOUS
 90
10
 70
0
 10
-59.5126107457
 20
-32.7784614754
 10
-59.4855598838
 20
-32.799456537
 10
-59.4077465415
 20
-32.8732351663
 10
-59.3424269469
 20
-32.950271683
 10
-59.2899382197
 20
-33.0306973611
 10
-59.2499432401
 20
-33.1143809267
 10
-59.2233274728
 20
-33.1990259236
 10
-59.2103860728
 20
-33.2838668665
 10
-59.2108238852
 20
-33.3696692408
 10
-59.2246409099
 20
-33.4564330465
  0
LWPOLYLINE
  5
333
100
AcDbEntity
  8
RACCORDO
100
AcDbPolyline
 62
253
  6
CONTINUOUS
 90
19
 70
0
 10
-17.4748369749
 20
-75.8574353901
 10
-17.4526504126
 20
-75.8800737268
 10
-17.439534022
 20
-75.8947260374
 10
-17.4268841377
 20
-75.9101253804
 10
-17.414757395
 20
-75.926198774
 10
-17.4032092595
 20
-75.94287232
 10
-17.3922939605
 20
-75.9600717278
 10
-17.3820604034
 20
-75.9777197056
 10
-17.3725564092
 20
-75.9957319028
 10
-17.3638296334
 20
-76.0140203204
 10
-17.3559218617
 20
-76.0324956033
 10
-17.3488661185
 20
-76.0510765564
 10
-17.3426919708
 20
-76.0696861601
 10
-17.3374296746
 20
-76.0882361265
 10
-17.3331031323
 20
-76.1066431346
 10
-17.3297299445
 20
-76.1248374939
 10
-17.3273285354
 20
-76.1427392089
 10
-17.3259153438
 20
-76.1602589935
 10
-17.3255009971
 20
-76.1773141598
  0
LWPOLYLINE
  5
334
100
AcDbEntity
  8
RACCORDO
100
AcDbPolyline
 62
253
  6
CONTINUOUS
 90
19
 70
0
 10
-17.2788055261
 20
-75.6598122358
 10
-17.2563373061
 20
-75.6831759457
 10
-17.2347189709
 20
-75.7076506375
 10
-17.2139505206
 20
-75.7332363111
 10
-17.1939449593
 20
-75.760059023
 10
-17.1747892828
 20
-75.7879927168
 10
-17.1567444792
 20
-75.8166592235
 10
-17.1398235799
 20
-75.8460727048
 10
-17.1240135536
 20
-75.876218999
 10
-17.1095362938
 20
-75.9066774517
 10
-17.0964126094
 20
-75.9374455595
 10
-17.0846216914
 20
-75.9685258258
 10
-17.0743230075
 20
-75.9995051063
 10
-17.0655341127
 20
-76.0303829826
 10
-17.058237452
 20
-76.0611598731
 10
-17.0525398268
 20
-76.0914238889
 10
-17.0484768378
 20
-76.1210377334
 10
-17.0460128845
 20
-76.1501387032
 10
-17.0451479667
 20
-76.1787267981
  0
LWPOLYLINE
  5
335
100
AcDbEntity
  8
RACCORDO
100
AcDbPolyline
 62
7
  6
CONTINUOUS
 90
24
 70
0
 10
-13.1466115352
 20
-76.7999013261
 10
-13.1738305937
 20
-76.7700476229
 10
-13.2479251385
 20
-76.693929881
 10
-13.3229687585
 20
-76.6218411144
 10
-13.3987187059
 20
-76.5539501975
 10
-13.4748722373
 20
-76.4904573111
 10
-13.5511218479
 20
-76.4315353811
 10
-13.6272411055
 20
-76.3772709815
 10
-13.7030242066
 20
-76.3277263336
 10
-13.7781778572
 20
-76.2830061303
 10
-13.852449239
 20
-76.243166605
 10
-13.925657468
 20
-76.2082127586
 10
-13.9973444283
 20
-76.1782544021
 10
-14.0674193546
 20
-76.1532104672
 10
-14.1361701111
 20
-76.1329167765
 10
-14.2031524104
 20
-76.1174704174
 10
-14.268199657
 20
-76.1068610609
 10
-14.3318413797
 20
-76.101041024
 10
-14.3935902933
 20
-76.1001577799
 10
-14.4532162093
 20
-76.1043030565
 10
-14.5114232351
 20
-76.1137575625
 10
-14.5681602941
 20
-76.1289502074
 10
-14.6228009544
 20
-76.1501836959
 10
-14.6751568753
 20
-76.1778457172
  0
LWPOLYLINE
  5
336
100
AcDbEntity
  8
RACCORDO
100
AcDbPolyline
 62
253
  6
CONTINUOUS
 90
3
 70
0
 10
-57.8828473907
 20
-17.8571857682
 10
-57.8734829464
 20
-17.8728232698
 10
-57.8642435954
 20
-17.8935654806
  0
LWPOLYLINE
  5
337
100
AcDbEntity
  8
RACCORDO
100
AcDbPolyline
 62
253
  6
CONTINUOUS
 90
28
 70
0
 10
-31.2044784014
 20
-68.8155273354
 10
-31.26705062
 20
-68.6869207463
 10
-31.3920777422
 20
-68.4543942567
 10
-31.5264877492
 20
-68.2269096686
 10
-31.6696277539
 20
-68.0055728711
 10
-31.820799099
 20
-67.7914650389
 10
-31.9792634566
 20
-67.5856320166
 10
-32.1442477092
 20
-67.3890776626
 10
-32.3149489111
 20
-67.2027582208
 10
-32.4905363151
 20
-67.0275803901
 10
-32.6701549548
 20
-66.8643972766
 10
-32.8529293135
 20
-66.714004416
 10
-33.0379685143
 20
-66.5771348702
 10
-33.2243708388
 20
-66.4544555619
 10
-33.4112283512
 20
-66.3465639839
 10
-33.5976309043
 20
-66.2539856481
 10
-33.7826705536
 20
-66.1771715351
 10
-33.9654455908
 20
-66.1164960074
 10
-34.1450651666
 20
-66.0722547687
 10
-34.3206536862
 20
-66.0446633331
 10
-34.4913562644
 20
-66.0338558812
 10
-34.656342395
 20
-66.0398850792
 10
-34.8148092355
 20
-66.0627220251
 10
-34.96598348
 20
-66.1022557314
 10
-35.1091265944
 20
-66.1582929733
 10
-35.243540024
 20
-66.2305594783
 10
-35.368570711
 20
-66.3187032773
 10
-35.4649421567
 20
-66.4054847793
  0
LWPOLYLINE
  5
338
100
AcDbEntity
  8
RACCORDO
100
AcDbPolyline
 62
7
  6
CONTINUOUS
 90
9
 70
0
 10
-37.7078823165
 20
-65.1628102203
 10
-37.714949996
 20
-65.1466622632
 10
-37.7229128513
 20
-65.1320275929
 10
-37.7320568442
 20
-65.1181194026
 10
-37.7423278417
 20
-65.1050171655
 10
-37.7537297244
 20
-65.0927384815
 10
-37.7662157629
 20
-65.0813767781
 10
-37.779664776
 20
-65.0710739637
 10
-37.7939678139
 20
-65.0619286586
  0
LINE
  5
339
100
AcDbEntity
  8
RACCORDO
100
AcDbLine
 62
7
  6
CONTINUOUS
 10
-37.676107989
 20
-65.2450184421
 11
-37.7079051601
 21
-65.1627515247
  0
LWPOLYLINE
  5
33A
100
AcDbEntity
  8
RACCORDO
100
AcDbPolyline
 62
253
  6
CONTINUOUS
 90
8
 70
0
 10
-58.1502561684
 20
-33.2592103464
 10
-58.1379860997
 20
-33.2934031922
 10
-58.1274933166
 20
-33.3275292423
 10
-58.118830416
 20
-33.3614053953
 10
-58.1120430525
 20
-33.3948526943
 10
-58.1071683076
 20
-33.4276875693
 10
-58.1042327665
 20
-33.4597232026
 10
-58.1032520682
 20
-33.4907808498
  0
LWPOLYLINE
  5
33B
100
AcDbEntity
  8
RACCORDO
100
AcDbPolyline
 62
253
  6
CONTINUOUS
 90
3
 70
0
 10
-57.8642435954
 20
-17.8935654806
 10
-57.8569851345
 20
-17.9162738953
 10
-57.8517615849
 20
-17.9407795059
  0
LWPOLYLINE
  5
33C
100
AcDbEntity
  8
RACCORDO
100
AcDbPolyline
 62
253
  6
CONTINUOUS
 90
3
 70
0
 10
-57.8517615849
 20
-17.9407795059
 10
-57.8486118232
 20
-17.966899929
 10
-57.8475592915
 20
-17.9944407627
  0
LWPOLYLINE
  5
33D
100
AcDbEntity
  8
RACCORDO
100
AcDbPolyline
 62
253
  6
CONTINUOUS
 90
3
 70
0
 10
-48.5819788505
 20
-56.9494764453
 10
-48.588197422
 20
-56.8306330065
 10
-48.5884941415
 20
-56.799613245
  0
LWPOLYLINE
  5
33E
100
AcDbEntity
  8
RACCORDO
100
AcDbPolyline
 62
253
  6
CONTINUOUS
 90
19
 70
0
 10
-39.8822500225
 20
-58.8331775711
 10
-39.8837565547
 20
-58.8043447891
 10
-39.8874042322
 20
-58.7744885551
 10
-39.893165293
 20
-58.7438360942
 10
-39.9009958915
 20
-58.7126206901
 10
-39.9108364312
 20
-58.6810799127
 10
-39.9226120174
 20
-58.6494538102
 10
-39.9362330295
 20
-58.617983077
 10
-39.9515958019
 20
-58.5869072246
 10
-39.9685834122
 20
-58.5564627612
 10
-39.9870665726
 20
-58.5268813876
 10
-40.0069046142
 20
-58.4983882347
 10
-40.0279465551
 20
-58.471200153
 10
-40.0500322522
 20
-58.4455240589
 10
-40.0729936196
 20
-58.4215553606
 10
-40.0966559063
 20
-58.3994764727
 10
-40.1208390278
 20
-58.3794554264
 10
-40.1453589363
 20
-58.3616445907
 10
-40.170029021
 20
-58.3461795137
  0
LWPOLYLINE
  5
33F
100
AcDbEntity
  8
RACCORDO
100
AcDbPolyline
 62
253
  6
CONTINUOUS
 90
22
 70
0
 10
-48.1874261762
 20
-56.6141174177
 10
-48.1931523553
 20
-56.5042592092
 10
-48.1914597148
 20
-56.3945650486
 10
-48.182348255
 20
-56.2850349358
 10
-48.1657853634
 20
-56.1754823819
 10
-48.1418036523
 20
-56.0660938759
 10
-48.1105009584
 20
-55.9574288842
 10
-48.0718376887
 20
-55.8494988711
 10
-48.0258534362
 20
-55.7422923723
 10
-47.9727648165
 20
-55.6363344612
 10
-47.9125354803
 20
-55.5316332099
 10
-47.8452017769
 20
-55.4281805463
 10
-47.771089371
 20
-55.3264773278
 10
-47.6901616292
 20
-55.2265311858
 10
-47.6024551849
 20
-55.1283344887
 10
-47.508405602
 20
-55.0323651996
 10
-47.407970682
 20
-54.9386301436
 10
-47.3011926235
 20
-54.8471224954
 10
-47.1886335864
 20
-54.7582997419
 10
-47.0704809575
 20
-54.6723143788
 10
-46.9465473501
 20
-54.5890139103
 10
-46.8168327641
 20
-54.5083983364
  0
LWPOLYLINE
  5
340
100
AcDbEntity
  8
RACCORDO
100
AcDbPolyline
 62
253
  6
CONTINUOUS
 90
22
 70
0
 10
-38.8215898508
 20
-58.1993883686
 10
-38.8227496223
 20
-58.1747425111
 10
-38.8254846744
 20
-58.1493211875
 10
-38.8297797122
 20
-58.1232665637
 10
-38.8356107166
 20
-58.0967243478
 10
-38.8429450789
 20
-58.0698429733
 10
-38.8517417842
 20
-58.0427727686
 10
-38.8619516389
 20
-58.0156651203
 10
-38.8735175462
 20
-57.9886716258
 10
-38.8863748267
 20
-57.9619432421
 10
-38.9004515792
 20
-57.9356294438
 10
-38.9156690811
 20
-57.9098773905
 10
-38.9319422284
 20
-57.8848311021
 10
-38.9491800156
 20
-57.8606306482
 10
-38.967286042
 20
-57.8374113682
 10
-38.9861590488
 20
-57.8153031176
 10
-39.0056934894
 20
-57.7944295359
 10
-39.0257801198
 20
-57.7749073559
 10
-39.0463066074
 20
-57.7568457535
 10
-39.0671581595
 20
-57.7403457368
 10
-39.0882181655
 20
-57.7254995807
 10
-39.1093688492
 20
-57.7123903112
  0
LWPOLYLINE
  5
341
100
AcDbEntity
  8
RACCORDO
100
AcDbPolyline
 62
253
  6
CONTINUOUS
 90
19
 70
0
 10
-38.2583514023
 20
-63.9304889983
 10
-38.2592148901
 20
-63.9019377843
 10
-38.261672402
 20
-63.8728769888
 10
-38.265723938
 20
-63.8433066119
 10
-38.2714011934
 20
-63.8130988862
 10
-38.2786724729
 20
-63.7823815791
 10
-38.2874426904
 20
-63.7515379925
 10
-38.2977355207
 20
-63.7205485211
 10
-38.309527289
 20
-63.6894327703
 10
-38.3226518847
 20
-63.6586328586
 10
-38.3371265564
 20
-63.6281583519
 10
-38.3529340554
 20
-63.5979996842
 10
-38.369856526
 20
-63.5685702764
 10
-38.387908797
 20
-63.5398805537
 10
-38.4070760395
 20
-63.5119200908
 10
-38.4270959115
 20
-63.4850710331
 10
-38.4478809655
 20
-63.4594607623
 10
-38.4695186489
 20
-63.4349618966
 10
-38.4920089617
 20
-63.411574436
  0
LWPOLYLINE
  5
342
100
AcDbEntity
  8
RACCORDO
100
AcDbPolyline
 62
253
  6
CONTINUOUS
 90
19
 70
0
 10
-38.5387044327
 20
-63.9290763599
 10
-38.5391179859
 20
-63.9120362677
 10
-38.5405286992
 20
-63.8945318743
 10
-38.5429260469
 20
-63.8766456228
 10
-38.5462930234
 20
-63.8584696512
 10
-38.5506117013
 20
-63.8400807096
 10
-38.5558675896
 20
-63.8215387923
 10
-38.5620411654
 20
-63.8029187628
 10
-38.5691014024
 20
-63.784317076
 10
-38.5770133674
 20
-63.7658259683
 10
-38.5857398253
 20
-63.7475337839
 10
-38.5952412381
 20
-63.7295225678
 10
-38.6054731037
 20
-63.7118738469
 10
-38.6163891566
 20
-63.6946699678
 10
-38.6279394148
 20
-63.6779906037
 10
-38.6400695547
 20
-63.6619105095
 10
-38.6527240946
 20
-63.6465038766
 10
-38.6658464916
 20
-63.6318438363
 10
-38.6793774924
 20
-63.6179991756
  0
LWPOLYLINE
  5
343
100
AcDbEntity
  8
RACCORDO
100
AcDbPolyline
 62
253
  6
CONTINUOUS
 90
14
 70
0
 10
-48.9312516749
 20
-56.4558535504
 10
-48.9289405143
 20
-56.5540002126
 10
-48.9220140511
 20
-56.6545176795
 10
-48.9104933203
 20
-56.7571006828
 10
-48.89441331
 20
-56.8614376797
 10
-48.873822854
 20
-56.967211803
 10
-48.8487844838
 20
-57.0741018232
 10
-48.8193742356
 20
-57.1817831314
 10
-48.7856814294
 20
-57.2899286898
 10
-48.7478084016
 20
-57.3982100277
 10
-48.7058701759
 20
-57.5062982952
 10
-48.6599941197
 20
-57.6138652341
 10
-48.6103195735
 20
-57.7205841405
 10
-48.5884946066
 20
-57.7637848362
  0
LWPOLYLINE
  5
344
100
AcDbEntity
  8
RACCORDO
100
AcDbPolyline
 62
7
  6
CONTINUOUS
 90
13
 70
0
 10
-48.847053615
 20
-56.3355274393
 10
-48.8451377807
 20
-56.4245681907
 10
-48.8393453088
 20
-56.5164937801
 10
-48.8296219916
 20
-56.6110352293
 10
-48.8159324791
 20
-56.707904603
 10
-48.7982596081
 20
-56.8068067373
 10
-48.7765998082
 20
-56.9074575018
 10
-48.7509635897
 20
-57.0095694355
 10
-48.7213851781
 20
-57.1128184104
 10
-48.6879169867
 20
-57.2168761837
 10
-48.6506179749
 20
-57.3214413564
 10
-48.6095714833
 20
-57.4261829926
 10
-48.5884946066
 20
-57.4755045081
  0
LWPOLYLINE
  5
345
100
AcDbEntity
  8
RACCORDO
100
AcDbPolyline
 62
253
  6
CONTINUOUS
 90
5
 70
0
 10
-43.7462117978
 20
-59.7415852724
 10
-43.7465402405
 20
-59.7124822687
 10
-43.7467149166
 20
-59.6818704847
 10
-43.7467345185
 20
-59.6499790693
 10
-43.7465988995
 20
-59.61704675
  0
LINE
  5
346
100
AcDbEntity
  8
RACCORDO
100
AcDbLine
 62
7
  6
CONTINUOUS
 10
-48.5884941415
 20
-56.799613245
 11
-48.5884946066
 21
-56.7983354801
  0
LINE
  5
347
100
AcDbEntity
  8
RACCORDO
100
AcDbLine
 62
253
  6
CONTINUOUS
 10
-50.7312068924
 20
-39.4527296844
 11
-50.7312068924
 21
35.1926158768
  0
LINE
  5
348
100
AcDbEntity
  8
RACCORDO
100
AcDbLine
 62
7
  6
CONTINUOUS
 10
-50.6396044036
 20
-39.3281283488
 11
-50.6396044036
 21
35.1355361464
  0
LINE
  5
349
100
AcDbEntity
  8
RACCORDO
100
AcDbLine
 62
253
  6
CONTINUOUS
 10
-48.9312516749
 20
-56.1023269245
 11
-48.9312516749
 21
-56.4558535504
  0
LINE
  5
34A
100
AcDbEntity
  8
RACCORDO
100
AcDbLine
 62
7
  6
CONTINUOUS
 10
-48.847053615
 20
-56.1913026792
 11
-48.847053615
 21
-56.3355274393
  0
LINE
  5
34B
100
AcDbEntity
  8
0
100
AcDbLine
 62
7
  6
CONTINUOUS
 10
-48.5884946066
 20
-56.7983406556
 11
-48.5884946066
 21
-58.5782372193
  0
LINE
  5
34C
100
AcDbEntity
  8
RACCORDO
100
AcDbLine
 62
253
  6
CONTINUOUS
 10
-48.5819788505
 20
-56.9494764453
 11
-48.5819788505
 21
-58.5822890432
  0
LINE
  5
34D
100
AcDbEntity
  8
RACCORDO
100
AcDbLine
 62
253
  6
CONTINUOUS
 10
-47.9987476114
 20
-57.7135561022
 11
-47.9987476114
 21
-58.9449714779
  0
LINE
  5
34E
100
AcDbEntity
  8
RACCORDO
100
AcDbLine
 62
253
  6
CONTINUOUS
 10
-46.0340790189
 20
-53.9013367068
 11
-46.0340790189
 21
-53.8631267543
  0
LINE
  5
34F
100
AcDbEntity
  8
RACCORDO
100
AcDbLine
 62
253
  6
CONTINUOUS
 10
-45.05935992
 20
-60.7456558023
 11
-45.05935992
 21
-59.410721716
  0
LINE
  5
350
100
AcDbEntity
  8
ELVOX
100
AcDbLine
 62
253
  6
CONTINUOUS
 10
-44.1289467483
 20
41.9957694152
 11
-44.1289467483
 21
39.6515151231
  0
LINE
  5
351
100
AcDbEntity
  8
RACCORDO
100
AcDbLine
 62
253
  6
CONTINUOUS
 10
-43.7462120035
 20
-61.5378990967
 11
-43.7462120035
 21
-59.7415876163
  0
LINE
  5
352
100
AcDbEntity
  8
ELVOX
100
AcDbLine
 62
253
  6
CONTINUOUS
 10
-43.5112808351
 20
39.8567022789
 11
-43.5112808351
 21
40.1536856251
  0
LINE
  5
353
100
AcDbEntity
  8
ELVOX
100
AcDbLine
 62
253
  6
CONTINUOUS
 10
-43.5112808351
 20
40.7629420179
 11
-43.5112808351
 21
41.0611007422
  0
LINE
  5
354
100
AcDbEntity
  8
ELVOX
100
AcDbLine
 62
253
  6
CONTINUOUS
 10
-42.7695568341
 20
39.7155265596
 11
-42.7695568341
 21
40.3247829524
  0
LINE
  5
355
100
AcDbEntity
  8
ELVOX
100
AcDbLine
 62
253
  6
CONTINUOUS
 10
-42.200105027
 20
40.287846793
 11
-42.200105027
 21
40.8561734279
  0
LINE
  5
356
100
AcDbEntity
  8
ELVOX
100
AcDbLine
 62
253
  6
CONTINUOUS
 10
-41.9795458171
 20
40.7266864421
 11
-41.9795458171
 21
40.1583598071
  0
LINE
  5
357
100
AcDbEntity
  8
ELVOX
100
AcDbLine
 62
253
  6
CONTINUOUS
 10
-41.9679641781
 20
38.3756373848
 11
-41.9679641781
 21
38.9471665786
  0
LINE
  5
358
100
AcDbEntity
  8
ELVOX
100
AcDbLine
 62
253
  6
CONTINUOUS
 10
-41.7349019828
 20
39.7167706671
 11
-41.7349019828
 21
38.2390017344
  0
LINE
  5
359
100
AcDbEntity
  8
ELVOX
100
AcDbLine
 62
253
  6
CONTINUOUS
 10
-41.1409289053
 20
38.4631512733
 11
-41.1409289053
 21
39.3693910123
  0
LINE
  5
35A
100
AcDbEntity
  8
ELVOX
100
AcDbLine
 62
253
  6
CONTINUOUS
 10
-39.9841324409
 20
37.2185418969
 11
-39.9841324409
 21
37.7900710907
  0
LINE
  5
35B
100
AcDbEntity
  8
RACCORDO
100
AcDbLine
 62
253
  6
CONTINUOUS
 10
-39.8822500225
 20
-63.8393560651
 11
-39.8822500225
 21
-58.8331775711
  0
LINE
  5
35C
100
AcDbEntity
  8
RACCORDO
100
AcDbLine
 62
253
  6
CONTINUOUS
 10
-38.8215898508
 20
-63.3077679841
 11
-38.8215898508
 21
-58.1993883686
  0
LINE
  5
35D
100
AcDbEntity
  8
RACCORDO
100
AcDbLine
 62
253
  6
CONTINUOUS
 10
-38.5387471383
 20
-58.1908374436
 11
-38.5387471385
 21
-63.307767984
  0
LINE
  5
35E
100
AcDbEntity
  8
RACCORDO
100
AcDbLine
 62
253
  6
CONTINUOUS
 10
-38.5387044327
 20
-64.6259269651
 11
-38.5387044327
 21
-63.9290763599
  0
LINE
  5
35F
100
AcDbEntity
  8
ELVOX
100
AcDbLine
 62
253
  6
CONTINUOUS
 10
-38.5306156672
 20
37.828786727
 11
-38.5306156672
 21
36.3830916401
  0
LINE
  5
360
100
AcDbEntity
  8
RACCORDO
100
AcDbLine
 62
253
  6
CONTINUOUS
 10
-43.7465988995
 20
-59.61704675
 11
-43.7458672138
 21
-59.549051424
  0
LINE
  5
361
100
AcDbEntity
  8
RACCORDO
100
AcDbLine
 62
253
  6
CONTINUOUS
 10
-43.7458672138
 20
-59.549051424
 11
-43.744541727
 21
-59.4799166508
  0
LWPOLYLINE
  5
362
100
AcDbEntity
  8
RACCORDO
100
AcDbPolyline
 62
253
  6
CONTINUOUS
 90
43
 70
0
 10
-51.2350489527
 20
-56.5181813002
 10
-51.2327338656
 20
-56.416894061
 10
-51.2258141713
 20
-56.3189247958
 10
-51.2142898698
 20
-56.2242735046
 10
-51.1981008783
 20
-56.1326337083
 10
-51.1773072796
 20
-56.044311886
 10
-51.1520893225
 20
-55.9602274756
 10
-51.1224170916
 20
-55.8804904275
 10
-51.0883205023
 20
-55.8049907912
 10
-51.0500695488
 20
-55.7343181532
 10
-51.0076255925
 20
-55.6684992196
 10
-50.9610272721
 20
-55.6075072844
 10
-50.9106604977
 20
-55.5518518157
 10
-50.8564960381
 20
-55.5015803324
 10
-50.7985631245
 20
-55.4566453157
 10
-50.7373353608
 20
-55.4174136778
 10
-50.6727851874
 20
-55.3839317723
 10
-50.6049401638
 20
-55.3561532455
 10
-50.5343565727
 20
-55.3343059485
 10
-50.4610120621
 20
-55.3184387327
 10
-50.3849289841
 20
-55.3085027466
 10
-50.3067306779
 20
-55.304579287
 10
-50.2263998317
 20
-55.3067177134
 10
-50.1439537573
 20
-55.3148686663
 10
-50.0600677285
 20
-55.3289653643
 10
-49.9747298447
 20
-55.3490566435
 10
-49.8879520065
 20
-55.3750936679
 10
-49.8004451894
 20
-55.4068631472
 10
-49.7122033926
 20
-55.44441219
 10
-49.6232326169
 20
-55.4876936878
 10
-49.5342618401
 20
-55.536353025
 10
-49.4452910634
 20
-55.5904343943
 10
-49.3563202856
 20
-55.6498936032
 10
-49.2680784804
 20
-55.7142434579
 10
-49.1805716569
 20
-55.7835241273
 10
-49.093793806
 20
-55.8576954427
 10
-49.0084558744
 20
-55.9361497043
 10
-48.9245697437
 20
-56.018922024
 10
-48.8421235322
 20
-56.10597729
 10
-48.7617925413
 20
-56.1966024672
 10
-48.6835941143
 20
-56.290826879
 10
-48.6075109079
 20
-56.388621202
 10
-48.5588193327
 20
-56.4553824134
  0
LWPOLYLINE
  5
363
100
AcDbEntity
  8
RACCORDO
100
AcDbPolyline
 62
253
  6
CONTINUOUS
 90
15
 70
0
 10
-50.8071149782
 20
-56.5160250333
 10
-50.8048544203
 20
-56.4226377381
 10
-50.7980796113
 20
-56.3321444894
 10
-50.7868111255
 20
-56.2448201131
 10
-50.7710831845
 20
-56.1609298111
 10
-50.750943553
 20
-56.0807283569
 10
-50.7264533943
 20
-56.0044593215
 10
-50.6976870803
 20
-55.9323543242
 10
-50.6647319758
 20
-55.8646323556
 10
-50.6276881785
 20
-55.8014991083
 10
-50.5866681945
 20
-55.7431463129
 10
-50.5417966033
 20
-55.6897511787
 10
-50.493209697
 20
-55.6414758734
 10
-50.4410550608
 20
-55.5984670138
 10
-50.3840493252
 20
-55.5599787541
  0
LWPOLYLINE
  5
364
100
AcDbEntity
  8
RACCORDO
100
AcDbPolyline
 62
253
  6
CONTINUOUS
 90
10
 70
0
 10
-43.744541727
 20
-59.4799166508
 10
-43.7426620532
 20
-59.411708628
 10
-43.7415313472
 20
-59.3785919411
 10
-43.7402843694
 20
-59.3464658564
 10
-43.7389304541
 20
-59.3155708582
 10
-43.7374797363
 20
-59.2861382153
 10
-43.7359430756
 20
-59.2583882499
 10
-43.7343319747
 20
-59.2325286882
 10
-43.732658494
 20
-59.2087531055
 10
-43.7309351603
 20
-59.1872394773
  0
LWPOLYLINE
  5
365
100
AcDbEntity
  8
RACCORDO
100
AcDbPolyline
 62
253
  6
CONTINUOUS
 90
3
 70
0
 10
-46.0340790189
 20
-53.8631267543
 10
-46.0333056028
 20
-53.8385449125
 10
-46.0309895845
 20
-53.8132043844
  0
LWPOLYLINE
  5
366
100
AcDbEntity
  8
RACCORDO
100
AcDbPolyline
 62
253
  6
CONTINUOUS
 90
19
 70
0
 10
-47.9987476114
 20
-57.7135561022
 10
-47.9976950705
 20
-57.684799701
 10
-47.9945452825
 20
-57.6550418833
 10
-47.9893216918
 20
-57.624504125
 10
-47.9820631767
 20
-57.5934137043
 10
-47.9728237616
 20
-57.5620020165
 10
-47.9616722156
 20
-57.5305028521
 10
-47.948691538
 20
-57.4991506459
 10
-47.9339783408
 20
-57.4681787377
 10
-47.9176421334
 20
-57.4378176419
 10
-47.899804502
 20
-57.408293321
 10
-47.8805982064
 20
-57.379825508
 10
-47.8601661953
 20
-57.3526260762
 10
-47.8386605371
 20
-57.3268974545
 10
-47.8162412897
 20
-57.3028311237
 10
-47.7930753115
 20
-57.2806061942
 10
-47.7693350169
 20
-57.2603880695
 10
-47.7451970927
 20
-57.2423272161
 10
-47.7208411849
 20
-57.2265580447
  0
LWPOLYLINE
  5
367
100
AcDbEntity
  8
RACCORDO
100
AcDbPolyline
 62
253
  6
CONTINUOUS
 90
19
 70
0
 10
-45.05935992
 20
-59.410721716
 10
-45.0583073883
 20
-59.3819654451
 10
-45.0551576266
 20
-59.3522077561
 10
-45.0499340771
 20
-59.3216701214
 10
-45.0426756162
 20
-59.290579818
 10
-45.0334362651
 20
-59.2591682362
 10
-45.022284788
 20
-59.2276691574
 10
-45.0093041799
 20
-59.1963170143
 10
-44.9945910494
 20
-59.1653451459
 10
-44.9782548993
 20
-59.1349840611
 10
-44.9604173117
 20
-59.1054597229
 10
-44.9412110432
 20
-59.0769918669
 10
-44.9207790371
 20
-59.0497923659
 10
-44.899273359
 20
-59.0240636526
 10
-44.8768540653
 20
-58.9999972138
 10
-44.8536880123
 20
-58.9777721643
 10
-44.8299476137
 20
-58.9575539147
 10
-44.8058095581
 20
-58.9394929397
 10
-44.7814534935
 20
-58.9237236585
  0
LWPOLYLINE
  5
368
100
AcDbEntity
  8
RACCORDO
100
AcDbPolyline
 62
253
  6
CONTINUOUS
 90
19
 70
0
 10
-48.5819770857
 20
-56.9494763937
 10
-48.580461418
 20
-56.9214380676
 10
-48.5759666493
 20
-56.8935222634
 10
-48.568526426
 20
-56.86593795
 10
-48.5581964431
 20
-56.8388916148
 10
-48.5450540278
 20
-56.8125857179
 10
-48.5291975598
 20
-56.7872171771
 10
-48.5107457357
 20
-56.7629758931
 10
-48.4898366801
 20
-56.7400433285
 10
-48.4666269113
 20
-56.7185911491
 10
-48.4412901704
 20
-56.6987799392
 10
-48.4140161202
 20
-56.6807579992
 10
-48.3850089255
 20
-56.6646602355
 10
-48.3544857249
 20
-56.650607151
 10
-48.3226750055
 20
-56.6387039426
 10
-48.2898148922
 20
-56.6290397138
 10
-48.2561513652
 20
-56.621686808
 10
-48.2219364192
 20
-56.6167002667
 10
-48.1874261762
 20
-56.6141174177
  0
LWPOLYLINE
  5
369
100
AcDbEntity
  8
RACCORDO
100
AcDbPolyline
 62
253
  6
CONTINUOUS
 90
10
 70
0
 10
-48.847053615
 20
-56.3355274393
 10
-48.847955733
 20
-56.3489503877
 10
-48.8510724714
 20
-56.3637850123
 10
-48.8563920566
 20
-56.3784093285
 10
-48.8638748969
 20
-56.3927144942
 10
-48.8734653009
 20
-56.4065940432
 10
-48.8850918919
 20
-56.4199446772
 10
-48.8986681387
 20
-56.432667034
 10
-48.9140929997
 20
-56.4446664269
 10
-48.9312516749
 20
-56.4558535503
  0
LWPOLYLINE
  5
36A
100
AcDbEntity
  8
RACCORDO
100
AcDbPolyline
 62
253
  6
CONTINUOUS
 90
20
 70
0
 10
-46.0309895845
 20
-53.8132043844
 10
-46.0271436299
 20
-53.7872437541
 10
-46.021788772
 20
-53.7608049972
 10
-46.0149542959
 20
-53.734032704
 10
-46.0066775786
 20
-53.7070732889
 10
-45.9970038843
 20
-53.6800741895
 10
-45.9859861174
 20
-53.6531830607
 10
-45.9736845326
 20
-53.6265469667
 10
-45.9601664058
 20
-53.6003115771
 10
-45.945505666
 20
-53.57462037
 10
-45.9297824909
 20
-53.5496138473
 10
-45.9130828686
 20
-53.5254287667
 10
-45.8954981273
 20
-53.5021973935
 10
-45.8771244363
 20
-53.4800467776
 10
-45.858062279
 20
-53.459098058
 10
-45.838415904
 20
-53.4394658005
 10
-45.8182927553
 20
-53.4212573717
 10
-45.797802884
 20
-53.4045723512
 10
-45.7770583466
 20
-53.389501987
 10
-45.7561725924
 20
-53.3761286969
  0
LWPOLYLINE
  5
36B
100
AcDbEntity
  8
SMUSSO
100
AcDbPolyline
 62
7
  6
CONTINUOUS
 90
8
 70
0
 10
-9.5541453515
 20
50.1604282584
 10
-9.4972031956
 20
50.2414404454
 10
-9.4483835314
 20
50.3320613647
 10
-9.4080024258
 20
50.4317028603
 10
-9.3763216036
 20
50.539716843
 10
-9.3535457447
 20
50.6554016143
 10
-9.3398215285
 20
50.7780067898
 10
-9.3352370753
 20
50.9067368007
  0
LWPOLYLINE
  5
36C
100
AcDbEntity
  8
RACCORDO
100
AcDbPolyline
 62
7
  6
CONTINUOUS
 90
9
 70
0
 10
5.6554266859
 20
22.4089926392
 10
5.6682408676
 20
22.4169885864
 10
5.6798756524
 20
22.4254124148
 10
5.6903310404
 20
22.4342641243
 10
5.6996521423
 20
22.4435978009
 10
5.7077938473
 20
22.4533593586
 10
5.7146208231
 20
22.4633865398
 10
5.7201110944
 20
22.4736837842
 10
5.7229534202
 20
22.480874015
  0
LWPOLYLINE
  5
36D
100
AcDbEntity
  8
ASSI
100
AcDbPolyline
 62
7
  6
CONTINUOUS
 90
9
 70
0
 10
5.6554266859
 20
22.4089926392
 10
5.6682408676
 20
22.4169885864
 10
5.6798756524
 20
22.4254124148
 10
5.6903310404
 20
22.4342641243
 10
5.6996521423
 20
22.4435978009
 10
5.7077938473
 20
22.4533593586
 10
5.7146208231
 20
22.4633865398
 10
5.7201110944
 20
22.4736837842
 10
5.7229534202
 20
22.480874015
  0
LINE
  5
36E
100
AcDbEntity
  8
DRAFT
100
AcDbLine
 62
7
  6
CONTINUOUS
 10
5.861642796
 20
22.5610455843
 11
2.4822211298
 21
20.607517877
  0
LINE
  5
36F
100
AcDbEntity
  8
RACCORDO
100
AcDbLine
 62
253
  6
CONTINUOUS
 10
5.8710942541
 20
27.4325747805
 11
5.6280289465
 21
27.2922319182
  0
LINE
  5
370
100
AcDbEntity
  8
0
100
AcDbLine
 62
7
  6
CONTINUOUS
 10
-13.3390289872
 20
15.0354966923
 11
-13.9061450856
 21
14.7080509648
  0
LINE
  5
371
100
AcDbEntity
  8
ASSI
100
AcDbLine
 62
7
  6
CONTINUOUS
 10
-13.3390289872
 20
15.0354966923
 11
-13.9061450856
 21
14.7080509648
  0
LINE
  5
372
100
AcDbEntity
  8
0
100
AcDbLine
 62
253
  6
CONTINUOUS
 10
1.1368024209
 20
23.0658767274
 11
0.0341170848
 21
22.4292000343
  0
LINE
  5
373
100
AcDbEntity
  8
ASSI
100
AcDbLine
 62
253
  6
CONTINUOUS
 10
1.1368024209
 20
23.0658767274
 11
0.0341170848
 21
22.4292000343
  0
LINE
  5
374
100
AcDbEntity
  8
RACCORDO
100
AcDbLine
 62
253
  6
CONTINUOUS
 10
11.7648526739
 20
28.3051840263
 11
5.8710942541
 21
24.9021900964
  0
LINE
  5
375
100
AcDbEntity
  8
RACCORDO
100
AcDbLine
 62
7
  6
CONTINUOUS
 10
5.6554266859
 20
22.4089926392
 11
2.5276512938
 21
20.6030543281
  0
LINE
  5
376
100
AcDbEntity
  8
ASSI
100
AcDbLine
 62
7
  6
CONTINUOUS
 10
5.6554266859
 20
22.4089926392
 11
2.5276512938
 21
20.6030543281
  0
LINE
  5
377
100
AcDbEntity
  8
RACCORDO
100
AcDbLine
 62
253
  6
CONTINUOUS
 10
13.5323503874
 20
25.2437881874
 11
5.8710942541
 21
20.8202597256
  0
LINE
  5
378
100
AcDbEntity
  8
RACCORDO
100
AcDbLine
 62
253
  6
CONTINUOUS
 10
13.7980978774
 20
21.9086563581
 11
14.5671886052
 21
22.3527212302
  0
LINE
  5
379
100
AcDbEntity
  8
RACCORDO
100
AcDbLine
 62
253
  6
CONTINUOUS
 10
14.0024607308
 20
21.536818021
 11
14.7792883309
 21
21.9853537295
  0
LINE
  5
37A
100
AcDbEntity
  8
RACCORDO
100
AcDbLine
 62
253
  6
CONTINUOUS
 10
14.0024607308
 20
21.536818021
 11
13.9947315134
 21
21.5323996696
  0
LINE
  5
37B
100
AcDbEntity
  8
RACCORDO
100
AcDbLine
 62
253
  6
CONTINUOUS
 10
13.6726804872
 20
22.2566619204
 11
14.2100164182
 21
22.5589479745
  0
LWPOLYLINE
  5
37C
100
AcDbEntity
  8
RACCORDO
100
AcDbPolyline
 62
253
  6
CONTINUOUS
 90
26
 70
0
 10
13.7980978774
 20
21.9086563581
 10
13.7949910738
 20
21.9069143495
 10
13.7917629681
 20
21.9053356551
 10
13.7884150859
 20
21.9039204295
 10
13.7849385884
 20
21.9026722423
 10
13.7813452984
 20
21.9015878097
 10
13.7776676364
 20
21.9006563411
 10
13.7739212527
 20
21.8998781328
 10
13.770093057
 20
21.8992510319
 10
13.76617249
 20
21.8987616888
 10
13.7621760468
 20
21.898409067
 10
13.7580901725
 20
21.8981957536
 10
13.7538602402
 20
21.898119308
 10
13.7494821281
 20
21.8981823713
 10
13.744965014
 20
21.8983922951
 10
13.7402756552
 20
21.898759486
 10
13.7354042952
 20
21.8992921492
 10
13.7303680189
 20
21.8999967261
 10
13.7251745077
 20
21.900882434
 10
13.7198081286
 20
21.9019610261
 10
13.7142931042
 20
21.9032348105
 10
13.7086956195
 20
21.9046940432
 10
13.7030144335
 20
21.9063436488
 10
13.6972572122
 20
21.9081835569
 10
13.6915004063
 20
21.9101878721
 10
13.6857464723
 20
21.9123546603
  0
LWPOLYLINE
  5
37D
100
AcDbEntity
  8
RACCORDO
100
AcDbPolyline
 62
253
  6
CONTINUOUS
 90
73
 70
0
 10
13.9947315134
 20
21.5323996696
 10
13.9792933227
 20
21.5237112184
 10
13.9715843494
 20
21.5194411186
 10
13.9638911916
 20
21.5152511154
 10
13.9562367396
 20
21.5111540092
 10
13.9485981031
 20
21.5071369997
 10
13.940914773
 20
21.5031892973
 10
13.9332065896
 20
21.4993170092
 10
13.9254537126
 20
21.4955140284
 10
13.9175361113
 20
21.4917512435
 10
13.9094345282
 20
21.4880131221
 10
13.9011682208
 20
21.4843151968
 10
13.8926749313
 20
21.4806749535
 10
13.8839287366
 20
21.4770773183
 10
13.8749555598
 20
21.4735373652
 10
13.8657709118
 20
21.4701178022
 10
13.8563418283
 20
21.4668093987
 10
13.8467012736
 20
21.4636213853
 10
13.8369636514
 20
21.4606441617
 10
13.8271251465
 20
21.457886204
 10
13.8171895741
 20
21.4553390361
 10
13.8072827845
 20
21.4530676296
 10
13.797409867
 20
21.4510848169
 10
13.7875657322
 20
21.4493777657
 10
13.7778609617
 20
21.4479729504
 10
13.7683189504
 20
21.4468817731
 10
13.7589163033
 20
21.4460928317
 10
13.7496934169
 20
21.4455983954
 10
13.7406714095
 20
21.4453999314
 10
13.7318291628
 20
21.4454959725
 10
13.723143718
 20
21.4458743853
 10
13.7146030001
 20
21.4465346752
 10
13.7062190842
 20
21.447477337
 10
13.6980052364
 20
21.4486917207
 10
13.6899625889
 20
21.4501785282
 10
13.6820900096
 20
21.4519370577
 10
13.6743973681
 20
21.4539545548
 10
13.6668850175
 20
21.45623157
 10
13.6595526049
 20
21.4587675527
 10
13.6524089406
 20
21.4615480967
 10
13.6454517786
 20
21.4645755395
 10
13.6386833651
 20
21.4678475436
 10
13.6321192483
 20
21.4713426904
 10
13.6257605662
 20
21.4750626877
 10
13.619606181
 20
21.4790058277
 10
13.6136682271
 20
21.4831455692
 10
13.6079510101
 20
21.4874800251
 10
13.6024502245
 20
21.4920110824
 10
13.5971650881
 20
21.4967178608
 10
13.5920980145
 20
21.5015969154
 10
13.5872465902
 20
21.5066516911
 10
13.5826027915
 20
21.5118716429
 10
13.578166448
 20
21.5172538108
 10
13.5739377302
 20
21.5228011548
 10
13.5699091256
 20
21.52851201
 10
13.5660804559
 20
21.5343810549
 10
13.5624518994
 20
21.5404136109
 10
13.5590164792
 20
21.5466239777
 10
13.5557716241
 20
21.5530080251
 10
13.5527199053
 20
21.5595698833
 10
13.549862059
 20
21.5663362423
 10
13.547192827
 20
21.5733121371
 10
13.5447174674
 20
21.5804925328
 10
13.5424524911
 20
21.5878890147
 10
13.5403958815
 20
21.5955090169
 10
13.5385496552
 20
21.6033451053
 10
13.5369363727
 20
21.6113865627
 10
13.535557748
 20
21.6196361396
 10
13.5344120671
 20
21.6280910855
 10
13.5335167488
 20
21.636732432
 10
13.5328775991
 20
21.6455538562
 10
13.532488812
 20
21.654561681
 10
13.5323503874
 20
21.6637559063
  0
LINE
  5
37E
100
AcDbEntity
  8
RACCORDO
100
AcDbLine
 62
253
  6
CONTINUOUS
 10
5.7580897753
 20
26.0448404355
 11
2.2822947854
 21
24.1043743495
  0
LWPOLYLINE
  5
37F
100
AcDbEntity
  8
RACCORDO
100
AcDbPolyline
 62
253
  6
CONTINUOUS
 90
14
 70
0
 10
-58.4315028766
 20
-18.1522348962
 10
-58.4271984898
 20
-18.1498338482
 10
-58.4113708049
 20
-18.1394598457
 10
-58.3966511152
 20
-18.1272596977
 10
-58.3831021378
 20
-18.1132853809
 10
-58.3707816784
 20
-18.0975961686
 10
-58.3597430466
 20
-18.0802596496
 10
-58.3500340909
 20
-18.0613516478
 10
-58.341696711
 20
-18.0409547307
 10
-58.3347658284
 20
-18.0191556484
 10
-58.3292699944
 20
-17.9960461832
 10
-58.3252326264
 20
-17.9717247345
 10
-58.3226715928
 20
-17.9462961975
 10
-58.3215981056
 20
-17.9198695893
  0
LINE
  5
380
100
AcDbEntity
  8
RACCORDO
100
AcDbLine
 62
7
  6
CONTINUOUS
 10
2.4822211298
 20
20.607517877
 11
2.4206392856
 21
20.5738126412
  0
LINE
  5
381
100
AcDbEntity
  8
RACCORDO
100
AcDbLine
 62
7
  6
CONTINUOUS
 10
2.5150112022
 20
20.5962547221
 11
2.5276512938
 21
20.6030543281
  0
LINE
  5
382
100
AcDbEntity
  8
ASSI
100
AcDbLine
 62
7
  6
CONTINUOUS
 10
2.5150112022
 20
20.5962547221
 11
2.5276512938
 21
20.6030543281
  0
LINE
  5
383
100
AcDbEntity
  8
RACCORDO
100
AcDbLine
 62
253
  6
CONTINUOUS
 10
-58.3215981056
 20
-17.9198695893
 11
-57.7719661753
 21
-17.624295324
  0
LINE
  5
384
100
AcDbEntity
  8
RACCORDO
100
AcDbLine
 62
7
  6
CONTINUOUS
 10
-58.4315948255
 20
-18.1522843805
 11
-57.8778064118
 21
-17.8544748929
  0
LWPOLYLINE
  5
385
100
AcDbEntity
  8
RACCORDO
100
AcDbPolyline
 62
253
  6
CONTINUOUS
 90
19
 70
0
 10
-57.7719661753
 20
-17.624295324
 10
-57.7461323424
 20
-17.6110857456
 10
-57.7184227774
 20
-17.5992109364
 10
-57.6890437078
 20
-17.5887592751
 10
-57.6582137872
 20
-17.5798085493
 10
-57.6261624656
 20
-17.5724253751
 10
-57.5931282814
 20
-17.5666647022
 10
-57.5593570906
 20
-17.5625694057
 10
-57.5251002353
 20
-17.5601699662
 10
-57.4906126697
 20
-17.559484243
 10
-57.4561510676
 20
-17.5605173413
 10
-57.4219719107
 20
-17.5632615741
 10
-57.3883295769
 20
-17.5676965193
 10
-57.355474451
 20
-17.5737891719
 10
-57.3236510597
 20
-17.5814941887
 10
-57.2930962508
 20
-17.5907542272
 10
-57.2640374314
 20
-17.6015003709
 10
-57.2366908758
 20
-17.6136526429
 10
-57.2112601146
 20
-17.6271206007
  0
LWPOLYLINE
  5
386
100
AcDbEntity
  8
RACCORDO
100
AcDbPolyline
 62
7
  6
CONTINUOUS
 90
16
 70
0
 10
2.4206392856
 20
20.5738126412
 10
2.4055071635
 20
20.5660798757
 10
2.389595626
 20
20.5590005296
 10
2.3729046731
 20
20.5525746029
 10
2.3553150902
 20
20.5467698275
 10
2.3369460918
 20
20.5416184715
 10
2.318155322
 20
20.5372173392
 10
2.2990115263
 20
20.5335921117
 10
2.2794459591
 20
20.5307171079
 10
2.259610027
 20
20.528612089
 10
2.23942974
 20
20.5272795104
 10
2.2189790881
 20
20.5267169166
 10
2.198631448
 20
20.5269367027
 10
2.1785112784
 20
20.5279430004
 10
2.1584941206
 20
20.5297316781
 10
2.1385799745
 20
20.5323027356
  0
LWPOLYLINE
  5
387
100
AcDbEntity
  8
RACCORDO
100
AcDbPolyline
 62
7
  6
CONTINUOUS
 90
6
 70
0
 10
-57.8777295266
 20
-17.85443316
 10
-57.8705457236
 20
-17.8509419005
 10
-57.8627263773
 20
-17.8479392032
 10
-57.8560555366
 20
-17.8460295845
 10
-57.8507190524
 20
-17.8449723706
 10
-57.8470960813
 20
-17.8445560932
  0
LWPOLYLINE
  5
388
100
AcDbEntity
  8
RACCORDO
100
AcDbPolyline
 62
253
  6
CONTINUOUS
 90
19
 70
0
 10
-58.8823041663
 20
-17.9170443125
 10
-58.8568734878
 20
-17.9305122303
 10
-58.8295270143
 20
-17.9426644755
 10
-58.8004682725
 20
-17.9534106048
 10
-58.7699135328
 20
-17.9626706398
 10
-58.7380901996
 20
-17.9703756626
 10
-58.7052351186
 20
-17.9764683283
 10
-58.6715928147
 20
-17.9809032922
 10
-58.6374136715
 20
-17.9836475468
 10
-58.602952068
 20
-17.9846806681
 10
-58.5684644856
 20
-17.983994967
 10
-58.5342075987
 20
-17.9815955468
 10
-58.5004363653
 20
-17.9775002652
 10
-58.4674021283
 20
-17.9717396016
 10
-58.435350746
 20
-17.9643564298
 10
-58.4045207614
 20
-17.9554056991
 10
-58.3751416274
 20
-17.9449540256
 10
-58.347431999
 20
-17.9330791961
 10
-58.3215981056
 20
-17.9198695893
  0
LWPOLYLINE
  5
389
100
AcDbEntity
  8
RACCORDO
100
AcDbPolyline
 62
253
  6
CONTINUOUS
 90
25
 70
0
 10
-58.9530040748
 20
-17.9578576638
 10
-58.9483423987
 20
-17.9603677895
 10
-58.9437402747
 20
-17.9625012434
 10
-58.9391977027
 20
-17.9642580256
 10
-58.9346958056
 20
-17.9656422938
 10
-58.9302534605
 20
-17.9666498902
 10
-58.9259272992
 20
-17.9672683416
 10
-58.9217188721
 20
-17.967492712
 10
-58.9176266288
 20
-17.9673279373
 10
-58.9137025501
 20
-17.9667763512
 10
-58.9099487769
 20
-17.965833009
 10
-58.9063631684
 20
-17.9645028554
 10
-58.9029912826
 20
-17.9628030589
 10
-58.8998358469
 20
-17.9607289757
 10
-58.8968941339
 20
-17.9582852496
 10
-58.8942035203
 20
-17.9555029794
 10
-58.8917671935
 20
-17.9523776724
 10
-58.8895819659
 20
-17.9489138213
 10
-58.8876756515
 20
-17.9451560025
 10
-58.8860518324
 20
-17.9410998378
 10
-58.8847069263
 20
-17.9367497054
 10
-58.883658
 20
-17.9321633156
 10
-58.8829107423
 20
-17.9273599053
 10
-58.8824594644
 20
-17.9223202376
 10
-58.8823041663
 20
-17.9170443125
  0
LWPOLYLINE
  5
38A
100
AcDbEntity
  8
RACCORDO
100
AcDbPolyline
 62
7
  6
CONTINUOUS
 90
16
 70
0
 10
-58.870133252
 20
-18.140974271
 10
-58.8461510028
 20
-18.1539447249
 10
-58.8164265727
 20
-18.1677176983
 10
-58.7860076263
 20
-18.1793536529
 10
-58.7550304081
 20
-18.1887972505
 10
-58.7236272269
 20
-18.1960133235
 10
-58.6919654668
 20
-18.2009720394
 10
-58.6602614768
 20
-18.2036557735
 10
-58.6286657211
 20
-18.2040759898
 10
-58.5972943118
 20
-18.2022583508
 10
-58.5663401423
 20
-18.198243022
 10
-58.5359731189
 20
-18.1920876392
 10
-58.5062899671
 20
-18.1838450328
 10
-58.4774330471
 20
-18.1735866896
 10
-58.4495776138
 20
-18.1614185633
 10
-58.4314966093
 20
-18.1522281616
  0
LINE
  5
38B
100
AcDbEntity
  8
RACCORDO
100
AcDbLine
 62
7
  6
CONTINUOUS
 10
-59.6806392859
 20
-17.6729981928
 11
-58.8701710257
 21
-18.1409524087
  0
LINE
  5
38C
100
AcDbEntity
  8
RACCORDO
100
AcDbLine
 62
253
  6
CONTINUOUS
 10
-59.6806392859
 20
-17.5377302124
 11
-58.9530040748
 21
-17.9578576638
  0
LINE
  5
38D
100
AcDbEntity
  8
RACCORDO
100
AcDbLine
 62
253
  6
CONTINUOUS
 10
-57.8475592915
 20
-17.9944407627
 11
-57.9876580019
 21
-17.9135495231
  0
LWPOLYLINE
  5
38E
100
AcDbEntity
  8
RACCORDO
100
AcDbPolyline
 62
253
  6
CONTINUOUS
 90
28
 70
0
 10
-30.6109229734
 20
-69.1485028393
 10
-30.6687621031
 20
-68.9994323227
 10
-30.7791580722
 20
-68.7467080601
 10
-30.9007021274
 20
-68.4968991611
 10
-31.0328021109
 20
-68.2512227053
 10
-31.174814448
 20
-68.0108756099
 10
-31.326047297
 20
-67.7770287879
 10
-31.4857638562
 20
-67.5508215466
 10
-31.6531859356
 20
-67.3333560357
 10
-31.8274978092
 20
-67.1256917807
 10
-32.0078503026
 20
-66.9288404098
 10
-32.1933648682
 20
-66.7437608416
 10
-32.3831377775
 20
-66.5713547099
 10
-32.5762444173
 20
-66.4124620371
 10
-32.771743899
 20
-66.2678570106
 10
-32.9686837338
 20
-66.1382441427
 10
-33.1661044935
 20
-66.0242548515
 10
-33.3630443855
 20
-65.926444461
 10
-33.558543975
 20
-65.8452894729
 10
-33.7516507838
 20
-65.7811852737
 10
-33.9414239507
 20
-65.7344441783
 10
-34.1269387205
 20
-65.7052938997
 10
-34.3072915231
 20
-65.6938763624
 10
-34.4816042457
 20
-65.7002472107
 10
-34.6490281404
 20
-65.7243756511
 10
-34.8087468994
 20
-65.7661442771
 10
-34.9599813467
 20
-65.8253492805
 10
-35.0675033876
 20
-65.8810880177
  0
LWPOLYLINE
  5
38F
100
AcDbEntity
  8
RACCORDO
100
AcDbPolyline
 62
253
  6
CONTINUOUS
 90
28
 70
0
 10
-29.4653010848
 20
-68.6159656424
 10
-29.5640118155
 20
-68.3615561879
 10
-29.6744084771
 20
-68.1088310417
 10
-29.7959531873
 20
-67.8590215194
 10
-29.9280538128
 20
-67.6133445989
 10
-30.0700668202
 20
-67.3729971021
 10
-30.2213003717
 20
-67.1391499349
 10
-30.3810176493
 20
-66.9129424281
 10
-30.5484404923
 20
-66.6954766928
 10
-30.7227532126
 20
-66.4878122202
 10
-30.9031065923
 20
-66.2909607048
 10
-31.0886219859
 20
-66.1058811666
 10
-31.2783955909
 20
-65.9334752876
 10
-31.4715028407
 20
-65.7745830223
 10
-31.6670029274
 20
-65.6299784857
 10
-31.863943389
 20
-65.5003661789
 10
-32.0613647561
 20
-65.3863775557
 10
-32.2583052177
 20
-65.2885679538
 10
-32.4538053044
 20
-65.2074138906
 10
-32.6469125543
 20
-65.143310744
 10
-32.8366861594
 20
-65.0965708208
 10
-33.0222015529
 20
-65.0674218324
 10
-33.2025549326
 20
-65.0560057855
 10
-33.3768676529
 20
-65.0623782979
 10
-33.544290496
 20
-65.0865083306
 10
-33.7040077738
 20
-65.1282783285
 10
-33.8552413253
 20
-65.1874847813
 10
-33.9627507138
 20
-65.2432176697
  0
LWPOLYLINE
  5
390
100
AcDbEntity
  8
RACCORDO
100
AcDbPolyline
 62
253
  6
CONTINUOUS
 90
8
 70
0
 10
-58.1502561684
 20
33.6913523506
 10
-58.1379860997
 20
33.6571595048
 10
-58.1274933166
 20
33.6230334548
 10
-58.118830416
 20
33.5891573017
 10
-58.1120430525
 20
33.5557100028
 10
-58.1071683076
 20
33.5228751277
 10
-58.1042327665
 20
33.4908394944
 10
-58.1032520682
 20
33.4597818473
  0
LWPOLYLINE
  5
391
100
AcDbEntity
  8
RACCORDO
100
AcDbPolyline
 62
7
  6
CONTINUOUS
 90
40
 70
0
 10
-29.7734697697
 20
-67.5463308934
 10
-29.7998851485
 20
-67.4681761536
 10
-29.8469625768
 20
-67.3412994674
 10
-29.8982371945
 20
-67.2144610039
 10
-29.9536149726
 20
-67.0879573446
 10
-30.0129602667
 20
-66.96215223
 10
-30.0760932762
 20
-66.8374591002
 10
-30.1428490968
 20
-66.7142185988
 10
-30.2130703447
 20
-66.5927309834
 10
-30.2865618982
 20
-66.4733377765
 10
-30.3631372274
 20
-66.3563396014
 10
-30.4425935009
 20
-66.2420401675
 10
-30.5246898267
 20
-66.1307719001
 10
-30.6092118897
 20
-66.0228048713
 10
-30.6959249385
 20
-65.9184154623
 10
-30.7845347684
 20
-65.8179245857
 10
-30.8747656654
 20
-65.7215999901
 10
-30.9663938872
 20
-65.6296328037
 10
-31.0591849332
 20
-65.5422125411
 10
-31.1528952306
 20
-65.4595231096
 10
-31.2472422503
 20
-65.3817646466
 10
-31.3419150351
 20
-65.3091353662
 10
-31.4366186975
 20
-65.2417940125
 10
-31.5310987721
 20
-65.1798496063
 10
-31.6250828679
 20
-65.1234061004
 10
-31.7181890859
 20
-65.0726046477
 10
-31.8102441406
 20
-65.0274456754
 10
-31.9012546067
 20
-64.9878574938
 10
-31.9908427751
 20
-64.9539444222
 10
-32.0788162333
 20
-64.92571085
 10
-32.1653884836
 20
-64.9030629442
 10
-32.250177426
 20
-64.8861041347
 10
-32.3329466178
 20
-64.8748745851
 10
-32.4140159733
 20
-64.8693829142
 10
-32.4929574798
 20
-64.869756153
 10
-32.5695493315
 20
-64.8760833178
 10
-32.6443034039
 20
-64.8886030137
 10
-32.7171521078
 20
-64.9076482049
 10
-32.7875515314
 20
-64.9334430882
 10
-32.8552776892
 20
-64.9662615541
  0
LWPOLYLINE
  5
392
100
AcDbEntity
  8
RACCORDO
100
AcDbPolyline
 62
253
  6
CONTINUOUS
 90
10
 70
0
 10
-37.7078805679
 20
-65.1628147449
 10
-37.7072992088
 20
-65.1659246103
 10
-37.70793637
 20
-65.170145981
 10
-37.7100154674
 20
-65.1748978894
 10
-37.7135674627
 20
-65.1799870721
 10
-37.7184943377
 20
-65.1856104023
 10
-37.7247890888
 20
-65.191621481
 10
-37.7324275338
 20
-65.1978575633
 10
-37.7412988163
 20
-65.2045017656
 10
-37.743805412
 20
-65.2062481555
  0
LWPOLYLINE
  5
393
100
AcDbEntity
  8
RACCORDO
100
AcDbPolyline
 62
253
  6
CONTINUOUS
 90
7
 70
0
 10
-29.1544768223
 20
-69.9540823707
 10
-29.161752997
 20
-69.8699459452
 10
-29.1960348453
 20
-69.6256600125
 10
-29.2437953761
 20
-69.3768997618
 10
-29.3048019068
 20
-69.1248771119
 10
-29.3787572353
 20
-68.8708198424
 10
-29.4653010848
 20
-68.6159656424
  0
LWPOLYLINE
  5
394
100
AcDbEntity
  8
RACCORDO
100
AcDbPolyline
 62
253
  6
CONTINUOUS
 90
3
 70
0
 10
-27.3687754149
 20
-69.1977142451
 10
-27.3749939631
 20
-69.0788720746
 10
-27.3752906843
 20
-69.0478804304
  0
LWPOLYLINE
  5
395
100
AcDbEntity
  8
RACCORDO
100
AcDbPolyline
 62
253
  6
CONTINUOUS
 90
22
 70
0
 10
-26.9742227406
 20
-68.8623552175
 10
-26.9799484623
 20
-68.7524908811
 10
-26.9782552836
 20
-68.642792207
 10
-26.9691432043
 20
-68.5332591952
 10
-26.9525796079
 20
-68.4237059419
 10
-26.928597111
 20
-68.314318351
 10
-26.8972935636
 20
-68.2056541336
 10
-26.8586293386
 20
-68.0977240917
 10
-26.8126440631
 20
-67.9905174233
 10
-26.7595544682
 20
-67.8845594332
 10
-26.6993242362
 20
-67.7798582716
 10
-26.6319896849
 20
-67.6764057882
 10
-26.5578764984
 20
-67.5747028369
 10
-26.4769481088
 20
-67.4747571207
 10
-26.389241084
 20
-67.3765609367
 10
-26.2951908121
 20
-67.28059203
 10
-26.1947543647
 20
-67.1868567143
 10
-26.0879746701
 20
-67.095348676
 10
-25.9754159018
 20
-67.0065267186
 10
-25.8572661177
 20
-66.9205437768
 10
-25.73333726
 20
-66.8372469161
 10
-25.6036293286
 20
-66.7566361363
  0
LINE
  5
396
100
AcDbEntity
  8
ELVOX
100
AcDbLine
 62
253
  6
CONTINUOUS
 10
-37.9063207719
 20
36.5513408953
 11
-37.9079220316
 21
36.7485929673
  0
LINE
  5
397
100
AcDbEntity
  8
RACCORDO
100
AcDbLine
 62
7
  6
CONTINUOUS
 10
-27.3752906843
 20
-69.0478804304
 11
-27.375291171
 21
-69.0465732799
  0
LINE
  5
398
100
AcDbEntity
  8
RACCORDO
100
AcDbLine
 62
253
  6
CONTINUOUS
 10
-38.2583514023
 20
-64.7900580054
 11
-38.2583514023
 21
-63.9304889983
  0
LINE
  5
399
100
AcDbEntity
  8
ELVOX
100
AcDbLine
 62
253
  6
CONTINUOUS
 10
-37.1172221886
 20
36.4929670493
 11
-37.1172221886
 21
36.1002976475
  0
LINE
  5
39A
100
AcDbEntity
  8
ELVOX
100
AcDbLine
 62
253
  6
CONTINUOUS
 10
-36.4901269532
 20
35.2167633917
 11
-36.4901269532
 21
36.664239785
  0
LINE
  5
39B
100
AcDbEntity
  8
RACCORDO
100
AcDbLine
 62
253
  6
CONTINUOUS
 10
-31.5105042808
 20
-65.1933520675
 11
-31.5105042808
 21
-65.581685944
  0
LINE
  5
39C
100
AcDbEntity
  8
RACCORDO
100
AcDbLine
 62
7
  6
CONTINUOUS
 10
-31.4189017919
 20
-65.2543920512
 11
-31.4189017919
 21
-65.6457523622
  0
LINE
  5
39D
100
AcDbEntity
  8
0
100
AcDbLine
 62
7
  6
CONTINUOUS
 10
-27.375291171
 20
-70.9327418866
 11
-27.375291171
 21
-69.0465784616
  0
LINE
  5
39E
100
AcDbEntity
  8
RACCORDO
100
AcDbLine
 62
253
  6
CONTINUOUS
 10
-27.3687754149
 20
-69.1977142451
 11
-27.3687754149
 21
-70.9362881697
  0
LINE
  5
39F
100
AcDbEntity
  8
RACCORDO
100
AcDbLine
 62
253
  6
CONTINUOUS
 10
-26.7855441758
 20
-69.961793902
 11
-26.7855441758
 21
-71.2537191825
  0
LINE
  5
3A0
100
AcDbEntity
  8
ELVOX
100
AcDbLine
 62
253
  6
CONTINUOUS
 10
-37.9079220316
 20
36.7485929673
 11
-37.9063207719
 21
36.9440102971
  0
LWPOLYLINE
  5
3A1
100
AcDbEntity
  8
RACCORDO
100
AcDbPolyline
 62
253
  6
CONTINUOUS
 90
22
 70
0
 10
-38.5387471383
 20
-58.1908374436
 10
-38.5379737223
 20
-58.1662556017
 10
-38.535657704
 20
-58.1409150735
 10
-38.5318117493
 20
-58.1149544432
 10
-38.5264568914
 20
-58.0885156862
 10
-38.5196224154
 20
-58.0617433929
 10
-38.511345698
 20
-58.0347839777
 10
-38.5016720038
 20
-58.0077848782
 10
-38.4906542368
 20
-57.9808937494
 10
-38.478352652
 20
-57.9542576553
 10
-38.4648345251
 20
-57.9280222656
 10
-38.4501737852
 20
-57.9023310584
 10
-38.4344506101
 20
-57.8773245358
 10
-38.4177509877
 20
-57.8531394552
 10
-38.4001662464
 20
-57.829908082
 10
-38.3817925554
 20
-57.8077574662
 10
-38.3627303981
 20
-57.7868087466
 10
-38.3430840231
 20
-57.7671764893
 10
-38.3229608744
 20
-57.7489680606
 10
-38.3024710032
 20
-57.7322830402
 10
-38.2817264659
 20
-57.7172126762
 10
-38.2608407118
 20
-57.7038393862
  0
LWPOLYLINE
  5
3A2
100
AcDbEntity
  8
RACCORDO
100
AcDbPolyline
 62
7
  6
CONTINUOUS
 90
10
 70
0
 10
-58.3215981056
 20
-40.7214428957
 10
-58.3424622304
 20
-40.7479837098
 10
-58.3638477525
 20
-40.7728173088
 10
-58.3856416589
 20
-40.7958808363
 10
-58.4076926294
 20
-40.8170847126
 10
-58.4299046196
 20
-40.8364777721
 10
-58.452281017
 20
-40.8541968742
 10
-58.4747790782
 20
-40.8702531797
 10
-58.4972718316
 20
-40.8846027924
 10
-58.5167726992
 20
-40.895706322
  0
LWPOLYLINE
  5
3A3
100
AcDbEntity
  8
RACCORDO
100
AcDbPolyline
 62
253
  6
CONTINUOUS
 90
17
 70
0
 10
-59.2246409099
 20
-33.4564330465
 10
-59.2768778062
 20
-33.5116901282
 10
-59.3029823987
 20
-33.5387960539
 10
-59.3291462857
 20
-33.5652208481
 10
-59.3553194895
 20
-33.5908815553
 10
-59.3813584046
 20
-33.6159106518
 10
-59.4070539684
 20
-33.6401241776
 10
-59.4325901936
 20
-33.6635473909
 10
-59.4584245305
 20
-33.6866964585
 10
-59.4844331412
 20
-33.7095209227
 10
-59.5107178453
 20
-33.7319999707
 10
-59.5380860801
 20
-33.7547267517
 10
-59.5669336098
 20
-33.7780453903
 10
-59.5968478909
 20
-33.801575406
 10
-59.6274207199
 20
-33.8248259254
 10
-59.658633052
 20
-33.8477363957
 10
-59.6806392859
 20
-33.8633536413
  0
LWPOLYLINE
  5
3A4
100
AcDbEntity
  8
RACCORDO
100
AcDbPolyline
 62
253
  6
CONTINUOUS
 90
3
 70
0
 10
13.6981140699
 20
20.2711122502
 10
13.6923701444
 20
20.2663947864
 10
13.6897474391
 20
20.264486228
  0
LWPOLYLINE
  5
3A5
100
AcDbEntity
  8
RACCORDO
100
AcDbPolyline
 62
7
  6
CONTINUOUS
 90
4
 70
0
 10
13.6895797516
 20
20.2643694114
 10
13.707161043
 20
20.2779535987
 10
13.7224383521
 20
20.2921795007
 10
13.7365903897
 20
20.3079330084
  0
LINE
  5
3A6
100
AcDbEntity
  8
RACCORDO
100
AcDbLine
 62
253
  6
CONTINUOUS
 10
13.7371420512
 20
20.3924743012
 11
5.8710942541
 21
14.8806023613
  0
LINE
  5
3A7
100
AcDbEntity
  8
RACCORDO
100
AcDbLine
 62
7
  6
CONTINUOUS
 10
13.6897477124
 20
20.2644864195
 11
5.8710942541
 21
14.7858244897
  0
LWPOLYLINE
  5
3A8
100
AcDbEntity
  8
RACCORDO
100
AcDbPolyline
 62
7
  6
CONTINUOUS
 90
5
 70
0
 10
14.7221320265
 20
21.4439010016
 10
14.7331488189
 20
21.4512630825
 10
14.7493643035
 20
21.4638846056
 10
14.7646364311
 20
21.4781055946
 10
14.7787818955
 20
21.4938512563
  0
LINE
  5
3A9
100
AcDbEntity
  8
RACCORDO
100
AcDbLine
 62
253
  6
CONTINUOUS
 10
14.7792883309
 20
21.5781977372
 11
14.010197603
 21
21.0946893974
  0
LINE
  5
3AA
100
AcDbEntity
  8
RACCORDO
100
AcDbLine
 62
7
  6
CONTINUOUS
 10
14.7222361827
 20
21.4439660239
 11
13.9494631444
 21
20.9581427065
  0
LWPOLYLINE
  5
3AB
100
AcDbEntity
  8
RACCORDO
100
AcDbPolyline
 62
253
  6
CONTINUOUS
 90
19
 70
0
 10
-58.1305958712
 20
-32.6964604586
 10
-58.1059446039
 20
-32.6809843696
 10
-58.0814809386
 20
-32.6631405435
 10
-58.0573910576
 20
-32.6430647795
 10
-58.0338582998
 20
-32.6209098647
 10
-58.0110617618
 20
-32.5968444072
 10
-57.9891749351
 20
-32.5710515526
 10
-57.9683643921
 20
-32.5437275964
 10
-57.9487885148
 20
-32.5150804878
 10
-57.9305962867
 20
-32.4853282422
 10
-57.9139261636
 20
-32.4546972894
 10
-57.8989050186
 20
-32.4234207484
 10
-57.8856471735
 20
-32.3917366488
 10
-57.8742535326
 20
-32.3598861251
 10
-57.864810813
 20
-32.3281115803
 10
-57.8573908837
 20
-32.2966548381
 10
-57.85205022
 20
-32.2657553054
 10
-57.8488294727
 20
-32.2356481502
 10
-57.8477531587
 20
-32.2065625106
  0
LWPOLYLINE
  5
3AC
100
AcDbEntity
  8
RACCORDO
100
AcDbPolyline
 62
253
  6
CONTINUOUS
 90
22
 70
0
 10
-58.7728348388
 20
-32.3256397278
 10
-58.7516979764
 20
-32.3125223618
 10
-58.7306793199
 20
-32.2976519402
 10
-58.7098964142
 20
-32.2811116245
 10
-58.6894654857
 20
-32.2629939148
 10
-58.6695007925
 20
-32.2434001328
 10
-58.6501139851
 20
-32.2224398547
 10
-58.6314134825
 20
-32.2002302989
 10
-58.6135038656
 20
-32.1768956704
 10
-58.596485292
 20
-32.1525664658
 10
-58.5804529367
 20
-32.1273787438
 10
-58.565496459
 20
-32.1014733646
 10
-58.5516995016
 20
-32.0749952013
 10
-58.5391392227
 20
-32.0480923308
 10
-58.5278858645
 20
-32.0209152047
 10
-58.5180023603
 20
-31.9936158085
 10
-58.5095439827
 20
-31.9663468116
 10
-58.5025580344
 20
-31.9392607132
 10
-58.4970835836
 20
-31.9125089898
 10
-58.4931512457
 20
-31.8862412479
 10
-58.4907830119
 20
-31.8606043873
 10
-58.4899921263
 20
-31.8357417798
  0
LINE
  5
3AD
100
AcDbEntity
  8
RACCORDO
100
AcDbLine
 62
253
  6
CONTINUOUS
 10
-59.2246409099
 20
-33.4564330465
 11
-58.3377154724
 21
-32.9443351127
  0
LINE
  5
3AE
100
AcDbEntity
  8
RACCORDO
100
AcDbLine
 62
253
  6
CONTINUOUS
 10
-59.6806392859
 20
-34.0462737994
 11
-58.1963156553
 21
-33.1892467798
  0
LINE
  5
3AF
100
AcDbEntity
  8
RACCORDO
100
AcDbLine
 62
253
  6
CONTINUOUS
 10
-58.1305958712
 20
-32.6964604586
 11
-58.4543480903
 21
-32.8769771188
  0
LINE
  5
3B0
100
AcDbEntity
  8
RACCORDO
100
AcDbLine
 62
253
  6
CONTINUOUS
 10
-57.7719661753
 20
-33.3060635894
 11
-58.1032520682
 21
-33.4907808498
  0
LWPOLYLINE
  5
3B1
100
AcDbEntity
  8
RACCORDO
100
AcDbPolyline
 62
253
  6
CONTINUOUS
 90
5
 70
0
 10
-58.2000480063
 20
33.7976980098
 10
-58.1969740592
 20
33.7923243565
 10
-58.1798374479
 20
33.7591347296
 10
-58.1642349563
 20
33.7254122462
 10
-58.1502561684
 20
33.6913523506
  0
LWPOLYLINE
  5
3B2
100
AcDbEntity
  8
RACCORDO
100
AcDbPolyline
 62
253
  6
CONTINUOUS
 90
19
 70
0
 10
-18.6690465869
 20
-71.081415371
 10
-18.6705531186
 20
-71.0525825948
 10
-18.6742007947
 20
-71.0227263666
 10
-18.6799618535
 20
-70.9920739115
 10
-18.6877924495
 20
-70.9608585128
 10
-18.697632986
 20
-70.9293177404
 10
-18.709408569
 20
-70.8976916419
 10
-18.7230295777
 20
-70.8662209118
 10
-18.7383923469
 20
-70.8351450612
 10
-18.7553799545
 20
-70.8047005984
 10
-18.7738631129
 20
-70.775119224
 10
-18.7937011532
 20
-70.7466260691
 10
-18.8147430939
 20
-70.7194379841
 10
-18.8368287921
 20
-70.6937618857
 10
-18.8597901618
 20
-70.6697931823
 10
-18.8834524522
 20
-70.6477142889
 10
-18.9076355786
 20
-70.6276932368
 10
-18.9321554933
 20
-70.6098823955
 10
-18.9568255854
 20
-70.5944173135
  0
LWPOLYLINE
  5
3B3
100
AcDbEntity
  8
RACCORDO
100
AcDbPolyline
 62
253
  6
CONTINUOUS
 90
22
 70
0
 10
-17.6083864152
 20
-70.4476261684
 10
-17.6095461899
 20
-70.4229802691
 10
-17.6122812501
 20
-70.3975589047
 10
-17.6165763
 20
-70.3715042419
 10
-17.6224073201
 20
-70.3449619889
 10
-17.6297417009
 20
-70.3180805807
 10
-17.6385384255
 20
-70.2910103491
 10
-17.6487482992
 20
-70.2639026819
 10
-17.6603142241
 20
-70.2369091761
 10
-17.6731715189
 20
-70.2101807903
 10
-17.6872482804
 20
-70.1838670006
 10
-17.7024657856
 20
-70.1581149643
 10
-17.7187389321
 20
-70.1330686974
 10
-17.7359767138
 20
-70.1088682685
 10
-17.75408273
 20
-70.0856490165
 10
-17.7729557242
 20
-70.0635407933
 10
-17.7924901507
 20
-70.042667237
 10
-17.8125767652
 20
-70.0231450808
 10
-17.8331032349
 20
-70.0050835006
 10
-17.8539547672
 20
-69.9885835042
 10
-17.8750147521
 20
-69.9737373659
 10
-17.8961654136
 20
-69.960628111
  0
LWPOLYLINE
  5
3B4
100
AcDbEntity
  8
RACCORDO
100
AcDbPolyline
 62
253
  6
CONTINUOUS
 90
7
 70
0
 10
-13.222359225
 20
-77.0737205135
 10
-13.2200480644
 20
-77.1718671756
 10
-13.2131216012
 20
-77.2723846426
 10
-13.2016008704
 20
-77.3749676458
 10
-13.1855208601
 20
-77.4793046427
 10
-13.1649304041
 20
-77.585078766
 10
-13.1466115352
 20
-77.6632829086
  0
LWPOLYLINE
  5
3B5
100
AcDbEntity
  8
RACCORDO
100
AcDbPolyline
 62
253
  6
CONTINUOUS
 90
30
 70
0
 10
-17.6083864156
 20
-75.5560057836
 10
-17.6082033399
 20
-75.5640482885
 10
-17.6077779301
 20
-75.5724490473
 10
-17.6070906551
 20
-75.5812089941
 10
-17.6061201641
 20
-75.5903419942
 10
-17.6048475162
 20
-75.5998317206
 10
-17.6032605404
 20
-75.6096298071
 10
-17.6013435835
 20
-75.6197291558
 10
-17.5990813755
 20
-75.6301206262
 10
-17.5964707085
 20
-75.6407475899
 10
-17.5935013442
 20
-75.6515967806
 10
-17.590163806
 20
-75.662653006
 10
-17.586465132
 20
-75.6738528671
 10
-17.5824019929
 20
-75.6851766101
 10
-17.5779709413
 20
-75.6966061491
 10
-17.5731877702
 20
-75.7080785658
 10
-17.5680569028
 20
-75.7195681072
 10
-17.5625797366
 20
-75.731057405
 10
-17.5567746753
 20
-75.7424959103
 10
-17.5506508444
 20
-75.7538577692
 10
-17.5442144498
 20
-75.7651240047
 10
-17.5374842296
 20
-75.7762552473
 10
-17.5304709113
 20
-75.7872292877
 10
-17.5231858963
 20
-75.7980240327
 10
-17.5156523028
 20
-75.8086019656
 10
-17.5078837485
 20
-75.8189423716
 10
-17.4998945358
 20
-75.829024734
 10
-17.4917115778
 20
-75.8388145512
 10
-17.4833549757
 20
-75.8482889595
 10
-17.4748369749
 20
-75.8574353901
  0
LWPOLYLINE
  5
3B6
100
AcDbEntity
  8
RACCORDO
100
AcDbPolyline
 62
253
  6
CONTINUOUS
 90
5
 70
0
 10
-22.5330083622
 20
-71.9898230722
 10
-22.533336805
 20
-71.9607200685
 10
-22.5335114811
 20
-71.9301082846
 10
-22.533531083
 20
-71.8982168691
 10
-22.533395464
 20
-71.8652845498
  0
LWPOLYLINE
  5
3B7
100
AcDbEntity
  8
RACCORDO
100
AcDbPolyline
 62
253
  6
CONTINUOUS
 90
31
 70
0
 10
-17.3255437029
 20
-75.5560057838
 10
-17.3255168015
 20
-75.5587013949
 10
-17.3253965712
 20
-75.5615165062
 10
-17.3251830121
 20
-75.5644511177
 10
-17.3248814509
 20
-75.5675117325
 10
-17.3244865609
 20
-75.5706918475
 10
-17.3239823616
 20
-75.5739719537
 10
-17.3233667674
 20
-75.5773543773
 10
-17.322641864
 20
-75.5808367922
 10
-17.3217979278
 20
-75.584392711
 10
-17.3208324975
 20
-75.5880240623
 10
-17.3197480343
 20
-75.5917289175
 10
-17.3185421991
 20
-75.5954750033
 10
-17.3172126258
 20
-75.5992630591
 10
-17.3157616804
 20
-75.6030923455
 10
-17.3141941218
 20
-75.6069283708
 10
-17.312508431
 20
-75.6107701497
 10
-17.3107061271
 20
-75.6146186674
 10
-17.3087965254
 20
-75.6184423882
 10
-17.306778658
 20
-75.6222401351
 10
-17.3046534929
 20
-75.626013085
 10
-17.3024332498
 20
-75.6297332334
 10
-17.3001167272
 20
-75.6334001739
 10
-17.2977051267
 20
-75.637014313
 10
-17.2952142724
 20
-75.640548865
 10
-17.2926431778
 20
-75.6440030142
 10
-17.2899928295
 20
-75.6473775764
 10
-17.2872820118
 20
-75.6506482135
 10
-17.284516986
 20
-75.6538068127
 10
-17.2816914908
 20
-75.6568614869
 10
-17.2788055261
 20
-75.6598122358
  0
LINE
  5
3B8
100
AcDbEntity
  8
RACCORDO
100
AcDbLine
 62
253
  6
CONTINUOUS
 10
-24.8208755833
 20
-66.1495745067
 11
-24.8208755833
 21
-66.1113645542
  0
LINE
  5
3B9
100
AcDbEntity
  8
RACCORDO
100
AcDbLine
 62
253
  6
CONTINUOUS
 10
-23.8461564844
 20
-72.8417076682
 11
-23.8461564844
 21
-71.6589595158
  0
LINE
  5
3BA
100
AcDbEntity
  8
RACCORDO
100
AcDbLine
 62
253
  6
CONTINUOUS
 10
-22.5330085679
 20
-73.5447287773
 11
-22.5330085679
 21
-71.9898254162
  0
LINE
  5
3BB
100
AcDbEntity
  8
RACCORDO
100
AcDbLine
 62
253
  6
CONTINUOUS
 10
-18.6690465869
 20
-75.57442026
 11
-18.6690465869
 21
-71.081415371
  0
LINE
  5
3BC
100
AcDbEntity
  8
RACCORDO
100
AcDbLine
 62
253
  6
CONTINUOUS
 10
-17.6083864152
 20
-70.4476261684
 11
-17.6083864152
 21
-75.5560057839
  0
LINE
  5
3BD
100
AcDbEntity
  8
RACCORDO
100
AcDbLine
 62
253
  6
CONTINUOUS
 10
-17.3255437027
 20
-70.4390752434
 11
-17.3255437029
 21
-75.5560057838
  0
LINE
  5
3BE
100
AcDbEntity
  8
RACCORDO
100
AcDbLine
 62
253
  6
CONTINUOUS
 10
-17.3255009971
 20
-76.1773141598
 11
-17.3255009971
 21
-76.2731243809
  0
LINE
  5
3BF
100
AcDbEntity
  8
RACCORDO
100
AcDbLine
 62
253
  6
CONTINUOUS
 10
-17.0451479667
 20
-76.1787267981
 11
-17.0451479667
 21
-76.4168320937
  0
LINE
  5
3C0
100
AcDbEntity
  8
RACCORDO
100
AcDbLine
 62
253
  6
CONTINUOUS
 10
-15.5261565028
 20
-77.194845121
 11
-15.5261565028
 21
-77.1360482633
  0
LINE
  5
3C1
100
AcDbEntity
  8
RACCORDO
100
AcDbLine
 62
253
  6
CONTINUOUS
 10
-15.0982225283
 20
-77.4140288458
 11
-15.0982225283
 21
-77.1338919964
  0
LINE
  5
3C2
100
AcDbEntity
  8
0
100
AcDbLine
 62
7
  6
CONTINUOUS
 10
-13.9061450856
 20
33.2827497618
 11
-13.9061450856
 21
14.7080509648
  0
LINE
  5
3C3
100
AcDbEntity
  8
ASSI
100
AcDbLine
 62
7
  6
CONTINUOUS
 10
-13.9061450856
 20
33.2827497618
 11
-13.9061450856
 21
14.7080509648
  0
LINE
  5
3C4
100
AcDbEntity
  8
0
100
AcDbLine
 62
7
  6
CONTINUOUS
 10
-13.9061450856
 20
-79.5942660048
 11
-13.9061450856
 21
-98.1689648018
  0
LINE
  5
3C5
100
AcDbEntity
  8
ASSI
100
AcDbLine
 62
7
  6
CONTINUOUS
 10
-13.9061450856
 20
-79.5942660048
 11
-13.9061450856
 21
-98.1689648018
  0
LINE
  5
3C6
100
AcDbEntity
  8
RACCORDO
100
AcDbLine
 62
253
  6
CONTINUOUS
 10
-22.533395464
 20
-71.8652845498
 11
-22.5326637782
 21
-71.7972892239
  0
LINE
  5
3C7
100
AcDbEntity
  8
RACCORDO
100
AcDbLine
 62
253
  6
CONTINUOUS
 10
-22.5326637782
 20
-71.7972892239
 11
-22.5313382914
 21
-71.7281544506
  0
LWPOLYLINE
  5
3C8
100
AcDbEntity
  8
RACCORDO
100
AcDbPolyline
 62
253
  6
CONTINUOUS
 90
39
 70
0
 10
-15.5261565028
 20
-77.1360482633
 10
-15.5238414156
 20
-77.034761024
 10
-15.5169217214
 20
-76.9367917588
 10
-15.5053974199
 20
-76.8421404677
 10
-15.4892084284
 20
-76.7505006713
 10
-15.4684148297
 20
-76.6621788491
 10
-15.4431968726
 20
-76.5780944387
 10
-15.4135246417
 20
-76.4983573905
 10
-15.3794280524
 20
-76.4228577542
 10
-15.3411770989
 20
-76.3521851163
 10
-15.2987331426
 20
-76.2863661827
 10
-15.2521348222
 20
-76.2253742474
 10
-15.2017680477
 20
-76.1697187788
 10
-15.1476035881
 20
-76.1194472954
 10
-15.0896706746
 20
-76.0745122787
 10
-15.0284429109
 20
-76.0352806408
 10
-14.9638927374
 20
-76.0017987353
 10
-14.8960477138
 20
-75.9740202086
 10
-14.8254641228
 20
-75.9521729116
 10
-14.7521196122
 20
-75.9363056957
 10
-14.6760365342
 20
-75.9263697096
 10
-14.5978382279
 20
-75.92244625
 10
-14.5175073818
 20
-75.9245846764
 10
-14.4350613074
 20
-75.9327356293
 10
-14.3511752786
 20
-75.9468323273
 10
-14.2658373948
 20
-75.9669236066
 10
-14.1790595566
 20
-75.9929606309
 10
-14.0915527394
 20
-76.0247301102
 10
-14.0033109427
 20
-76.062279153
 10
-13.914340167
 20
-76.1055606508
 10
-13.8253693902
 20
-76.154219988
 10
-13.7363986135
 20
-76.2083013574
 10
-13.6474278357
 20
-76.2677605662
 10
-13.5591860305
 20
-76.332110421
 10
-13.471679207
 20
-76.4013910904
 10
-13.3849013561
 20
-76.4755624057
 10
-13.2995634244
 20
-76.5540166674
 10
-13.2156772938
 20
-76.6367889871
 10
-13.1466115352
 20
-76.7097157824
  0
LWPOLYLINE
  5
3C9
100
AcDbEntity
  8
RACCORDO
100
AcDbPolyline
 62
253
  6
CONTINUOUS
 90
10
 70
0
 10
-22.5313382914
 20
-71.7281544506
 10
-22.5294586176
 20
-71.6599464279
 10
-22.5283279116
 20
-71.6268297409
 10
-22.5270809338
 20
-71.5947036562
 10
-22.5257270185
 20
-71.563808658
 10
-22.5242763007
 20
-71.5343760152
 10
-22.52273964
 20
-71.5066260498
 10
-22.5211285391
 20
-71.480766488
 10
-22.5194550584
 20
-71.4569909054
 10
-22.5177317247
 20
-71.4354772772
  0
LWPOLYLINE
  5
3CA
100
AcDbEntity
  8
RACCORDO
100
AcDbPolyline
 62
253
  6
CONTINUOUS
 90
3
 70
0
 10
-24.8208755833
 20
-66.1113645542
 10
-24.8201021672
 20
-66.0867827124
 10
-24.8177861489
 20
-66.0614421842
  0
LWPOLYLINE
  5
3CB
100
AcDbEntity
  8
RACCORDO
100
AcDbPolyline
 62
253
  6
CONTINUOUS
 90
22
 70
0
 10
-17.3255437027
 20
-70.4390752434
 10
-17.3247702893
 20
-70.4144934436
 10
-17.3224542784
 20
-70.3891529564
 10
-17.3186083353
 20
-70.3631923652
 10
-17.3132534925
 20
-70.3367536455
 10
-17.3064190343
 20
-70.3099813861
 10
-17.2981423359
 20
-70.283021998
 10
-17.2884686604
 20
-70.2560229178
 10
-17.2774509109
 20
-70.2291318006
 10
-17.2651493405
 20
-70.2024957089
 10
-17.2516312229
 20
-70.1762603108
 10
-17.2369704867
 20
-70.1505690866
 10
-17.2212473111
 20
-70.1255625426
 10
-17.2045476838
 20
-70.1013774368
 10
-17.1869629327
 20
-70.0781460353
 10
-17.1685892294
 20
-70.0559953919
 10
-17.1495270585
 20
-70.0350466469
 10
-17.1298806679
 20
-70.0154143654
 10
-17.1097575016
 20
-69.9972059142
 10
-17.0892676108
 20
-69.9805208732
 10
-17.0685230525
 20
-69.9654504911
 10
-17.0476372762
 20
-69.952077186
  0
LWPOLYLINE
  5
3CC
100
AcDbEntity
  8
RACCORDO
100
AcDbPolyline
 62
253
  6
CONTINUOUS
 90
19
 70
0
 10
-26.7855441758
 20
-69.961793902
 10
-26.784491635
 20
-69.9330375008
 10
-26.7813418469
 20
-69.9032796831
 10
-26.7761182562
 20
-69.8727419248
 10
-26.7688597411
 20
-69.8416515041
 10
-26.759620326
 20
-69.8102398163
 10
-26.74846878
 20
-69.7787406519
 10
-26.7354881024
 20
-69.7473884457
 10
-26.7207749052
 20
-69.7164165376
 10
-26.7044386978
 20
-69.6860554417
 10
-26.6866010664
 20
-69.6565311208
 10
-26.6673947708
 20
-69.6280633079
 10
-26.6469627597
 20
-69.6008638761
 10
-26.6254571015
 20
-69.5751352544
 10
-26.6030378541
 20
-69.5510689236
 10
-26.5798718759
 20
-69.528843994
 10
-26.5561315813
 20
-69.5086258693
 10
-26.5319936571
 20
-69.4905650159
 10
-26.5076377493
 20
-69.4747958446
  0
LWPOLYLINE
  5
3CD
100
AcDbEntity
  8
RACCORDO
100
AcDbPolyline
 62
253
  6
CONTINUOUS
 90
19
 70
0
 10
-23.8461564844
 20
-71.6589595158
 10
-23.8451039527
 20
-71.6302032449
 10
-23.841954191
 20
-71.6004455559
 10
-23.8367306415
 20
-71.5699079212
 10
-23.8294721806
 20
-71.5388176178
 10
-23.8202328295
 20
-71.507406036
 10
-23.8090813524
 20
-71.4759069572
 10
-23.7961007443
 20
-71.4445548141
 10
-23.7813876138
 20
-71.4135829457
 10
-23.7650514637
 20
-71.3832218609
 10
-23.7472138761
 20
-71.3536975227
 10
-23.7280076076
 20
-71.3252296668
 10
-23.7075756015
 20
-71.2980301657
 10
-23.6860699234
 20
-71.2723014525
 10
-23.6636506297
 20
-71.2482350136
 10
-23.6404845767
 20
-71.2260099641
 10
-23.6167441781
 20
-71.2057917145
 10
-23.5926061225
 20
-71.1877307395
 10
-23.5682500579
 20
-71.1719614584
  0
LWPOLYLINE
  5
3CE
100
AcDbEntity
  8
RACCORDO
100
AcDbPolyline
 62
253
  6
CONTINUOUS
 90
19
 70
0
 10
-27.3687738448
 20
-69.1977141992
 10
-27.3672581759
 20
-69.169675865
 10
-27.3627634043
 20
-69.1417600527
 10
-27.3553231762
 20
-69.1141757316
 10
-27.3449931869
 20
-69.0871293892
 10
-27.3318507636
 20
-69.0608234858
 10
-27.3159942861
 20
-69.0354549393
 10
-27.2975424512
 20
-69.0112136506
 10
-27.2766333834
 20
-68.9882810824
 10
-27.2534236016
 20
-68.9668289008
 10
-27.2280868469
 20
-68.94701769
 10
-27.2008127822
 20
-68.9289957505
 10
-27.1718055727
 20
-68.9128979889
 10
-27.1412823572
 20
-68.8988449081
 10
-27.109471623
 20
-68.8869417049
 10
-27.0766114952
 20
-68.8772774831
 10
-27.0429479544
 20
-68.8699245859
 10
-27.0087329954
 20
-68.8649380548
 10
-26.9742227406
 20
-68.8623552175
  0
LWPOLYLINE
  5
3CF
100
AcDbEntity
  8
RACCORDO
100
AcDbPolyline
 62
253
  6
CONTINUOUS
 90
20
 70
0
 10
-24.8177861489
 20
-66.0614421842
 10
-24.8139401943
 20
-66.035481554
 10
-24.8085853364
 20
-66.0090427971
 10
-24.8017508603
 20
-65.9822705038
 10
-24.793474143
 20
-65.9553110887
 10
-24.7838004487
 20
-65.9283119894
 10
-24.7727826818
 20
-65.9014208605
 10
-24.760481097
 20
-65.8747847666
 10
-24.7469629702
 20
-65.8485493769
 10
-24.7323022304
 20
-65.8228581698
 10
-24.7165790553
 20
-65.7978516472
 10
-24.699879433
 20
-65.7736665666
 10
-24.6822946917
 20
-65.7504351934
 10
-24.6639210007
 20
-65.7282845775
 10
-24.6448588434
 20
-65.7073358579
 10
-24.6252124684
 20
-65.6877036004
 10
-24.6050893197
 20
-65.6694951716
 10
-24.5845994484
 20
-65.6528101511
 10
-24.563854911
 20
-65.6377397868
 10
-24.5429691568
 20
-65.6243664967
  0
LWPOLYLINE
  5
3D0
100
AcDbEntity
  8
RACCORDO
100
AcDbPolyline
 62
253
  6
CONTINUOUS
 90
16
 70
0
 10
-38.4920089617
 20
-63.411574436
 10
-38.4977370271
 20
-63.4250596524
 10
-38.5049251773
 20
-63.4392783864
 10
-38.5134960664
 20
-63.4540776415
 10
-38.5233574702
 20
-63.4692981753
 10
-38.5344032779
 20
-63.4847762117
 10
-38.5465146348
 20
-63.5003452043
 10
-38.5595612203
 20
-63.5158376279
 10
-38.5734026507
 20
-63.5310867809
 10
-38.5878899897
 20
-63.5459285798
 10
-38.6028673507
 20
-63.560203324
 10
-38.6181735746
 20
-63.5737574145
 10
-38.6336439634
 20
-63.5864450069
 10
-38.649112053
 20
-63.5981295802
 10
-38.6644114038
 20
-63.6086854064
 10
-38.6793773919
 20
-63.6179989027
  0
LWPOLYLINE
  5
3D1
100
AcDbEntity
  8
RACCORDO
100
AcDbPolyline
 62
253
  6
CONTINUOUS
 90
4
 70
0
 10
13.8986580998
 20
20.9544839306
 10
13.8826130697
 20
20.9314425945
 10
13.8663501212
 20
20.906796254
 10
13.849985398
 20
20.8807668823
  0
LINE
  5
3D2
100
AcDbEntity
  8
RACCORDO
100
AcDbLine
 62
253
  6
CONTINUOUS
 10
13.9596442515
 20
20.9760076511
 11
13.9431494575
 21
20.9527854572
  0
LWPOLYLINE
  5
3D3
100
AcDbEntity
  8
RACCORDO
100
AcDbPolyline
 62
7
  6
CONTINUOUS
 90
9
 70
0
 10
13.7365903897
 20
20.3079330084
 10
13.7494503278
 20
20.325121968
 10
13.7608786222
 20
20.3436555018
 10
13.770752711
 20
20.3634401159
 10
13.7789336604
 20
20.3843019636
 10
13.7853204046
 20
20.4060500762
 10
13.7898594774
 20
20.428552196
 10
13.7925156295
 20
20.4516941963
 10
13.7932740842
 20
20.4726624482
  0
LWPOLYLINE
  5
3D4
100
AcDbEntity
  8
RACCORDO
100
AcDbPolyline
 62
7
  6
CONTINUOUS
 90
9
 70
0
 10
14.7787818955
 20
21.4938512563
 10
14.7916343742
 20
21.5110292117
 10
14.8030548495
 20
21.5295482016
 10
14.8129211967
 20
21.5493144635
 10
14.8210951106
 20
21.5701543826
 10
14.8274760095
 20
21.5918775134
 10
14.8320105541
 20
21.6143516757
 10
14.8346634864
 20
21.6374619686
 10
14.8354203636
 20
21.6583856338
  0
LWPOLYLINE
  5
3D5
100
AcDbEntity
  8
RACCORDO
100
AcDbPolyline
 62
7
  6
CONTINUOUS
 90
9
 70
0
 10
-45.9479859593
 20
-53.8520132442
 10
-45.9455189717
 20
-53.8487741224
 10
-45.9434421299
 20
-53.8463239407
 10
-45.9423506232
 20
-53.8451654247
 10
-45.9424041495
 20
-53.8452042858
 10
-45.9438066504
 20
-53.8463832971
 10
-45.9467113172
 20
-53.8485922148
 10
-45.9512208751
 20
-53.851687762
 10
-45.9564166364
 20
-53.8549303783
  0
LWPOLYLINE
  5
3D6
100
AcDbEntity
  8
RACCORDO
100
AcDbPolyline
 62
253
  6
CONTINUOUS
 90
5
 70
0
 10
13.9588036853
 20
21.0328345554
 10
13.9446741478
 20
21.0153175479
 10
13.9299938066
 20
20.9964664626
 10
13.914601355
 20
20.9761422355
 10
13.8986580998
 20
20.9544839306
  0
LWPOLYLINE
  5
3D7
100
AcDbEntity
  8
RACCORDO
100
AcDbPolyline
 62
7
  6
CONTINUOUS
 90
5
 70
0
 10
13.9431793815
 20
20.9528243635
 10
13.9433296934
 20
20.9530099222
 10
13.9444777519
 20
20.9542489972
 10
13.9467827186
 20
20.9562651418
 10
13.9493790725
 20
20.958092015
  0
LWPOLYLINE
  5
3D8
100
AcDbEntity
  8
RACCORDO
100
AcDbPolyline
 62
253
  6
CONTINUOUS
 90
4
 70
0
 10
14.010197603
 20
21.0946893974
 10
13.9981200845
 20
21.0804887414
 10
13.9855266537
 20
21.0654201521
 10
13.9588036853
 20
21.0328345554
  0
LINE
  5
3D9
100
AcDbEntity
  8
RACCORDO
100
AcDbLine
 62
253
  6
CONTINUOUS
 10
-59.0241889872
 20
-50.0357995006
 11
-58.6960838437
 21
-49.7008259153
  0
LWPOLYLINE
  5
3DA
100
AcDbEntity
  8
RACCORDO
100
AcDbPolyline
 62
7
  6
CONTINUOUS
 90
6
 70
0
 10
-58.6531813825
 20
-49.8075910761
 10
-58.6549216116
 20
-49.8092496016
 10
-58.6580018294
 20
-49.8118660378
 10
-58.6624122278
 20
-49.8152246188
 10
-58.6681875613
 20
-49.8191878289
 10
-58.6731292331
 20
-49.8223000218
  0
LWPOLYLINE
  5
3DB
100
AcDbEntity
  8
RACCORDO
100
AcDbPolyline
 62
253
  6
CONTINUOUS
 90
10
 70
0
 10
-59.7206875239
 20
-51.3296089083
 10
-59.7301428615
 20
-51.3358804704
 10
-59.7388288461
 20
-51.3425166754
 10
-59.7467030219
 20
-51.3494849736
 10
-59.7537258955
 20
-51.3567508271
 10
-59.7598649415
 20
-51.3642789301
 10
-59.7650931677
 20
-51.3720338347
 10
-59.7693850658
 20
-51.3799798132
 10
-59.772717433
 20
-51.3880764262
 10
-59.7741726845
 20
-51.3931448337
  0
LWPOLYLINE
  5
3DC
100
AcDbEntity
  8
RACCORDO
100
AcDbPolyline
 62
253
  6
CONTINUOUS
 90
22
 70
0
 10
-59.8657896024
 20
-51.0868162278
 10
-59.8848255153
 20
-51.0992698954
 10
-59.9021674715
 20
-51.1123206439
 10
-59.917815471
 20
-51.1259684734
 10
-59.9318278364
 20
-51.1402847138
 10
-59.9441462452
 20
-51.1551980351
 10
-59.9545957293
 20
-51.1704944478
 10
-59.9631516161
 20
-51.1861830129
 10
-59.9698385782
 20
-51.2022546694
 10
-59.974555666
 20
-51.2184682447
 10
-59.9772728952
 20
-51.2348243719
 10
-59.97802025
 20
-51.2513224179
 10
-59.9767867338
 20
-51.2677193108
 10
-59.9735427967
 20
-51.2840145143
 10
-59.9683179886
 20
-51.3002085647
 10
-59.9611899619
 20
-51.3160599982
 10
-59.9521308205
 20
-51.3315627235
 10
-59.9411684606
 20
-51.3467228319
 10
-59.9284642228
 20
-51.361317134
 10
-59.9140718876
 20
-51.3752712333
 10
-59.8979376746
 20
-51.3886595263
 10
-59.8800615838
 20
-51.401482013
  0
LWPOLYLINE
  5
3DD
100
AcDbEntity
  8
RACCORDO
100
AcDbPolyline
 62
253
  6
CONTINUOUS
 90
19
 70
0
 10
-57.4184666326
 20
-46.0077661571
 10
-57.394110568
 20
-45.991996876
 10
-57.3699725124
 20
-45.973935901
 10
-57.3462321139
 20
-45.9537176513
 10
-57.3230660608
 20
-45.9314926019
 10
-57.3006467672
 20
-45.907426163
 10
-57.279141089
 20
-45.8816974497
 10
-57.2587090829
 20
-45.8544979487
 10
-57.2395028145
 20
-45.8260300927
 10
-57.2216652269
 20
-45.7965057546
 10
-57.2053290767
 20
-45.7661446697
 10
-57.1906159462
 20
-45.7351728013
 10
-57.1776353382
 20
-45.7038206582
 10
-57.166483861
 20
-45.6723215795
 10
-57.15724451
 20
-45.6409099976
 10
-57.1499860491
 20
-45.6098196942
 10
-57.1447624995
 20
-45.5792820595
 10
-57.1416127378
 20
-45.5495243706
 10
-57.1405602061
 20
-45.5207680996
  0
LWPOLYLINE
  5
3DE
100
AcDbEntity
  8
RACCORDO
100
AcDbPolyline
 62
253
  6
CONTINUOUS
 90
13
 70
0
 10
-58.5743867449
 20
-49.5479984048
 10
-58.5866808843
 20
-49.5558395742
 10
-58.5988725468
 20
-49.564853345
 10
-58.6108693418
 20
-49.5749714193
 10
-58.6225803559
 20
-49.5861171323
 10
-58.6339168362
 20
-49.598206026
 10
-58.6447928636
 20
-49.6111464881
 10
-58.6551260145
 20
-49.6248404585
 10
-58.664837977
 20
-49.6391841645
 10
-58.6738551408
 20
-49.6540688988
 10
-58.6821091658
 20
-49.6693818583
 10
-58.6895374994
 20
-49.6850070011
 10
-58.6960838437
 20
-49.7008259153
  0
LINE
  5
3DF
100
AcDbEntity
  8
RACCORDO
100
AcDbLine
 62
253
  6
CONTINUOUS
 10
-58.7610703424
 20
-39.7674822649
 11
-59.330765015
 21
-40.1282320473
  0
LINE
  5
3E0
100
AcDbEntity
  8
RACCORDO
100
AcDbLine
 62
253
  6
CONTINUOUS
 10
-58.1032520682
 20
-39.6854311564
 11
-59.1824261322
 21
-40.3688003848
  0
LWPOLYLINE
  5
3E1
100
AcDbEntity
  8
RACCORDO
100
AcDbPolyline
 62
253
  6
CONTINUOUS
 90
10
 70
0
 10
-50.7312068924
 20
-39.4527296844
 10
-50.7130007961
 20
-39.4416416163
 10
-50.6965578023
 20
-39.4296703517
 10
-50.6820058464
 20
-39.4169090337
 10
-50.669458151
 20
-39.4034569524
 10
-50.6590123441
 20
-39.3894187727
 10
-50.6507496998
 20
-39.3749037192
 10
-50.6447345062
 20
-39.3600247273
 10
-50.6410135648
 20
-39.3448975638
 10
-50.6396044038
 20
-39.3281353949
  0
LINE
  5
3E2
100
AcDbEntity
  8
RACCORDO
100
AcDbLine
 62
7
  6
CONTINUOUS
 10
-58.6731259345
 20
-49.8222977558
 11
-60.6556091792
 21
-51.0279604669
  0
LINE
  5
3E3
100
AcDbEntity
  8
RACCORDO
100
AcDbLine
 62
253
  6
CONTINUOUS
 10
-58.5704377291
 20
-49.8306029983
 11
-60.5999682647
 21
-51.0648778878
  0
LINE
  5
3E4
100
AcDbEntity
  8
RACCORDO
100
AcDbLine
 62
253
  6
CONTINUOUS
 10
-55.0851312293
 20
-41.9666226935
 11
-50.7312068924
 21
-39.4527296844
  0
LINE
  5
3E5
100
AcDbEntity
  8
RACCORDO
100
AcDbLine
 62
253
  6
CONTINUOUS
 10
-58.3215981056
 20
-45.7128365251
 11
-57.7719661753
 21
-45.3954869893
  0
LINE
  5
3E6
100
AcDbEntity
  8
RACCORDO
100
AcDbLine
 62
253
  6
CONTINUOUS
 10
-54.0246326012
 20
-43.8034601968
 11
-49.6707082643
 21
-41.2895671877
  0
LINE
  5
3E7
100
AcDbEntity
  8
RACCORDO
100
AcDbLine
 62
253
  6
CONTINUOUS
 10
-57.9680985629
 20
-46.3251156929
 11
-57.4184666326
 21
-46.0077661571
  0
LINE
  5
3E8
100
AcDbEntity
  8
0
100
AcDbLine
 62
7
  6
CONTINUOUS
 10
-61.9446788664
 20
-50.1726702798
 11
-62.7954895549
 21
-50.6639177082
  0
LINE
  5
3E9
100
AcDbEntity
  8
ASSI
100
AcDbLine
 62
7
  6
CONTINUOUS
 10
-61.9446788664
 20
-50.1726702798
 11
-62.7954895549
 21
-50.6639177082
  0
LINE
  5
3EA
100
AcDbEntity
  8
0
100
AcDbLine
 62
7
  6
CONTINUOUS
 10
-62.8379343437
 20
-51.3416641465
 11
-62.2708014972
 21
-51.0142087488
  0
LINE
  5
3EB
100
AcDbEntity
  8
ASSI
100
AcDbLine
 62
7
  6
CONTINUOUS
 10
-62.8379343437
 20
-51.3416641465
 11
-62.2708014972
 21
-51.0142087488
  0
LWPOLYLINE
  5
3EC
100
AcDbEntity
  8
RACCORDO
100
AcDbPolyline
 62
253
  6
CONTINUOUS
 90
11
 70
0
 10
-59.2266326095
 20
-41.2774460098
 10
-59.224878502
 20
-41.2764683484
 10
-59.216531564
 20
-41.2707717558
 10
-59.2089820999
 20
-41.2637858699
 10
-59.2022875564
 20
-41.2555638438
 10
-59.1964988669
 20
-41.246168233
 10
-59.1916600666
 20
-41.2356705121
 10
-59.1878079673
 20
-41.2241505411
 10
-59.1849718757
 20
-41.2116959586
 10
-59.1831733694
 20
-41.1984015153
 10
-59.1824261322
 20
-41.1843683509
  0
LWPOLYLINE
  5
3ED
100
AcDbEntity
  8
RACCORDO
100
AcDbPolyline
 62
253
  6
CONTINUOUS
 90
10
 70
0
 10
-49.6707082643
 20
-41.2895671877
 10
-49.6520034474
 20
-41.2793432883
 10
-49.6334153467
 20
-41.2710877546
 10
-49.615088586
 20
-41.2648648216
 10
-49.5971657589
 20
-41.2607229103
 10
-49.5797863109
 20
-41.2586942492
 10
-49.5630854557
 20
-41.2587946261
 10
-49.5471931359
 20
-41.2610232667
 10
-49.5322330043
 20
-41.2653628375
 10
-49.5170059862
 20
-41.2725257686
  0
LINE
  5
3EE
100
AcDbEntity
  8
RACCORDO
100
AcDbLine
 62
253
  6
CONTINUOUS
 10
-58.1963156553
 20
-39.3944706243
 11
-59.6806392859
 21
-40.1926918383
  0
LINE
  5
3EF
100
AcDbEntity
  8
RACCORDO
100
AcDbLine
 62
7
  6
CONTINUOUS
 10
-58.2394830274
 20
-39.4869894861
 11
-59.6806392859
 21
-40.2619966843
  0
LINE
  5
3F0
100
AcDbEntity
  8
RACCORDO
100
AcDbLine
 62
253
  6
CONTINUOUS
 10
-58.3215981056
 20
-40.7214428957
 11
-59.1824261322
 21
-41.1843683509
  0
LINE
  5
3F1
100
AcDbEntity
  8
RACCORDO
100
AcDbLine
 62
7
  6
CONTINUOUS
 10
-58.5167722786
 20
-40.8957060958
 11
-59.2266326095
 21
-41.2774460098
  0
LWPOLYLINE
  5
3F2
100
AcDbEntity
  8
RACCORDO
100
AcDbPolyline
 62
253
  6
CONTINUOUS
 90
19
 70
0
 10
-57.7719661753
 20
-33.3060635894
 10
-57.746132282
 20
-33.2928539827
 10
-57.7184226535
 20
-33.2809791533
 10
-57.6890435196
 20
-33.2705274799
 10
-57.658213535
 20
-33.2615767492
 10
-57.6261621526
 20
-33.2541935774
 10
-57.5931279157
 20
-33.2484329137
 10
-57.5593566822
 20
-33.2443376321
 10
-57.5250997954
 20
-33.2419382119
 10
-57.4906122129
 20
-33.2412525107
 10
-57.4561506094
 20
-33.242285632
 10
-57.4219714662
 20
-33.2450298866
 10
-57.3883291623
 20
-33.2494648504
 10
-57.3554740814
 20
-33.2555575161
 10
-57.3236507481
 20
-33.2632625389
 10
-57.2930960084
 20
-33.2725225739
 10
-57.2640372666
 20
-33.2832687032
 10
-57.2366907931
 20
-33.2954209484
 10
-57.2112601146
 20
-33.3088888662
  0
LWPOLYLINE
  5
3F3
100
AcDbEntity
  8
RACCORDO
100
AcDbPolyline
 62
253
  6
CONTINUOUS
 90
19
 70
0
 10
-57.7719661753
 20
-45.3954869893
 10
-57.7461320639
 20
-45.3822772774
 10
-57.7184222124
 20
-45.3704023748
 10
-57.6890428592
 20
-45.3599506585
 10
-57.6582126662
 20
-45.3509999127
 10
-57.626161095
 20
-45.3436167509
 10
-57.5931267006
 20
-45.3378561199
 10
-57.5593553475
 20
-45.3337608891
 10
-57.5250983822
 20
-45.3313615321
 10
-57.4906107682
 20
-45.3306759014
 10
-57.456149182
 20
-45.3317090941
 10
-57.4219701032
 20
-45.334453415
 10
-57.388327909
 20
-45.338888434
 10
-57.3554729796
 20
-45.3449811378
 10
-57.323649833
 20
-45.3526861763
 10
-57.293095306
 20
-45.3619462005
 10
-57.264036794
 20
-45.3726922885
 10
-57.2366905582
 20
-45.384844459
 10
-57.2112601146
 20
-45.3983122661
  0
LWPOLYLINE
  5
3F4
100
AcDbEntity
  8
RACCORDO
100
AcDbPolyline
 62
253
  6
CONTINUOUS
 90
7
 70
0
 10
-58.1032520682
 20
-33.4907808498
 10
-58.1188681523
 20
-33.4986280145
 10
-58.1358054774
 20
-33.5055010912
 10
-58.1538825719
 20
-33.5113264394
 10
-58.1729057522
 20
-33.5160416448
 10
-58.1926711982
 20
-33.519596187
 10
-58.1963156553
 20
-33.5200192072
  0
LWPOLYLINE
  5
3F5
100
AcDbEntity
  8
RACCORDO
100
AcDbPolyline
 62
7
  6
CONTINUOUS
 90
11
 70
0
 10
-59.2266326095
 20
-41.2774460098
 10
-59.2447360349
 20
-41.2860412761
 10
-59.263817811
 20
-41.2928448121
 10
-59.2836616975
 20
-41.2977161787
 10
-59.3040207578
 20
-41.3005479386
 10
-59.3246439398
 20
-41.3012737879
 10
-59.3453060637
 20
-41.2998618197
 10
-59.3658283484
 20
-41.2962940401
 10
-59.3858917789
 20
-41.2906031077
 10
-59.4051466627
 20
-41.2829031825
 10
-59.4214089697
 20
-41.2744763088
  0
LWPOLYLINE
  5
3F6
100
AcDbEntity
  8
0
100
AcDbPolyline
 62
7
  6
CONTINUOUS
 90
13
 70
0
 10
-9.0523943628
 20
51.070046638
 10
-9.0822803882
 20
51.4212323506
 10
-9.1726595539
 20
51.7984517317
 10
-9.3195904724
 20
52.1795234326
 10
-9.5130003435
 20
52.5418484312
 10
-9.7509681129
 20
52.8818279146
 10
-10.0202127762
 20
53.17831098
 10
-10.3040622481
 20
53.4148626617
 10
-10.5996971782
 20
53.589133397
 10
-10.8895154693
 20
53.6889950706
 10
-11.1565456717
 20
53.7103870926
 10
-11.3981354931
 20
53.6530969854
 10
-11.5999337974
 20
53.5177112087
  0
LWPOLYLINE
  5
3F7
100
AcDbEntity
  8
SMUSSO
100
AcDbPolyline
 62
7
  6
CONTINUOUS
 90
19
 70
0
 10
-9.3352370753
 20
51.2333564753
 10
-9.3398068739
 20
51.3512226442
 10
-9.3526506815
 20
51.4713140165
 10
-9.373768498
 20
51.5936305922
 10
-9.4034447725
 20
51.7191332627
 10
-9.4413950559
 20
51.8468611365
 10
-9.486766001
 20
51.9739315397
 10
-9.5397268254
 20
52.1003293825
 10
-9.6001083114
 20
52.2260697546
 10
-9.6665494591
 20
52.3483152509
 10
-9.7391881212
 20
52.4669861528
 10
-9.8178864449
 20
52.5821621789
 10
-9.9008698725
 20
52.6912450791
 10
-9.9882358066
 20
52.7940962606
 10
-10.0798868446
 20
52.8908543163
 10
-10.1737562211
 20
52.9793367742
 10
-10.2698944593
 20
53.0593555733
 10
-10.368251036
 20
53.1310987745
 10
-10.4667172641
 20
53.193011392
  0
LWPOLYLINE
  5
3F8
100
AcDbEntity
  8
SMUSSO
100
AcDbPolyline
 62
7
  6
CONTINUOUS
 90
4
 70
0
 10
-9.3352370753
 20
50.9067368007
 10
-9.3398215149
 20
51.0407606218
 10
-9.3535456927
 20
51.1792139796
 10
-9.3763214913
 20
51.321199551
  0
LINE
  5
3F9
100
AcDbEntity
  8
0
100
AcDbLine
 62
7
  6
CONTINUOUS
 10
-13.3390289872
 20
33.6101954894
 11
-13.3390289872
 21
15.0354966923
  0
LINE
  5
3FA
100
AcDbEntity
  8
ASSI
100
AcDbLine
 62
7
  6
CONTINUOUS
 10
-13.3390289872
 20
33.6101954894
 11
-13.3390289872
 21
15.0354966923
  0
LINE
  5
3FB
100
AcDbEntity
  8
0
100
AcDbLine
 62
7
  6
CONTINUOUS
 10
-13.3390289872
 20
-79.2668202772
 11
-13.3390289872
 21
-97.8415190743
  0
LINE
  5
3FC
100
AcDbEntity
  8
ASSI
100
AcDbLine
 62
7
  6
CONTINUOUS
 10
-13.3390289872
 20
-79.2668202772
 11
-13.3390289872
 21
-97.8415190743
  0
LINE
  5
3FD
100
AcDbEntity
  8
RACCORDO
100
AcDbLine
 62
253
  6
CONTINUOUS
 10
-13.222359225
 20
-76.7201938875
 11
-13.222359225
 21
-77.0737205135
  0
LINE
  5
3FE
100
AcDbEntity
  8
0
100
AcDbLine
 62
7
  6
CONTINUOUS
 10
-13.1466115352
 20
32.904745728
 11
-13.1466115352
 21
-98.5469688357
  0
LINE
  5
3FF
100
AcDbEntity
  8
ASSI
100
AcDbLine
 62
7
  6
CONTINUOUS
 10
-13.1466115352
 20
32.904745728
 11
-13.1466115352
 21
-98.5469688357
  0
LINE
  5
400
100
AcDbEntity
  8
SMUSSO
100
AcDbLine
 62
7
  6
CONTINUOUS
 10
-9.3352370753
 20
50.9067366807
 11
-9.3352370753
 21
51.2333563794
  0
LINE
  5
401
100
AcDbEntity
  8
RACCORDO
100
AcDbLine
 62
253
  6
CONTINUOUS
 10
-11.3185519215
 20
33.9802821044
 11
-11.319404208
 21
33.8577593619
  0
LWPOLYLINE
  5
402
100
AcDbEntity
  8
RACCORDO
100
AcDbPolyline
 62
253
  6
CONTINUOUS
 90
15
 70
0
 10
-15.0982225283
 20
-77.1338919964
 10
-15.0959619703
 20
-77.0405047012
 10
-15.0891871613
 20
-76.9500114524
 10
-15.0779186756
 20
-76.8626870761
 10
-15.0621907346
 20
-76.7787967742
 10
-15.0420511031
 20
-76.69859532
 10
-15.0175609444
 20
-76.6223262846
 10
-14.9887946304
 20
-76.5502212872
 10
-14.9558395259
 20
-76.4824993187
 10
-14.9187957286
 20
-76.4193660713
 10
-14.8777757446
 20
-76.361013276
 10
-14.8329041534
 20
-76.3076181418
 10
-14.7843172471
 20
-76.2593428364
 10
-14.7321626108
 20
-76.2163339768
 10
-14.6751568753
 20
-76.1778457172
  0
LWPOLYLINE
  5
403
100
AcDbEntity
  8
RACCORDO
100
AcDbPolyline
 62
253
  6
CONTINUOUS
 90
19
 70
0
 10
-5.6311513654
 20
31.715238945
 10
-5.6306215471
 20
31.7369401957
 10
-5.6290320696
 20
31.7595841732
 10
-5.6263946406
 20
31.7830040864
 10
-5.6227286869
 20
31.8070274287
 10
-5.6180612113
 20
31.8314772488
 10
-5.6124265934
 20
31.8561734541
 10
-5.6058663369
 20
31.8809341371
 10
-5.5984287632
 20
31.9055769153
 10
-5.5901686561
 20
31.9299202749
 10
-5.5811468579
 20
31.9537849073
 10
-5.5714298215
 20
31.9769950304
 10
-5.5610891207
 20
31.9993796827
 10
-5.5502009231
 20
32.0207739833
 10
-5.538845429
 20
32.0410203459
 10
-5.5271062808
 20
32.0599696397
 10
-5.5150699468
 20
32.0774822879
 10
-5.5028250844
 20
32.0934292957
 10
-5.4904618868
 20
32.1076932005
  0
LWPOLYLINE
  5
404
100
AcDbEntity
  8
RACCORDO
100
AcDbPolyline
 62
253
  6
CONTINUOUS
 90
11
 70
0
 10
-5.7822639627
 20
31.6230329193
 10
-5.7829098123
 20
31.6013887077
 10
-5.7846226053
 20
31.5788062722
 10
-5.7873897488
 20
31.5554516483
 10
-5.7911908973
 20
31.5314965494
 10
-5.7959981033
 20
31.5071171035
 10
-5.801776022
 20
31.4824925588
 10
-5.8084821719
 20
31.4578039655
 10
-5.8160672463
 20
31.4332328448
 10
-5.8244754766
 20
31.4089598541
 10
-5.8316011957
 20
31.3904675455
  0
LWPOLYLINE
  5
405
100
AcDbEntity
  8
RACCORDO
100
AcDbPolyline
 62
253
  6
CONTINUOUS
 90
19
 70
0
 10
-11.318551916
 20
33.980282108
 10
-11.317708111
 20
34.0018597575
 10
-11.3154269572
 20
34.024227392
 10
-11.3117252431
 20
34.047220394
 10
-11.3066302119
 20
34.0706695436
 10
-11.3001793611
 20
34.094402264
 10
-11.2924201666
 20
34.1182438912
 10
-11.283409733
 20
34.1420189597
 10
-11.2732143739
 20
34.1655524941
 10
-11.2619091232
 20
34.1886712962
 10
-11.2495771834
 20
34.2112052204
 10
-11.2363093129
 20
34.2329884255
 10
-11.2222031583
 20
34.2538605952
 10
-11.2073625355
 20
34.2736681181
 10
-11.1918966659
 20
34.2922652185
 10
-11.1759193727
 20
34.3095150285
 10
-11.1595482426
 20
34.3252905961
 10
-11.1429037611
 20
34.3394758189
 10
-11.1261084252
 20
34.3519662991
  0
LWPOLYLINE
  5
406
100
AcDbEntity
  8
RACCORDO
100
AcDbPolyline
 62
253
  6
CONTINUOUS
 90
14
 70
0
 10
-11.3355044328
 20
33.86579306
 10
-11.3363728885
 20
33.8442290555
 10
-11.3386784134
 20
33.821875097
 10
-11.3424040419
 20
33.7988956814
 10
-11.3475223579
 20
33.7754599085
 10
-11.3539956972
 20
33.7517402361
 10
-11.3617764239
 20
33.7279112113
 10
-11.3708072819
 20
33.7041481858
 10
-11.3810218152
 20
33.6806260255
 10
-11.3923448577
 20
33.6575178242
 10
-11.4046930861
 20
33.6349936291
 10
-11.4179756329
 20
33.61321919
 10
-11.4320947552
 20
33.5923547396
 10
-11.4374904579
 20
33.5851610043
  0
LWPOLYLINE
  5
407
100
AcDbEntity
  8
RACCORDO
100
AcDbPolyline
 62
253
  6
CONTINUOUS
 90
14
 70
0
 10
-11.319404208
 20
33.8577593619
 10
-11.320272824
 20
33.8361954499
 10
-11.3225784328
 20
33.8138415472
 10
-11.326304068
 20
33.7908621503
 10
-11.3314223137
 20
33.7674263585
 10
-11.337895506
 20
33.7437066296
 10
-11.3456760103
 20
33.719877511
 10
-11.3547065721
 20
33.6961143547
 10
-11.3649207378
 20
33.6725920276
 10
-11.3762433439
 20
33.6494836244
 10
-11.3885910706
 20
33.6269591937
 10
-11.401873054
 20
33.6051844868
 10
-11.4159915555
 20
33.5843197382
 10
-11.4211312538
 20
33.5774668931
  0
LWPOLYLINE
  5
408
100
AcDbEntity
  8
0
100
AcDbPolyline
 62
7
  6
CONTINUOUS
 90
15
 70
0
 10
1.1368024209
 20
23.0658767274
 10
1.1462385878
 20
23.1347620443
 10
1.1551050986
 20
23.2041237539
 10
1.1633970614
 20
23.2739586446
 10
1.1711407961
 20
23.3443462077
 10
1.1782992527
 20
23.4152006892
 10
1.1847773034
 20
23.4862683005
 10
1.1905752366
 20
23.5575462502
 10
1.1956928352
 20
23.6290249837
 10
1.2000440403
 20
23.700435554
 10
1.2036328171
 20
23.7717726223
 10
1.2064654886
 20
23.8430244472
 10
1.2084697657
 20
23.9139077731
 10
1.2096528827
 20
23.9844314298
 10
1.2100292059
 20
24.0496633235
  0
LWPOLYLINE
  5
409
100
AcDbEntity
  8
ASSI
100
AcDbPolyline
 62
7
  6
CONTINUOUS
 90
15
 70
0
 10
1.1368024209
 20
23.0658767274
 10
1.1462385878
 20
23.1347620443
 10
1.1551050986
 20
23.2041237539
 10
1.1633970614
 20
23.2739586446
 10
1.1711407961
 20
23.3443462077
 10
1.1782992527
 20
23.4152006892
 10
1.1847773034
 20
23.4862683005
 10
1.1905752366
 20
23.5575462502
 10
1.1956928352
 20
23.6290249837
 10
1.2000440403
 20
23.700435554
 10
1.2036328171
 20
23.7717726223
 10
1.2064654886
 20
23.8430244472
 10
1.2084697657
 20
23.9139077731
 10
1.2096528827
 20
23.9844314298
 10
1.2100292059
 20
24.0496633235
  0
LWPOLYLINE
  5
40A
100
AcDbEntity
  8
RACCORDO
100
AcDbPolyline
 62
253
  6
CONTINUOUS
 90
4
 70
0
 10
13.9950387433
 20
21.0454431796
 10
13.9849367171
 20
21.0216635986
 10
13.9731351797
 20
20.9984314135
 10
13.9596442515
 20
20.9760076511
  0
LWPOLYLINE
  5
40B
100
AcDbEntity
  8
RACCORDO
100
AcDbPolyline
 62
253
  6
CONTINUOUS
 90
8
 70
0
 10
13.849985398
 20
20.8807668823
 10
13.8343163599
 20
20.8539714462
 10
13.8194234549
 20
20.8263476327
 10
13.8052262349
 20
20.7979577547
 10
13.7922808156
 20
20.7696057178
 10
13.7807277645
 20
20.7414040461
 10
13.7704265141
 20
20.7132402156
 10
13.7615114768
 20
20.6855805594
  0
LINE
  5
40C
100
AcDbEntity
  8
RACCORDO
100
AcDbLine
 62
7
  6
CONTINUOUS
 10
-35.5782745198
 20
-66.3448481756
 11
-35.5674857581
 21
-66.3288655846
  0
LWPOLYLINE
  5
40D
100
AcDbEntity
  8
RACCORDO
100
AcDbPolyline
 62
7
  6
CONTINUOUS
 90
21
 70
0
 10
-47.0170679282
 20
-54.4887153468
 10
-47.1423871342
 20
-54.5662401311
 10
-47.2877909824
 20
-54.6633359165
 10
-47.42615924
 20
-54.7638473186
 10
-47.5573105064
 20
-54.867592791
 10
-47.6811300496
 20
-54.9744167941
 10
-47.797524491
 20
-55.0841911312
 10
-47.906379731
 20
-55.1967694284
 10
-48.0075725968
 20
-55.3119779362
 10
-48.1009880201
 20
-55.4296557422
 10
-48.1865215942
 20
-55.5496487329
 10
-48.2640638541
 20
-55.6717650919
 10
-48.3334889003
 20
-55.7957749609
 10
-48.3947103286
 20
-55.9214911693
 10
-48.4476488585
 20
-56.0486875467
 10
-48.4922033943
 20
-56.177041303
 10
-48.5283335077
 20
-56.3063391662
 10
-48.5560066718
 20
-56.4362995108
 10
-48.5751907815
 20
-56.566456862
 10
-48.58592444
 20
-56.696467166
 10
-48.5884870995
 20
-56.799609188
  0
LINE
  5
40E
100
AcDbEntity
  8
RACCORDO
100
AcDbLine
 62
253
  6
CONTINUOUS
 10
-57.6252920054
 20
-49.7242400677
 11
-59.8657896024
 21
-51.0868162278
  0
LINE
  5
40F
100
AcDbEntity
  8
RACCORDO
100
AcDbLine
 62
253
  6
CONTINUOUS
 10
-57.4801899269
 20
-49.9670327481
 11
-59.7206875239
 21
-51.3296089083
  0
LINE
  5
410
100
AcDbEntity
  8
RACCORDO
100
AcDbLine
 62
253
  6
CONTINUOUS
 10
-50.8071149782
 20
-56.5160250333
 11
-49.4354100622
 21
-55.6958796121
  0
LINE
  5
411
100
AcDbEntity
  8
RACCORDO
100
AcDbLine
 62
253
  6
CONTINUOUS
 10
-50.4942776595
 20
-57.3903902643
 11
-48.9312516749
 21
-56.4558535504
  0
LINE
  5
412
100
AcDbEntity
  8
RACCORDO
100
AcDbLine
 62
7
  6
CONTINUOUS
 10
-47.0170739028
 20
-54.4887176231
 11
-45.956413731
 21
-53.8549284206
  0
LINE
  5
413
100
AcDbEntity
  8
RACCORDO
100
AcDbLine
 62
253
  6
CONTINUOUS
 10
-46.8168327641
 20
-54.5083983364
 11
-45.7561725924
 21
-53.8746091339
  0
LWPOLYLINE
  5
414
100
AcDbEntity
  8
RACCORDO
100
AcDbPolyline
 62
253
  6
CONTINUOUS
 90
5
 70
0
 10
-45.956413731
 20
-53.8549284206
 10
-45.9472368902
 20
-53.8499382622
 10
-45.9314453237
 20
-53.843405738
 10
-45.9146459515
 20
-53.8388579136
 10
-45.8969327222
 20
-53.8363202231
  0
LINE
  5
415
100
AcDbEntity
  8
RACCORDO
100
AcDbLine
 62
7
  6
CONTINUOUS
 10
-58.1032520682
 20
27.2651315406
 11
-58.1442330429
 21
27.2862229561
  0
LINE
  5
416
100
AcDbEntity
  8
RACCORDO
100
AcDbLine
 62
7
  6
CONTINUOUS
 10
-58.1442330429
 20
27.2862229561
 11
-58.15864613
 21
27.2937739083
  0
LWPOLYLINE
  5
417
100
AcDbEntity
  8
RACCORDO
100
AcDbPolyline
 62
253
  6
CONTINUOUS
 90
19
 70
0
 10
-59.4627791625
 20
25.7676069845
 10
-59.4500253703
 20
25.7608543637
 10
-59.4363061764
 20
25.7547626545
 10
-59.4217238866
 20
25.7493777931
 10
-59.4063838687
 20
25.7447395107
 10
-59.3904039404
 20
25.7408842125
 10
-59.3739148007
 20
25.7378429328
 10
-59.3570500278
 20
25.7356381738
 10
-59.3399272619
 20
25.7342832307
 10
-59.3226576796
 20
25.7337868487
 10
-59.3053536774
 20
25.7341547222
 10
-59.288161602
 20
25.7353862041
 10
-59.271242555
 20
25.7374685038
 10
-59.2547213728
 20
25.7403825081
 10
-59.2387198705
 20
25.7441029029
 10
-59.2233845149
 20
25.7485889148
 10
-59.2088311838
 20
25.7537958847
 10
-59.1951481919
 20
25.759680962
 10
-59.1824261322
 20
25.7661943461
  0
LWPOLYLINE
  5
418
100
AcDbEntity
  8
RACCORDO
100
AcDbPolyline
 62
253
  6
CONTINUOUS
 90
19
 70
0
 10
-59.4627791625
 20
26.5831749506
 10
-59.4500275801
 20
26.5764234021
 10
-59.436311031
 20
26.5703325893
 10
-59.42173179
 20
26.5649484069
 10
-59.4063953541
 20
26.5603105918
 10
-59.3904193324
 20
26.5564554482
 10
-59.3739338164
 20
26.5534138899
 10
-59.3570718604
 20
26.551208427
 10
-59.3399514232
 20
26.5498524986
 10
-59.3226843312
 20
26.5493549159
 10
-59.3053837549
 20
26.5497212955
 10
-59.2881951354
 20
26.5509509131
 10
-59.2712777684
 20
26.5530312094
 10
-59.2547565371
 20
26.5559433017
 10
-59.2387533408
 20
26.5596621026
 10
-59.2234132285
 20
26.5641475671
 10
-59.2088520456
 20
26.5693556543
 10
-59.1951592508
 20
26.5752437342
 10
-59.1824261322
 20
26.5817623122
  0
LINE
  5
419
100
AcDbEntity
  8
RACCORDO
100
AcDbLine
 62
7
  6
CONTINUOUS
 10
-58.15864613
 20
27.2937739083
 11
-58.2030491181
 21
27.3174993014
  0
LINE
  5
41A
100
AcDbEntity
  8
RACCORDO
100
AcDbLine
 62
7
  6
CONTINUOUS
 10
-58.2030491181
 20
27.3174993014
 11
-58.247942496
 21
27.3419988849
  0
LINE
  5
41B
100
AcDbEntity
  8
RACCORDO
100
AcDbLine
 62
7
  6
CONTINUOUS
 10
-58.247942496
 20
27.3419988849
 11
-58.2908078694
 21
27.3658374775
  0
LINE
  5
41C
100
AcDbEntity
  8
RACCORDO
100
AcDbLine
 62
7
  6
CONTINUOUS
 10
-58.2908078694
 20
27.3658374775
 11
-58.3173640997
 21
27.3808414592
  0
LINE
  5
41D
100
AcDbEntity
  8
RACCORDO
100
AcDbLine
 62
7
  6
CONTINUOUS
 10
-58.3173640997
 20
27.3808414592
 11
-58.3418662979
 21
27.3948561589
  0
LINE
  5
41E
100
AcDbEntity
  8
RACCORDO
100
AcDbLine
 62
7
  6
CONTINUOUS
 10
-59.6806392859
 20
25.8257626991
 11
-59.4213626383
 21
25.6760596122
  0
LINE
  5
41F
100
AcDbEntity
  8
RACCORDO
100
AcDbLine
 62
253
  6
CONTINUOUS
 10
-59.6806392859
 20
25.8933966893
 11
-59.4627791625
 21
25.7676069845
  0
LINE
  5
420
100
AcDbEntity
  8
RACCORDO
100
AcDbLine
 62
253
  6
CONTINUOUS
 10
-59.4627791625
 20
26.5831749506
 11
-59.6623470837
 21
26.6984029671
  0
LINE
  5
421
100
AcDbEntity
  8
RACCORDO
100
AcDbLine
 62
253
  6
CONTINUOUS
 10
-59.330765015
 20
26.8223306497
 11
-59.3795352921
 21
26.8504899965
  0
LINE
  5
422
100
AcDbEntity
  8
RACCORDO
100
AcDbLine
 62
253
  6
CONTINUOUS
 10
-59.4214089697
 20
25.6760863882
 11
-59.4213626383
 21
25.6760596122
  0
LINE
  5
423
100
AcDbEntity
  8
RACCORDO
100
AcDbLine
 62
7
  6
CONTINUOUS
 10
-58.3418662979
 20
27.3948561589
 11
-58.3540913275
 21
27.401940576
  0
LWPOLYLINE
  5
424
100
AcDbEntity
  8
RACCORDO
100
AcDbPolyline
 62
253
  6
CONTINUOUS
 90
10
 70
0
 10
-59.5126107457
 20
34.1721012216
 10
-59.4855598838
 20
34.15110616
 10
-59.4077465415
 20
34.0773275307
 10
-59.3424269469
 20
34.0002910141
 10
-59.2899382197
 20
33.9198653359
 10
-59.2499432401
 20
33.8361817704
 10
-59.2233274728
 20
33.7515367735
 10
-59.2103860728
 20
33.6666958305
 10
-59.2108238852
 20
33.5808934562
 10
-59.2246409099
 20
33.4941296505
  0
LWPOLYLINE
  5
425
100
AcDbEntity
  8
RACCORDO
100
AcDbPolyline
 62
253
  6
CONTINUOUS
 90
46
 70
0
 10
1.9992132085
 20
24.0547546587
 10
1.9881928165
 20
24.2425914883
 10
1.9688375573
 20
24.4324997112
 10
1.9411529719
 20
24.6244880663
 10
1.9052660975
 20
24.818809259
 10
1.8610660996
 20
25.0152391405
 10
1.80820478
 20
25.2130776591
 10
1.7466257256
 20
25.412384994
 10
1.676413889
 20
25.6131549444
 10
1.5974368478
 20
25.8145954077
 10
1.5096543849
 20
26.0167473674
 10
1.4131488432
 20
26.2196497127
 10
1.3079752152
 20
26.4225138444
 10
1.1941748034
 20
26.6253117303
 10
1.0717628351
 20
26.8281754208
 10
0.9407589472
 20
27.0305624653
 10
0.8011605659
 20
27.2325837169
 10
0.6530438535
 20
27.4342569752
 10
0.4965505302
 20
27.6349054734
 10
0.3315481168
 20
27.8347599495
 10
0.158261598
 20
28.03374105
 10
-0.0226300958
 20
28.2307057491
 10
-0.2111827751
 20
28.4257392413
 10
-0.4072344251
 20
28.6189162997
 10
-0.6097840733
 20
28.8090666815
 10
-0.8188542861
 20
28.9962365741
 10
-1.0343083954
 20
29.1805353256
 10
-1.2549171353
 20
29.3608664875
 10
-1.4807275135
 20
29.5372766264
 10
-1.7115778589
 20
29.7098578348
 10
-1.945943872
 20
29.8775509013
 10
-2.1837070979
 20
30.0402752308
 10
-2.4248836318
 20
30.1982164251
 10
-2.6681734529
 20
30.3506792665
 10
-2.9135143362
 20
30.4976337895
 10
-3.160880359
 20
30.6391833172
 10
-3.4090492971
 20
30.7747988795
 10
-3.6579701527
 20
30.9044439135
 10
-3.9076252753
 20
31.0281949651
 10
-4.1568675871
 20
31.1456596397
 10
-4.4056490152
 20
31.2567867107
 10
-4.6539728604
 20
31.3616343009
 10
-4.9007951469
 20
31.4599426869
 10
-5.1457674774
 20
31.551610925
 10
-5.3892225501
 20
31.6367135066
 10
-5.6311514282
 20
31.71523888
  0
LWPOLYLINE
  5
426
100
AcDbEntity
  8
RACCORDO
100
AcDbPolyline
 62
253
  6
CONTINUOUS
 90
46
 70
0
 10
2.2822947854
 20
24.1043743495
 10
2.2708582036
 20
24.2995999923
 10
2.2511939119
 20
24.4973144604
 10
2.2231868392
 20
24.6973878559
 10
2.1867440312
 20
24.8997316459
 10
2.1417410256
 20
25.1041407999
 10
2.0880323312
 20
25.3102897201
 10
2.0254897447
 20
25.5179931266
 10
1.9540783666
 20
25.7270656831
 10
1.8738242082
 20
25.9371579734
 10
1.7846454904
 20
26.1480108615
 10
1.6865305785
 20
26.3594405746
 10
1.5796426261
 20
26.5711913001
 10
1.46399148
 20
26.78289301
 10
1.339541857
 20
26.9944122533
 10
1.2063929988
 20
27.2058336653
 10
1.0644982083
 20
27.4168889712
 10
0.9138932752
 20
27.6272844585
 10
0.7547875824
 20
27.8370500259
 10
0.5870392221
 20
28.0460067676
 10
0.4108127129
 20
28.2537017314
 10
0.2268037964
 20
28.4597444682
 10
0.0350273942
 20
28.6638063167
 10
-0.1643915088
 20
28.8655454193
 10
-0.3705298483
 20
29.064563727
 10
-0.5832848598
 20
29.2605188808
 10
-0.8025061206
 20
29.4530805677
 10
-1.027138222
 20
29.641899207
 10
-1.2570541028
 20
29.8266894988
 10
-1.492030495
 20
30.0070970784
 10
-1.7308085023
 20
30.1827234336
 10
-1.9730518481
 20
30.3532278405
 10
-2.2186530221
 20
30.5184061839
 10
-2.4666554702
 20
30.6781241361
 10
-2.7167737254
 20
30.832143083
 10
-2.9688142298
 20
30.980234231
 10
-3.2219416636
 20
31.1223221407
 10
-3.4758708256
 20
31.2582223145
 10
-3.7303914707
 20
31.3877367743
 10
-3.9847731549
 20
31.510812019
 10
-4.2387129291
 20
31.6273033264
 10
-4.4920170378
 20
31.7370644745
 10
-4.7441180658
 20
31.8400767812
 10
-4.9946653009
 20
31.9362676394
 10
-5.2435256255
 20
32.0255022419
 10
-5.4904618868
 20
32.1076932005
  0
LWPOLYLINE
  5
427
100
AcDbEntity
  8
DRAFT
100
AcDbPolyline
 62
7
  6
CONTINUOUS
 90
46
 70
0
 10
5.7580897753
 20
26.0448404355
 10
5.7481479554
 20
26.2708023331
 10
5.7317609103
 20
26.499484915
 10
5.7089286402
 20
26.7308881811
 10
5.6796040238
 20
26.965317268
 10
5.6438341823
 20
27.2024670392
 10
5.6017604795
 20
27.4414220854
 10
5.5533778303
 20
27.6821122991
 10
5.4986913198
 20
27.9246077879
 10
5.4378575666
 20
28.1682034643
 10
5.3708247301
 20
28.41301153
 10
5.2976446509
 20
28.6589197834
 10
5.2186294702
 20
28.9048865328
 10
5.1338050189
 20
29.1507780149
 10
5.0431454661
 20
29.3967279929
 10
4.9468854599
 20
29.6420960649
 10
4.8449428567
 20
29.8870323056
 10
4.7373998002
 20
30.1313866402
 10
4.6247373692
 20
30.3740684427
 10
4.5070157425
 20
30.6149095361
 10
4.3841747413
 20
30.8540780974
 10
4.2565149074
 20
31.0909880313
 10
4.1239284392
 20
31.3257959666
 10
3.9865231383
 20
31.5583452745
 10
3.8449229515
 20
31.7875799735
 10
3.6992133663
 20
32.0133295783
 10
3.5493088952
 20
32.2357645743
 10
3.3955770222
 20
32.4543404359
 10
3.2379000672
 20
32.6691899631
 10
3.0763957104
 20
32.8801803559
 10
2.9117844762
 20
33.0863686898
 10
2.7441582322
 20
33.2876106202
 10
2.573425111
 20
33.4840504917
 10
2.4000300347
 20
33.6751784131
 10
2.2238690118
 20
33.8610801925
 10
2.0450460339
 20
34.0416700217
 10
1.8643179986
 20
34.2161805857
 10
1.6817582365
 20
34.3845124916
 10
1.4972934169
 20
34.5467651323
 10
1.311460446
 20
34.7024693703
 10
1.1241959267
 20
34.8516534837
 10
0.935563256
 20
34.9942891945
 10
0.7462895314
 20
35.1298225314
 10
0.5566171187
 20
35.2580688375
 10
0.3663036521
 20
35.3792127697
 10
0.1753491317
 20
35.493254328
  0
LINE
  5
428
100
AcDbEntity
  8
RACCORDO
100
AcDbLine
 62
253
  6
CONTINUOUS
 10
2.1385799745
 20
20.5323027356
 11
1.9992132085
 21
24.0547546587
  0
LINE
  5
429
100
AcDbEntity
  8
RACCORDO
100
AcDbLine
 62
253
  6
CONTINUOUS
 10
2.4206392856
 20
20.5738126412
 11
2.2822947854
 21
24.1043743495
  0
LINE
  5
42A
100
AcDbEntity
  8
DRAFT
100
AcDbLine
 62
7
  6
CONTINUOUS
 10
5.861642796
 20
22.5610455843
 11
5.7580897753
 21
26.0448404355
  0
LWPOLYLINE
  5
42B
100
AcDbEntity
  8
RACCORDO
100
AcDbPolyline
 62
253
  6
CONTINUOUS
 90
64
 70
0
 10
1.4227323037
 20
24.0285001654
 10
1.4212302837
 20
24.0994339942
 10
1.4184425977
 20
24.1717324552
 10
1.4143694391
 20
24.2453957434
 10
1.4091111683
 20
24.3201821978
 10
1.402567933
 20
24.3963341152
 10
1.3944397578
 20
24.4745778698
 10
1.3847793019
 20
24.5549341582
 10
1.3735349281
 20
24.6373838018
 10
1.3602505873
 20
24.722593957
 10
1.3449858831
 20
24.8105768422
 10
1.3276831668
 20
24.901323381
 10
1.3077112343
 20
24.9954700079
 10
1.2851408614
 20
25.093037429
 10
1.2599049248
 20
25.1940110756
 10
1.2311667151
 20
25.2989768112
 10
1.1990037129
 20
25.4079695463
 10
1.1633451407
 20
25.5209659298
 10
1.1231342832
 20
25.6384686697
 10
1.0784335419
 20
25.760564711
 10
1.0291925682
 20
25.8871881529
 10
0.974189479
 20
26.0186195225
 10
0.913384505
 20
26.1551365014
 10
0.8468384108
 20
26.2964980763
 10
0.7734856895
 20
26.4422167041
 10
0.6931907772
 20
26.5925668844
 10
0.6061227685
 20
26.7473320406
 10
0.5116792285
 20
26.905298716
 10
0.4097248792
 20
27.0665982277
 10
0.3004428372
 20
27.2311798719
 10
0.183713258
 20
27.3975654681
 10
0.0593778403
 20
27.5658890453
 10
-0.0723428616
 20
27.7361173494
 10
-0.2109984657
 20
27.9065236682
 10
-0.3566685315
 20
28.077076989
 10
-0.5092006208
 20
28.2479198846
 10
-0.6677987854
 20
28.4175805179
 10
-0.8321179317
 20
28.5857571503
 10
-1.0024256757
 20
28.7528616394
 10
-1.1788448595
 20
28.9184907212
 10
-1.3613752051
 20
29.082771398
 10
-1.5499211898
 20
29.2457041419
 10
-1.7444577091
 20
29.4067008074
 10
-1.9456557716
 20
29.566316003
 10
-2.1527271079
 20
29.72414048
 10
-2.3634711026
 20
29.8781183763
 10
-2.5782043467
 20
30.028240614
 10
-2.7965154229
 20
30.174616991
 10
-3.0151571018
 20
30.3153059122
 10
-3.234336933
 20
30.4501083076
 10
-3.4538067105
 20
30.579244791
 10
-3.6697037795
 20
30.7013145308
 10
-3.8820042753
 20
30.8159287185
 10
-4.0907710487
 20
30.9233995657
 10
-4.2923479432
 20
31.0232852657
 10
-4.4857379462
 20
31.1148866547
 10
-4.6720584344
 20
31.1987399732
 10
-4.8508657783
 20
31.276210629
 10
-5.0215242865
 20
31.347075091
 10
-5.1847911829
 20
31.4114056145
 10
-5.342300692
 20
31.4710260495
 10
-5.4946189622
 20
31.5265177481
 10
-5.6412598886
 20
31.5772024554
 10
-5.7822639973
 20
31.6230328839
  0
LINE
  5
42C
100
AcDbEntity
  8
RACCORDO
100
AcDbLine
 62
253
  6
CONTINUOUS
 10
1.4726640096
 20
20.6361756174
 11
1.4227323037
 21
24.0285001654
  0
LWPOLYLINE
  5
42D
100
AcDbEntity
  8
0
100
AcDbPolyline
 62
7
  6
CONTINUOUS
 90
23
 70
0
 10
1.2100292059
 20
24.0496633235
 10
1.2095435336
 20
24.1239652794
 10
1.2082100464
 20
24.192613334
 10
1.206050023
 20
24.2605020028
 10
1.203041854
 20
24.3272937554
 10
1.1992033055
 20
24.3929352368
 10
1.1945610586
 20
24.4574533702
 10
1.1891162909
 20
24.5206281496
 10
1.1828885027
 20
24.5824355118
 10
1.1759070854
 20
24.6428743457
 10
1.1681940953
 20
24.7017577143
 10
1.1597723396
 20
24.7590557268
 10
1.1506706036
 20
24.8147751525
 10
1.1409240559
 20
24.8687834601
 10
1.1305664919
 20
24.9210241542
 10
1.1196158536
 20
24.9715334245
 10
1.1080840994
 20
25.0203182567
 10
1.096008927
 20
25.0673498524
 10
1.0833988844
 20
25.1126407314
 10
1.0702193151
 20
25.1562611648
 10
1.0564710175
 20
25.198230592
 10
1.0421918493
 20
25.2385172015
 10
1.0274003413
 20
25.2771154187
  0
LWPOLYLINE
  5
42E
100
AcDbEntity
  8
ASSI
100
AcDbPolyline
 62
7
  6
CONTINUOUS
 90
23
 70
0
 10
1.2100292059
 20
24.0496633235
 10
1.2095435336
 20
24.1239652794
 10
1.2082100464
 20
24.192613334
 10
1.206050023
 20
24.2605020028
 10
1.203041854
 20
24.3272937554
 10
1.1992033055
 20
24.3929352368
 10
1.1945610586
 20
24.4574533702
 10
1.1891162909
 20
24.5206281496
 10
1.1828885027
 20
24.5824355118
 10
1.1759070854
 20
24.6428743457
 10
1.1681940953
 20
24.7017577143
 10
1.1597723396
 20
24.7590557268
 10
1.1506706036
 20
24.8147751525
 10
1.1409240559
 20
24.8687834601
 10
1.1305664919
 20
24.9210241542
 10
1.1196158536
 20
24.9715334245
 10
1.1080840994
 20
25.0203182567
 10
1.096008927
 20
25.0673498524
 10
1.0833988844
 20
25.1126407314
 10
1.0702193151
 20
25.1562611648
 10
1.0564710175
 20
25.198230592
 10
1.0421918493
 20
25.2385172015
 10
1.0274003413
 20
25.2771154187
  0
LWPOLYLINE
  5
42F
100
AcDbEntity
  8
0
100
AcDbPolyline
 62
7
  6
CONTINUOUS
 90
15
 70
0
 10
1.2100272417
 20
-96.101960224
 10
1.2097840207
 20
-96.0620635086
 10
1.2087576348
 20
-96.0085726731
 10
1.2068987748
 20
-95.9541169096
 10
1.2041928064
 20
-95.8987616244
 10
1.2006953849
 20
-95.8427342931
 10
1.1963842508
 20
-95.7859903622
 10
1.1912546706
 20
-95.7285687395
 10
1.1854083018
 20
-95.6708358737
 10
1.1788418793
 20
-95.612802673
 10
1.1715566422
 20
-95.5544701009
 10
1.1636848321
 20
-95.4962051159
 10
1.1552829143
 20
-95.4381419381
 10
1.1463185334
 20
-95.3801738523
 10
1.1368024209
 20
-95.3223134075
  0
LWPOLYLINE
  5
430
100
AcDbEntity
  8
ASSI
100
AcDbPolyline
 62
7
  6
CONTINUOUS
 90
15
 70
0
 10
1.2100272417
 20
-96.101960224
 10
1.2097840207
 20
-96.0620635086
 10
1.2087576348
 20
-96.0085726731
 10
1.2068987748
 20
-95.9541169096
 10
1.2041928064
 20
-95.8987616244
 10
1.2006953849
 20
-95.8427342931
 10
1.1963842508
 20
-95.7859903622
 10
1.1912546706
 20
-95.7285687395
 10
1.1854083018
 20
-95.6708358737
 10
1.1788418793
 20
-95.612802673
 10
1.1715566422
 20
-95.5544701009
 10
1.1636848321
 20
-95.4962051159
 10
1.1552829143
 20
-95.4381419381
 10
1.1463185334
 20
-95.3801738523
 10
1.1368024209
 20
-95.3223134075
  0
LINE
  5
431
100
AcDbEntity
  8
0
100
AcDbLine
 62
253
  6
CONTINUOUS
 10
-0.4673981662
 20
-97.703736248
 11
-0.4673981662
 21
24.0306935837
  0
LINE
  5
432
100
AcDbEntity
  8
ASSI
100
AcDbLine
 62
253
  6
CONTINUOUS
 10
-0.4673981662
 20
-97.703736248
 11
-0.4673981662
 21
24.0306935837
  0
LINE
  5
433
100
AcDbEntity
  8
0
100
AcDbLine
 62
253
  6
CONTINUOUS
 10
0.0341170848
 20
-95.9589901007
 11
0.0341170848
 21
22.4292000343
  0
LINE
  5
434
100
AcDbEntity
  8
ASSI
100
AcDbLine
 62
253
  6
CONTINUOUS
 10
0.0341170848
 20
-95.9589901007
 11
0.0341170848
 21
22.4292000343
  0
LINE
  5
435
100
AcDbEntity
  8
0
100
AcDbLine
 62
253
  6
CONTINUOUS
 10
1.1368024209
 20
-95.3223134075
 11
1.1368024209
 21
23.0658767274
  0
LINE
  5
436
100
AcDbEntity
  8
ASSI
100
AcDbLine
 62
253
  6
CONTINUOUS
 10
1.1368024209
 20
-95.3223134075
 11
1.1368024209
 21
23.0658767274
  0
LINE
  5
437
100
AcDbEntity
  8
RACCORDO
100
AcDbLine
 62
7
  6
CONTINUOUS
 10
1.2100257256
 20
-96.1019612984
 11
1.2100257256
 21
24.0496619149
  0
LINE
  5
438
100
AcDbEntity
  8
0
100
AcDbLine
 62
7
  6
CONTINUOUS
 10
1.3077854832
 20
20.6360393911
 11
1.3077854832
 21
-91.1411596364
  0
LINE
  5
439
100
AcDbEntity
  8
ASSI
100
AcDbLine
 62
7
  6
CONTINUOUS
 10
1.3077854832
 20
20.6360393911
 11
1.3077854832
 21
-91.1411596364
  0
LINE
  5
43A
100
AcDbEntity
  8
RACCORDO
100
AcDbLine
 62
253
  6
CONTINUOUS
 10
2.2906263694
 20
20.5323599799
 11
2.2906263694
 21
-91.2913974577
  0
LINE
  5
43B
100
AcDbEntity
  8
ASSI
100
AcDbLine
 62
253
  6
CONTINUOUS
 10
2.2906263694
 20
20.5323599799
 11
2.2906263694
 21
-91.2913974577
  0
LINE
  5
43C
100
AcDbEntity
  8
RACCORDO
100
AcDbLine
 62
253
  6
CONTINUOUS
 10
2.5276512938
 20
20.6030543281
 11
2.5276512938
 21
-91.2533735926
  0
LINE
  5
43D
100
AcDbEntity
  8
ASSI
100
AcDbLine
 62
253
  6
CONTINUOUS
 10
2.5276512938
 20
20.6030543281
 11
2.5276512938
 21
-91.2533735926
  0
LINE
  5
43E
100
AcDbEntity
  8
RACCORDO
100
AcDbLine
 62
253
  6
CONTINUOUS
 10
5.6554266859
 20
-89.4474352814
 11
5.6554266859
 21
22.4089926392
  0
LINE
  5
43F
100
AcDbEntity
  8
ASSI
100
AcDbLine
 62
253
  6
CONTINUOUS
 10
5.6554266859
 20
-89.4474352814
 11
5.6554266859
 21
22.4089926392
  0
LINE
  5
440
100
AcDbEntity
  8
RACCORDO
100
AcDbLine
 62
7
  6
CONTINUOUS
 10
5.7286499906
 20
-89.3453666331
 11
5.7286499906
 21
22.4841670069
  0
LINE
  5
441
100
AcDbEntity
  8
ASSI
100
AcDbLine
 62
7
  6
CONTINUOUS
 10
5.7286499906
 20
-89.3453666331
 11
5.7286499906
 21
22.4841670069
  0
LINE
  5
442
100
AcDbEntity
  8
RACCORDO
100
AcDbLine
 62
7
  6
CONTINUOUS
 10
5.8710942541
 20
27.4325747805
 11
5.8710942541
 21
-92.7518499634
  0
LINE
  5
443
100
AcDbEntity
  8
RACCORDO
100
AcDbLine
 62
253
  6
CONTINUOUS
 10
1.4227323037
 20
-94.5633710001
 11
1.4726640096
 21
-91.2300102122
  0
LINE
  5
444
100
AcDbEntity
  8
DRAFT
100
AcDbLine
 62
7
  6
CONTINUOUS
 10
5.7580897753
 20
-92.7935612468
 11
5.861642796
 21
-89.4293468282
  0
LINE
  5
445
100
AcDbEntity
  8
RACCORDO
100
AcDbLine
 62
7
  6
CONTINUOUS
 10
5.7286351955
 20
-89.3453666331
 11
5.7284621786
 21
-89.3507838889
  0
LINE
  5
446
100
AcDbEntity
  8
ASSI
100
AcDbLine
 62
7
  6
CONTINUOUS
 10
5.7286351955
 20
-89.3453666331
 11
5.7284621786
 21
-89.3507838889
  0
LWPOLYLINE
  5
447
100
AcDbEntity
  8
RACCORDO
100
AcDbPolyline
 62
253
  6
CONTINUOUS
 90
8
 70
0
 10
2.2822947854
 20
-94.7292214912
 10
2.2979626448
 20
-94.3382998616
 10
2.3134702208
 20
-93.9515505412
 10
2.3288175135
 20
-93.5689735299
 10
2.3438895611
 20
-93.1934316157
 10
2.3588013254
 20
-92.8220620106
 10
2.3738976915
 20
-92.4462763509
 10
2.3892936211
 20
-92.0632118487
  0
LINE
  5
448
100
AcDbEntity
  8
RACCORDO
100
AcDbLine
 62
253
  6
CONTINUOUS
 10
2.3892936211
 20
-92.0632118487
 11
2.4203963646
 21
-91.2898733196
  0
LWPOLYLINE
  5
449
100
AcDbEntity
  8
RACCORDO
100
AcDbPolyline
 62
253
  6
CONTINUOUS
 90
5
 70
0
 10
1.9992132085
 20
-94.766022119
 10
2.0149981194
 20
-94.3760092037
 10
2.0306217649
 20
-93.9901621184
 10
2.0460839335
 20
-93.6084810018
 10
2.0612688828
 20
-93.2338156353
  0
LWPOLYLINE
  5
44A
100
AcDbEntity
  8
RACCORDO
100
AcDbPolyline
 62
253
  6
CONTINUOUS
 90
5
 70
0
 10
2.0612688828
 20
-93.2338156353
 10
2.0914994982
 20
-92.4884348313
 10
2.1070077158
 20
-92.1063205211
 10
2.1227011359
 20
-91.7198231661
 10
2.1385799745
 20
-91.3289426128
  0
LINE
  5
44B
100
AcDbEntity
  8
RACCORDO
100
AcDbLine
 62
253
  6
CONTINUOUS
 10
13.6725692737
 20
21.8582102886
 11
13.6700703475
 21
21.8348390313
  0
LWPOLYLINE
  5
44C
100
AcDbEntity
  8
RACCORDO
100
AcDbPolyline
 62
253
  6
CONTINUOUS
 90
8
 70
0
 10
13.793088777
 20
20.4677217702
 10
13.7911285578
 20
20.4558224068
 10
13.7870484651
 20
20.4441037862
 10
13.7808922142
 20
20.4326914654
 10
13.7727257652
 20
20.4217077195
 10
13.7626366158
 20
20.4112702317
 10
13.7507328643
 20
20.4014908324
 10
13.7371420512
 20
20.3924743012
  0
LWPOLYLINE
  5
44D
100
AcDbEntity
  8
RACCORDO
100
AcDbPolyline
 62
253
  6
CONTINUOUS
 90
8
 70
0
 10
14.8352350566
 20
21.6534452062
 10
14.8332748374
 20
21.6415458428
 10
14.8291947447
 20
21.6298272222
 10
14.8230384938
 20
21.6184149014
 10
14.8148720448
 20
21.6074311555
 10
14.8047828954
 20
21.5969936677
 10
14.792879144
 20
21.5872142684
 10
14.7792883309
 20
21.5781977372
  0
LWPOLYLINE
  5
44E
100
AcDbEntity
  8
RACCORDO
100
AcDbPolyline
 62
253
  6
CONTINUOUS
 90
10
 70
0
 10
13.6700703475
 20
21.8348390313
 10
13.6649395986
 20
21.8136960901
 10
13.6571167226
 20
21.7928298787
 10
13.6466445001
 20
21.7723545244
 10
13.6335801992
 20
21.7523820067
 10
13.6179952638
 20
21.7330215542
 10
13.5999749326
 20
21.7143790577
 10
13.579617761
 20
21.6965564744
 10
13.5570350783
 20
21.6796512724
 10
13.5323503874
 20
21.6637559055
  0
LWPOLYLINE
  5
44F
100
AcDbEntity
  8
RACCORDO
100
AcDbPolyline
 62
253
  6
CONTINUOUS
 90
3
 70
0
 10
14.0101974817
 20
21.0946894651
 10
14.0034621044
 20
21.0698166611
 10
13.9950387433
 20
21.0454431796
  0
LWPOLYLINE
  5
450
100
AcDbEntity
  8
RACCORDO
100
AcDbPolyline
 62
253
  6
CONTINUOUS
 90
7
 70
0
 10
13.7615114768
 20
20.6855805594
 10
13.7540370309
 20
20.6585244234
 10
13.7479487981
 20
20.6319724617
 10
13.7432180562
 20
20.6060929703
 10
13.739835231
 20
20.5809420478
 10
13.7378098968
 20
20.5564635955
 10
13.7371420535
 20
20.5326576135
  0
LWPOLYLINE
  5
451
100
AcDbEntity
  8
RACCORDO
100
AcDbPolyline
 62
253
  6
CONTINUOUS
 90
8
 70
0
 10
-13.1466115352
 20
-76.9938348532
 10
-13.1474996067
 20
-76.9962762915
 10
-13.154982447
 20
-77.0105814572
 10
-13.164572851
 20
-77.0244610063
 10
-13.176199442
 20
-77.0378116403
 10
-13.1897756888
 20
-77.050533997
 10
-13.2052005498
 20
-77.0625333899
 10
-13.222359225
 20
-77.0737205133
  0
LWPOLYLINE
  5
452
100
AcDbEntity
  8
RACCORDO
100
AcDbPolyline
 62
7
  6
CONTINUOUS
 90
9
 70
0
 10
-24.7347825238
 20
-66.100251044
 10
-24.7323155361
 20
-66.0970119222
 10
-24.7302386943
 20
-66.0945617406
 10
-24.7291471876
 20
-66.0934032245
 10
-24.7292007139
 20
-66.0934420856
 10
-24.7306032148
 20
-66.0946210969
 10
-24.7335078816
 20
-66.0968300146
 10
-24.7380174395
 20
-66.0999255618
 10
-24.7432132008
 20
-66.1031681781
  0
LWPOLYLINE
  5
453
100
AcDbEntity
  8
RACCORDO
100
AcDbPolyline
 62
253
  6
CONTINUOUS
 90
46
 70
0
 10
-33.5061334694
 20
-65.0665767894
 10
-33.4927727926
 20
-65.0503778672
 10
-33.4289679843
 20
-64.9847092916
 10
-33.3606619326
 20
-64.9251853222
 10
-33.2883597991
 20
-64.8722453511
 10
-33.2120305787
 20
-64.8259371239
 10
-33.1317052766
 20
-64.7862128951
 10
-33.0479820696
 20
-64.7533688199
 10
-32.9608360793
 20
-64.7274565297
 10
-32.8702921841
 20
-64.7084243931
 10
-32.7770231961
 20
-64.6964136715
 10
-32.6810087803
 20
-64.6914766255
 10
-32.5822692718
 20
-64.6935609945
 10
-32.4815384875
 20
-64.7026512572
 10
-32.3788015851
 20
-64.7187995943
 10
-32.2740734069
 20
-64.7419538252
 10
-32.1681322977
 20
-64.771941887
 10
-32.0609691776
 20
-64.8088147112
 10
-31.9525931266
 20
-64.8525213663
 10
-31.8438097289
 20
-64.9027369941
 10
-31.7346159516
 20
-64.9595101049
 10
-31.6250148276
 20
-65.0227921884
 10
-31.5158210408
 20
-65.0921128553
 10
-31.4070376255
 20
-65.1675171123
 10
-31.2986615473
 20
-65.2489599528
 10
-31.1914983872
 20
-65.3358359673
 10
-31.0855572315
 20
-65.4281855939
 10
-30.9808289938
 20
-65.5259683946
 10
-30.8780919963
 20
-65.6284576463
 10
-30.7773610621
 20
-65.7356884121
 10
-30.678621368
 20
-65.847625629
 10
-30.5826067678
 20
-65.9634373846
 10
-30.4893376304
 20
-66.083152409
 10
-30.3987935868
 20
-66.2067419722
 10
-30.3116473838
 20
-66.3332879714
 10
-30.2279238295
 20
-66.4628134337
 10
-30.1475981159
 20
-66.5952953321
 10
-30.0712685655
 20
-66.7297464834
 10
-29.9989663052
 20
-66.8661785809
 10
-29.9306602081
 20
-67.0045799312
 10
-29.8668552165
 20
-67.1439282709
 10
-29.8075818844
 20
-67.2842396667
 10
-29.7528096578
 20
-67.4254980517
 10
-29.7029518167
 20
-67.5666329627
 10
-29.6580506388
 20
-67.7076212765
 10
-29.6232548059
 20
-67.8301994865
  0
LWPOLYLINE
  5
454
100
AcDbEntity
  8
RACCORDO
100
AcDbPolyline
 62
7
  6
CONTINUOUS
 90
5
 70
0
 10
-35.5674857581
 20
-66.3288655846
 10
-35.4563505076
 20
-66.1945457363
 10
-35.3353322337
 20
-66.0749716218
 10
-35.2053822364
 20
-65.9704261432
 10
-35.0675033876
 20
-65.8810880177
  0
LWPOLYLINE
  5
455
100
AcDbEntity
  8
RACCORDO
100
AcDbPolyline
 62
253
  6
CONTINUOUS
 90
4
 70
0
 10
-32.9520349603
 20
-65.0278876844
 10
-32.9440237116
 20
-65.0216825823
 10
-32.8726094773
 20
-64.9760222402
 10
-32.8552776892
 20
-64.9662615541
  0
LINE
  5
456
100
AcDbEntity
  8
RACCORDO
100
AcDbLine
 62
253
  6
CONTINUOUS
 10
-39.1093688492
 20
-57.7123903112
 11
-40.170029021
 21
-58.3461795137
  0
LINE
  5
457
100
AcDbEntity
  8
RACCORDO
100
AcDbLine
 62
253
  6
CONTINUOUS
 10
-38.8120236602
 20
-58.1936512249
 11
-39.8822500225
 21
-58.8331775711
  0
LINE
  5
458
100
AcDbEntity
  8
RACCORDO
100
AcDbLine
 62
253
  6
CONTINUOUS
 10
-39.797771195
 20
-63.8888137001
 11
-39.7614034602
 21
-63.867147973
  0
LINE
  5
459
100
AcDbEntity
  8
RACCORDO
100
AcDbLine
 62
253
  6
CONTINUOUS
 10
-39.7614034602
 20
-63.867147973
 11
-39.5236035965
 21
-63.7255226397
  0
LINE
  5
45A
100
AcDbEntity
  8
RACCORDO
100
AcDbLine
 62
253
  6
CONTINUOUS
 10
-39.5236035965
 20
-63.7255226397
 11
-39.2924584692
 21
-63.5879169368
  0
LINE
  5
45B
100
AcDbEntity
  8
RACCORDO
100
AcDbLine
 62
253
  6
CONTINUOUS
 10
-39.2924584692
 20
-63.5879169368
 11
-39.0591857482
 21
-63.4491011911
  0
LINE
  5
45C
100
AcDbEntity
  8
RACCORDO
100
AcDbLine
 62
253
  6
CONTINUOUS
 10
-39.0591857482
 20
-63.4491011911
 11
-38.8215898508
 21
-63.3077679841
  0
LWPOLYLINE
  5
45D
100
AcDbEntity
  8
RACCORDO
100
AcDbPolyline
 62
253
  6
CONTINUOUS
 90
3
 70
0
 10
-39.4727495771
 20
-64.0790957035
 10
-39.3867533707
 20
-64.0290998793
 10
-39.2696376632
 20
-63.9610191211
  0
LWPOLYLINE
  5
45E
100
AcDbEntity
  8
RACCORDO
100
AcDbPolyline
 62
253
  6
CONTINUOUS
 90
5
 70
0
 10
-39.2696376632
 20
-63.9610191211
 10
-39.0371200114
 20
-63.8258747613
 10
-38.9187735152
 20
-63.75709947
 10
-38.7995260072
 20
-63.6878075705
 10
-38.6793774924
 20
-63.6179991756
  0
LINE
  5
45F
100
AcDbEntity
  8
0
100
AcDbLine
 62
7
  6
CONTINUOUS
 10
-62.9265143679
 20
-69.1509587527
 11
-63.4926143556
 21
-69.4778177908
  0
LINE
  5
460
100
AcDbEntity
  8
ASSI
100
AcDbLine
 62
7
  6
CONTINUOUS
 10
-62.9265143679
 20
-69.1509587527
 11
-63.4926143556
 21
-69.4778177908
  0
LWPOLYLINE
  5
461
100
AcDbEntity
  8
RACCORDO
100
AcDbPolyline
 62
253
  6
CONTINUOUS
 90
22
 70
0
 10
-40.170029021
 20
-58.3461795137
 10
-40.3050220659
 20
-58.4237387352
 10
-40.4446865715
 20
-58.4979500302
 10
-40.5890225376
 20
-58.5688133986
 10
-40.7382870683
 20
-58.6364419088
 10
-40.8922230595
 20
-58.7007224925
 10
-41.0500592
 20
-58.7613159447
 10
-41.2118069736
 20
-58.8181971624
 10
-41.3774548963
 20
-58.8713912488
 10
-41.5461972051
 20
-58.9206343086
 10
-41.7180476392
 20
-58.9659049981
 10
-41.8929924592
 20
-59.007224661
 10
-42.0701846837
 20
-59.044393434
 10
-42.2496388091
 20
-59.077390128
 10
-42.4313403389
 20
-59.1062359321
 10
-42.6143988016
 20
-59.1307945507
 10
-42.7988332647
 20
-59.1510428966
 10
-42.9846246607
 20
-59.1670040571
 10
-43.1708253156
 20
-59.1786109988
 10
-43.3571193382
 20
-59.1858413772
 10
-43.5438226198
 20
-59.1887175367
 10
-43.7309351603
 20
-59.1872394773
  0
LWPOLYLINE
  5
462
100
AcDbEntity
  8
RACCORDO
100
AcDbPolyline
 62
253
  6
CONTINUOUS
 90
22
 70
0
 10
-39.8822500225
 20
-58.8331775711
 10
-40.028457545
 20
-58.9169739664
 10
-40.1801791382
 20
-58.9973602745
 10
-40.337179404
 20
-59.0742105567
 10
-40.4992201878
 20
-59.1474110163
 10
-40.6660434505
 20
-59.2168397078
 10
-40.8373699886
 20
-59.2823681171
 10
-41.0129324204
 20
-59.3438949171
 10
-41.1924527021
 20
-59.4013238772
 10
-41.375622125
 20
-59.4545464321
 10
-41.5621469649
 20
-59.5034806021
 10
-41.7517350505
 20
-59.5480534347
 10
-41.9440696102
 20
-59.5881828247
 10
-42.1388489156
 20
-59.6238099136
 10
-42.335759966
 20
-59.6548819746
 10
-42.5344618088
 20
-59.6813397347
 10
-42.7346362062
 20
-59.7031468337
 10
-42.9359672991
 20
-59.7202754033
 10
-43.1381134643
 20
-59.7326932978
 10
-43.3407466086
 20
-59.7403847497
 10
-43.5435530538
 20
-59.7433486953
 10
-43.7462120035
 20
-59.7415876163
  0
LINE
  5
463
100
AcDbEntity
  8
RACCORDO
100
AcDbLine
 62
253
  6
CONTINUOUS
 10
-38.5387044327
 20
-63.9290763599
 11
-39.1431244325
 21
-64.2720728147
  0
LINE
  5
464
100
AcDbEntity
  8
RACCORDO
100
AcDbLine
 62
253
  6
CONTINUOUS
 10
-37.936040884
 20
-65.0951724066
 11
-37.8956914694
 21
-65.0722749079
  0
LWPOLYLINE
  5
465
100
AcDbEntity
  8
RACCORDO
100
AcDbPolyline
 62
253
  6
CONTINUOUS
 90
25
 70
0
 10
-39.1093688492
 20
-57.7123903112
 10
-39.080437898
 20
-57.6962173552
 10
-39.0500986347
 20
-57.6812881198
 10
-39.0183510593
 20
-57.6676026049
 10
-38.9850532685
 20
-57.655115687
 10
-38.9503471655
 20
-57.6438724897
 10
-38.9146584602
 20
-57.6340083836
 10
-38.8779682278
 20
-57.6255380338
 10
-38.8402953931
 20
-57.6184467752
 10
-38.8021224394
 20
-57.6128259833
 10
-38.7634430235
 20
-57.608694777
 10
-38.7242634887
 20
-57.6060340373
 10
-38.6850853483
 20
-57.6048777831
 10
-38.64591067
 20
-57.6052451675
 10
-38.6067373862
 20
-57.6071170375
 10
-38.5680608066
 20
-57.6104699522
 10
-38.5298834465
 20
-57.6153235092
 10
-38.4922027906
 20
-57.6216581111
 10
-38.4555066034
 20
-57.6293915244
 10
-38.419814441
 20
-57.6385394196
 10
-38.3851067472
 20
-57.6490861263
 10
-38.3518126178
 20
-57.6609024008
 10
-38.3200750847
 20
-57.6739451615
 10
-38.2897511161
 20
-57.68825749
 10
-38.2608407118
 20
-57.7038393862
  0
LWPOLYLINE
  5
466
100
AcDbEntity
  8
RACCORDO
100
AcDbPolyline
 62
253
  6
CONTINUOUS
 90
24
 70
0
 10
-38.8120236602
 20
-58.1936512249
 10
-38.8018958748
 20
-58.1882965262
 10
-38.7912506751
 20
-58.1833443457
 10
-38.7801364403
 20
-58.1788115898
 10
-38.7685994535
 20
-58.1747160528
 10
-38.7566829499
 20
-58.1710771517
 10
-38.7444351749
 20
-58.1679078386
 10
-38.7319109572
 20
-58.1652203626
 10
-38.7191649504
 20
-58.1630307709
 10
-38.7062517977
 20
-58.161346719
 10
-38.6932267165
 20
-58.1601732102
 10
-38.6801463802
 20
-58.1595189855
 10
-38.66706751
 20
-58.1593853487
 10
-38.6540453849
 20
-58.1597707854
 10
-38.6411345296
 20
-58.1606766806
 10
-38.6283889107
 20
-58.1620983834
 10
-38.6158644904
 20
-58.1640281488
 10
-38.6036175976
 20
-58.1664594395
 10
-38.5917029838
 20
-58.1693803846
 10
-38.5801688098
 20
-58.1727774456
 10
-38.5690596764
 20
-58.1766389102
 10
-38.5584219991
 20
-58.1809493155
 10
-38.548303243
 20
-58.185688915
 10
-38.5387471383
 20
-58.1908374436
  0
LWPOLYLINE
  5
467
100
AcDbEntity
  8
RACCORDO
100
AcDbPolyline
 62
253
  6
CONTINUOUS
 90
10
 70
0
 10
-47.0170684977
 20
-54.4887143936
 10
-46.9974856837
 20
-54.4791534542
 10
-46.978171962
 20
-54.4732660148
 10
-46.9575927835
 20
-54.4701094163
 10
-46.9359047681
 20
-54.4697076825
 10
-46.9132729747
 20
-54.4720638707
 10
-46.889869645
 20
-54.4771600489
 10
-46.8658728925
 20
-54.4849574322
 10
-46.8414653468
 20
-54.4953966777
 10
-46.8168327641
 20
-54.5083983364
  0
LWPOLYLINE
  5
468
100
AcDbEntity
  8
RACCORDO
100
AcDbPolyline
 62
7
  6
CONTINUOUS
 90
9
 70
0
 10
2.3927083631
 20
20.5628113881
 10
2.4094732777
 20
20.5648023044
 10
2.4260420991
 20
20.5674602976
 10
2.4421829183
 20
20.5707481645
 10
2.4578897166
 20
20.5746747626
 10
2.4731685127
 20
20.5792312346
 10
2.4878054538
 20
20.5843538046
 10
2.5017292555
 20
20.5900212143
 10
2.5150112022
 20
20.5962547221
  0
LWPOLYLINE
  5
469
100
AcDbEntity
  8
ASSI
100
AcDbPolyline
 62
7
  6
CONTINUOUS
 90
9
 70
0
 10
2.3927083631
 20
20.5628113881
 10
2.4094732777
 20
20.5648023044
 10
2.4260420991
 20
20.5674602976
 10
2.4421829183
 20
20.5707481645
 10
2.4578897166
 20
20.5746747626
 10
2.4731685127
 20
20.5792312346
 10
2.4878054538
 20
20.5843538046
 10
2.5017292555
 20
20.5900212143
 10
2.5150112022
 20
20.5962547221
  0
LINE
  5
46A
100
AcDbEntity
  8
0
100
AcDbLine
 62
7
  6
CONTINUOUS
 10
-13.1466115352
 20
14.9393035499
 11
-13.3390289872
 21
15.0354966923
  0
LINE
  5
46B
100
AcDbEntity
  8
ASSI
100
AcDbLine
 62
7
  6
CONTINUOUS
 10
-13.1466115352
 20
14.9393035499
 11
-13.3390289872
 21
15.0354966923
  0
LWPOLYLINE
  5
46C
100
AcDbEntity
  8
0
100
AcDbPolyline
 62
7
  6
CONTINUOUS
 90
16
 70
0
 10
-13.9061450856
 20
14.7080509648
 10
-17.3817077681
 20
16.4637068431
 10
-20.8275500052
 20
18.2380600292
 10
-24.2436717969
 20
20.0311105231
 10
-27.6303773471
 20
21.8430242115
 10
-30.9873624518
 20
23.6736352078
 10
-34.3137144993
 20
25.5224458518
 10
-37.6094251609
 20
27.3894610918
 10
-40.8745027651
 20
29.2746759794
 10
-44.1080596856
 20
31.1775780105
 10
-47.3100873525
 20
33.0981719937
 10
-50.4805943356
 20
35.0364531203
 10
-53.618718718
 20
36.9918944596
 10
-56.724173194
 20
38.964320368
 10
-59.7972450692
 20
40.9539064892
 10
-62.8379343437
 20
42.960652823
  0
LWPOLYLINE
  5
46D
100
AcDbEntity
  8
ASSI
100
AcDbPolyline
 62
7
  6
CONTINUOUS
 90
16
 70
0
 10
-13.9061450856
 20
14.7080509648
 10
-17.3817077681
 20
16.4637068431
 10
-20.8275500052
 20
18.2380600292
 10
-24.2436717969
 20
20.0311105231
 10
-27.6303773471
 20
21.8430242115
 10
-30.9873624518
 20
23.6736352078
 10
-34.3137144993
 20
25.5224458518
 10
-37.6094251609
 20
27.3894610918
 10
-40.8745027651
 20
29.2746759794
 10
-44.1080596856
 20
31.1775780105
 10
-47.3100873525
 20
33.0981719937
 10
-50.4805943356
 20
35.0364531203
 10
-53.618718718
 20
36.9918944596
 10
-56.724173194
 20
38.964320368
 10
-59.7972450692
 20
40.9539064892
 10
-62.8379343437
 20
42.960652823
  0
LINE
  5
46E
100
AcDbEntity
  8
RACCORDO
100
AcDbLine
 62
7
  6
CONTINUOUS
 10
-58.3377154724
 20
34.0062275844
 11
-59.5126107457
 21
34.6845973903
  0
LINE
  5
46F
100
AcDbEntity
  8
RACCORDO
100
AcDbLine
 62
253
  6
CONTINUOUS
 10
-58.7728348388
 20
34.6249229692
 11
-58.1305958712
 21
34.2541022384
  0
LINE
  5
470
100
AcDbEntity
  8
RACCORDO
100
AcDbLine
 62
253
  6
CONTINUOUS
 10
-58.4899921263
 20
35.1148209172
 11
-57.8477531587
 21
34.7440001865
  0
LWPOLYLINE
  5
471
100
AcDbEntity
  8
RACCORDO
100
AcDbPolyline
 62
253
  6
CONTINUOUS
 90
28
 70
0
 10
-58.1305958712
 20
34.2541022384
 10
-58.1101468438
 20
34.2419605366
 10
-58.0896452221
 20
34.2284424487
 10
-58.0691581575
 20
34.2135704738
 10
-58.0487225177
 20
34.1973493181
 10
-58.0284422799
 20
34.1798333368
 10
-58.0084838194
 20
34.1611437544
 10
-57.9889182224
 20
34.1413435604
 10
-57.9698095992
 20
34.1204949813
 10
-57.9513026337
 20
34.0987515269
 10
-57.9334816789
 20
34.0762302028
 10
-57.916372267
 20
34.0529828663
 10
-57.9000216324
 20
34.0290783267
 10
-57.884494017
 20
34.0046261607
 10
-57.8698191352
 20
33.9796897214
 10
-57.8559975386
 20
33.9542638815
 10
-57.8430683357
 20
33.9284121838
 10
-57.8310895343
 20
33.9022413975
 10
-57.8200979404
 20
33.8758085157
 10
-57.8101234198
 20
33.8491609726
 10
-57.8012250656
 20
33.8224323804
 10
-57.7934704962
 20
33.795810287
 10
-57.7868813276
 20
33.7693773764
 10
-57.7814778855
 20
33.743233372
 10
-57.7772922323
 20
33.7175844788
 10
-57.7743227606
 20
33.6925493304
 10
-57.772552013
 20
33.6681638448
 10
-57.7719661753
 20
33.6444991076
  0
LWPOLYLINE
  5
472
100
AcDbEntity
  8
RACCORDO
100
AcDbPolyline
 62
253
  6
CONTINUOUS
 90
28
 70
0
 10
-57.8477531587
 20
34.7440001865
 10
-57.8112719157
 20
34.7217827484
 10
-57.7749367799
 20
34.6971844471
 10
-57.7387477512
 20
34.6702052824
 10
-57.7025235571
 20
34.6407136707
 10
-57.6664454702
 20
34.6088411956
 10
-57.6310573081
 20
34.5749826087
 10
-57.5963826435
 20
34.5390899407
 10
-57.5623979037
 20
34.5012111608
 10
-57.5295761887
 20
34.461884928
 10
-57.4979860528
 20
34.4211475642
 10
-57.4675589418
 20
34.3789627475
 10
-57.438562293
 20
34.3357601719
 10
-57.4110279793
 20
34.2915822302
 10
-57.3849241278
 20
34.2463865297
 10
-57.3604225577
 20
34.2004755855
 10
-57.3375051985
 20
34.1538100365
 10
-57.3161901206
 20
34.1064292439
 10
-57.2967033538
 20
34.058753807
 10
-57.2790429829
 20
34.0107029683
 10
-57.2632109231
 20
33.9623574852
 10
-57.24943895
 20
33.9143802298
 10
-57.2377773731
 20
33.8667662847
 10
-57.2281758829
 20
33.8195205672
 10
-57.2207153272
 20
33.7733207007
 10
-57.2154226552
 20
33.7283925597
 10
-57.2122709177
 20
33.6845102698
 10
-57.2112601146
 20
33.6416738308
  0
LWPOLYLINE
  5
473
100
AcDbEntity
  8
0
100
AcDbPolyline
 62
7
  6
CONTINUOUS
 90
23
 70
0
 10
-65.6357575969
 20
65.758249235
 10
-65.7780420331
 20
65.9009651047
 10
-65.9184072679
 20
66.0365215074
 10
-66.056831356
 20
66.1649114094
 10
-66.1934576425
 20
66.286335452
 10
-66.3280935308
 20
66.4005800719
 10
-66.4602377478
 20
66.5070093755
 10
-66.5899222902
 20
66.6055962902
 10
-66.7171202023
 20
66.6963386895
 10
-66.8412959864
 20
66.778622727
 10
-66.9625079677
 20
66.8523902925
 10
-67.0807630262
 20
66.9176554262
 10
-67.1955114089
 20
66.9738962692
 10
-67.3068350548
 20
67.0210191031
 10
-67.4147843677
 20
67.0590600293
 10
-67.5188304041
 20
67.087675955
 10
-67.6190724315
 20
67.1067406537
 10
-67.715610646
 20
67.116312247
 10
-67.8079843728
 20
67.1163100151
 10
-67.8963024532
 20
67.1065906843
 10
-67.9807123254
 20
67.0872237604
 10
-68.0608686259
 20
67.0584368905
 10
-68.1349368301
 20
67.0212249848
  0
LWPOLYLINE
  5
474
100
AcDbEntity
  8
ASSI
100
AcDbPolyline
 62
7
  6
CONTINUOUS
 90
23
 70
0
 10
-65.6357575969
 20
65.758249235
 10
-65.7780420331
 20
65.9009651047
 10
-65.9184072679
 20
66.0365215074
 10
-66.056831356
 20
66.1649114094
 10
-66.1934576425
 20
66.286335452
 10
-66.3280935308
 20
66.4005800719
 10
-66.4602377478
 20
66.5070093755
 10
-66.5899222902
 20
66.6055962902
 10
-66.7171202023
 20
66.6963386895
 10
-66.8412959864
 20
66.778622727
 10
-66.9625079677
 20
66.8523902925
 10
-67.0807630262
 20
66.9176554262
 10
-67.1955114089
 20
66.9738962692
 10
-67.3068350548
 20
67.0210191031
 10
-67.4147843677
 20
67.0590600293
 10
-67.5188304041
 20
67.087675955
 10
-67.6190724315
 20
67.1067406537
 10
-67.715610646
 20
67.116312247
 10
-67.8079843728
 20
67.1163100151
 10
-67.8963024532
 20
67.1065906843
 10
-67.9807123254
 20
67.0872237604
 10
-68.0608686259
 20
67.0584368905
 10
-68.1349368301
 20
67.0212249848
  0
LWPOLYLINE
  5
475
100
AcDbEntity
  8
RACCORDO
100
AcDbPolyline
 62
253
  6
CONTINUOUS
 90
24
 70
0
 10
-64.5338781159
 20
66.1986217433
 10
-64.6713991647
 20
66.3384100421
 10
-64.8076400627
 20
66.4715263635
 10
-64.9423636886
 20
66.5977844367
 10
-65.0752640754
 20
66.717065617
 10
-65.2061634626
 20
66.8291377086
 10
-65.335013161
 20
66.9336640419
 10
-65.4615485568
 20
67.0305262077
 10
-65.5855376305
 20
67.1195599251
 10
-65.706981332
 20
67.2003975149
 10
-65.8256077838
 20
67.2729585994
 10
-65.941193527
 20
67.3371340285
 10
-66.053819714
 20
67.3925639107
 10
-66.163231899
 20
67.4392184782
 10
-66.2692056548
 20
67.4770419331
 10
-66.3718836545
 20
67.505698299
 10
-66.4710722652
 20
67.5252166516
 10
-66.5665209762
 20
67.5355992019
 10
-66.6583283184
 20
67.5365769305
 10
-66.7462962241
 20
67.5282636329
 10
-66.8302736299
 20
67.5107829827
 10
-66.9104886294
 20
67.4840035978
 10
-66.9868259589
 20
67.4481006689
 10
-67.0163537844
 20
67.4311638105
  0
LWPOLYLINE
  5
476
100
AcDbEntity
  8
RACCORDO
100
AcDbPolyline
 62
253
  6
CONTINUOUS
 90
27
 70
0
 10
-64.7113396261
 20
65.6479425972
 10
-64.7866064697
 20
65.725737681
 10
-64.8638542052
 20
65.803199183
 10
-64.9430114413
 20
65.8803474561
 10
-65.0236640924
 20
65.9572699102
 10
-65.1060820806
 20
66.0339187424
 10
-65.1911853927
 20
66.1101213979
 10
-65.2791498375
 20
66.1863532393
 10
-65.3695574742
 20
66.2622043344
 10
-65.4623957745
 20
66.3361858183
 10
-65.5580405936
 20
66.4087173165
 10
-65.6558258438
 20
66.479452547
 10
-65.7542241927
 20
66.5457389995
 10
-65.8532466912
 20
66.6074112039
 10
-65.9526983874
 20
66.6646722179
 10
-66.0508779944
 20
66.7153846181
 10
-66.1478199834
 20
66.7592136362
 10
-66.2434573233
 20
66.7964886718
 10
-66.3361008424
 20
66.8260259108
 10
-66.4257305063
 20
66.8473292629
 10
-66.5125094204
 20
66.8608468821
 10
-66.5951768767
 20
66.866774271
 10
-66.6735165019
 20
66.8648167227
 10
-66.7480195878
 20
66.8551948581
 10
-66.8185614581
 20
66.8388608572
 10
-66.8849926987
 20
66.8159377089
 10
-66.894901987
 20
66.811246434
  0
LWPOLYLINE
  5
477
100
AcDbEntity
  8
RACCORDO
100
AcDbPolyline
 62
253
  6
CONTINUOUS
 90
26
 70
0
 10
-64.7931286863
 20
65.8746230751
 10
-64.9247120747
 20
66.0117648627
 10
-65.0545846031
 20
66.1422210186
 10
-65.1827265417
 20
66.2659862944
 10
-65.3092891244
 20
66.3832643091
 10
-65.4340759325
 20
66.4938421902
 10
-65.5565714155
 20
66.5970823052
 10
-65.6767964221
 20
66.6929415888
 10
-65.7947419703
 20
66.7814372812
 10
-65.9099017805
 20
66.8620072548
 10
-66.0223186842
 20
66.9345895001
 10
-66.1320191088
 20
66.9992063904
 10
-66.2385294773
 20
67.0554078639
 10
-66.3419217229
 20
67.103117418
 10
-66.4422509765
 20
67.1423606597
 10
-66.539076714
 20
67.1728272344
 10
-66.6325205942
 20
67.1944100387
 10
-66.7226425956
 20
67.2071571296
 10
-66.808970966
 20
67.2109778932
 10
-66.891586641
 20
67.2057352125
 10
-66.9706492308
 20
67.1914999129
 10
-67.0458587428
 20
67.1684829155
 10
-67.1173265659
 20
67.1365600984
 10
-67.1852104101
 20
67.095789763
 10
-67.2493158079
 20
67.0466504195
 10
-67.2856197931
 20
67.0120387715
  0
LWPOLYLINE
  5
478
100
AcDbEntity
  8
RACCORDO
100
AcDbPolyline
 62
253
  6
CONTINUOUS
 90
18
 70
0
 10
-64.9687673361
 20
65.322540884
 10
-65.0403371548
 20
65.3981190389
 10
-65.1137546428
 20
65.4739983457
 10
-65.188951197
 20
65.5499311742
 10
-65.265493021
 20
65.6253006749
 10
-65.34366194
 20
65.7002111659
 10
-65.4244151014
 20
65.7753498759
 10
-65.5078062731
 20
65.8504432644
 10
-65.5934088152
 20
65.9247687693
 10
-65.681361799
 20
65.9980973168
 10
-65.7718610894
 20
66.0701446731
 10
-65.8642116227
 20
66.1398624692
 10
-65.9572162934
 20
66.2059239046
 10
-66.0507089453
 20
66.26782003
 10
-66.1444094344
 20
66.3249523988
 10
-66.2370315087
 20
66.3761938122
 10
-66.3284071512
 20
66.4211724236
 10
-66.3819887727
 20
66.443987443
  0
LINE
  5
479
100
AcDbEntity
  8
0
100
AcDbLine
 62
7
  6
CONTINUOUS
 10
-0.4673981662
 20
24.0306935837
 11
-0.2418127748
 21
23.3561903716
  0
LINE
  5
47A
100
AcDbEntity
  8
ASSI
100
AcDbLine
 62
7
  6
CONTINUOUS
 10
-0.4673981662
 20
24.0306935837
 11
-0.2418127748
 21
23.3561903716
  0
LINE
  5
47B
100
AcDbEntity
  8
0
100
AcDbLine
 62
7
  6
CONTINUOUS
 10
-0.2418127748
 20
23.3561903716
 11
-0.198766351
 21
23.224946572
  0
LINE
  5
47C
100
AcDbEntity
  8
ASSI
100
AcDbLine
 62
7
  6
CONTINUOUS
 10
-0.2418127748
 20
23.3561903716
 11
-0.198766351
 21
23.224946572
  0
LWPOLYLINE
  5
47D
100
AcDbEntity
  8
0
100
AcDbPolyline
 62
7
  6
CONTINUOUS
 90
13
 70
0
 10
-0.198766351
 20
23.224946572
 10
-0.1576892771
 20
23.0970978001
 10
-0.1378507186
 20
23.0342753074
 10
-0.1184788745
 20
22.9719644605
 10
-0.0995645706
 20
22.9101361731
 10
-0.0811108975
 20
22.8488309603
 10
-0.0631446531
 20
22.7879107403
 10
-0.0456686618
 20
22.7273868225
 10
-0.0286792284
 20
22.6672615549
 10
-0.0122000748
 20
22.607386788
 10
0.0037572217
 20
22.547719825
 10
0.0191972726
 20
22.4883213024
 10
0.0341170848
 20
22.4292000343
  0
LWPOLYLINE
  5
47E
100
AcDbEntity
  8
ASSI
100
AcDbPolyline
 62
7
  6
CONTINUOUS
 90
13
 70
0
 10
-0.198766351
 20
23.224946572
 10
-0.1576892771
 20
23.0970978001
 10
-0.1378507186
 20
23.0342753074
 10
-0.1184788745
 20
22.9719644605
 10
-0.0995645706
 20
22.9101361731
 10
-0.0811108975
 20
22.8488309603
 10
-0.0631446531
 20
22.7879107403
 10
-0.0456686618
 20
22.7273868225
 10
-0.0286792284
 20
22.6672615549
 10
-0.0122000748
 20
22.607386788
 10
0.0037572217
 20
22.547719825
 10
0.0191972726
 20
22.4883213024
 10
0.0341170848
 20
22.4292000343
  0
LWPOLYLINE
  5
47F
100
AcDbEntity
  8
SMUSSO
100
AcDbPolyline
 62
7
  6
CONTINUOUS
 90
15
 70
0
 10
-9.3763214913
 20
51.321199551
 10
-9.4080022339
 20
51.4657975695
 10
-9.448383245
 20
51.6120699864
 10
-9.4972028089
 20
51.7590664977
 10
-9.5541448685
 20
51.9058339722
 10
-9.6188405277
 20
52.0514203174
 10
-9.690869406
 20
52.1948789059
 10
-9.7697641381
 20
52.3352788088
 10
-9.8550133075
 20
52.4717098376
 10
-9.9460634539
 20
52.6032862406
 10
-10.0423236892
 20
52.7291543072
 10
-10.1431699062
 20
52.8484981384
 10
-10.2479482761
 20
52.9605440408
 10
-10.3559792654
 20
53.0645653574
 10
-10.4665621677
 20
53.1598873991
  0
LWPOLYLINE
  5
480
100
AcDbEntity
  8
RACCORDO
100
AcDbPolyline
 62
253
  6
CONTINUOUS
 90
17
 70
0
 10
13.7371420512
 20
20.3924743012
 10
13.737443135
 20
20.3837193605
 10
13.7374440662
 20
20.3749623107
 10
13.7371246667
 20
20.3662278184
 10
13.73646295
 20
20.3575284314
 10
13.7354397003
 20
20.3489063942
 10
13.7340439517
 20
20.3404296804
 10
13.7322612365
 20
20.3321250283
 10
13.7300777466
 20
20.324020361
 10
13.7274942257
 20
20.3161789613
 10
13.7245038845
 20
20.3086267159
 10
13.7210998551
 20
20.3013873455
 10
13.7172935125
 20
20.2945124881
 10
13.7130866318
 20
20.2880252628
 10
13.70847848
 20
20.2819428405
 10
13.7034854246
 20
20.2762996335
 10
13.6981140699
 20
20.2711122502
  0
LWPOLYLINE
  5
481
100
AcDbEntity
  8
RACCORDO
100
AcDbPolyline
 62
7
  6
CONTINUOUS
 90
16
 70
0
 10
14.8354201089
 20
22.0655253603
 10
14.8351655318
 20
22.0778613676
 10
14.8330246707
 20
22.1035002169
 10
14.8287904028
 20
22.128967871
 10
14.822510229
 20
22.1543070156
 10
14.8141940426
 20
22.1794986091
 10
14.8040533531
 20
22.203982559
 10
14.79208313
 20
22.2278468109
 10
14.7782658516
 20
22.2510531318
 10
14.7629927417
 20
22.2729369367
 10
14.7462945653
 20
22.2934972801
 10
14.7280951984
 20
22.3127694403
 10
14.7087995366
 20
22.3302828223
 10
14.6884339644
 20
22.3460105932
 10
14.6669421747
 20
22.3599363107
 10
14.3075531072
 20
22.5674560057
  0
LWPOLYLINE
  5
482
100
AcDbEntity
  8
RACCORDO
100
AcDbPolyline
 62
7
  6
CONTINUOUS
 90
31
 70
0
 10
13.6726782265
 20
25.4442617084
 10
13.6722042417
 20
25.4920092813
 10
13.6673761684
 20
25.6056964796
 10
13.6574555651
 20
25.7203528
 10
13.6425896995
 20
25.8356925735
 10
13.6229250405
 20
25.9515259065
 10
13.5985805014
 20
26.0677038897
 10
13.569685231
 20
26.183998397
 10
13.5363727586
 20
26.3001687816
 10
13.4987566165
 20
26.4160054655
 10
13.456970667
 20
26.5312618384
 10
13.4111438082
 20
26.6457052968
 10
13.3613905008
 20
26.7591223102
 10
13.3078489329
 20
26.8712690589
 10
13.2506508109
 20
26.9819058406
 10
13.189916503
 20
27.0908153824
 10
13.1257878544
 20
27.1977588049
 10
13.0584016092
 20
27.3024941374
 10
12.9878837163
 20
27.4048072405
 10
12.9143765418
 20
27.5044659971
 10
12.8380225767
 20
27.6012276355
 10
12.7589497389
 20
27.694883482
 10
12.6772946549
 20
27.7852090363
 10
12.5932043664
 20
27.8719617774
 10
12.5068091466
 20
27.9549331466
 10
12.4182516515
 20
28.0338898482
 10
12.3276663205
 20
28.1086029546
 10
12.235130268
 20
28.1788917402
 10
12.1407358996
 20
28.2445365023
 10
12.0446486096
 20
28.3052712357
 10
12.0086315225
 20
28.3264864768
  0
LINE
  5
483
100
AcDbEntity
  8
RACCORDO
100
AcDbLine
 62
253
  6
CONTINUOUS
 10
13.5323503874
 20
21.6637559063
 11
13.5323503874
 21
25.2437881874
  0
LINE
  5
484
100
AcDbEntity
  8
RACCORDO
100
AcDbLine
 62
7
  6
CONTINUOUS
 10
13.6726804872
 20
25.4443317059
 11
13.6726804872
 21
21.8642989515
  0
LINE
  5
485
100
AcDbEntity
  8
RACCORDO
100
AcDbLine
 62
253
  6
CONTINUOUS
 10
13.7371420535
 20
20.5326576135
 11
13.7371420512
 21
20.3924743012
  0
LINE
  5
486
100
AcDbEntity
  8
RACCORDO
100
AcDbLine
 62
7
  6
CONTINUOUS
 10
13.7932740912
 20
20.6128748179
 11
13.7932740912
 21
20.4726917087
  0
LINE
  5
487
100
AcDbEntity
  8
RACCORDO
100
AcDbLine
 62
7
  6
CONTINUOUS
 10
14.8354203708
 20
22.0655711369
 11
14.8354203708
 21
21.6584151446
  0
LWPOLYLINE
  5
488
100
AcDbEntity
  8
RACCORDO
100
AcDbPolyline
 62
253
  6
CONTINUOUS
 90
19
 70
0
 10
14.7792883309
 20
21.9853537295
 10
14.7792744692
 20
21.56924001
 10
14.7789532364
 20
21.5602753092
 10
14.7783051595
 20
21.5513288669
 10
14.7773088628
 20
21.5424137803
 10
14.7759462101
 20
21.533573085
 10
14.7742077382
 20
21.5248757468
 10
14.7720800341
 20
21.5163493164
 10
14.7695503448
 20
21.5080225408
 10
14.7666209053
 20
21.4999596885
 10
14.7632861064
 20
21.4921875285
 10
14.7595402148
 20
21.4847306666
 10
14.7553959176
 20
21.4776416226
 10
14.7508562105
 20
21.4709443878
 10
14.7459214369
 20
21.464656972
 10
14.7406089121
 20
21.458814439
 10
14.7349263216
 20
21.4534341289
 10
14.7288805053
 20
21.44853091
 10
14.7222361911
 20
21.4439660292
  0
LWPOLYLINE
  5
489
100
AcDbEntity
  8
RACCORDO
100
AcDbPolyline
 62
7
  6
CONTINUOUS
 90
20
 70
0
 10
13.793273893
 20
20.6128559372
 10
13.7933683126
 20
20.6191607336
 10
13.7940162633
 20
20.6310743493
 10
13.7953807783
 20
20.6444386755
 10
13.7975565625
 20
20.659106703
 10
13.8006287699
 20
20.6750043758
 10
13.8046879263
 20
20.6921105338
 10
13.80977814
 20
20.7102380432
 10
13.8159403414
 20
20.7292645979
 10
13.8232519644
 20
20.749188216
 10
13.8317075235
 20
20.7698096321
 10
13.8412942317
 20
20.7909800791
 10
13.8520541681
 20
20.8126593037
 10
13.8639488396
 20
20.8346618275
 10
13.8768908143
 20
20.8568584428
 10
13.8908250678
 20
20.8791766617
 10
13.9056836603
 20
20.9014676413
 10
13.9213838744
 20
20.9236732492
 10
13.9378899402
 20
20.9459142811
 10
13.9431203632
 20
20.9527780161
  0
LINE
  5
48A
100
AcDbEntity
  8
RACCORDO
100
AcDbLine
 62
253
  6
CONTINUOUS
 10
13.6726804826
 20
21.8642598161
 11
13.6725692737
 21
21.8582102886
  0
LWPOLYLINE
  5
48B
100
AcDbEntity
  8
RACCORDO
100
AcDbPolyline
 62
253
  6
CONTINUOUS
 90
9
 70
0
 10
13.7932740885
 20
20.6128559351
 10
13.7930888238
 20
20.6079055174
 10
13.7911286939
 20
20.5960060866
 10
13.7870486574
 20
20.5842873957
 10
13.7808924297
 20
20.5728750045
 10
13.7727259715
 20
20.561891191
 10
13.7626367821
 20
20.5514536411
 10
13.7507329617
 20
20.541674188
 10
13.7371420535
 20
20.5326576135
  0
LWPOLYLINE
  5
48C
100
AcDbEntity
  8
RACCORDO
100
AcDbPolyline
 62
253
  6
CONTINUOUS
 90
9
 70
0
 10
14.8354203551
 20
22.0655253599
 10
14.8352350566
 20
22.0606011984
 10
14.8332748374
 20
22.0487018349
 10
14.8291947446
 20
22.0369832144
 10
14.8230384938
 20
22.0255708936
 10
14.8148720447
 20
22.0145871477
 10
14.8047828954
 20
22.0041496599
 10
14.7928791439
 20
21.9943702607
 10
14.7792883309
 20
21.9853537295
  0
LWPOLYLINE
  5
48D
100
AcDbEntity
  8
RACCORDO
100
AcDbPolyline
 62
253
  6
CONTINUOUS
 90
12
 70
0
 10
14.010197603
 20
21.0946893974
 10
14.0093039636
 20
21.0761865277
 10
14.0072027088
 20
21.0585323851
 10
14.0039053455
 20
21.041825278
 10
13.9994175667
 20
21.026124082
 10
13.9937729658
 20
21.0115537033
 10
13.9870582934
 20
20.9982804657
 10
13.9793611068
 20
20.9863883956
 10
13.9707261625
 20
20.9758727786
 10
13.9611973059
 20
20.9667408844
 10
13.9508515573
 20
20.9590313859
 10
13.9494630186
 20
20.9581426274
  0
LWPOLYLINE
  5
48E
100
AcDbEntity
  8
RACCORDO
100
AcDbPolyline
 62
253
  6
CONTINUOUS
 90
10
 70
0
 10
13.6726804725
 20
25.4442617083
 10
13.6711769578
 20
25.4219601296
 10
13.6659823953
 20
25.3972357582
 10
13.6571164219
 20
25.3728618995
 10
13.6446450227
 20
25.3490199565
 10
13.6286610165
 20
25.3258873734
 10
13.6092833646
 20
25.303636315
 10
13.5866562857
 20
25.2824323853
 10
13.5609481822
 20
25.2624333952
 10
13.5323503874
 20
25.2437881874
  0
LWPOLYLINE
  5
48F
100
AcDbEntity
  8
RACCORDO
100
AcDbPolyline
 62
7
  6
CONTINUOUS
 90
11
 70
0
 10
5.7284621786
 20
-89.3507838889
 10
5.727078043
 20
-89.3615283544
 10
5.7242866365
 20
-89.3721812685
 10
5.7201110944
 20
-89.3827441364
 10
5.7146208231
 20
-89.3930413808
 10
5.7077938473
 20
-89.403068562
 10
5.6996521423
 20
-89.4128301198
 10
5.6903310404
 20
-89.4221637963
 10
5.6798756524
 20
-89.4310155059
 10
5.6682408676
 20
-89.4394393342
 10
5.6554266859
 20
-89.4474352814
  0
LWPOLYLINE
  5
490
100
AcDbEntity
  8
ASSI
100
AcDbPolyline
 62
7
  6
CONTINUOUS
 90
11
 70
0
 10
5.7284621786
 20
-89.3507838889
 10
5.727078043
 20
-89.3615283544
 10
5.7242866365
 20
-89.3721812685
 10
5.7201110944
 20
-89.3827441364
 10
5.7146208231
 20
-89.3930413808
 10
5.7077938473
 20
-89.403068562
 10
5.6996521423
 20
-89.4128301198
 10
5.6903310404
 20
-89.4221637963
 10
5.6798756524
 20
-89.4310155059
 10
5.6682408676
 20
-89.4394393342
 10
5.6554266859
 20
-89.4474352814
  0
LWPOLYLINE
  5
491
100
AcDbEntity
  8
0
100
AcDbPolyline
 62
7
  6
CONTINUOUS
 90
28
 70
0
 10
0.0341170848
 20
-95.9589901007
 10
0.0208196778
 20
-96.0266003185
 10
0.0070764416
 20
-96.0939338294
 10
-0.0071131985
 20
-96.1609851687
 10
-0.0217637417
 20
-96.2277569999
 10
-0.0368617162
 20
-96.2942357631
 10
-0.0523656742
 20
-96.3603916784
 10
-0.0682771797
 20
-96.4262224336
 10
-0.084595481
 20
-96.4917194962
 10
-0.1012753991
 20
-96.556843904
 10
-0.1183162142
 20
-96.6215851636
 10
-0.1357186989
 20
-96.6859433556
 10
-0.1534398472
 20
-96.7498954025
 10
-0.1714606599
 20
-96.8133622293
 10
-0.1897992553
 20
-96.8764131128
 10
-0.2084737617
 20
-96.9392435469
 10
-0.2274789758
 20
-97.001790583
 10
-0.2468298936
 20
-97.0640992978
 10
-0.266589686
 20
-97.1265160682
 10
-0.2867814623
 20
-97.1890149709
 10
-0.3074115334
 20
-97.2515878314
 10
-0.3285384013
 20
-97.3145912435
 10
-0.3502092527
 20
-97.3780060538
 10
-0.3724295302
 20
-97.4417960225
 10
-0.3952184036
 20
-97.5062723303
 10
-0.4186140399
 20
-97.5715067944
 10
-0.4426603931
 20
-97.6373427046
 10
-0.4673981662
 20
-97.703736248
  0
LWPOLYLINE
  5
492
100
AcDbEntity
  8
ASSI
100
AcDbPolyline
 62
7
  6
CONTINUOUS
 90
28
 70
0
 10
0.0341170848
 20
-95.9589901007
 10
0.0208196778
 20
-96.0266003185
 10
0.0070764416
 20
-96.0939338294
 10
-0.0071131985
 20
-96.1609851687
 10
-0.0217637417
 20
-96.2277569999
 10
-0.0368617162
 20
-96.2942357631
 10
-0.0523656742
 20
-96.3603916784
 10
-0.0682771797
 20
-96.4262224336
 10
-0.084595481
 20
-96.4917194962
 10
-0.1012753991
 20
-96.556843904
 10
-0.1183162142
 20
-96.6215851636
 10
-0.1357186989
 20
-96.6859433556
 10
-0.1534398472
 20
-96.7498954025
 10
-0.1714606599
 20
-96.8133622293
 10
-0.1897992553
 20
-96.8764131128
 10
-0.2084737617
 20
-96.9392435469
 10
-0.2274789758
 20
-97.001790583
 10
-0.2468298936
 20
-97.0640992978
 10
-0.266589686
 20
-97.1265160682
 10
-0.2867814623
 20
-97.1890149709
 10
-0.3074115334
 20
-97.2515878314
 10
-0.3285384013
 20
-97.3145912435
 10
-0.3502092527
 20
-97.3780060538
 10
-0.3724295302
 20
-97.4417960225
 10
-0.3952184036
 20
-97.5062723303
 10
-0.4186140399
 20
-97.5715067944
 10
-0.4426603931
 20
-97.6373427046
 10
-0.4673981662
 20
-97.703736248
  0
LWPOLYLINE
  5
493
100
AcDbEntity
  8
RACCORDO
100
AcDbPolyline
 62
7
  6
CONTINUOUS
 90
21
 70
0
 10
-25.8038645018
 20
-66.7369533115
 10
-25.9291963155
 20
-66.8144860964
 10
-26.074610392
 20
-66.9115894518
 10
-26.2129858671
 20
-67.0121078757
 10
-26.3441428854
 20
-67.1158602043
 10
-26.4679669987
 20
-67.222690974
 10
-26.5843643283
 20
-67.3324717883
 10
-26.6932211211
 20
-67.4450558906
 10
-26.7944141443
 20
-67.5602694007
 10
-26.8878278987
 20
-67.6779511301
 10
-26.9733586429
 20
-67.7979467071
 10
-27.0508971974
 20
-67.9200643503
 10
-27.1203175217
 20
-68.0440741924
 10
-27.1815338073
 20
-68.1697888019
 10
-27.2344671244
 20
-68.2969819784
 10
-27.2790163284
 20
-68.4253311677
 10
-27.3151414199
 20
-68.5546232174
 10
-27.3428103486
 20
-68.6845765922
 10
-27.3619909085
 20
-68.8147260324
 10
-27.3727219247
 20
-68.944727321
 10
-27.3752836269
 20
-69.047881127
  0
LINE
  5
494
100
AcDbEntity
  8
RACCORDO
100
AcDbLine
 62
253
  6
CONTINUOUS
 10
-35.7159591834
 20
-66.3308250126
 11
-35.7470974499
 21
-66.3497619932
  0
LINE
  5
495
100
AcDbEntity
  8
RACCORDO
100
AcDbLine
 62
7
  6
CONTINUOUS
 10
-25.8038704672
 20
-66.736955423
 11
-24.7432102954
 21
-66.1031662204
  0
LINE
  5
496
100
AcDbEntity
  8
RACCORDO
100
AcDbLine
 62
253
  6
CONTINUOUS
 10
-25.6036293286
 20
-66.7566361363
 11
-24.5429691568
 21
-66.1228469337
  0
LINE
  5
497
100
AcDbEntity
  8
0
100
AcDbLine
 62
7
  6
CONTINUOUS
 10
-35.0675033876
 20
-65.8810880177
 11
-33.9627507138
 21
-65.2432176697
  0
LINE
  5
498
100
AcDbEntity
  8
0
100
AcDbLine
 62
7
  6
CONTINUOUS
 10
-31.0980151474
 20
-65.8985935327
 11
-30.8455289657
 21
-65.7528111758
  0
LINE
  5
499
100
AcDbEntity
  8
0
100
AcDbLine
 62
7
  6
CONTINUOUS
 10
-18.9820842547
 20
-58.9030068836
 11
-13.1466115352
 21
-55.5336780709
  0
LINE
  5
49A
100
AcDbEntity
  8
0
100
AcDbLine
 62
7
  6
CONTINUOUS
 10
-14.9822775265
 20
-61.2124451591
 11
-13.1466115352
 21
-60.152554622
  0
LINE
  5
49B
100
AcDbEntity
  8
RACCORDO
100
AcDbLine
 62
253
  6
CONTINUOUS
 10
-31.8577091195
 20
-65.3693425468
 11
-31.5250135539
 21
-65.1838392859
  0
LWPOLYLINE
  5
49C
100
AcDbEntity
  8
RACCORDO
100
AcDbPolyline
 62
253
  6
CONTINUOUS
 90
5
 70
0
 10
-24.7432102954
 20
-66.1031662204
 10
-24.7340334546
 20
-66.0981760621
 10
-24.7182418881
 20
-66.0916435378
 10
-24.7014425159
 20
-66.0870957134
 10
-24.6837292866
 20
-66.0845580229
  0
LWPOLYLINE
  5
49D
100
AcDbEntity
  8
RACCORDO
100
AcDbPolyline
 62
253
  6
CONTINUOUS
 90
10
 70
0
 10
-37.8956914694
 20
-65.072274908
 10
-37.883253643
 20
-65.0656426667
 10
-37.8709020343
 20
-65.0603125273
 10
-37.8587316925
 20
-65.0563255064
 10
-37.8468362745
 20
-65.0537122849
 10
-37.8353073159
 20
-65.0524929707
 10
-37.8242335272
 20
-65.0526769466
 10
-37.8137001227
 20
-65.0542627999
 10
-37.8037881639
 20
-65.0572383294
 10
-37.7939678182
 20
-65.0619286561
  0
LWPOLYLINE
  5
49E
100
AcDbEntity
  8
RACCORDO
100
AcDbPolyline
 62
7
  6
CONTINUOUS
 90
34
 70
0
 10
-33.9627507138
 20
-65.2432176697
 10
-33.8106504088
 20
-65.1658894595
 10
-33.6485514704
 20
-65.1041629709
 10
-33.4771769653
 20
-65.0589347469
 10
-33.2971863526
 20
-65.0309758575
 10
-33.109507549
 20
-65.0209881287
 10
-32.9152436892
 20
-65.0294996693
 10
-32.7146121764
 20
-65.0569941732
 10
-32.508848375
 20
-65.1038077176
 10
-32.3005569311
 20
-65.169557679
 10
-32.0906137142
 20
-65.253954794
 10
-31.8796966744
 20
-65.3567562518
 10
-31.6702322154
 20
-65.4766596004
 10
-31.4634557199
 20
-65.6126219124
 10
-31.25975862
 20
-65.7640917573
 10
-31.0604012793
 20
-65.9298722728
 10
-30.8663724382
 20
-66.1088314388
 10
-30.6782754178
 20
-66.3001315388
 10
-30.4968525215
 20
-66.5027934472
 10
-30.3229106114
 20
-66.7157136573
 10
-30.1571434202
 20
-66.9378620427
 10
-30.0001535091
 20
-67.1682992404
 10
-29.8526431511
 20
-67.4059054948
 10
-29.7152731379
 20
-67.6495510043
 10
-29.5885846311
 20
-67.8982632549
 10
-29.4731840376
 20
-68.1509020773
 10
-29.3696552496
 20
-68.4062819245
 10
-29.2784813803
 20
-68.6633837553
 10
-29.2001546295
 20
-68.9211204082
 10
-29.1351849201
 20
-69.1782310039
 10
-29.0840157817
 20
-69.4335128903
 10
-29.0470378507
 20
-69.6858354195
 10
-29.0246122426
 20
-69.9340669542
 10
-29.0217137424
 20
-70.0274424459
  0
LWPOLYLINE
  5
49F
100
AcDbEntity
  8
RACCORDO
100
AcDbPolyline
 62
253
  6
CONTINUOUS
 90
10
 70
0
 10
-25.8038651415
 20
-66.7369522408
 10
-25.7842822481
 20
-66.7273912541
 10
-25.7649685264
 20
-66.7215038146
 10
-25.7443893479
 20
-66.7183472162
 10
-25.7227013325
 20
-66.7179454823
 10
-25.7000695391
 20
-66.7203016705
 10
-25.6766662094
 20
-66.7253978487
 10
-25.6526694569
 20
-66.733195232
 10
-25.6282619112
 20
-66.7436344775
 10
-25.6036293286
 20
-66.7566361363
  0
LWPOLYLINE
  5
4A0
100
AcDbEntity
  8
RACCORDO
100
AcDbPolyline
 62
7
  6
CONTINUOUS
 90
13
 70
0
 10
-35.8064792323
 20
-66.3157540706
 10
-35.7928316443
 20
-66.3092824937
 10
-35.7773349191
 20
-66.3034529093
 10
-35.7613762415
 20
-66.2989172075
 10
-35.7450443002
 20
-66.2957117846
 10
-35.7284716005
 20
-66.2938732648
 10
-35.7117630011
 20
-66.2934222215
 10
-35.6950908457
 20
-66.2943663773
 10
-35.6785523324
 20
-66.2966986515
 10
-35.662161492
 20
-66.3004311928
 10
-35.646023732
 20
-66.3055702638
 10
-35.630324211
 20
-66.3120815597
 10
-35.6152041833
 20
-66.319919468
  0
LWPOLYLINE
  5
4A1
100
AcDbEntity
  8
RACCORDO
100
AcDbPolyline
 62
253
  6
CONTINUOUS
 90
13
 70
0
 10
1.9992131604
 20
24.0547545521
 10
2.0241346906
 20
24.0524318982
 10
2.0494164757
 20
24.0513217995
 10
2.0748759577
 20
24.051432272
 10
2.1003292952
 20
24.0527625181
 10
2.1255926914
 20
24.055302932
 10
2.1504837211
 20
24.0590351697
 10
2.1748226477
 20
24.0639322808
 10
2.1984337215
 20
24.0699589038
 10
2.2211464485
 20
24.0770715207
 10
2.2427968215
 20
24.0852187719
 10
2.2632285048
 20
24.0943418266
 10
2.2822939625
 20
24.1043748078
  0
LWPOLYLINE
  5
4A2
100
AcDbEntity
  8
RACCORDO
100
AcDbPolyline
 62
253
  6
CONTINUOUS
 90
10
 70
0
 10
1.4227323005
 20
24.0285001588
 10
1.3974574682
 20
24.0315547546
 10
1.3717730923
 20
24.0333543077
 10
1.3458712229
 20
24.0338853622
 10
1.3199455364
 20
24.0331439473
 10
1.2941898874
 20
24.0311356068
 10
1.2687968588
 20
24.0278753577
 10
1.2439563224
 20
24.0233875777
 10
1.2198540185
 20
24.0177058236
 10
1.2100257256
 20
24.0148090173
  0
LWPOLYLINE
  5
4A3
100
AcDbEntity
  8
RACCORDO
100
AcDbPolyline
 62
7
  6
CONTINUOUS
 90
15
 70
0
 10
1.4726640096
 20
20.6361756174
 10
1.4524471799
 20
20.6390306945
 10
1.4320969975
 20
20.6410724035
 10
1.4116134624
 20
20.6423007445
 10
1.3908631944
 20
20.6427123363
 10
1.3699795737
 20
20.64231056
 10
1.3493627411
 20
20.6411055594
 10
1.3290927965
 20
20.6390939242
 10
1.30908964
 20
20.6362790647
 10
1.2895131126
 20
20.6326813553
 10
1.2702905594
 20
20.6282741777
 10
1.2514946352
 20
20.6230841502
 10
1.2335031457
 20
20.6172115021
 10
1.2164420262
 20
20.6106896429
 10
1.2100257256
 20
20.6078461291
  0
LWPOLYLINE
  5
4A4
100
AcDbEntity
  8
RACCORDO
100
AcDbPolyline
 62
253
  6
CONTINUOUS
 90
11
 70
0
 10
-59.5126107457
 20
35.5068020469
 10
-59.4066641465
 20
35.4805789027
 10
-59.3007917089
 20
35.4515837138
 10
-59.1969585494
 20
35.4203197134
 10
-59.0937382075
 20
35.3862951589
 10
-58.9912910095
 20
35.3494246377
 10
-58.8899764286
 20
35.3096939084
 10
-58.7888801912
 20
35.2665365164
 10
-58.6880208561
 20
35.2196538818
 10
-58.5882386026
 20
35.1691115599
 10
-58.4899921263
 20
35.1148209172
  0
LWPOLYLINE
  5
4A5
100
AcDbEntity
  8
RACCORDO
100
AcDbPolyline
 62
253
  6
CONTINUOUS
 90
10
 70
0
 10
-59.5126107457
 20
34.9274528822
 10
-59.4739587707
 20
34.9168294255
 10
-59.3839790917
 20
34.8896437833
 10
-59.2947780833
 20
34.8600222254
 10
-59.2061562155
 20
34.8280291825
 10
-59.1183130182
 20
34.793600224
 10
-59.0310764827
 20
34.7561351439
 10
-58.9443892729
 20
34.7154338738
 10
-58.8583087249
 20
34.6716964822
 10
-58.7728348388
 20
34.6249229692
  0
LWPOLYLINE
  5
4A6
100
AcDbEntity
  8
0
100
AcDbPolyline
 62
7
  6
CONTINUOUS
 90
10
 70
0
 10
-8.0567928335
 20
30.8217657579
 10
-8.6522863164
 20
31.0277999568
 10
-9.2404600301
 20
31.2402542654
 10
-9.8213139746
 20
31.4591286839
 10
-10.3950744815
 20
31.6845140187
 10
-10.9615152193
 20
31.9163194633
 10
-11.519957193
 20
32.1542725985
 10
-12.0701740711
 20
32.3982826178
 10
-12.6123921851
 20
32.6484403276
 10
-13.1466115352
 20
32.904745728
  0
LWPOLYLINE
  5
4A7
100
AcDbEntity
  8
ASSI
100
AcDbPolyline
 62
7
  6
CONTINUOUS
 90
10
 70
0
 10
-8.0567928335
 20
30.8217657579
 10
-8.6522863164
 20
31.0277999568
 10
-9.2404600301
 20
31.2402542654
 10
-9.8213139746
 20
31.4591286839
 10
-10.3950744815
 20
31.6845140187
 10
-10.9615152193
 20
31.9163194633
 10
-11.519957193
 20
32.1542725985
 10
-12.0701740711
 20
32.3982826178
 10
-12.6123921851
 20
32.6484403276
 10
-13.1466115352
 20
32.904745728
  0
LWPOLYLINE
  5
4A8
100
AcDbEntity
  8
0
100
AcDbPolyline
 62
7
  6
CONTINUOUS
 90
40
 70
0
 10
-8.0567928335
 20
30.8217657579
 10
-7.8165025109
 20
30.737540309
 10
-7.5742997046
 20
30.6466123943
 10
-7.3304030149
 20
30.5490549319
 10
-7.0849519285
 20
30.4449844884
 10
-6.8382541436
 20
30.334461065
 10
-6.5907847503
 20
30.2174921582
 10
-6.3425923243
 20
30.0941347153
 10
-6.0940922794
 20
29.9645719803
 10
-5.8463024939
 20
29.8290595111
 10
-5.5996889129
 20
29.6879561719
 10
-5.3542251374
 20
29.5412996394
 10
-5.1101869949
 20
29.3888931302
 10
-4.8675787916
 20
29.2308024447
 10
-4.6268558283
 20
29.0673434365
 10
-4.3889665266
 20
28.8987066959
 10
-4.1539833082
 20
28.7250433198
 10
-3.9222585461
 20
28.5466782189
 10
-3.6951126848
 20
28.3641326556
 10
-3.4727613022
 20
28.1777390491
 10
-3.2553143014
 20
27.9877515116
 10
-3.0438632576
 20
27.7946400122
 10
-2.8388375696
 20
27.599016527
 10
-2.6400146797
 20
27.4009044813
 10
-2.4474969708
 20
27.1998913105
 10
-2.2612210845
 20
26.9960486584
 10
-2.0814917842
 20
26.7898725071
 10
-1.9089718593
 20
26.5815707797
 10
-1.7437041387
 20
26.3713264858
 10
-1.5858126798
 20
26.159524665
 10
-1.4360262592
 20
25.9466825649
 10
-1.2944459971
 20
25.7331107779
 10
-1.161015969
 20
25.5190487866
 10
-1.0361625689
 20
25.3049036762
 10
-0.9199629295
 20
25.0910293488
 10
-0.8122870731
 20
24.8775695628
 10
-0.7132217243
 20
24.6646025237
 10
-0.6227700406
 20
24.4523005436
 10
-0.5408463218
 20
24.2409295074
 10
-0.4673981662
 20
24.0306935837
  0
LWPOLYLINE
  5
4A9
100
AcDbEntity
  8
ASSI
100
AcDbPolyline
 62
7
  6
CONTINUOUS
 90
40
 70
0
 10
-8.0567928335
 20
30.8217657579
 10
-7.8165025109
 20
30.737540309
 10
-7.5742997046
 20
30.6466123943
 10
-7.3304030149
 20
30.5490549319
 10
-7.0849519285
 20
30.4449844884
 10
-6.8382541436
 20
30.334461065
 10
-6.5907847503
 20
30.2174921582
 10
-6.3425923243
 20
30.0941347153
 10
-6.0940922794
 20
29.9645719803
 10
-5.8463024939
 20
29.8290595111
 10
-5.5996889129
 20
29.6879561719
 10
-5.3542251374
 20
29.5412996394
 10
-5.1101869949
 20
29.3888931302
 10
-4.8675787916
 20
29.2308024447
 10
-4.6268558283
 20
29.0673434365
 10
-4.3889665266
 20
28.8987066959
 10
-4.1539833082
 20
28.7250433198
 10
-3.9222585461
 20
28.5466782189
 10
-3.6951126848
 20
28.3641326556
 10
-3.4727613022
 20
28.1777390491
 10
-3.2553143014
 20
27.9877515116
 10
-3.0438632576
 20
27.7946400122
 10
-2.8388375696
 20
27.599016527
 10
-2.6400146797
 20
27.4009044813
 10
-2.4474969708
 20
27.1998913105
 10
-2.2612210845
 20
26.9960486584
 10
-2.0814917842
 20
26.7898725071
 10
-1.9089718593
 20
26.5815707797
 10
-1.7437041387
 20
26.3713264858
 10
-1.5858126798
 20
26.159524665
 10
-1.4360262592
 20
25.9466825649
 10
-1.2944459971
 20
25.7331107779
 10
-1.161015969
 20
25.5190487866
 10
-1.0361625689
 20
25.3049036762
 10
-0.9199629295
 20
25.0910293488
 10
-0.8122870731
 20
24.8775695628
 10
-0.7132217243
 20
24.6646025237
 10
-0.6227700406
 20
24.4523005436
 10
-0.5408463218
 20
24.2409295074
 10
-0.4673981662
 20
24.0306935837
  0
LWPOLYLINE
  5
4AA
100
AcDbEntity
  8
RACCORDO
100
AcDbPolyline
 62
253
  6
CONTINUOUS
 90
4
 70
0
 10
13.6857464723
 20
21.9123546603
 10
13.6799957158
 20
21.9146813695
 10
13.674317907
 20
21.9171332796
 10
13.6726804872
 20
21.9178844288
  0
LINE
  5
4AB
100
AcDbEntity
  8
0
100
AcDbLine
 62
7
  6
CONTINUOUS
 10
-12.5805282955
 20
33.2315950958
 11
-13.0863463091
 21
33.4838946054
  0
LINE
  5
4AC
100
AcDbEntity
  8
ASSI
100
AcDbLine
 62
7
  6
CONTINUOUS
 10
-12.5805282955
 20
33.2315950958
 11
-13.0863463091
 21
33.4838946054
  0
LINE
  5
4AD
100
AcDbEntity
  8
0
100
AcDbLine
 62
7
  6
CONTINUOUS
 10
-13.0863463091
 20
33.4838946054
 11
-13.3390289872
 21
33.6101954894
  0
LINE
  5
4AE
100
AcDbEntity
  8
ASSI
100
AcDbLine
 62
7
  6
CONTINUOUS
 10
-13.0863463091
 20
33.4838946054
 11
-13.3390289872
 21
33.6101954894
  0
LWPOLYLINE
  5
4AF
100
AcDbEntity
  8
0
100
AcDbPolyline
 62
7
  6
CONTINUOUS
 90
16
 70
0
 10
-13.9061450856
 20
33.2827497618
 10
-17.3817077681
 20
35.0384056401
 10
-20.8275500052
 20
36.8127588262
 10
-24.2436717969
 20
38.6058093201
 10
-27.6303773471
 20
40.4177230086
 10
-30.9873624518
 20
42.2483340049
 10
-34.3137144993
 20
44.0971446489
 10
-37.6094251609
 20
45.9641598888
 10
-40.8745027651
 20
47.8493747765
 10
-44.1080596856
 20
49.7522768075
 10
-47.3100873525
 20
51.6728707907
 10
-50.4805943356
 20
53.6111519173
 10
-53.618718718
 20
55.5665932566
 10
-56.724173194
 20
57.5390191651
 10
-59.7972450692
 20
59.5286052862
 10
-62.8379343437
 20
61.5353516201
  0
LWPOLYLINE
  5
4B0
100
AcDbEntity
  8
ASSI
100
AcDbPolyline
 62
7
  6
CONTINUOUS
 90
16
 70
0
 10
-13.9061450856
 20
33.2827497618
 10
-17.3817077681
 20
35.0384056401
 10
-20.8275500052
 20
36.8127588262
 10
-24.2436717969
 20
38.6058093201
 10
-27.6303773471
 20
40.4177230086
 10
-30.9873624518
 20
42.2483340049
 10
-34.3137144993
 20
44.0971446489
 10
-37.6094251609
 20
45.9641598888
 10
-40.8745027651
 20
47.8493747765
 10
-44.1080596856
 20
49.7522768075
 10
-47.3100873525
 20
51.6728707907
 10
-50.4805943356
 20
53.6111519173
 10
-53.618718718
 20
55.5665932566
 10
-56.724173194
 20
57.5390191651
 10
-59.7972450692
 20
59.5286052862
 10
-62.8379343437
 20
61.5353516201
  0
LWPOLYLINE
  5
4B1
100
AcDbEntity
  8
0
100
AcDbPolyline
 62
7
  6
CONTINUOUS
 90
5
 70
0
 10
-20.5536366695
 20
38.225910746
 10
-23.4874857524
 20
39.772997604
 10
-26.4038183319
 20
41.3365313891
 10
-29.2976143229
 20
42.9137891134
 10
-32.1674319403
 20
44.5039939314
  0
LWPOLYLINE
  5
4B2
100
AcDbEntity
  8
ASSI
100
AcDbPolyline
 62
7
  6
CONTINUOUS
 90
5
 70
0
 10
-20.5536366695
 20
38.225910746
 10
-23.4874857524
 20
39.772997604
 10
-26.4038183319
 20
41.3365313891
 10
-29.2976143229
 20
42.9137891134
 10
-32.1674319403
 20
44.5039939314
  0
LINE
  5
4B3
100
AcDbEntity
  8
RACCORDO
100
AcDbLine
 62
253
  6
CONTINUOUS
 10
-22.9429985136
 20
39.849655369
 11
-25.7935555031
 21
41.3799868851
  0
LWPOLYLINE
  5
4B4
100
AcDbEntity
  8
RACCORDO
100
AcDbPolyline
 62
253
  6
CONTINUOUS
 90
5
 70
0
 10
-25.7872468379
 20
41.4848677573
 10
-28.6181099669
 20
43.027810737
 10
-31.4274319864
 20
44.5844668464
 10
-34.2150249329
 20
46.1547364901
 10
-36.980526245
 20
47.7384180887
  0
LWPOLYLINE
  5
4B5
100
AcDbEntity
  8
RACCORDO
100
AcDbPolyline
 62
253
  6
CONTINUOUS
 90
5
 70
0
 10
-25.7935555031
 20
41.3799868851
 10
-28.6228826933
 20
42.9237166629
 10
-31.4307891238
 20
44.480747929
 10
-34.2170849906
 20
46.0509827316
 10
-36.9813126646
 20
47.6341670243
  0
LINE
  5
4B6
100
AcDbEntity
  8
ELVOX
100
AcDbLine
 62
253
  6
CONTINUOUS
 10
-34.9230373494
 20
34.3274457363
 11
-34.2922208957
 21
33.9728773514
  0
LINE
  5
4B7
100
AcDbEntity
  8
ELVOX
100
AcDbLine
 62
253
  6
CONTINUOUS
 10
-34.2922207738
 20
36.3028481599
 11
-34.8916814565
 21
36.6397617025
  0
LWPOLYLINE
  5
4B8
100
AcDbEntity
  8
0
100
AcDbPolyline
 62
7
  6
CONTINUOUS
 90
4
 70
0
 10
-32.1674319403
 20
44.5039939314
 10
-35.0147129692
 20
46.1079226886
 10
-37.8387626797
 20
47.7251829327
 10
-40.63939538
 20
49.3556666206
  0
LWPOLYLINE
  5
4B9
100
AcDbEntity
  8
ASSI
100
AcDbPolyline
 62
7
  6
CONTINUOUS
 90
4
 70
0
 10
-32.1674319403
 20
44.5039939314
 10
-35.0147129692
 20
46.1079226886
 10
-37.8387626797
 20
47.7251829327
 10
-40.63939538
 20
49.3556666206
  0
LINE
  5
4BA
100
AcDbEntity
  8
ELVOX
100
AcDbLine
 62
253
  6
CONTINUOUS
 10
-36.2234632925
 20
35.0624691868
 11
-35.594850914
 21
34.7064775737
  0
LINE
  5
4BB
100
AcDbEntity
  8
ELVOX
100
AcDbLine
 62
253
  6
CONTINUOUS
 10
-35.6030030482
 20
37.0410568462
 11
-36.2235787081
 21
37.392505544
  0
LWPOLYLINE
  5
4BC
100
AcDbEntity
  8
ELVOX
100
AcDbPolyline
 62
253
  6
CONTINUOUS
 90
3
 70
0
 10
-36.4901269532
 20
36.6633491377
 10
-37.6947046876
 20
37.3502060444
 10
-38.5306157212
 20
37.8296774171
  0
LWPOLYLINE
  5
4BD
100
AcDbEntity
  8
ELVOX
100
AcDbPolyline
 62
253
  6
CONTINUOUS
 90
3
 70
0
 10
-36.4790072432
 20
37.5375282336
 10
-37.6836232428
 20
38.2243627674
 10
-38.8471013623
 20
38.8923174804
  0
LINE
  5
4BE
100
AcDbEntity
  8
ELVOX
100
AcDbLine
 62
253
  6
CONTINUOUS
 10
-37.1172221886
 20
36.1002976475
 11
-37.9063207342
 21
36.5513408737
  0
LINE
  5
4BF
100
AcDbEntity
  8
ELVOX
100
AcDbLine
 62
253
  6
CONTINUOUS
 10
-37.9063207719
 20
36.9440102971
 11
-37.1172222264
 21
36.4929670708
  0
LWPOLYLINE
  5
4C0
100
AcDbEntity
  8
ELVOX
100
AcDbPolyline
 62
253
  6
CONTINUOUS
 90
3
 70
0
 10
-38.5306156672
 20
36.3830916401
 10
-37.3289315302
 20
35.6945470686
 10
-36.4901268988
 20
35.2167633609
  0
LWPOLYLINE
  5
4C1
100
AcDbEntity
  8
ELVOX
100
AcDbPolyline
 62
253
  6
CONTINUOUS
 90
3
 70
0
 10
-38.5418227987
 20
38.134601052
 10
-37.3401775522
 20
37.4460338537
 10
-36.1951380487
 20
36.7943534497
  0
LINE
  5
4C2
100
AcDbEntity
  8
ELVOX
100
AcDbLine
 62
253
  6
CONTINUOUS
 10
-39.9841324409
 20
37.7900710907
 11
-41.1409288753
 21
38.4631512558
  0
LWPOLYLINE
  5
4C3
100
AcDbEntity
  8
ELVOX
100
AcDbPolyline
 62
253
  6
CONTINUOUS
 90
3
 70
0
 10
-40.0307425142
 20
39.5898281887
 10
-41.2230100198
 20
40.2838086749
 10
-41.9795458499
 20
40.7266864614
  0
LWPOLYLINE
  5
4C4
100
AcDbEntity
  8
RACCORDO
100
AcDbPolyline
 62
253
  6
CONTINUOUS
 90
7
 70
0
 10
-36.9813126646
 20
47.6341670243
 10
-39.7232916272
 20
49.2301975029
 10
-42.442842814
 20
50.8389698468
 10
-45.1395260089
 20
52.460219691
 10
-47.8131716642
 20
54.0938374938
 10
-50.4636120877
 20
55.7397129418
 10
-53.0904255828
 20
57.3975720357
  0
LWPOLYLINE
  5
4C5
100
AcDbEntity
  8
RACCORDO
100
AcDbPolyline
 62
253
  6
CONTINUOUS
 90
10
 70
0
 10
-36.980526245
 20
47.7384180887
 10
-39.7237550692
 20
49.3354082641
 10
-42.4445320123
 20
50.9456023896
 10
-45.1425074269
 20
52.5687908213
 10
-47.8175091567
 20
54.2048652225
 10
-50.4693668043
 20
55.8537161909
 10
-53.0977444341
 20
57.5151265105
 10
-55.7024240038
 20
59.188947072
 10
-58.2833004689
 20
60.8750995139
 10
-60.8402142848
 20
62.5734693008
  0
LWPOLYLINE
  5
4C6
100
AcDbEntity
  8
ELVOX
100
AcDbPolyline
 62
253
  6
CONTINUOUS
 90
3
 70
0
 10
-41.7349019828
 20
38.2390017344
 10
-40.5444416963
 20
37.5439877268
 10
-39.9841325081
 20
37.2185419359
  0
LINE
  5
4C7
100
AcDbEntity
  8
ELVOX
100
AcDbLine
 62
253
  6
CONTINUOUS
 10
-41.1409289053
 20
39.3693910123
 11
-41.7349019855
 21
39.7167706687
  0
LWPOLYLINE
  5
4C8
100
AcDbEntity
  8
ELVOX
100
AcDbPolyline
 62
253
  6
CONTINUOUS
 90
3
 70
0
 10
-41.9795458171
 20
40.1583598071
 10
-40.7899511624
 20
39.4628518563
 10
-40.3352024279
 20
39.1982576033
  0
LWPOLYLINE
  5
4C9
100
AcDbEntity
  8
ELVOX
100
AcDbPolyline
 62
253
  6
CONTINUOUS
 90
3
 70
0
 10
-41.9679641781
 20
38.9471665786
 10
-43.1533879741
 20
39.6450445697
 10
-43.5112807683
 20
39.8567022394
  0
LWPOLYLINE
  5
4CA
100
AcDbEntity
  8
ELVOX
100
AcDbPolyline
 62
253
  6
CONTINUOUS
 90
3
 70
0
 10
-42.200105027
 20
40.8561734279
 10
-43.3847035043
 20
41.554518459
 10
-44.1289467542
 20
41.9957694186
  0
LINE
  5
4CB
100
AcDbEntity
  8
ELVOX
100
AcDbLine
 62
253
  6
CONTINUOUS
 10
-43.5112808351
 20
41.0611007422
 11
-42.200105033
 21
40.2878467965
  0
LINE
  5
4CC
100
AcDbEntity
  8
ELVOX
100
AcDbLine
 62
253
  6
CONTINUOUS
 10
-43.5112808351
 20
40.1536856251
 11
-42.7695568625
 21
39.7155265763
  0
LINE
  5
4CD
100
AcDbEntity
  8
ELVOX
100
AcDbLine
 62
253
  6
CONTINUOUS
 10
-42.7695568341
 20
40.3247829524
 11
-43.5112808068
 21
40.7629420011
  0
LINE
  5
4CE
100
AcDbEntity
  8
0
100
AcDbLine
 62
7
  6
CONTINUOUS
 10
-40.63939538
 20
49.3556666206
 11
-43.4167967619
 21
50.9994817954
  0
LINE
  5
4CF
100
AcDbEntity
  8
ASSI
100
AcDbLine
 62
7
  6
CONTINUOUS
 10
-40.63939538
 20
49.3556666206
 11
-43.4167967619
 21
50.9994817954
  0
LWPOLYLINE
  5
4D0
100
AcDbEntity
  8
ELVOX
100
AcDbPolyline
 62
253
  6
CONTINUOUS
 90
3
 70
0
 10
-44.1289467483
 20
39.6515151231
 10
-42.9470113619
 20
38.9516674125
 10
-41.9679642333
 20
38.3756374172
  0
LWPOLYLINE
  5
4D1
100
AcDbEntity
  8
0
100
AcDbPolyline
 62
7
  6
CONTINUOUS
 90
8
 70
0
 10
-43.4167967619
 20
50.9994817954
 10
-46.1708291714
 20
52.6565601348
 10
-48.9038358544
 20
54.3283796045
 10
-51.613473565
 20
56.0134622388
 10
-54.2925749108
 20
57.7073058183
 10
-56.9387507611
 20
59.4084096033
 10
-59.5543902465
 20
61.1182743336
 10
-62.1394933672
 20
62.8369000091
  0
LWPOLYLINE
  5
4D2
100
AcDbEntity
  8
ASSI
100
AcDbPolyline
 62
7
  6
CONTINUOUS
 90
8
 70
0
 10
-43.4167967619
 20
50.9994817954
 10
-46.1708291714
 20
52.6565601348
 10
-48.9038358544
 20
54.3283796045
 10
-51.613473565
 20
56.0134622388
 10
-54.2925749108
 20
57.7073058183
 10
-56.9387507611
 20
59.4084096033
 10
-59.5543902465
 20
61.1182743336
 10
-62.1394933672
 20
62.8369000091
  0
LWPOLYLINE
  5
4D3
100
AcDbEntity
  8
RACCORDO
100
AcDbPolyline
 62
253
  6
CONTINUOUS
 90
6
 70
0
 10
-44.9290081826
 20
52.9288936144
 10
-47.6022851507
 20
54.5639176526
 10
-50.2526048128
 20
56.2118187357
 10
-52.8792967969
 20
57.8721565489
 10
-55.4821376458
 20
59.5447843205
 10
-58.0613508168
 20
61.2298488222
  0
LINE
  5
4D4
100
AcDbEntity
  8
RACCORDO
100
AcDbLine
 62
253
  6
CONTINUOUS
 10
-53.0904255828
 20
57.3975720357
 11
-55.6933699815
 21
59.0672447149
  0
LINE
  5
4D5
100
AcDbEntity
  8
RACCORDO
100
AcDbLine
 62
253
  6
CONTINUOUS
 10
-55.6933699815
 20
59.0672447149
 11
-58.2723751546
 21
60.748668891
  0
LINE
  5
4D6
100
AcDbEntity
  8
RACCORDO
100
AcDbLine
 62
253
  6
CONTINUOUS
 10
-58.0613508168
 20
61.2298488222
 11
-60.6169363098
 21
62.9273500539
  0
LINE
  5
4D7
100
AcDbEntity
  8
0
100
AcDbLine
 62
7
  6
CONTINUOUS
 10
-62.2708014972
 20
61.8628070178
 11
-62.7081179434
 21
62.1546857835
  0
LINE
  5
4D8
100
AcDbEntity
  8
ASSI
100
AcDbLine
 62
7
  6
CONTINUOUS
 10
-62.2708014972
 20
61.8628070178
 11
-62.7081179434
 21
62.1546857835
  0
LINE
  5
4D9
100
AcDbEntity
  8
RACCORDO
100
AcDbLine
 62
253
  6
CONTINUOUS
 10
-58.2723751546
 20
60.748668891
 11
-60.8412005524
 21
62.4510239172
  0
LINE
  5
4DA
100
AcDbEntity
  8
0
100
AcDbLine
 62
7
  6
CONTINUOUS
 10
-62.7081179434
 20
62.1546857835
 11
-62.9265143679
 21
62.3007558109
  0
LINE
  5
4DB
100
AcDbEntity
  8
ASSI
100
AcDbLine
 62
7
  6
CONTINUOUS
 10
-62.7081179434
 20
62.1546857835
 11
-62.9265143679
 21
62.3007558109
  0
LWPOLYLINE
  5
4DC
100
AcDbEntity
  8
RACCORDO
100
AcDbPolyline
 62
253
  6
CONTINUOUS
 90
10
 70
0
 10
-60.8412005524
 20
62.4510239172
 10
-61.3262503207
 20
62.782672859
 10
-61.7981000971
 20
63.1206377378
 10
-62.2565023581
 20
63.464743753
 10
-62.7012256624
 20
63.814820288
 10
-63.1320267364
 20
64.1706789607
 10
-63.5486535368
 20
64.5321125309
 10
-63.9508814721
 20
64.8989250066
 10
-64.338510575
 20
65.2709329282
 10
-64.7113396261
 20
65.6479425972
  0
LWPOLYLINE
  5
4DD
100
AcDbEntity
  8
RACCORDO
100
AcDbPolyline
 62
253
  6
CONTINUOUS
 90
10
 70
0
 10
-60.8402142848
 20
62.5734693008
 10
-61.3374553028
 20
62.9145925605
 10
-61.8207779261
 20
63.2625888532
 10
-62.2899177839
 20
63.6172683461
 10
-62.7446174384
 20
63.9784380751
 10
-63.1846290793
 20
64.3459008689
 10
-63.6097143886
 20
64.7194555675
 10
-64.0196413855
 20
65.098898649
 10
-64.4141848252
 20
65.4840242302
 10
-64.7931286863
 20
65.8746230751
  0
LWPOLYLINE
  5
4DE
100
AcDbEntity
  8
RACCORDO
100
AcDbPolyline
 62
253
  6
CONTINUOUS
 90
10
 70
0
 10
-60.6169363098
 20
62.9273500539
 10
-61.1100559133
 20
63.2656802113
 10
-61.5888851038
 20
63.610451679
 10
-62.0534238814
 20
63.9616644571
 10
-62.5039196444
 20
64.3195254678
 10
-62.9401249944
 20
64.683827789
 10
-63.3612977361
 20
65.0539506538
 10
-63.767190471
 20
65.42968714
 10
-64.1580505976
 20
65.8112441698
 10
-64.5338781159
 20
66.1986217433
  0
LWPOLYLINE
  5
4DF
100
AcDbEntity
  8
0
100
AcDbPolyline
 62
7
  6
CONTINUOUS
 90
10
 70
0
 10
-63.4926143556
 20
61.9738967729
 10
-63.9365197311
 20
62.2823483303
 10
-64.3697776802
 20
62.5954182737
 10
-64.792388203
 20
62.9131066033
 10
-65.2045085706
 20
63.235544
 10
-65.6059815118
 20
63.5625997828
 10
-65.996335213
 20
63.8938819086
 10
-66.3754124029
 20
64.2292596963
 10
-66.7433703528
 20
64.5688638271
 10
-67.1002090626
 20
64.9126943008
  0
LWPOLYLINE
  5
4E0
100
AcDbEntity
  8
ASSI
100
AcDbPolyline
 62
7
  6
CONTINUOUS
 90
10
 70
0
 10
-63.4926143556
 20
61.9738967729
 10
-63.9365197311
 20
62.2823483303
 10
-64.3697776802
 20
62.5954182737
 10
-64.792388203
 20
62.9131066033
 10
-65.2045085706
 20
63.235544
 10
-65.6059815118
 20
63.5625997828
 10
-65.996335213
 20
63.8938819086
 10
-66.3754124029
 20
64.2292596963
 10
-66.7433703528
 20
64.5688638271
 10
-67.1002090626
 20
64.9126943008
  0
LWPOLYLINE
  5
4E1
100
AcDbEntity
  8
0
100
AcDbPolyline
 62
7
  6
CONTINUOUS
 90
10
 70
0
 10
-62.1394933672
 20
62.8369000091
 10
-62.5719301693
 20
63.1434226135
 10
-62.9935446945
 20
63.4545358777
 10
-63.4043369428
 20
63.7702398017
 10
-63.8045315217
 20
64.0906313239
 10
-64.1939038237
 20
64.415613506
 10
-64.5717800263
 20
64.7448955328
 10
-64.9379355221
 20
65.0783804658
 10
-65.2925949185
 20
65.4161652436
 10
-65.6357582154
 20
65.7582498661
  0
LWPOLYLINE
  5
4E2
100
AcDbEntity
  8
ASSI
100
AcDbPolyline
 62
7
  6
CONTINUOUS
 90
10
 70
0
 10
-62.1394933672
 20
62.8369000091
 10
-62.5719301693
 20
63.1434226135
 10
-62.9935446945
 20
63.4545358777
 10
-63.4043369428
 20
63.7702398017
 10
-63.8045315217
 20
64.0906313239
 10
-64.1939038237
 20
64.415613506
 10
-64.5717800263
 20
64.7448955328
 10
-64.9379355221
 20
65.0783804658
 10
-65.2925949185
 20
65.4161652436
 10
-65.6357582154
 20
65.7582498661
  0
LINE
  5
4E3
100
AcDbEntity
  8
RACCORDO
100
AcDbLine
 62
253
  6
CONTINUOUS
 10
-61.8587540171
 20
62.6502591547
 11
-62.0295927427
 21
62.7726232426
  0
LWPOLYLINE
  5
4E4
100
AcDbEntity
  8
RACCORDO
100
AcDbPolyline
 62
253
  6
CONTINUOUS
 90
8
 70
0
 10
-62.0295927427
 20
62.7726232426
 10
-62.4921318746
 20
63.1197847391
 10
-62.9408173146
 20
63.4729934272
 10
-63.3754133805
 20
63.8320556646
 10
-63.7957733167
 20
64.196712237
 10
-64.2016614434
 20
64.5667695382
 10
-64.5927529375
 20
64.9420994208
 10
-64.9687673361
 20
65.322540884
  0
LWPOLYLINE
  5
4E5
100
AcDbEntity
  8
RACCORDO
100
AcDbPolyline
 62
253
  6
CONTINUOUS
 90
20
 70
0
 10
0.2643892406
 20
26.6971773657
 10
0.2395397486
 20
26.7376478212
 10
0.1396168229
 20
26.8916691511
 10
0.0321350911
 20
27.0487116469
 10
-0.0825199322
 20
27.2077367603
 10
-0.2045234374
 20
27.3685627385
 10
-0.333918319
 20
27.5308371086
 10
-0.4699946233
 20
27.6933823831
 10
-0.6127550462
 20
27.8559927502
 10
-0.7624060424
 20
28.0187161839
 10
-0.9182655515
 20
28.1807140567
 10
-1.0796512574
 20
28.3412336763
 10
-1.2466541043
 20
28.500304309
 10
-1.4196004218
 20
28.6581412239
 10
-1.5985075527
 20
28.8146295781
 10
-1.783259065
 20
28.9695631084
 10
-1.9741586349
 20
29.123117512
 10
-2.1714645786
 20
29.2753566294
 10
-2.3742531064
 20
29.4254135362
 10
-2.5501957022
 20
29.5502471041
  0
LWPOLYLINE
  5
4E6
100
AcDbEntity
  8
0
100
AcDbPolyline
 62
7
  6
CONTINUOUS
 90
37
 70
0
 10
1.0274003413
 20
25.2771154187
 10
0.9361261184
 20
25.494391823
 10
0.8354490546
 20
25.7119518777
 10
0.7253948882
 20
25.9298457178
 10
0.6059941734
 20
26.1483955595
 10
0.4772767582
 20
26.3673933236
 10
0.3392719536
 20
26.5861006502
 10
0.1919188864
 20
26.8046757268
 10
0.0353589699
 20
27.0231025392
 10
-0.1300710046
 20
27.2403858189
 10
-0.3044418208
 20
27.4566649442
 10
-0.4875821899
 20
27.6719641219
 10
-0.678791218
 20
27.8851127688
 10
-0.8781370797
 20
28.0962232771
 10
-1.0854342091
 20
28.305357038
 10
-1.2996054357
 20
28.5112544595
 10
-1.520688086
 20
28.7139782056
 10
-1.7485174507
 20
28.9136343145
 10
-1.9817247173
 20
29.1090045726
 10
-2.2203003866
 20
29.3000988462
 10
-2.4641262021
 20
29.4870552391
 10
-2.7116889211
 20
29.6688147463
 10
-2.9629335303
 20
29.845345536
 10
-3.2177970566
 20
30.0167946585
 10
-3.4747788011
 20
30.1823328468
 10
-3.7337940863
 20
30.3419042703
 10
-3.994827747
 20
30.4956412424
 10
-4.2565109965
 20
30.6429573876
 10
-4.5187505727
 20
30.7837888518
 10
-4.7815633599
 20
30.9182371955
 10
-5.0437739071
 20
31.0459278444
 10
-5.3052983192
 20
31.1667988956
 10
-5.5661698411
 20
31.2809152435
 10
-5.8254153642
 20
31.3880612036
 10
-6.082707741
 20
31.4881501593
 10
-6.3383516944
 20
31.5812403244
 10
-6.5923350179
 20
31.6673190464
  0
LWPOLYLINE
  5
4E7
100
AcDbEntity
  8
ASSI
100
AcDbPolyline
 62
7
  6
CONTINUOUS
 90
37
 70
0
 10
1.0274003413
 20
25.2771154187
 10
0.9361261184
 20
25.494391823
 10
0.8354490546
 20
25.7119518777
 10
0.7253948882
 20
25.9298457178
 10
0.6059941734
 20
26.1483955595
 10
0.4772767582
 20
26.3673933236
 10
0.3392719536
 20
26.5861006502
 10
0.1919188864
 20
26.8046757268
 10
0.0353589699
 20
27.0231025392
 10
-0.1300710046
 20
27.2403858189
 10
-0.3044418208
 20
27.4566649442
 10
-0.4875821899
 20
27.6719641219
 10
-0.678791218
 20
27.8851127688
 10
-0.8781370797
 20
28.0962232771
 10
-1.0854342091
 20
28.305357038
 10
-1.2996054357
 20
28.5112544595
 10
-1.520688086
 20
28.7139782056
 10
-1.7485174507
 20
28.9136343145
 10
-1.9817247173
 20
29.1090045726
 10
-2.2203003866
 20
29.3000988462
 10
-2.4641262021
 20
29.4870552391
 10
-2.7116889211
 20
29.6688147463
 10
-2.9629335303
 20
29.845345536
 10
-3.2177970566
 20
30.0167946585
 10
-3.4747788011
 20
30.1823328468
 10
-3.7337940863
 20
30.3419042703
 10
-3.994827747
 20
30.4956412424
 10
-4.2565109965
 20
30.6429573876
 10
-4.5187505727
 20
30.7837888518
 10
-4.7815633599
 20
30.9182371955
 10
-5.0437739071
 20
31.0459278444
 10
-5.3052983192
 20
31.1667988956
 10
-5.5661698411
 20
31.2809152435
 10
-5.8254153642
 20
31.3880612036
 10
-6.082707741
 20
31.4881501593
 10
-6.3383516944
 20
31.5812403244
 10
-6.5923350179
 20
31.6673190464
  0
LWPOLYLINE
  5
4E8
100
AcDbEntity
  8
RACCORDO
100
AcDbPolyline
 62
253
  6
CONTINUOUS
 90
7
 70
0
 10
1.80805035
 20
-95.8529922745
 10
1.860946439
 20
-95.6735769863
 10
1.9051832337
 20
-95.4928343612
 10
1.9411012523
 20
-95.3116107077
 10
1.9688087575
 20
-95.1301973524
 10
1.9881812592
 20
-94.9483315718
 10
1.9992132085
 20
-94.766022119
  0
LWPOLYLINE
  5
4E9
100
AcDbEntity
  8
RACCORDO
100
AcDbPolyline
 62
253
  6
CONTINUOUS
 90
17
 70
0
 10
1.2100257256
 20
-95.8199097507
 10
1.2309217871
 20
-95.7568552334
 10
1.2596982328
 20
-95.6624975963
 10
1.2849689768
 20
-95.5709138628
 10
1.3075706276
 20
-95.4818082279
 10
1.3275701681
 20
-95.3952237999
 10
1.3448969532
 20
-95.3111236248
 10
1.3601824943
 20
-95.2290894582
 10
1.3734843294
 20
-95.1491524114
 10
1.3847429602
 20
-95.0712845243
 10
1.3944150688
 20
-94.9949777213
 10
1.4025521964
 20
-94.9202691826
 10
1.409101777
 20
-94.8471232504
 10
1.4143647028
 20
-94.7749219964
 10
1.4184411316
 20
-94.7034596171
 10
1.4212303965
 20
-94.6329425532
 10
1.4227323037
 20
-94.5633710001
  0
LWPOLYLINE
  5
4EA
100
AcDbEntity
  8
0
100
AcDbPolyline
 62
7
  6
CONTINUOUS
 90
17
 70
0
 10
-0.4673981662
 20
-97.703736248
 10
-0.540847127
 20
-97.8876833086
 10
-0.6227714278
 20
-98.0693914824
 10
-0.7132234097
 20
-98.2485961415
 10
-0.8122889107
 20
-98.4250421951
 10
-0.9199645322
 20
-98.598451321
 10
-1.03616285
 20
-98.7685164759
 10
-1.161012551
 20
-98.9350694991
 10
-1.294437447
 20
-99.0977202902
 10
-1.4360140691
 20
-99.2558484059
 10
-1.5857997709
 20
-99.4092654479
 10
-1.7436925136
 20
-99.557661295
 10
-1.9089631885
 20
-99.7003062386
 10
-2.0814894592
 20
-99.8369673049
 10
-2.2612271048
 20
-99.9675016029
 10
-2.4475078197
 20
-100.0913860859
 10
-2.6499216326
 20
-100.214080026
  0
LWPOLYLINE
  5
4EB
100
AcDbEntity
  8
ASSI
100
AcDbPolyline
 62
7
  6
CONTINUOUS
 90
17
 70
0
 10
-0.4673981662
 20
-97.703736248
 10
-0.540847127
 20
-97.8876833086
 10
-0.6227714278
 20
-98.0693914824
 10
-0.7132234097
 20
-98.2485961415
 10
-0.8122889107
 20
-98.4250421951
 10
-0.9199645322
 20
-98.598451321
 10
-1.03616285
 20
-98.7685164759
 10
-1.161012551
 20
-98.9350694991
 10
-1.294437447
 20
-99.0977202902
 10
-1.4360140691
 20
-99.2558484059
 10
-1.5857997709
 20
-99.4092654479
 10
-1.7436925136
 20
-99.557661295
 10
-1.9089631885
 20
-99.7003062386
 10
-2.0814894592
 20
-99.8369673049
 10
-2.2612271048
 20
-99.9675016029
 10
-2.4475078197
 20
-100.0913860859
 10
-2.6499216326
 20
-100.214080026
  0
LWPOLYLINE
  5
4EC
100
AcDbEntity
  8
0
100
AcDbPolyline
 62
7
  6
CONTINUOUS
 90
24
 70
0
 10
1.0274003413
 20
-97.0514025002
 10
1.0422793784
 20
-97.0180014522
 10
1.05662947
 20
-96.9838278673
 10
1.0704323526
 20
-96.9488661952
 10
1.0836515462
 20
-96.9131230202
 10
1.0962853575
 20
-96.8765599842
 10
1.1083658998
 20
-96.8390929194
 10
1.1198844438
 20
-96.8006810377
 10
1.1308054609
 20
-96.7613298079
 10
1.1411192121
 20
-96.7210235004
 10
1.1508088431
 20
-96.6797106828
 10
1.1598431133
 20
-96.6374064637
 10
1.1681925708
 20
-96.5941971482
 10
1.1758307904
 20
-96.5500600862
 10
1.1827380598
 20
-96.5049858633
 10
1.1889003608
 20
-96.4590857815
 10
1.1942903092
 20
-96.4123714412
 10
1.1988940012
 20
-96.3648057022
 10
1.2027226224
 20
-96.3164314327
 10
1.2057532593
 20
-96.2672619219
 10
1.2079695543
 20
-96.2172623558
 10
1.2093943126
 20
-96.1664054728
 10
1.2100055233
 20
-96.1146733924
 10
1.2100272417
 20
-96.101960224
  0
LWPOLYLINE
  5
4ED
100
AcDbEntity
  8
ASSI
100
AcDbPolyline
 62
7
  6
CONTINUOUS
 90
24
 70
0
 10
1.0274003413
 20
-97.0514025002
 10
1.0422793784
 20
-97.0180014522
 10
1.05662947
 20
-96.9838278673
 10
1.0704323526
 20
-96.9488661952
 10
1.0836515462
 20
-96.9131230202
 10
1.0962853575
 20
-96.8765599842
 10
1.1083658998
 20
-96.8390929194
 10
1.1198844438
 20
-96.8006810377
 10
1.1308054609
 20
-96.7613298079
 10
1.1411192121
 20
-96.7210235004
 10
1.1508088431
 20
-96.6797106828
 10
1.1598431133
 20
-96.6374064637
 10
1.1681925708
 20
-96.5941971482
 10
1.1758307904
 20
-96.5500600862
 10
1.1827380598
 20
-96.5049858633
 10
1.1889003608
 20
-96.4590857815
 10
1.1942903092
 20
-96.4123714412
 10
1.1988940012
 20
-96.3648057022
 10
1.2027226224
 20
-96.3164314327
 10
1.2057532593
 20
-96.2672619219
 10
1.2079695543
 20
-96.2172623558
 10
1.2093943126
 20
-96.1664054728
 10
1.2100055233
 20
-96.1146733924
 10
1.2100257256
 20
24.0496619149
  0
LWPOLYLINE
  5
4EE
100
AcDbEntity
  8
RACCORDO
100
AcDbPolyline
 62
253
  6
CONTINUOUS
 90
16
 70
0
 10
-17.4661747312
 20
-75.8662388072
 10
-17.4512087845
 20
-75.856925318
 10
-17.4359094687
 20
-75.8463694705
 10
-17.4204414125
 20
-75.8346848514
 10
-17.4049710604
 20
-75.8219971933
 10
-17.3896648818
 20
-75.8084430222
 10
-17.3746875792
 20
-75.7941681882
 10
-17.3602003164
 20
-75.7793262962
 10
-17.3463589841
 20
-75.7640770528
 10
-17.3333125224
 20
-75.7485845479
 10
-17.3212013182
 20
-75.7330154893
 10
-17.3101556944
 20
-75.7175374083
 10
-17.300294508
 20
-75.7023168573
 10
-17.2917238705
 20
-75.6875176175
 10
-17.2845360066
 20
-75.6732989366
 10
-17.2788082614
 20
-75.6598138153
  0
LINE
  5
4EF
100
AcDbEntity
  8
RACCORDO
100
AcDbLine
 62
253
  6
CONTINUOUS
 10
-15.0982225283
 20
-77.1338919964
 11
-13.7265176123
 21
-76.3137465752
  0
LINE
  5
4F0
100
AcDbEntity
  8
RACCORDO
100
AcDbLine
 62
253
  6
CONTINUOUS
 10
-14.3928939535
 20
-77.773585832
 11
-13.222359225
 21
-77.0737205135
  0
LINE
  5
4F1
100
AcDbEntity
  8
RACCORDO
100
AcDbLine
 62
253
  6
CONTINUOUS
 10
-17.8961654136
 20
-69.960628111
 11
-18.9568255854
 21
-70.5944173135
  0
LINE
  5
4F2
100
AcDbEntity
  8
RACCORDO
100
AcDbLine
 62
253
  6
CONTINUOUS
 10
-17.5988283729
 20
-70.4418935208
 11
-18.6690465869
 21
-71.081415371
  0
LINE
  5
4F3
100
AcDbEntity
  8
RACCORDO
100
AcDbLine
 62
253
  6
CONTINUOUS
 10
-18.1195881051
 20
-75.8601633776
 11
-17.6083864152
 21
-75.5560057839
  0
LINE
  5
4F4
100
AcDbEntity
  8
RACCORDO
100
AcDbLine
 62
253
  6
CONTINUOUS
 10
-17.7692600286
 20
-76.0423497303
 11
-17.4661740568
 21
-75.8662369755
  0
LINE
  5
4F5
100
AcDbEntity
  8
0
100
AcDbLine
 62
7
  6
CONTINUOUS
 10
-13.3390289872
 20
-79.2668202772
 11
-13.9061450856
 21
-79.5942660048
  0
LINE
  5
4F6
100
AcDbEntity
  8
ASSI
100
AcDbLine
 62
7
  6
CONTINUOUS
 10
-13.3390289872
 20
-79.2668202772
 11
-13.9061450856
 21
-79.5942660048
  0
LWPOLYLINE
  5
4F7
100
AcDbEntity
  8
RACCORDO
100
AcDbPolyline
 62
253
  6
CONTINUOUS
 90
22
 70
0
 10
-18.9568255854
 20
-70.5944173135
 10
-19.0918266767
 20
-70.6719805254
 10
-19.2314972419
 20
-70.7461946717
 10
-19.3758372811
 20
-70.8170597524
 10
-19.5251031623
 20
-70.8846884341
 10
-19.6790385174
 20
-70.9489680503
 10
-19.8368742421
 20
-71.009560601
 10
-19.9986226785
 20
-71.0664414206
 10
-20.1642714845
 20
-71.1196351749
 10
-20.3330145292
 20
-71.1688778616
 10
-20.5048654317
 20
-71.2141480972
 10
-20.679810573
 20
-71.2554672652
 10
-20.8570029654
 20
-71.2926355137
 10
-21.036456973
 20
-71.3256316335
 10
-21.2181582317
 20
-71.3544768339
 10
-21.4012166619
 20
-71.3790348911
 10
-21.5856524576
 20
-71.399282749
 10
-21.7714454248
 20
-71.4152434637
 10
-21.9576449013
 20
-71.4268499794
 10
-22.1439339997
 20
-71.4340799443
 10
-22.3306296076
 20
-71.4369557102
 10
-22.5177317247
 20
-71.4354772772
  0
LWPOLYLINE
  5
4F8
100
AcDbEntity
  8
RACCORDO
100
AcDbPolyline
 62
253
  6
CONTINUOUS
 90
22
 70
0
 10
-18.6690465869
 20
-71.081415371
 10
-18.8152525264
 20
-71.165210894
 10
-18.9669725391
 20
-71.2455964633
 10
-19.1239712463
 20
-71.3224461361
 10
-19.2860104775
 20
-71.3956460955
 10
-19.4528322437
 20
-71.4650744069
 10
-19.6241574666
 20
-71.5306025896
 10
-19.7997188383
 20
-71.5921293185
 10
-19.9792382883
 20
-71.6495583284
 10
-20.1624070847
 20
-71.7027810258
 10
-20.3489315029
 20
-71.7517154127
 10
-20.5385193983
 20
-71.7962885261
 10
-20.7308540108
 20
-71.8364182448
 10
-20.9256336052
 20
-71.8720456916
 10
-21.1225452017
 20
-71.9031181269
 10
-21.3212478978
 20
-71.9295762664
 10
-21.5214235164
 20
-71.9513837358
 10
-21.7227561411
 20
-71.9685126381
 10
-21.9249040177
 20
-71.9809307997
 10
-22.1275390038
 20
-71.9886224403
 10
-22.3303474558
 20
-71.9915864888
 10
-22.5330085679
 20
-71.9898254162
  0
LINE
  5
4F9
100
AcDbEntity
  8
RACCORDO
100
AcDbLine
 62
253
  6
CONTINUOUS
 10
-17.3255009971
 20
-76.1773141598
 11
-17.4136003014
 21
-76.2273087811
  0
LWPOLYLINE
  5
4FA
100
AcDbEntity
  8
RACCORDO
100
AcDbPolyline
 62
253
  6
CONTINUOUS
 90
25
 70
0
 10
-17.8961654136
 20
-69.960628111
 10
-17.8672489797
 20
-69.9444604561
 10
-17.8369188121
 20
-69.929534455
 10
-17.805174911
 20
-69.9158501077
 10
-17.7718739935
 20
-69.9033614446
 10
-17.7371593424
 20
-69.8921144353
 10
-17.701460806
 20
-69.8822469883
 10
-17.6647589239
 20
-69.8737744641
 10
-17.6270731565
 20
-69.8666815022
 10
-17.5888917334
 20
-69.8610599302
 10
-17.5502122384
 20
-69.8569293309
 10
-17.5110370878
 20
-69.8542701216
 10
-17.4718617597
 20
-69.8531153811
 10
-17.4326842947
 20
-69.8534842234
 10
-17.3935066523
 20
-69.8553575345
 10
-17.3548301895
 20
-69.858711052
 10
-17.3166613664
 20
-69.8635639837
 10
-17.2789937229
 20
-69.8698971217
 10
-17.2423092364
 20
-69.8776285798
 10
-17.2066269102
 20
-69.886773325
 10
-17.1719277409
 20
-69.8973163903
 10
-17.1386366962
 20
-69.9091309878
 10
-17.1068954317
 20
-69.9221748549
 10
-17.0765622917
 20
-69.9364902543
 10
-17.0476372762
 20
-69.952077186
  0
LWPOLYLINE
  5
4FB
100
AcDbEntity
  8
RACCORDO
100
AcDbPolyline
 62
253
  6
CONTINUOUS
 90
24
 70
0
 10
-17.5988283729
 20
-70.4418935208
 10
-17.5887075436
 20
-70.4365416479
 10
-17.5780676952
 20
-70.4315908176
 10
-17.5669562847
 20
-70.4270579429
 10
-17.555419806
 20
-70.4229613219
 10
-17.5435030408
 20
-70.4193211533
 10
-17.5312542277
 20
-70.4161504779
 10
-17.5187281267
 20
-70.4134616147
 10
-17.5059811523
 20
-70.4112709807
 10
-17.4930693066
 20
-70.4095862676
 10
-17.4800465663
 20
-70.4084121073
 10
-17.4669674891
 20
-70.4077570352
 10
-17.4538873702
 20
-70.4076224786
 10
-17.4408629146
 20
-70.4080071393
 10
-17.427950767
 20
-70.4089123355
 10
-17.4152061406
 20
-70.410333135
 10
-17.4026836318
 20
-70.4122617376
 10
-17.3904377936
 20
-70.4146918431
 10
-17.3785234419
 20
-70.4176116328
 10
-17.3669887501
 20
-70.4210076774
 10
-17.3558767758
 20
-70.4248689721
 10
-17.3452337252
 20
-70.4291805333
 10
-17.3351079861
 20
-70.4339226471
 10
-17.3255437027
 20
-70.4390752434
  0
LWPOLYLINE
  5
4FC
100
AcDbEntity
  8
RACCORDO
100
AcDbPolyline
 62
253
  6
CONTINUOUS
 90
16
 70
0
 10
-17.6083864152
 20
-75.5560057839
 10
-17.5928291372
 20
-75.5479178349
 10
-17.575892866
 20
-75.5408131276
 10
-17.557763159
 20
-75.5347695026
 10
-17.538638649
 20
-75.529853175
 10
-17.5187288682
 20
-75.5261180093
 10
-17.4982519522
 20
-75.5236049287
 10
-17.4774322505
 20
-75.522341467
 10
-17.456497868
 20
-75.522341467
 10
-17.4356781663
 20
-75.5236049287
 10
-17.4152012503
 20
-75.5261180093
 10
-17.3952914694
 20
-75.5298531749
 10
-17.3761669593
 20
-75.5347695024
 10
-17.3580372522
 20
-75.5408131275
 10
-17.341100981
 20
-75.5479178348
 10
-17.3255437029
 20
-75.5560057838
  0
LWPOLYLINE
  5
4FD
100
AcDbEntity
  8
RACCORDO
100
AcDbPolyline
 62
253
  6
CONTINUOUS
 90
16
 70
0
 10
-17.3255009971
 20
-76.1773141598
 10
-17.3098849131
 20
-76.1694669946
 10
-17.292947588
 20
-76.1625939177
 10
-17.2748704935
 20
-76.1567685693
 10
-17.2558473132
 20
-76.152053364
 10
-17.2360818673
 20
-76.1484988219
 10
-17.2157859287
 20
-76.1461430275
 10
-17.1951769544
 20
-76.1450112215
 10
-17.1744757554
 20
-76.1451155303
 10
-17.1539041305
 20
-76.1464548365
 10
-17.1336824906
 20
-76.1490147903
 10
-17.1140274964
 20
-76.1527679635
 10
-17.0951497376
 20
-76.1576741434
 10
-17.0772514763
 20
-76.1636807639
 10
-17.0605244799
 20
-76.170723468
 10
-17.0451479667
 20
-76.1787267981
  0
LWPOLYLINE
  5
4FE
100
AcDbEntity
  8
RACCORDO
100
AcDbPolyline
 62
253
  6
CONTINUOUS
 90
10
 70
0
 10
-5.6311514282
 20
31.71523888
 10
-6.3025827822
 20
31.931113479
 10
-6.9649657647
 20
32.1562439235
 10
-7.6179379894
 20
32.390505487
 10
-8.2611411696
 20
32.6337671106
 10
-8.8942245189
 20
32.8858958631
 10
-9.5168447705
 20
33.1467571566
 10
-10.1286621631
 20
33.4162088996
 10
-10.7293408008
 20
33.694101434
 10
-11.3185519215
 20
33.9802821044
  0
LWPOLYLINE
  5
4FF
100
AcDbEntity
  8
RACCORDO
100
AcDbPolyline
 62
253
  6
CONTINUOUS
 90
10
 70
0
 10
-5.4904618868
 20
32.1076932005
 10
-6.156335318
 20
32.3217762696
 10
-6.8125512609
 20
32.5447850442
 10
-7.4591097156
 20
32.7767195242
 10
-8.0963641918
 20
33.0177204475
 10
-8.7239611797
 20
33.2676470763
 10
-9.34084015
 20
33.5260771971
 10
-9.9466475927
 20
33.7928700724
 10
-10.5417370178
 20
34.0681664397
 10
-11.1261084252
 20
34.3519662991
  0
LWPOLYLINE
  5
500
100
AcDbEntity
  8
RACCORDO
100
AcDbPolyline
 62
253
  6
CONTINUOUS
 90
10
 70
0
 10
-5.7822639973
 20
31.6230328839
 10
-6.4352663411
 20
31.8383256234
 10
-7.0796021871
 20
32.0621614922
 10
-7.7149360592
 20
32.2944243121
 10
-8.3409499438
 20
32.534998507
 10
-8.9573046688
 20
32.7837545201
 10
-9.5636420973
 20
33.0405472066
 10
-10.1596361927
 20
33.3052362568
 10
-10.7449911562
 20
33.5776879398
 10
-11.319404208
 20
33.8577593619
  0
LWPOLYLINE
  5
501
100
AcDbEntity
  8
0
100
AcDbPolyline
 62
7
  6
CONTINUOUS
 90
10
 70
0
 10
-6.5923419863
 20
31.6673213232
 10
-7.1848117609
 20
31.86545951
 10
-7.7698344659
 20
32.0702354006
 10
-8.3474101011
 20
32.2816489948
 10
-8.9177040358
 20
32.4998287229
 10
-9.4805509007
 20
32.7246461547
 10
-10.0354545889
 20
32.9557159998
 10
-10.5822497313
 20
33.1929098278
 10
-11.1211016969
 20
33.4363560691
 10
-11.6520104857
 20
33.6860547235
  0
LWPOLYLINE
  5
502
100
AcDbEntity
  8
ASSI
100
AcDbPolyline
 62
7
  6
CONTINUOUS
 90
10
 70
0
 10
-6.5923419863
 20
31.6673213232
 10
-7.1848117609
 20
31.86545951
 10
-7.7698344659
 20
32.0702354006
 10
-8.3474101011
 20
32.2816489948
 10
-8.9177040358
 20
32.4998287229
 10
-9.4805509007
 20
32.7246461547
 10
-10.0354545889
 20
32.9557159998
 10
-10.5822497313
 20
33.1929098278
 10
-11.1211016969
 20
33.4363560691
 10
-11.6520104857
 20
33.6860547235
  0
LWPOLYLINE
  5
503
100
AcDbEntity
  8
RACCORDO
100
AcDbPolyline
 62
253
  6
CONTINUOUS
 90
10
 70
0
 10
12.0086332166
 20
28.3264894115
 10
11.9885579768
 20
28.336342392
 10
11.9645501415
 20
28.3442036505
 10
11.9390101135
 20
28.3487101438
 10
11.9121279734
 20
28.3498283273
 10
11.8841037918
 20
28.3475498743
 10
11.8551461443
 20
28.3418917388
 10
11.8254705516
 20
28.3328960298
 10
11.795297874
 20
28.3206296955
 10
11.7648526737
 20
28.3051840264
  0
LWPOLYLINE
  5
504
100
AcDbEntity
  8
0
100
AcDbPolyline
 62
7
  6
CONTINUOUS
 90
4
 70
0
 10
-11.6520104857
 20
33.6860547235
 10
-14.636735717
 20
35.1828931371
 10
-17.6039444449
 20
36.696178478
 10
-20.5536366695
 20
38.225910746
  0
LWPOLYLINE
  5
505
100
AcDbEntity
  8
ASSI
100
AcDbPolyline
 62
7
  6
CONTINUOUS
 90
4
 70
0
 10
-11.6520104857
 20
33.6860547235
 10
-14.636735717
 20
35.1828931371
 10
-17.6039444449
 20
36.696178478
 10
-20.5536366695
 20
38.225910746
  0
LINE
  5
506
100
AcDbEntity
  8
RACCORDO
100
AcDbLine
 62
253
  6
CONTINUOUS
 10
-11.3185519215
 20
33.9802821044
 11
-14.2534321481
 21
35.4528053195
  0
LWPOLYLINE
  5
507
100
AcDbEntity
  8
RACCORDO
100
AcDbPolyline
 62
253
  6
CONTINUOUS
 90
4
 70
0
 10
-11.1261084252
 20
34.3519662991
 10
-14.0594837375
 20
35.8237222345
 10
-16.9720942884
 20
37.3095679122
 10
-19.8639400776
 20
38.8095033323
  0
LINE
  5
508
100
AcDbEntity
  8
RACCORDO
100
AcDbLine
 62
253
  6
CONTINUOUS
 10
-11.319404208
 20
33.8577593619
 11
-14.2677838619
 21
35.340969303
  0
LWPOLYLINE
  5
509
100
AcDbEntity
  8
RACCORDO
100
AcDbPolyline
 62
253
  6
CONTINUOUS
 90
3
 70
0
 10
-14.2534321481
 20
35.4528053195
 10
-17.1679274147
 20
36.9396116083
 10
-20.0618393542
 20
38.4406088511
  0
LWPOLYLINE
  5
50A
100
AcDbEntity
  8
RACCORDO
100
AcDbPolyline
 62
253
  6
CONTINUOUS
 90
3
 70
0
 10
-14.2677838619
 20
35.340969303
 10
-17.1799116594
 20
36.8300564192
 10
-20.0716857758
 20
38.3329653048
  0
LINE
  5
50B
100
AcDbEntity
  8
RACCORDO
100
AcDbLine
 62
253
  6
CONTINUOUS
 10
-20.0618393542
 20
38.4406088511
 11
-22.9350317414
 21
39.9557361011
  0
LWPOLYLINE
  5
50C
100
AcDbEntity
  8
RACCORDO
100
AcDbPolyline
 62
253
  6
CONTINUOUS
 90
10
 70
0
 10
-19.8639400776
 20
38.8095033323
 10
-22.7352748463
 20
40.3236572486
 10
-25.5858448534
 20
41.8519009073
 10
-28.4148888761
 20
43.3938480464
 10
-31.2223967551
 20
44.9495046462
 10
-34.0083786496
 20
46.5188647264
 10
-36.7721038141
 20
48.1015240836
 10
-39.5135621923
 20
49.6974887275
 10
-42.2327638404
 20
51.3067526485
 10
-44.9290081826
 20
52.9288936144
  0
LWPOLYLINE
  5
50D
100
AcDbEntity
  8
RACCORDO
100
AcDbPolyline
 62
253
  6
CONTINUOUS
 90
9
 70
0
 10
14.664659095
 20
22.3612674334
 10
14.6603239894
 20
22.3635560533
 10
14.6490393927
 20
22.3678069854
 10
14.636851377
 20
22.3701316992
 10
14.6238905286
 20
22.3705052871
 10
14.6102957139
 20
22.3689237463
 10
14.596212592
 20
22.3654040219
 10
14.5817920538
 20
22.3599838253
 10
14.5671886052
 20
22.3527212302
  0
LINE
  5
50E
100
AcDbEntity
  8
RACCORDO
100
AcDbLine
 62
253
  6
CONTINUOUS
 10
-20.0716857758
 20
38.3329653048
 11
-22.9429985136
 21
39.849655369
  0
LWPOLYLINE
  5
50F
100
AcDbEntity
  8
RACCORDO
100
AcDbPolyline
 62
253
  6
CONTINUOUS
 90
9
 70
0
 10
14.3075498078
 20
22.5674579107
 10
14.3031518024
 20
22.5697827976
 10
14.2918672056
 20
22.5740337297
 10
14.27967919
 20
22.5763584436
 10
14.2667183416
 20
22.5767320315
 10
14.2531235269
 20
22.5751504907
 10
14.239040405
 20
22.5716307662
 10
14.2246198667
 20
22.5662105697
 10
14.2100164182
 20
22.5589479745
  0
LWPOLYLINE
  5
510
100
AcDbEntity
  8
RACCORDO
100
AcDbPolyline
 62
253
  6
CONTINUOUS
 90
9
 70
0
 10
-35.6289291995
 20
56.7067379582
 10
-35.6333653138
 20
56.7090848639
 10
-35.6446428068
 20
56.7133316913
 10
-35.6568246455
 20
56.715652836
 10
-35.6697803099
 20
56.7160234284
 10
-35.683370989
 20
56.7144394979
 10
-35.6974510682
 20
56.7109180153
 10
-35.7118696891
 20
56.7054967108
 10
-35.7264723661
 20
56.6982336699
  0
LINE
  5
511
100
AcDbEntity
  8
RACCORDO
100
AcDbLine
 62
253
  6
CONTINUOUS
 10
-22.9350317414
 20
39.9557361011
 11
-25.7872468379
 21
41.4848677573
  0
LWPOLYLINE
  5
512
100
AcDbEntity
  8
RACCORDO
100
AcDbPolyline
 62
253
  6
CONTINUOUS
 90
9
 70
0
 10
3.7582464253
 20
33.2969719901
 10
3.7526259563
 20
33.3000223712
 10
3.7416081603
 20
33.3041148745
 10
3.7296521312
 20
33.3063018291
 10
3.7168859688
 20
33.3065598009
 10
3.7034464559
 20
33.3048860243
 10
3.6894775885
 20
33.3012984316
 10
3.6751290327
 20
33.2958354604
 10
3.6605545241
 20
33.2885556418
  0
LWPOLYLINE
  5
513
100
AcDbEntity
  8
RACCORDO
100
AcDbPolyline
 62
7
  6
CONTINUOUS
 90
3
 70
0
 10
-35.6289255839
 20
56.7067318334
 10
-35.6784959587
 20
56.7340725441
 10
-35.7415493284
 20
56.7650478376
  0
LWPOLYLINE
  5
514
100
AcDbEntity
  8
DRAFT
100
AcDbPolyline
 62
7
  6
CONTINUOUS
 90
25
 70
0
 10
-58.8680670974
 20
69.5841828709
 10
-59.0590216179
 20
69.6906508063
 10
-59.2493350845
 20
69.789276095
 10
-59.4390074971
 20
69.8800587368
 10
-59.6282812217
 20
69.9630939527
 10
-59.8169138924
 20
70.0382865217
 10
-60.0041784118
 20
70.1053507813
 10
-60.1900113826
 20
70.1642418
 10
-60.3744762022
 20
70.2150045092
 10
-60.5570359643
 20
70.2574880406
 10
-60.7377639996
 20
70.2916776817
 10
-60.9165869775
 20
70.3175881449
 10
-61.0927480005
 20
70.3351126992
 10
-61.2661430767
 20
70.3442170655
 10
-61.436876198
 20
70.3449355229
 10
-61.6045024419
 20
70.3372641773
 10
-61.7691136761
 20
70.3211647705
 10
-61.930618033
 20
70.2966755607
 10
-62.088294988
 20
70.263907429
 10
-62.2420268609
 20
70.2228572808
 10
-62.391931332
 20
70.1735282106
 10
-62.5376409172
 20
70.1160403824
 10
-62.679241104
 20
70.0503220297
 10
-62.8166464049
 20
69.9764449191
 10
-62.8666937892
 20
69.9468701125
  0
LINE
  5
515
100
AcDbEntity
  8
RACCORDO
100
AcDbLine
 62
253
  6
CONTINUOUS
 10
13.6746682186
 20
21.9799230962
 11
13.7980978774
 21
21.9086563581
  0
LINE
  5
516
100
AcDbEntity
  8
RACCORDO
100
AcDbLine
 62
253
  6
CONTINUOUS
 10
14.2100164182
 20
22.5589479745
 11
14.5671886052
 21
22.3527212302
  0
LINE
  5
517
100
AcDbEntity
  8
RACCORDO
100
AcDbLine
 62
253
  6
CONTINUOUS
 10
2.3223228144
 20
33.7571824245
 11
11.7648526739
 21
28.3051840263
  0
LINE
  5
518
100
AcDbEntity
  8
RACCORDO
100
AcDbLine
 62
7
  6
CONTINUOUS
 10
1.9480115508
 20
34.1353662894
 11
12.0086943975
 21
28.3264541037
  0
LINE
  5
519
100
AcDbEntity
  8
DRAFT
100
AcDbLine
 62
7
  6
CONTINUOUS
 10
-58.8680670974
 20
69.5841828709
 11
0.1753491317
 21
35.493254328
  0
LWPOLYLINE
  5
51A
100
AcDbEntity
  8
RACCORDO
100
AcDbPolyline
 62
253
  6
CONTINUOUS
 90
5
 70
0
 10
-35.7264723661
 20
56.6982336699
 10
-31.3495357606
 20
54.1593741365
 10
-26.9726514024
 20
51.6049030353
 10
-22.595861218
 20
49.0348448357
 10
-21.0189499644
 20
48.1032440586
  0
LWPOLYLINE
  5
51B
100
AcDbEntity
  8
RACCORDO
100
AcDbPolyline
 62
7
  6
CONTINUOUS
 90
5
 70
0
 10
-35.6289291995
 20
56.7067379582
 10
-31.2519687152
 20
54.1678645764
 10
-26.8750623205
 20
51.6133806201
 10
-22.49825193
 20
49.0433105638
 10
-20.9623389302
 20
48.1359305603
  0
LWPOLYLINE
  5
51C
100
AcDbEntity
  8
RACCORDO
100
AcDbPolyline
 62
253
  6
CONTINUOUS
 90
13
 70
0
 10
14.5671886052
 20
22.3527212302
 10
14.574624874
 20
22.3483753735
 10
14.5822693772
 20
22.3435971264
 10
14.5901106584
 20
22.3383661181
 10
14.598148944
 20
22.3326526197
 10
14.6063555071
 20
22.3264469982
 10
14.614673547
 20
22.3197655222
 10
14.6230853686
 20
22.3125969883
 10
14.6315713023
 20
22.3049318736
 10
14.6400715371
 20
22.2968011553
 10
14.6485653174
 20
22.2882033495
 10
14.6570303849
 20
22.2791388307
 10
14.6654066769
 20
22.2696534075
  0
LWPOLYLINE
  5
51D
100
AcDbEntity
  8
RACCORDO
100
AcDbPolyline
 62
7
  6
CONTINUOUS
 90
4
 70
0
 10
14.3075501253
 20
22.5674584609
 10
14.1059671378
 20
22.6871763666
 10
13.8523683917
 20
22.8472253072
 10
13.6726804872
 20
22.9681067615
  0
LWPOLYLINE
  5
51E
100
AcDbEntity
  8
RACCORDO
100
AcDbPolyline
 62
253
  6
CONTINUOUS
 90
5
 70
0
 10
-17.0685054562
 20
45.7653046559
 10
-13.8427310713
 20
43.8480657652
 10
-9.4664749557
 20
41.2313945787
 10
-5.0904807065
 20
38.5992356623
 10
-2.7227400261
 20
37.1665746861
  0
LWPOLYLINE
  5
51F
100
AcDbEntity
  8
RACCORDO
100
AcDbPolyline
 62
7
  6
CONTINUOUS
 90
6
 70
0
 10
-17.0117692958
 20
45.7980634039
 10
-13.7450867944
 20
43.8565107831
 10
-9.3688159123
 20
41.2398307767
 10
-4.9928087193
 20
38.6076640824
 10
-0.6171071115
 20
35.9600359128
 10
-0.3219632415
 20
35.7803962595
  0
LWPOLYLINE
  5
520
100
AcDbEntity
  8
RACCORDO
100
AcDbPolyline
 62
253
  6
CONTINUOUS
 90
34
 70
0
 10
11.7648526739
 20
28.3051840263
 10
11.8492506585
 20
28.2544623737
 10
11.9334438488
 20
28.1992292703
 10
12.0172391847
 20
28.1396089383
 10
12.1004410802
 20
28.0757357342
 10
12.1828627094
 20
28.0077535748
 10
12.2643262553
 20
27.935814812
 10
12.3446487134
 20
27.8600784576
 10
12.4236429642
 20
27.7807171265
 10
12.5011291686
 20
27.6979164377
 10
12.5769287281
 20
27.6118665416
 10
12.6508710117
 20
27.522758975
 10
12.7227940855
 20
27.4307927021
 10
12.7925359006
 20
27.3361738681
 10
12.8599359051
 20
27.2391175672
 10
12.9248418478
 20
27.1398450031
 10
12.9871069245
 20
27.0385809892
 10
13.0465893676
 20
26.9355544403
 10
13.1031538582
 20
26.8309997454
 10
13.1566730155
 20
26.7251541966
 10
13.2070255909
 20
26.618257281
 10
13.2540962287
 20
26.510551277
 10
13.2977789302
 20
26.4022827526
 10
13.3379761822
 20
26.2936951272
 10
13.374596681
 20
26.1850279835
 10
13.4075599188
 20
26.0765246112
 10
13.4367904145
 20
25.9684350007
 10
13.4622171895
 20
25.8610083037
 10
13.4837842542
 20
25.7544934489
 10
13.5014456028
 20
25.6491278109
 10
13.5151583814
 20
25.5451403958
 10
13.5248913125
 20
25.4427646067
 10
13.5306256921
 20
25.342237421
 10
13.5323503874
 20
25.2437881874
  0
LWPOLYLINE
  5
521
100
AcDbEntity
  8
RACCORDO
100
AcDbPolyline
 62
253
  6
CONTINUOUS
 90
19
 70
0
 10
13.7980978774
 20
21.9086563581
 10
13.8168887219
 20
21.8972251754
 10
13.8355084181
 20
21.8840015345
 10
13.8538153157
 20
21.8690860373
 10
13.8716701448
 20
21.8525921576
 10
13.8889370724
 20
21.8346453752
 10
13.9054847353
 20
21.8153822218
 10
13.9211872446
 20
21.7949492449
 10
13.9359251426
 20
21.7735018924
 10
13.9495863075
 20
21.751203328
 10
13.9620668094
 20
21.7282231907
 10
13.9732717013
 20
21.7047363063
 10
13.9831157407
 20
21.6809213564
 10
13.9915240367
 20
21.656959515
 10
13.9984326212
 20
21.6330330766
 10
14.0037889379
 20
21.6093240705
 10
14.0075522385
 20
21.5860128674
 10
14.0096938915
 20
21.5632768076
 10
14.010197603
 20
21.5412888575
  0
LINE
  5
522
100
AcDbEntity
  8
RACCORDO
100
AcDbLine
 62
253
  6
CONTINUOUS
 10
1.2270708951
 20
34.7696982312
 11
3.6605545241
 21
33.2885556418
  0
LINE
  5
523
100
AcDbEntity
  8
RACCORDO
100
AcDbLine
 62
7
  6
CONTINUOUS
 10
0.7406527059
 20
35.1336338503
 11
3.7582470081
 21
33.2969716343
  0
LWPOLYLINE
  5
524
100
AcDbEntity
  8
RACCORDO
100
AcDbPolyline
 62
253
  6
CONTINUOUS
 90
6
 70
0
 10
3.6605545241
 20
33.2885556418
 10
3.8919520153
 20
33.1429380699
 10
4.1234479288
 20
32.9884584131
 10
4.3547864953
 20
32.8252205155
 10
4.5858337536
 20
32.6532431577
 10
4.7843427242
 20
32.4977042175
  0
LWPOLYLINE
  5
525
100
AcDbEntity
  8
RACCORDO
100
AcDbPolyline
 62
253
  6
CONTINUOUS
 90
4
 70
0
 10
13.6726804872
 20
22.8936618052
 10
13.7219836833
 20
22.8602570202
 10
13.9663628744
 20
22.704510342
 10
14.2100164182
 20
22.5589479745
  0
LWPOLYLINE
  5
526
100
AcDbEntity
  8
RACCORDO
100
AcDbPolyline
 62
7
  6
CONTINUOUS
 90
35
 70
0
 10
2.7340192175
 20
33.2992762346
 10
2.7970401264
 20
33.2549214089
 10
2.9493994844
 20
33.1398538486
 10
3.1008815038
 20
33.0175981209
 10
3.2506238577
 20
32.888850179
 10
3.3986166238
 20
32.7535729951
 10
3.5448697244
 20
32.611803597
 10
3.6885505986
 20
32.4643490217
 10
3.8296445757
 20
32.3111768442
 10
3.9681663264
 20
32.1523194895
 10
4.1033273012
 20
31.9886812695
 10
4.2351083322
 20
31.8202349169
 10
4.3635285873
 20
31.647007699
 10
4.4878570211
 20
31.4699857295
 10
4.608070296
 20
31.2891473656
 10
4.7241917495
 20
31.1045142501
 10
4.8355603482
 20
30.9171374263
 10
4.9421489846
 20
30.7270012455
 10
5.0439847661
 20
30.5341213564
 10
5.1404879822
 20
30.3395957475
 10
5.2316282189
 20
30.1434150327
 10
5.31743589
 20
29.9455885982
 10
5.3974225267
 20
29.7472425914
 10
5.471554929
 20
29.548374049
 10
5.5398662967
 20
29.3489859343
 10
5.6019677604
 20
29.1502132848
 10
5.6578239023
 20
28.9520596107
 10
5.7074701402
 20
28.7545214017
 10
5.7506238577
 20
28.5587231646
 10
5.7872480251
 20
28.364674823
 10
5.8173796722
 20
28.1723664533
 10
5.8408472714
 20
27.9828927907
 10
5.8575936469
 20
27.7966187469
 10
5.8676759745
 20
27.6131794102
 10
5.8710942541
 20
27.4325747805
  0
LWPOLYLINE
  5
527
100
AcDbEntity
  8
RACCORDO
100
AcDbPolyline
 62
7
  6
CONTINUOUS
 90
8
 70
0
 10
5.1487411522
 20
32.2873051321
 10
5.1458298123
 20
32.2898235311
 10
4.9132627877
 20
32.4814433331
 10
4.6789810481
 20
32.6649877389
 10
4.4432127088
 20
32.8402624215
 10
4.2061997019
 20
33.0070632532
 10
3.96822704
 20
33.1651781994
 10
3.7582459719
 20
33.2969712472
  0
LWPOLYLINE
  5
528
100
AcDbEntity
  8
RACCORDO
100
AcDbPolyline
 62
253
  6
CONTINUOUS
 90
25
 70
0
 10
14.6654066769
 20
22.2696534075
 10
14.6736711381
 20
22.2597570991
 10
14.6818027659
 20
22.2494582126
 10
14.6897485606
 20
22.2388104559
 10
14.6974847935
 20
22.2278351381
 10
14.7049944714
 20
22.2165452451
 10
14.7122394108
 20
22.2049892352
 10
14.7192007618
 20
22.1931903085
 10
14.7258616306
 20
22.1811696759
 10
14.7321915779
 20
22.1689771017
 10
14.7381753583
 20
22.1566392721
 10
14.7437997961
 20
22.1441802659
 10
14.7490426791
 20
22.1316482445
 10
14.753891544
 20
22.1190755327
 10
14.7583392928
 20
22.1064830567
 10
14.7623755436
 20
22.0939024459
 10
14.7659922467
 20
22.0813632562
 10
14.7691841342
 20
22.068888576
 10
14.7719464517
 20
22.0565001109
 10
14.7742743335
 20
22.0442236757
 10
14.7761638331
 20
22.0320846699
 10
14.7776120832
 20
22.0201039182
 10
14.7786165441
 20
22.0083048916
 10
14.7791755155
 20
21.9967134951
 10
14.7792883309
 20
21.9853537295
  0
LWPOLYLINE
  5
529
100
AcDbEntity
  8
RACCORDO
100
AcDbPolyline
 62
253
  6
CONTINUOUS
 90
9
 70
0
 10
1.0715439101
 20
-97.2136875351
 10
1.1939382821
 20
-97.0537698023
 10
1.3077269763
 20
-96.8905492465
 10
1.4128969967
 20
-96.724008456
 10
1.5094048548
 20
-96.5542687741
 10
1.5971979614
 20
-96.3821773504
 10
1.6761969
 20
-96.2077573948
 10
1.746438999
 20
-96.0310655014
 10
1.80805035
 20
-95.8529922745
  0
LWPOLYLINE
  5
52A
100
AcDbEntity
  8
RACCORDO
100
AcDbPolyline
 62
7
  6
CONTINUOUS
 90
13
 70
0
 10
-35.8042356939
 20
56.7916162411
 10
-35.8664218909
 20
56.813781631
 10
-35.9279853742
 20
56.8315547474
 10
-35.9888023918
 20
56.8449394197
 10
-36.0487652098
 20
56.8539529628
 10
-36.107721479
 20
56.8586071413
 10
-36.1654610244
 20
56.8589165126
 10
-36.2218566526
 20
56.8549222448
 10
-36.2767199656
 20
56.8466842244
 10
-36.3297224589
 20
56.8343139116
 10
-36.3806404448
 20
56.8179574965
 10
-36.4293677886
 20
56.7977609055
 10
-36.4634110993
 20
56.7807198718
  0
LINE
  5
52B
100
AcDbEntity
  8
RACCORDO
100
AcDbLine
 62
7
  6
CONTINUOUS
 10
-35.7415493284
 20
56.7650478376
 11
-35.8042356939
 21
56.7916162411
  0
LWPOLYLINE
  5
52C
100
AcDbEntity
  8
SMUSSO
100
AcDbPolyline
 62
7
  6
CONTINUOUS
 90
12
 70
0
 10
-10.7495873113
 20
53.356305447
 10
-10.8063967035
 20
53.3877821014
 10
-10.9199203637
 20
53.4427469315
 10
-11.032338147
 20
53.4865595852
 10
-11.1429210735
 20
53.5189360079
 10
-11.2509520899
 20
53.5396662704
 10
-11.3557304874
 20
53.5486159042
 10
-11.4565767353
 20
53.5457268585
 10
-11.5528370091
 20
53.5310178011
 10
-11.6438871989
 20
53.5045839276
 10
-11.7291364185
 20
53.4665966039
 10
-11.7494989579
 20
53.4553088963
  0
LINE
  5
52D
100
AcDbEntity
  8
SMUSSO
100
AcDbLine
 62
7
  6
CONTINUOUS
 10
-10.4667172641
 20
53.1930113924
 11
-10.7495873113
 21
53.356305447
  0
LWPOLYLINE
  5
52E
100
AcDbEntity
  8
SMUSSO
100
AcDbPolyline
 62
7
  6
CONTINUOUS
 90
4
 70
0
 10
-10.4665621677
 20
53.1598873991
 10
-10.5789799342
 20
53.2458920635
 10
-10.6925035867
 20
53.3220215974
 10
-10.7495873113
 20
53.356305447
  0
LWPOLYLINE
  5
52F
100
AcDbEntity
  8
RACCORDO
100
AcDbPolyline
 62
253
  6
CONTINUOUS
 90
4
 70
0
 10
0.7372268264
 20
-97.5853132163
 10
0.8009644831
 20
-97.5216567469
 10
0.9405545037
 20
-97.3696573388
 10
1.0715439101
 20
-97.2136875351
  0
LWPOLYLINE
  5
530
100
AcDbEntity
  8
RACCORDO
100
AcDbPolyline
 62
253
  6
CONTINUOUS
 90
23
 70
0
 10
0.1222868628
 20
-98.3678666736
 10
0.2265128649
 20
-98.29999896
 10
0.4105290891
 20
-98.1687287872
 10
0.5867668677
 20
-98.0312943866
 10
0.7545228604
 20
-97.8883955361
 10
0.9136312474
 20
-97.7404571066
 10
1.0642361391
 20
-97.5876611872
 10
1.2061267969
 20
-97.4303663175
 10
1.3392647042
 20
-97.2688928916
 10
1.4637010597
 20
-97.1034970382
 10
1.5793453714
 20
-96.9344077041
 10
1.6862333962
 20
-96.7618203394
 10
1.7843541943
 20
-96.5860713502
 10
1.8735488642
 20
-96.4075887707
 10
1.9538296742
 20
-96.2266477288
 10
2.0252746817
 20
-96.0435208536
 10
2.0878543679
 20
-95.8586488058
 10
2.1416023813
 20
-95.67234683
 10
2.186644981
 20
-95.4848562794
 10
2.2231231282
 20
-95.2965198597
 10
2.2511589015
 20
-95.1076356062
 10
2.2708448811
 20
-94.9184487356
 10
2.2822947854
 20
-94.7292214912
  0
LWPOLYLINE
  5
531
100
AcDbEntity
  8
0
100
AcDbPolyline
 62
7
  6
CONTINUOUS
 90
15
 70
0
 10
-1.091150444
 20
-99.3140440454
 10
-0.8781394179
 20
-99.1848047062
 10
-0.6787932933
 20
-99.0520832117
 10
-0.4875840129
 20
-98.9126408134
 10
-0.3044434023
 20
-98.7665840625
 10
-0.1300723583
 20
-98.6150077553
 10
0.0353578295
 20
-98.4580116544
 10
0.1919179452
 20
-98.2956595829
 10
0.3392711959
 20
-98.1289949861
 10
0.4772761675
 20
-97.9581458855
 10
0.6059937338
 20
-97.7831264332
 10
0.7253945833
 20
-97.6048048769
 10
0.8354488679
 20
-97.423508673
 10
0.9361260334
 20
-97.2390245025
 10
1.0274003413
 20
-97.0514025002
  0
LWPOLYLINE
  5
532
100
AcDbEntity
  8
ASSI
100
AcDbPolyline
 62
7
  6
CONTINUOUS
 90
15
 70
0
 10
-1.091150444
 20
-99.3140440454
 10
-0.8781394179
 20
-99.1848047062
 10
-0.6787932933
 20
-99.0520832117
 10
-0.4875840129
 20
-98.9126408134
 10
-0.3044434023
 20
-98.7665840625
 10
-0.1300723583
 20
-98.6150077553
 10
0.0353578295
 20
-98.4580116544
 10
0.1919179452
 20
-98.2956595829
 10
0.3392711959
 20
-98.1289949861
 10
0.4772761675
 20
-97.9581458855
 10
0.6059937338
 20
-97.7831264332
 10
0.7253945833
 20
-97.6048048769
 10
0.8354488679
 20
-97.423508673
 10
0.9361260334
 20
-97.2390245025
 10
1.0274003413
 20
-97.0514025002
  0
LINE
  5
533
100
AcDbEntity
  8
0
100
AcDbLine
 62
7
  6
CONTINUOUS
 10
-13.3390289872
 20
-97.8415190743
 11
-13.9061450856
 21
-98.1689648018
  0
LINE
  5
534
100
AcDbEntity
  8
ASSI
100
AcDbLine
 62
7
  6
CONTINUOUS
 10
-13.3390289872
 20
-97.8415190743
 11
-13.9061450856
 21
-98.1689648018
  0
LINE
  5
535
100
AcDbEntity
  8
0
100
AcDbLine
 62
7
  6
CONTINUOUS
 10
1.3077854832
 20
-91.1411596364
 11
1.2100257256
 21
-91.1976048953
  0
LINE
  5
536
100
AcDbEntity
  8
ASSI
100
AcDbLine
 62
7
  6
CONTINUOUS
 10
1.3077854832
 20
-91.1411596364
 11
1.2100257256
 21
-91.1976048953
  0
LINE
  5
537
100
AcDbEntity
  8
RACCORDO
100
AcDbLine
 62
7
  6
CONTINUOUS
 10
5.6554266859
 20
-89.4474352814
 11
2.5276512938
 21
-91.2533735926
  0
LINE
  5
538
100
AcDbEntity
  8
ASSI
100
AcDbLine
 62
7
  6
CONTINUOUS
 10
5.6554266859
 20
-89.4474352814
 11
2.5276512938
 21
-91.2533735926
  0
LINE
  5
539
100
AcDbEntity
  8
0
100
AcDbLine
 62
253
  6
CONTINUOUS
 10
1.1368024209
 20
-95.3223134075
 11
0.0341170848
 21
-95.9589901007
  0
LINE
  5
53A
100
AcDbEntity
  8
ASSI
100
AcDbLine
 62
253
  6
CONTINUOUS
 10
1.1368024209
 20
-95.3223134075
 11
0.0341170848
 21
-95.9589901007
  0
LINE
  5
53B
100
AcDbEntity
  8
0
100
AcDbLine
 62
7
  6
CONTINUOUS
 10
5.7569688097
 20
-92.8177445647
 11
5.8710942541
 21
-92.7518499634
  0
LINE
  5
53C
100
AcDbEntity
  8
ASSI
100
AcDbLine
 62
7
  6
CONTINUOUS
 10
-1.0911383531
 20
-99.3140580966
 11
-2.6499540402
 21
-100.2140987378
  0
LWPOLYLINE
  5
53D
100
AcDbEntity
  8
DRAFT
100
AcDbPolyline
 62
7
  6
CONTINUOUS
 90
24
 70
0
 10
4.0764686972
 20
-96.2141286411
 10
4.1239284392
 20
-96.1874282285
 10
4.2565149074
 20
-96.1057278233
 10
4.3841747413
 20
-96.0162362657
 10
4.5070157425
 20
-95.9189214135
 10
4.6247373692
 20
-95.8140223038
 10
4.7373998002
 20
-95.7014402527
 10
4.8449428567
 20
-95.5812739441
 10
4.9468854599
 20
-95.4540584662
 10
5.0431454661
 20
-95.3198490366
 10
5.1338050189
 20
-95.1785904377
 10
5.2186294702
 20
-95.0306521057
 10
5.2976446509
 20
-94.8759301065
 10
5.3708247301
 20
-94.7145283742
 10
5.4378575666
 20
-94.5471281479
 10
5.4986913198
 20
-94.3737817647
 10
5.5533778303
 20
-94.1944368875
 10
5.6017604795
 20
-94.0096177443
 10
5.6438341823
 20
-93.8192483555
 10
5.6796040238
 20
-93.6234047007
 10
5.7089286402
 20
-93.4228389458
 10
5.7317609103
 20
-93.2178018129
 10
5.7481479554
 20
-93.0080425799
 10
5.7580897753
 20
-92.7935612468
  0
LINE
  5
53E
100
AcDbEntity
  8
RACCORDO
100
AcDbLine
 62
253
  6
CONTINUOUS
 10
5.7580897753
 20
-92.7935612468
 11
2.2822947854
 21
-94.7292214912
  0
LWPOLYLINE
  5
53F
100
AcDbEntity
  8
0
100
AcDbPolyline
 62
7
  6
CONTINUOUS
 90
24
 70
0
 10
-2.6499216326
 20
-100.214080026
 10
-2.8388404229
 20
-100.3183796461
 10
-3.0438584338
 20
-100.4212980088
 10
-3.2552995562
 20
-100.5170586372
 10
-3.4727349476
 20
-100.6053133929
 10
-3.6950781102
 20
-100.6854522756
 10
-3.9222215153
 20
-100.7573821993
 10
-4.1539477014
 20
-100.8209845522
 10
-4.38893511
 20
-100.8757580153
 10
-4.626832985
 20
-100.9216691306
 10
-4.8675675192
 20
-100.9587651871
 10
-5.1101843717
 20
-100.9867920388
 10
-5.3542256535
 20
-101.0057882873
 10
-5.599689352
 20
-101.0158652766
 10
-5.8463008849
 20
-101.0168952754
 10
-6.0940859748
 20
-101.0089114916
 10
-6.3425792638
 20
-100.991992203
 10
-6.5907661316
 20
-100.96611034
 10
-6.8382316194
 20
-100.9314116728
 10
-7.0849267655
 20
-100.8880457626
 10
-7.3303785579
 20
-100.8360579318
 10
-7.5742800149
 20
-100.775577927
 10
-7.8164909764
 20
-100.7068151469
 10
-8.0567928335
 20
-100.6299488057
  0
LWPOLYLINE
  5
540
100
AcDbEntity
  8
ASSI
100
AcDbPolyline
 62
7
  6
CONTINUOUS
 90
24
 70
0
 10
-2.6499216326
 20
-100.214080026
 10
-2.8388404229
 20
-100.3183796461
 10
-3.0438584338
 20
-100.4212980088
 10
-3.2552995562
 20
-100.5170586372
 10
-3.4727349476
 20
-100.6053133929
 10
-3.6950781102
 20
-100.6854522756
 10
-3.9222215153
 20
-100.7573821993
 10
-4.1539477014
 20
-100.8209845522
 10
-4.38893511
 20
-100.8757580153
 10
-4.626832985
 20
-100.9216691306
 10
-4.8675675192
 20
-100.9587651871
 10
-5.1101843717
 20
-100.9867920388
 10
-5.3542256535
 20
-101.0057882873
 10
-5.599689352
 20
-101.0158652766
 10
-5.8463008849
 20
-101.0168952754
 10
-6.0940859748
 20
-101.0089114916
 10
-6.3425792638
 20
-100.991992203
 10
-6.5907661316
 20
-100.96611034
 10
-6.8382316194
 20
-100.9314116728
 10
-7.0849267655
 20
-100.8880457626
 10
-7.3303785579
 20
-100.8360579318
 10
-7.5742800149
 20
-100.775577927
 10
-7.8164909764
 20
-100.7068151469
 10
-8.0567928335
 20
-100.6299488057
  0
LINE
  5
541
100
AcDbEntity
  8
DRAFT
100
AcDbLine
 62
7
  6
CONTINUOUS
 10
4.0764905913
 20
-96.2141671941
 11
0.0852575965
 21
-98.406265841
  0
LINE
  5
542
100
AcDbEntity
  8
DRAFT
100
AcDbLine
 62
7
  6
CONTINUOUS
 10
5.861642796
 20
-89.4293468282
 11
3.2700027255
 21
-90.8247491797
  0
LWPOLYLINE
  5
543
100
AcDbEntity
  8
RACCORDO
100
AcDbPolyline
 62
7
  6
CONTINUOUS
 90
16
 70
0
 10
2.5276512938
 20
-91.2533735926
 10
2.5150112022
 20
-91.2601731985
 10
2.5017292555
 20
-91.2664067063
 10
2.4878054538
 20
-91.272074116
 10
2.4731685127
 20
-91.2771966861
 10
2.4578897166
 20
-91.281753158
 10
2.4421829183
 20
-91.2856797561
 10
2.4260420991
 20
-91.2889676231
 10
2.4094732777
 20
-91.2916256162
 10
2.3927083631
 20
-91.2936165325
 10
2.3757445977
 20
-91.2949309912
 10
2.3585847391
 20
-91.295578373
 10
2.3414689688
 20
-91.2955496167
 10
2.3244773474
 20
-91.2948417018
 10
2.3075298143
 20
-91.2934576488
 10
2.2906263694
 20
-91.2913974577
  0
LWPOLYLINE
  5
544
100
AcDbEntity
  8
ASSI
100
AcDbPolyline
 62
7
  6
CONTINUOUS
 90
16
 70
0
 10
2.5276512938
 20
-91.2533735926
 10
2.5150112022
 20
-91.2601731985
 10
2.5017292555
 20
-91.2664067063
 10
2.4878054538
 20
-91.272074116
 10
2.4731685127
 20
-91.2771966861
 10
2.4578897166
 20
-91.281753158
 10
2.4421829183
 20
-91.2856797561
 10
2.4260420991
 20
-91.2889676231
 10
2.4094732777
 20
-91.2916256162
 10
2.3927083631
 20
-91.2936165325
 10
2.3757445977
 20
-91.2949309912
 10
2.3585847391
 20
-91.295578373
 10
2.3414689688
 20
-91.2955496167
 10
2.3244773474
 20
-91.2948417018
 10
2.3075298143
 20
-91.2934576488
 10
2.2906263694
 20
-91.2913974577
  0
LWPOLYLINE
  5
545
100
AcDbEntity
  8
RACCORDO
100
AcDbPolyline
 62
7
  6
CONTINUOUS
 90
3
 70
0
 10
2.389595626
 20
-91.2992231375
 10
2.4055071635
 20
-91.2918574092
 10
2.4206392856
 20
-91.2838346806
  0
LWPOLYLINE
  5
546
100
AcDbEntity
  8
RACCORDO
100
AcDbPolyline
 62
7
  6
CONTINUOUS
 90
15
 70
0
 10
1.2100257256
 20
-91.2615082565
 10
1.2164420262
 20
-91.258549457
 10
1.2335031457
 20
-91.2517393448
 10
1.2514946352
 20
-91.2455804159
 10
1.2702905594
 20
-91.2401079483
 10
1.2895131126
 20
-91.2354277764
 10
1.30908964
 20
-91.2315677256
 10
1.3290927965
 20
-91.2284999706
 10
1.3493627411
 20
-91.2262468692
 10
1.3699795737
 20
-91.2248110776
 10
1.3908631944
 20
-91.2241899395
 10
1.4116134624
 20
-91.224397845
 10
1.4320969975
 20
-91.2254395906
 10
1.4524471799
 20
-91.2273103796
 10
1.4726640096
 20
-91.2300102122
  0
ELLIPSE
  5
547
100
AcDbEntity
  8
RACCORDO
100
AcDbEllipse
 62
7
  6
CONTINUOUS
 10
-58.337758554
 20
-39.3127535226
 30
0.0
 11
-0.1000352924
 21
0.1732550566
 31
0.0
 40
0.5771558487
 41
-3.1590426543
 42
-2.3563950755
  0
ELLIPSE
  5
548
100
AcDbEntity
  8
RACCORDO
100
AcDbEllipse
 62
7
  6
CONTINUOUS
 10
-58.337758554
 20
-33.1076291675
 30
0.0
 11
-0.1000048364
 21
0.1732022883
 31
0.0
 40
0.5775075436
 41
-2.3560905478
 42
-0.7855988075
  0
ELLIPSE
  5
549
100
AcDbEntity
  8
RACCORDO
100
AcDbEllipse
 62
7
  6
CONTINUOUS
 10
-58.337758554
 20
27.6378091744
 30
0.0
 11
-0.1000352924
 21
0.1732550566
 31
0.0
 40
0.5771558487
 41
-3.1590426543
 42
-2.3563950755
  0
ELLIPSE
  5
54A
100
AcDbEntity
  8
RACCORDO
100
AcDbEllipse
 62
7
  6
CONTINUOUS
 10
-58.337758554
 20
33.8429335295
 30
0.0
 11
-0.1000048364
 21
0.1732022883
 31
0.0
 40
0.5775075436
 41
-2.3560905478
 42
-0.7855988075
  0
ELLIPSE
  5
54B
100
AcDbEntity
  8
RACCORDO
100
AcDbEllipse
 62
7
  6
CONTINUOUS
 10
10.237943602
 20
-72.6150379215
 30
0.0
 11
33.0678064327
 21
0.252129525
 31
0.0
 40
0.5824033911
 41
-1.8435105904
 42
-1.8226839576
  0
ELLIPSE
  5
54C
100
AcDbEntity
  8
RACCORDO
100
AcDbEllipse
 62
7
  6
CONTINUOUS
 10
10.237943602
 20
38.8415286827
 30
0.0
 11
33.0678284179
 21
-0.2477667411
 31
0.0
 40
0.5723275643
 41
-1.8347817714
 42
-1.8139551386
  0
ELLIPSE
  5
54D
100
AcDbEntity
  8
ELVOX
100
AcDbEllipse
 62
253
  6
CONTINUOUS
 10
303.700934956
 20
230.731994586
 30
0.0
 11
483.5087951783
 21
363.9577338852
 31
0.0
 40
0.1044165842
 41
2.2651398324
 42
2.2662336398
  0
ELLIPSE
  5
54E
100
AcDbEntity
  8
ELVOX
100
AcDbEllipse
 62
253
  6
CONTINUOUS
 10
303.700934956
 20
227.9071128107
 30
0.0
 11
476.7649674533
 21
479.3846783949
 31
0.0
 40
0.1856448848
 41
-4.125873932
 42
-4.1240508838
  0
ELLIPSE
  5
54F
100
AcDbEntity
  8
ELVOX
100
AcDbEllipse
 62
253
  6
CONTINUOUS
 10
303.700934956
 20
229.3366168811
 30
0.0
 11
478.1120619655
 21
461.4431044473
 31
0.0
 40
0.1765081919
 41
-4.1063260262
 42
-4.104500006
  0
ELLIPSE
  5
550
100
AcDbEntity
  8
ELVOX
100
AcDbEllipse
 62
253
  6
CONTINUOUS
 10
303.700934956
 20
243.9081117586
 30
0.0
 11
-317.4723440007
 21
844.7744165244
 31
0.0
 40
0.4340277925
 41
-4.6281016711
 42
-4.6262786232
  0
ELLIPSE
  5
551
100
AcDbEntity
  8
ELVOX
100
AcDbEllipse
 62
253
  6
CONTINUOUS
 10
303.700934956
 20
235.2376251495
 30
0.0
 11
476.8932056553
 21
477.7274674642
 31
0.0
 40
0.1848450369
 41
-4.1121361904
 42
-4.1094348111
  0
ELLIPSE
  5
552
100
AcDbEntity
  8
ELVOX
100
AcDbEllipse
 62
253
  6
CONTINUOUS
 10
303.700934956
 20
234.3677004105
 30
0.0
 11
-315.3632738597
 21
906.1700162599
 31
0.0
 40
0.4066247687
 41
-4.6380641313
 42
-4.6355332225
  0
ELLIPSE
  5
553
100
AcDbEntity
  8
ELVOX
100
AcDbEllipse
 62
253
  6
CONTINUOUS
 10
303.700934956
 20
235.5738551662
 30
0.0
 11
-315.5956715684
 21
897.9607239111
 31
0.0
 40
0.4101205479
 41
-4.6378047944
 42
-4.6361307711
  0
ELLIPSE
  5
554
100
AcDbEntity
  8
ELVOX
100
AcDbEllipse
 62
253
  6
CONTINUOUS
 10
303.700934956
 20
236.3926864283
 30
0.0
 11
477.0593046212
 21
475.5663398717
 31
0.0
 40
0.1837888169
 41
-4.1093568437
 42
-4.1075775307
  0
ELLIPSE
  5
555
100
AcDbEntity
  8
ELVOX
100
AcDbEllipse
 62
253
  6
CONTINUOUS
 10
303.700934956
 20
242.8619708246
 30
0.0
 11
-316.7528992452
 21
862.9433617783
 31
0.0
 40
0.4256099494
 41
-4.6298857876
 42
-4.6280594338
  0
ELLIPSE
  5
556
100
AcDbEntity
  8
ELVOX
100
AcDbEllipse
 62
253
  6
CONTINUOUS
 10
303.700934956
 20
242.4176029329
 30
0.0
 11
-316.57934713
 21
867.6833698308
 31
0.0
 40
0.423457334
 41
-4.63015197
 42
-4.629935006
  0
ELLIPSE
  5
557
100
AcDbEntity
  8
ELVOX
100
AcDbEllipse
 62
253
  6
CONTINUOUS
 10
303.700934956
 20
242.6967032811
 30
0.0
 11
-315.4853496641
 21
901.7974779218
 31
0.0
 40
0.4084804695
 41
-4.6269613548
 42
-4.6267519578
  0
ELLIPSE
  5
558
100
AcDbEntity
  8
ELVOX
100
AcDbEllipse
 62
253
  6
CONTINUOUS
 10
303.700934956
 20
243.0056829554
 30
0.0
 11
-314.5724088601
 21
938.5121232655
 31
0.0
 40
0.3933317148
 41
-4.6242762318
 42
-4.6240748926
  0
ELLIPSE
  5
559
100
AcDbEntity
  8
ELVOX
100
AcDbEllipse
 62
253
  6
CONTINUOUS
 10
303.700934956
 20
243.3485173848
 30
0.0
 11
-313.8365489266
 21
978.1982924498
 31
0.0
 40
0.3780137351
 41
-4.622083173
 42
-4.6218900416
  0
ELLIPSE
  5
55A
100
AcDbEntity
  8
ELVOX
100
AcDbEllipse
 62
253
  6
CONTINUOUS
 10
303.700934956
 20
229.0741410016
 30
0.0
 11
482.3635974961
 21
391.3019026917
 31
0.0
 40
0.1290591405
 41
2.2402865512
 42
2.2412893553
  0
ELLIPSE
  5
55B
100
AcDbEntity
  8
ELVOX
100
AcDbEllipse
 62
253
  6
CONTINUOUS
 10
303.700934956
 20
242.0853177943
 30
0.0
 11
-320.2302180467
 21
790.2708531273
 31
0.0
 40
0.4609171323
 41
-4.636574116
 42
-4.635640231
  0
ELLIPSE
  5
55C
100
AcDbEntity
  8
ELVOX
100
AcDbEllipse
 62
253
  6
CONTINUOUS
 10
303.700934956
 20
243.2667274275
 30
0.0
 11
-320.2853186597
 21
789.3561580752
 31
0.0
 40
0.4613898587
 41
-4.6377517252
 42
-4.6367950174
  0
ENDSEC
  0
SECTION
  2
OBJECTS
  0
DICTIONARY
  5
C
100
AcDbDictionary
280
0
281
1
  3
ACAD_GROUP
350
D
  3
ACAD_MLINESTYLE
350
17
  3
ACAD_LAYOUT
350
1A
  3
ACAD_PLOTSETTINGS
350
19
  3
ACAD_PLOTSTYLENAME
350
E
  0
DICTIONARY
  5
D
102
{ACAD_REACTORS
330
C
102
}
100
AcDbDictionary
280
0
281
1
  0
ACDBDICTIONARYWDFLT
  5
E
102
{ACAD_REACTORS
330
C
102
}
100
AcDbDictionary
281
1
  3
Normal
350
F
100
AcDbDictionaryWithDefault
340
F
  0
DICTIONARY
  5
17
102
{ACAD_REACTORS
330
C
102
}
100
AcDbDictionary
280
0
281
1
  3
Standard
350
18
  0
DICTIONARY
  5
19
102
{ACAD_REACTORS
330
C
102
}
100
AcDbDictionary
281
1
  0
DICTIONARY
  5
1A
102
{ACAD_REACTORS
330
C
102
}
100
AcDbDictionary
281
1
  3
Model
350
55D
  3
Layout1
350
55E
  0
ACDBPLACEHOLDER
  5
F
102
{ACAD_REACTORS
330
E
102
}
  0
MLINESTYLE
  5
18
102
{ACAD_REACTORS
330
17
102
}
100
AcDbMlineStyle
  2
STANDARD
 70
0
  3

 62
256
 51
90.0
 52
90.0
 71
2
 49
0.5
 62
256
  6
BYLAYER
 49
-0.5
 62
256
  6
BYLAYER
  0
LAYOUT
  5
55D
102
{ACAD_REACTORS
330
1A
102
}
100
AcDbPlotSettings
  1

  2
none_device
  4
ISO_A4_(297.00_x_210.00_MM)
  6

 40
0.0
 41
0.0
 42
0.0
 43
0.0
 44
297.0
 45
210.0
 46
0.0
 47
0.0
 48
0.0
 49
0.0
140
0.0
141
0.0
142
1.0
143
1.0
 70
1024
 72
1
 73
0
 74
0
  7

 75
0
147
1.0
148
0.0
149
0.0
100
AcDbLayout
  1
Model
 70
0
 71
0
 10
0.0
 20
0.0
 11
297.0
 21
210.0
 12
0.0
 22
0.0
 32
0.0
 14
0.0
 24
0.0
 34
0.0
 15
0.0
 25
0.0
 35
0.0
146
0.0
 13
0.0
 23
0.0
 33
0.0
 16
1.0
 26
0.0
 36
0.0
 17
0.0
 27
1.0
 37
0.0
 76
0
330
21C
345
0
346
0
  0
LAYOUT
  5
55E
102
{ACAD_REACTORS
330
1A
102
}
100
AcDbPlotSettings
  1

  2
none_device
  4
ISO_A4_(297.00_x_210.00_MM)
  6

 40
0.0
 41
0.0
 42
0.0
 43
0.0
 44
297.0
 45
210.0
 46
0.0
 47
0.0
 48
0.0
 49
0.0
140
0.0
141
0.0
142
1.0
143
1.0
 70
0
 72
1
 73
0
 74
0
  7

 75
0
147
1.0
148
0.0
149
0.0
100
AcDbLayout
  1
Layout1
 70
0
 71
1
 10
0.0
 20
0.0
 11
297.0
 21
210.0
 12
0.0
 22
0.0
 32
0.0
 14
0.0
 24
0.0
 34
0.0
 15
0.0
 25
0.0
 35
0.0
146
0.0
 13
0.0
 23
0.0
 33
0.0
 16
1.0
 26
0.0
 36
0.0
 17
0.0
 27
1.0
 37
0.0
 76
0
330
21D
345
0
346
0
  0
ENDSEC
  0
EOF
