  0
SECTION
  2
HEADER
  9
$ACADVER
  1
AC1021
  9
$DWGCODEPAGE
  3
ANSI_1252
  9
$EXTMAX
 10
297.0
 20
210.0
 30
0.0
  9
$EXTMIN
 10
0.0
 20
0.0
 30
0.0
  9
$LIMMIN
 10
0.0
 20
0.0
  9
$LIMMAX
 10
297.0
 20
210.0
  9
$VIEWCTR
 10
148.5
 20
105.0
  9
$VIEWSIZE
 40
210.0
  9
$CLAYER
  8
0
  9
$LTSCALE
 40
16.335
  9
$CELTYPE
  6
BYLAYER
  9
$DIMSCALE
 40
1.0
  9
$DIMASZ
 40
3.0
  9
$DIMEXO
 40
0.5
  9
$DIMDLI
 40
11.286
  9
$DIMEXE
 40
1.5
  9
$DIMCEN
 40
2.673
  9
$DIMLFAC
 40
1.0
  9
$DIMBLK
  1
_FILLED
  9
$DIMALT
 70
0
  9
$DIMALTF
 40
0.0393700787
  9
$DIMTXT
 40
3.0
  9
$DIMTOL
 70
1
  9
$DIMLIM
 70
0
  9
$DIMTFAC
 40
1.0
  9
$DIMTP
 40
0.01
  9
$DIMTM
 40
0.01
  9
$DIMGAP
 40
0.625
  9
$DIMDSEP
 70
44
  9
$AUNITS
 70
0
  9
$PDMODE
 70
3
  9
$PDSIZE
 40
3.0
  9
$HANDSEED
  5
316
  9
$TILEMODE
 70
1
  9
$MEASUREMENT
 70
1
  9
$INSUNITS
 70
4
  0
ENDSEC
  0
SECTION
  2
CLASSES
  0
CLASS
  1
ACDBDICTIONARYWDFLT
  2
AcDbDictionaryWithDefault
  3
AutoCAD 2000
 90
0
 91
1
280
0
281
0
  0
CLASS
  1
ACDBPLACEHOLDER
  2
AcDbPlaceHolder
  3
AutoCAD 2000
 90
0
 91
1
280
0
281
0
  0
CLASS
  1
LAYOUT
  2
AcDbLayout
  3
AutoCAD 2000
 90
0
 91
0
280
0
281
0
  0
ENDSEC
  0
SECTION
  2
TABLES
  0
TABLE
  2
VPORT
  5
8
100
AcDbSymbolTable
 70
2
  0
VPORT
  5
1F4
100
AcDbSymbolTableRecord
100
AcDbViewportTableRecord
  2
*ACTIVE
 70
0
 10
0.0
 20
0.0
 11
1.0
 21
1.0
 12
148.5
 22
105.0
 13
0.0
 23
0.0
 14
1.0
 24
1.0
 15
0.0
 25
0.0
 16
0.0
 26
0.0
 36
1.0
 17
0.0
 27
0.0
 37
0.0
 40
210.0
 41
1.4142857143
 42
50.0
 43
0.0
 44
0.0
 50
0.0
 51
0.0
 71
0
 72
100
 73
1
 74
1
 75
0
 76
0
 77
0
 78
0
  0
ENDTAB
  0
TABLE
  2
LTYPE
  5
5
100
AcDbSymbolTable
 70
6
  0
LTYPE
  5
14
100
AcDbSymbolTableRecord
100
AcDbLinetypeTableRecord
  2
BYBLOCK
 70
0
  3

 72
65
 73
0
 40
0.0
  0
LTYPE
  5
15
100
AcDbSymbolTableRecord
100
AcDbLinetypeTableRecord
  2
BYLAYER
 70
0
  3

 72
65
 73
0
 40
0.0
  0
LTYPE
  5
16
100
AcDbSymbolTableRecord
100
AcDbLinetypeTableRecord
  2
CONTINUOUS
 70
64
  3
Solid line
 72
65
 73
0
 40
0.0
  0
LTYPE
  5
1F5
100
AcDbSymbolTableRecord
100
AcDbLinetypeTableRecord
  2
CENTER
 70
64
  3
____ _ ____ _ ____ _ ____ _ ____ _ ____ _ ____
 72
65
 73
4
 40
0.6
 49
0.375
 74
0
 49
-0.075
 74
0
 49
0.075
 74
0
 49
-0.075
 74
0
  0
LTYPE
  5
1F6
100
AcDbSymbolTableRecord
100
AcDbLinetypeTableRecord
  2
HIDDEN
 70
64
  3
- - - - - - - - - - - - - - - - - - - -
 72
65
 73
2
 40
0.2
 49
0.1
 74
0
 49
-0.1
 74
0
  0
LTYPE
  5
1F7
100
AcDbSymbolTableRecord
100
AcDbLinetypeTableRecord
  2
PHANTOM
 70
64
  3
_____ _ _ _____ _ _ _____ _ _ _____
 72
65
 73
6
 40
0.8
 49
0.45
 74
0
 49
-0.05
 74
0
 49
0.1
 74
0
 49
-0.05
 74
0
 49
0.1
 74
0
 49
-0.05
 74
0
  0
LTYPE
  5
1F8
100
AcDbSymbolTableRecord
100
AcDbLinetypeTableRecord
  2
DOT
 70
64
  3
. . . . . . . . . . . . . . . . . . . .
 72
65
 73
2
 40
0.2
 49
0.1
 74
0
 49
-0.1
 74
0
  0
LTYPE
  5
1F9
100
AcDbSymbolTableRecord
100
AcDbLinetypeTableRecord
  2
DASHED
 70
64
  3
- - - - - - - - - - - - - - - - - - - -
 72
65
 73
2
 40
0.2
 49
0.1
 74
0
 49
-0.1
 74
0
  0
ENDTAB
  0
TABLE
  2
LAYER
  5
2
100
AcDbSymbolTable
 70
36
  0
LAYER
  5
10
100
AcDbSymbolTableRecord
100
AcDbLayerTableRecord
  2
0
 70
0
 62
7
  6
CONTINUOUS
370
-3
390
F
  0
LAYER
  5
1FA
100
AcDbSymbolTableRecord
100
AcDbLayerTableRecord
  2
DEFAULT_1
 70
0
 62
7
  6
CENTER
370
-3
390
F
  0
LAYER
  5
1FB
100
AcDbSymbolTableRecord
100
AcDbLayerTableRecord
  2
DEFAULT_2
 70
0
 62
7
  6
HIDDEN
370
-3
390
F
  0
LAYER
  5
1FC
100
AcDbSymbolTableRecord
100
AcDbLayerTableRecord
  2
DEFAULT_3
 70
0
 62
7
  6
PHANTOM
370
-3
390
F
  0
LAYER
  5
1FD
100
AcDbSymbolTableRecord
100
AcDbLayerTableRecord
  2
ASSI
 70
0
 62
7
  6
CONTINUOUS
370
-3
390
F
  0
LAYER
  5
1FE
100
AcDbSymbolTableRecord
100
AcDbLayerTableRecord
  2
COORDINATE
 70
0
 62
7
  6
CONTINUOUS
370
-3
390
F
  0
LAYER
  5
1FF
100
AcDbSymbolTableRecord
100
AcDbLayerTableRecord
  2
COPY_PUBLISH
 70
0
 62
7
  6
CONTINUOUS
370
-3
390
F
  0
LAYER
  5
200
100
AcDbSymbolTableRecord
100
AcDbLayerTableRecord
  2
COSMETICI
 70
0
 62
7
  6
CONTINUOUS
370
-3
390
F
  0
LAYER
  5
201
100
AcDbSymbolTableRecord
100
AcDbLayerTableRecord
  2
CURVE
 70
0
 62
7
  6
CONTINUOUS
370
-3
390
F
  0
LAYER
  5
202
100
AcDbSymbolTableRecord
100
AcDbLayerTableRecord
  2
DRAFT
 70
0
 62
7
  6
CONTINUOUS
370
-3
390
F
  0
LAYER
  5
203
100
AcDbSymbolTableRecord
100
AcDbLayerTableRecord
  2
IMPORT_IGES
 70
0
 62
7
  6
CONTINUOUS
370
-3
390
F
  0
LAYER
  5
204
100
AcDbSymbolTableRecord
100
AcDbLayerTableRecord
  2
NOTE
 70
0
 62
7
  6
CONTINUOUS
370
-3
390
F
  0
LAYER
  5
205
100
AcDbSymbolTableRecord
100
AcDbLayerTableRecord
  2
PIANI
 70
0
 62
7
  6
CONTINUOUS
370
-3
390
F
  0
LAYER
  5
206
100
AcDbSymbolTableRecord
100
AcDbLayerTableRecord
  2
PUNTI
 70
0
 62
7
  6
CONTINUOUS
370
-3
390
F
  0
LAYER
  5
207
100
AcDbSymbolTableRecord
100
AcDbLayerTableRecord
  2
RACCORDO
 70
0
 62
7
  6
CONTINUOUS
370
-3
390
F
  0
LAYER
  5
208
100
AcDbSymbolTableRecord
100
AcDbLayerTableRecord
  2
SIMBOLI
 70
0
 62
7
  6
CONTINUOUS
370
-3
390
F
  0
LAYER
  5
209
100
AcDbSymbolTableRecord
100
AcDbLayerTableRecord
  2
SMUSSO
 70
0
 62
7
  6
CONTINUOUS
370
-3
390
F
  0
LAYER
  5
20A
100
AcDbSymbolTableRecord
100
AcDbLayerTableRecord
  2
SNAPLINE
 70
0
 62
7
  6
CONTINUOUS
370
-3
390
F
  0
LAYER
  5
20B
100
AcDbSymbolTableRecord
100
AcDbLayerTableRecord
  2
SUPERFICI
 70
0
 62
7
  6
CONTINUOUS
370
-3
390
F
  0
LAYER
  5
20C
100
AcDbSymbolTableRecord
100
AcDbLayerTableRecord
  2
TRASH
 70
0
 62
7
  6
CONTINUOUS
370
-3
390
F
  0
LAYER
  5
20D
100
AcDbSymbolTableRecord
100
AcDbLayerTableRecord
  2
XSEC_DATUMS
 70
0
 62
7
  6
CONTINUOUS
370
-3
390
F
  0
ENDTAB
  0
TABLE
  2
STYLE
  5
3
100
AcDbSymbolTable
 70
1
  0
STYLE
  5
11
100
AcDbSymbolTableRecord
100
AcDbTextStyleTableRecord
  2
STANDARD
 70
0
 40
0.0
 41
0.8
 50
0.0
 71
0
 42
0.2
  3
txt
  4

  0
STYLE
  5
20E
100
AcDbSymbolTableRecord
100
AcDbTextStyleTableRecord
  2
TEXTSTYLE_1
 70
0
 40
0.0
 41
0.8
 50
0.0
 71
0
 42
0.2
  3
gdt
  4

  0
ENDTAB
  0
TABLE
  2
VIEW
  5
6
100
AcDbSymbolTable
 70
0
  0
ENDTAB
  0
TABLE
  2
UCS
  5
7
100
AcDbSymbolTable
 70
0
  0
ENDTAB
  0
TABLE
  2
APPID
  5
9
100
AcDbSymbolTable
 70
1
  0
APPID
  5
20F
100
AcDbSymbolTableRecord
100
AcDbRegAppTableRecord
  2
ACAD
 70
0
  0
ENDTAB
  0
TABLE
  2
BLOCK_RECORD
  5
1
100
AcDbSymbolTable
 70
0
  0
BLOCK_RECORD
  5
210
100
AcDbSymbolTableRecord
100
AcDbBlockTableRecord
  2
*Model_Space
  0
BLOCK_RECORD
  5
211
100
AcDbSymbolTableRecord
100
AcDbBlockTableRecord
  2
*Paper_Space
  0
ENDTAB
  0
TABLE
  2
DIMSTYLE
  5
A
100
AcDbSymbolTable
 70
1
100
AcDbDimStyleTable
 71
0
  0
DIMSTYLE
105
212
100
AcDbSymbolTableRecord
100
AcDbDimStyleTableRecord
  2
STANDARD
 70
0
  3

  4

 40
1.0
 41
3.0
 42
0.5
 43
0.38
 44
1.5
 45
0.0
 46
0.0
 47
0.01
 48
0.01
140
3.0
141
0.09
142
0.0
143
25.4
144
1.0
145
0.0
146
1.0
147
0.625
 71
1.0
 72
0.0
 73
0
 74
0
 75
0
 76
0
 77
1
 78
8
170
0
171
2
172
0
173
0
174
0
175
0
176
0
177
0
178
0
270
2
271
2
272
2
273
2
274
2
275
0
280
0
281
0
282
0
283
1
284
8
285
0
286
0
287
3
288
0
340
11
278
44
  0
ENDTAB
  0
ENDSEC
  0
SECTION
  2
BLOCKS
  0
BLOCK
  5
20
100
AcDbEntity
  8
0
100
AcDbBlockBegin
  2
*Model_Space
 70
0
 10
0.0
 20
0.0
 30
0.0
  3
*Model_Space
  1

  0
ENDBLK
  5
21
100
AcDbEntity
  8
0
100
AcDbBlockEnd
  0
BLOCK
  5
1C
100
AcDbEntity
  8
0
100
AcDbBlockBegin
  2
*Paper_Space
 70
0
 10
0.0
 20
0.0
 30
0.0
  3
*Paper_Space
  1

  0
ENDBLK
  5
1D
100
AcDbEntity
  8
0
100
AcDbBlockEnd
  0
ENDSEC
  0
SECTION
  2
ENTITIES
  0
LINE
  5
213
100
AcDbEntity
  8
0
100
AcDbLine
 62
7
  6
CONTINUOUS
 10
-52.2201637534
 20
107.4980908465
 11
-35.3968800247
 21
117.2116440262
  0
LINE
  5
214
100
AcDbEntity
  8
ASSI
100
AcDbLine
 62
253
  6
CONTINUOUS
 10
-47.1752762366
 20
106.0137104789
 11
-28.8965659429
 21
116.5676087164
  0
LINE
  5
215
100
AcDbEntity
  8
ASSI
100
AcDbLine
 62
253
  6
CONTINUOUS
 10
-52.5846431126
 20
101.2583372948
 11
-47.1756521074
 21
104.3814209107
  0
LWPOLYLINE
  5
216
100
AcDbEntity
  8
ASSI
100
AcDbPolyline
 62
7
  6
CONTINUOUS
 90
26
 70
0
 10
-52.2202097051
 20
107.4980643146
 10
-52.198812998
 20
107.510251418
 10
-52.05351694
 20
107.5845636415
 10
-51.9024234138
 20
107.6474356934
 10
-51.7457893576
 20
107.6986675742
 10
-51.5835482665
 20
107.7383358685
 10
-51.4159132105
 20
107.7663496922
 10
-51.2431091547
 20
107.7826254979
 10
-51.0651377227
 20
107.7873530738
 10
-50.8823118097
 20
107.7805285838
 10
-50.6948281081
 20
107.762145483
 10
-50.5025391733
 20
107.7324512715
 10
-50.3056783922
 20
107.6914730013
 10
-50.1045379535
 20
107.6392348596
 10
-49.89906579
 20
107.5760063524
 10
-49.689483484
 20
107.5018507273
 10
-49.4761129528
 20
107.4168375096
 10
-49.2590629869
 20
107.3212919292
 10
-49.0386730035
 20
107.2153841484
 10
-48.8151646034
 20
107.099196328
 10
-48.5884721184
 20
106.972943671
 10
-48.3587896427
 20
106.8367329508
 10
-48.1264737722
 20
106.6907251609
 10
-47.8917004385
 20
106.5352269166
 10
-47.6547114878
 20
106.3704622814
 10
-47.4158130743
 20
106.1965606267
  0
LWPOLYLINE
  5
217
100
AcDbEntity
  8
ASSI
100
AcDbPolyline
 62
7
  6
CONTINUOUS
 90
27
 70
0
 10
-51.2201616759
 20
105.7660412376
 10
-51.2034937717
 20
105.7755236952
 10
-51.0901466785
 20
105.8328628175
 10
-50.9720239647
 20
105.880446775
 10
-50.8493371364
 20
105.9181097457
 10
-50.721946966
 20
105.9459644288
 10
-50.5900331414
 20
105.96393427
 10
-50.4537866197
 20
105.9719482275
 10
-50.3131276269
 20
105.9702137453
 10
-50.1683151762
 20
105.9587308941
 10
-50.0195214439
 20
105.9374908192
 10
-49.8665577546
 20
105.9067398473
 10
-49.7096196945
 20
105.8665019627
 10
-49.548956395
 20
105.8167965373
 10
-49.3844655689
 20
105.7578852363
 10
-49.2163328186
 20
105.6898226683
 10
-49.0448324259
 20
105.6126665709
 10
-48.8700038847
 20
105.5267224861
 10
-48.6921279353
 20
105.4321381265
 10
-48.5113985447
 20
105.3289792835
 10
-48.3277269644
 20
105.2174472117
 10
-48.1412762484
 20
105.0976329389
 10
-47.9523493112
 20
104.9696720092
 10
-47.7610653723
 20
104.8338409833
 10
-47.5676191892
 20
104.6903351591
 10
-47.3722796971
 20
104.539258299
 10
-47.1752762366
 20
104.3807699253
  0
LWPOLYLINE
  5
218
100
AcDbEntity
  8
0
100
AcDbPolyline
 62
253
  6
CONTINUOUS
 90
18
 70
0
 10
-28.8965659429
 20
116.5676087164
 10
-28.7956294569
 20
116.6231138267
 10
-28.6949216245
 20
116.6729444968
 10
-28.5946705813
 20
116.7169878441
 10
-28.4951034282
 20
116.7551440963
 10
-28.3964457168
 20
116.7873268171
 10
-28.2989209386
 20
116.8134631025
 10
-28.2027500186
 20
116.8334937453
 10
-28.1081508148
 20
116.8473733696
 10
-28.0153376248
 20
116.8550705336
 10
-27.9245207004
 20
116.8565678008
 10
-27.8359057711
 20
116.8518617794
 10
-27.7496935783
 20
116.8409631301
 10
-27.6660794202
 20
116.8238965417
 10
-27.5852527099
 20
116.8007006757
 10
-27.5073965458
 20
116.771428078
 10
-27.4326872972
 20
116.7361450606
 10
-27.3964934625
 20
116.7162322494
  0
LWPOLYLINE
  5
219
100
AcDbEntity
  8
0
100
AcDbPolyline
 62
7
  6
CONTINUOUS
 90
28
 70
0
 10
-35.3968800247
 20
117.2116440262
 10
-35.1627826271
 20
117.340304804
 10
-34.922490638
 20
117.4594522152
 10
-34.6762727649
 20
117.5688264879
 10
-34.4246361702
 20
117.6681014969
 10
-34.1676563389
 20
117.7571551549
 10
-33.9049269655
 20
117.8359790887
 10
-33.6366804152
 20
117.904311796
 10
-33.3632312545
 20
117.961889261
 10
-33.084225693
 20
118.0085709836
 10
-32.7998373712
 20
118.0440735677
 10
-32.5104115222
 20
118.0681054924
 10
-32.2157863907
 20
118.0804161668
 10
-31.9160534315
 20
118.0807064024
 10
-31.6116097665
 20
118.0686833172
 10
-31.3026947969
 20
118.0440749936
 10
-30.9893672615
 20
118.0065947827
 10
-30.6720260976
 20
117.9559981126
 10
-30.351372723
 20
117.8921411623
 10
-30.0274022323
 20
117.8147790762
 10
-29.7005451326
 20
117.7237656078
 10
-29.3721187023
 20
117.6192911486
 10
-29.0421361238
 20
117.5012306239
 10
-28.7109801306
 20
117.3695824661
 10
-28.3804947169
 20
117.2250405569
 10
-28.0514089349
 20
117.0680044132
 10
-27.7233504594
 20
116.8983643811
 10
-27.3964934625
 20
116.7162322494
  0
LWPOLYLINE
  5
21A
100
AcDbEntity
  8
0
100
AcDbPolyline
 62
253
  6
CONTINUOUS
 90
25
 70
0
 10
-35.3968800247
 20
117.2116440262
 10
-35.1804117231
 20
117.3285690955
 10
-34.9575286039
 20
117.4331321212
 10
-34.7281552541
 20
117.5254024641
 10
-34.4925372924
 20
117.6052813188
 10
-34.2509270244
 20
117.6726831489
 10
-34.0035831724
 20
117.727535779
 10
-33.7507705985
 20
117.7697804714
 10
-33.4927600206
 20
117.7993719895
 10
-33.229827723
 20
117.816278646
 10
-32.9622552601
 20
117.8204823367
 10
-32.6903291553
 20
117.8119785602
 10
-32.4143405938
 20
117.7907764227
 10
-32.1345851112
 20
117.7568986279
 10
-31.8513622764
 20
117.7103814529
 10
-31.5649753718
 20
117.6512747096
 10
-31.2757310675
 20
117.5796416909
 10
-30.9839390936
 20
117.4955591032
 10
-30.6899119082
 20
117.3991169843
 10
-30.3939643631
 20
117.2904186069
 10
-30.0964133662
 20
117.1695803678
 10
-29.7975775427
 20
117.0367316637
 10
-29.4977768934
 20
116.8920147523
 10
-29.1973324523
 20
116.7355846001
 10
-28.8965659429
 20
116.5676087164
  0
LWPOLYLINE
  5
21B
100
AcDbEntity
  8
0
100
AcDbPolyline
 62
7
  6
CONTINUOUS
 90
21
 70
0
 10
43.8394872499
 20
-117.8487064892
 10
43.8905103925
 20
-117.8769937811
 10
43.9951029334
 20
-117.92803538
 10
44.1035126032
 20
-117.9718979786
 10
44.2157209378
 20
-118.0086163033
 10
44.3311834025
 20
-118.0380121644
 10
44.449915815
 20
-118.060049969
 10
44.5719023578
 20
-118.07476531
 10
44.6965510437
 20
-118.0820867753
 10
44.8238748129
 20
-118.0819784253
 10
44.9538607254
 20
-118.0744761996
 10
45.085877974
 20
-118.0596165058
 10
45.2199364327
 20
-118.037363581
 10
45.3560262275
 20
-118.0077531881
 10
45.49348693
 20
-117.9709290229
 10
45.6323252039
 20
-117.9268560211
 10
45.7725343855
 20
-117.8755692471
 10
45.9134340554
 20
-117.8173175898
 10
46.0547974071
 20
-117.7521840122
 10
46.1968512471
 20
-117.6800855513
 10
46.3395955754
 20
-117.6010222071
  0
LWPOLYLINE
  5
21C
100
AcDbEntity
  8
0
100
AcDbPolyline
 62
7
  6
CONTINUOUS
 90
21
 70
0
 10
-45.9630739608
 20
-65.9978331365
 10
-45.9120508182
 20
-66.0261204285
 10
-45.8074582773
 20
-66.0771620274
 10
-45.6990486075
 20
-66.1210246259
 10
-45.5868402729
 20
-66.1577429507
 10
-45.4713778082
 20
-66.1871388117
 10
-45.3526453957
 20
-66.2091766164
 10
-45.2306588529
 20
-66.2238919574
 10
-45.106010167
 20
-66.2312134227
 10
-44.9786863978
 20
-66.2311050726
 10
-44.8487004853
 20
-66.223602847
 10
-44.7166832367
 20
-66.2087431532
 10
-44.582624778
 20
-66.1864902284
 10
-44.4465349832
 20
-66.1568798354
 10
-44.3090742806
 20
-66.1200556702
 10
-44.1702360068
 20
-66.0759826685
 10
-44.0300268252
 20
-66.0246958945
 10
-43.8891271553
 20
-65.9664442372
 10
-43.7477638036
 20
-65.9013106596
 10
-43.6057099636
 20
-65.8292121987
 10
-43.4629656353
 20
-65.7501488545
  0
LINE
  5
21D
100
AcDbEntity
  8
0
100
AcDbLine
 62
7
  6
CONTINUOUS
 10
-45.963086436
 20
-65.9978547429
 11
-47.3772999984
 21
-65.1813055563
  0
LINE
  5
21E
100
AcDbEntity
  8
0
100
AcDbLine
 62
7
  6
CONTINUOUS
 10
42.4252612123
 20
-117.0321789089
 11
43.8394747747
 21
-117.8487280955
  0
LINE
  5
21F
100
AcDbEntity
  8
0
100
AcDbLine
 62
253
  6
CONTINUOUS
 10
-46.9984995413
 20
-63.7091704372
 11
-48.4127131036
 21
-62.8926212505
  0
LINE
  5
220
100
AcDbEntity
  8
0
100
AcDbLine
 62
253
  6
CONTINUOUS
 10
41.389848107
 20
-114.7434946032
 11
42.8040616694
 21
-115.5600437898
  0
LWPOLYLINE
  5
221
100
AcDbEntity
  8
0
100
AcDbPolyline
 62
7
  6
CONTINUOUS
 90
21
 70
0
 10
-47.3772875232
 20
-65.1812839499
 10
-47.4270582567
 20
-65.1513853691
 10
-47.5235643268
 20
-65.0863375921
 10
-47.615761749
 20
-65.0143945567
 10
-47.703671365
 20
-64.9355896171
 10
-47.7868665596
 20
-64.8503052047
 10
-47.865324417
 20
-64.7585098244
 10
-47.9390678529
 20
-64.6602349714
 10
-48.0077389986
 20
-64.5559575624
 10
-48.0713131991
 20
-64.4456484205
 10
-48.1298151094
 20
-64.3293367226
 10
-48.1829608263
 20
-64.2075869165
 10
-48.2307243148
 20
-64.0803725687
 10
-48.27313161
 20
-63.9477201125
 10
-48.3099769139
 20
-63.8102732955
 10
-48.3412331912
 20
-63.6680088134
 10
-48.3669274774
 20
-63.5209499705
 10
-48.3869350808
 20
-63.3698104267
 10
-48.4012144378
 20
-63.2148280688
 10
-48.409807112
 20
-63.0557650101
 10
-48.4127131036
 20
-62.8926212505
  0
LWPOLYLINE
  5
222
100
AcDbEntity
  8
0
100
AcDbPolyline
 62
7
  6
CONTINUOUS
 90
21
 70
0
 10
42.4252736875
 20
-117.0321573025
 10
42.375502954
 20
-117.0022587217
 10
42.2789968839
 20
-116.9372109447
 10
42.1867994617
 20
-116.8652679094
 10
42.0988898456
 20
-116.7864629697
 10
42.0156946511
 20
-116.7011785573
 10
41.9372367937
 20
-116.6093831771
 10
41.8634933578
 20
-116.511108324
 10
41.7948222121
 20
-116.406830915
 10
41.7312480116
 20
-116.2965217731
 10
41.6727461013
 20
-116.1802100753
 10
41.6196003844
 20
-116.0584602691
 10
41.5718368959
 20
-115.9312459213
 10
41.5294296007
 20
-115.7985934651
 10
41.4925842968
 20
-115.6611466481
 10
41.4613280195
 20
-115.518882166
 10
41.4356337333
 20
-115.3718233231
 10
41.4156261299
 20
-115.2206837793
 10
41.4013467729
 20
-115.0657014214
 10
41.3927540987
 20
-114.9066383627
 10
41.389848107
 20
-114.7434946032
  0
LINE
  5
223
100
AcDbEntity
  8
0
100
AcDbLine
 62
7
  6
CONTINUOUS
 10
-37.3889183849
 20
-63.0596192845
 11
41.389848107
 21
-108.5454917271
  0
LWPOLYLINE
  5
224
100
AcDbEntity
  8
ASSI
100
AcDbPolyline
 62
7
  6
CONTINUOUS
 90
16
 70
0
 10
-12.5063264066
 20
67.5464349311
 10
-12.5165083628
 20
67.5403872263
 10
-12.5561763328
 20
67.51353553
 10
-12.5933074752
 20
67.4829392274
 10
-12.6278787239
 20
67.448564271
 10
-12.6599131451
 20
67.4104447084
 10
-12.689120347
 20
67.3689260931
 10
-12.7154746231
 20
67.3239775192
 10
-12.73900168
 20
67.2756298927
 10
-12.759488245
 20
67.2243214841
 10
-12.7769066726
 20
67.1700253728
 10
-12.7912846084
 20
67.1127684795
 10
-12.8024917164
 20
67.0530698374
 10
-12.8104845515
 20
66.9911024575
 10
-12.815306559
 20
66.9266933288
 10
-12.8169577387
 20
66.8598424513
  0
LWPOLYLINE
  5
225
100
AcDbEntity
  8
ASSI
100
AcDbPolyline
 62
7
  6
CONTINUOUS
 90
16
 70
0
 10
-11.0062687273
 20
64.9484261915
 10
-10.996086771
 20
64.9544738963
 10
-10.956418801
 20
64.9813255926
 10
-10.9192876587
 20
65.0119218952
 10
-10.8847164099
 20
65.0462968516
 10
-10.8526819888
 20
65.0844164142
 10
-10.8234747869
 20
65.1259350295
 10
-10.7971205107
 20
65.1708836034
 10
-10.7735934539
 20
65.2192312299
 10
-10.7531068889
 20
65.2705396385
 10
-10.7356884613
 20
65.3248357498
 10
-10.7213105255
 20
65.3820926431
 10
-10.7101034174
 20
65.4417912853
 10
-10.7021105823
 20
65.5037586651
 10
-10.6972885749
 20
65.5681677938
 10
-10.6956373952
 20
65.6350186713
  0
LINE
  5
226
100
AcDbEntity
  8
0
100
AcDbLine
 62
253
  6
CONTINUOUS
 10
-21.4790158082
 20
64.9212877767
 11
-22.1861225894
 21
64.5130131834
  0
LINE
  5
227
100
AcDbEntity
  8
0
100
AcDbLine
 62
253
  6
CONTINUOUS
 10
-21.125564918
 20
64.7171307526
 11
-21.4719447404
 21
64.5171353842
  0
LINE
  5
228
100
AcDbEntity
  8
ASSI
100
AcDbLine
 62
253
  6
CONTINUOUS
 10
-12.1098509575
 20
67.2681170446
 11
-12.8169577387
 21
66.8598424513
  0
LINE
  5
229
100
AcDbEntity
  8
ASSI
100
AcDbLine
 62
253
  6
CONTINUOUS
 10
-11.5623835537
 20
67.3392531062
 11
-11.8906478554
 21
67.1497174126
  0
LWPOLYLINE
  5
22A
100
AcDbEntity
  8
0
100
AcDbPolyline
 62
7
  6
CONTINUOUS
 90
15
 70
0
 10
-21.9790291214
 20
64.9707312582
 10
-21.9642197637
 20
64.9787949228
 10
-21.9335352859
 20
64.9926249585
 10
-21.9013007839
 20
65.0034270814
 10
-21.8675317992
 20
65.0112316512
 10
-21.8325691988
 20
65.0159598878
 10
-21.7964008937
 20
65.0175806338
 10
-21.7590389729
 20
65.0161250466
 10
-21.7208605709
 20
65.0116078192
 10
-21.6818574183
 20
65.0039979426
 10
-21.6420377844
 20
64.9933264258
 10
-21.6018036122
 20
64.9797009878
 10
-21.5612888826
 20
64.9631575352
 10
-21.5203596146
 20
64.9436601616
 10
-21.4790158082
 20
64.9212088668
  0
LWPOLYLINE
  5
22B
100
AcDbEntity
  8
0
100
AcDbPolyline
 62
7
  6
CONTINUOUS
 90
14
 70
0
 10
-13.9180187818
 20
60.3164129617
 10
-13.8957500596
 20
60.32818172
 10
-13.8626650936
 20
60.3419552756
 10
-13.8277595446
 20
60.352383872
 10
-13.7914309448
 20
60.35934874
 10
-13.7536630256
 20
60.3628102816
 10
-13.7144720555
 20
60.3628080948
 10
-13.6743043726
 20
60.3593422046
 10
-13.6331488108
 20
60.3523730131
 10
-13.591016536
 20
60.3419401182
 10
-13.5483873843
 20
60.3281623379
 10
-13.5054213008
 20
60.3110792783
 10
-13.4619583403
 20
60.2906513333
 10
-13.4179985027
 20
60.2668785029
  0
LWPOLYLINE
  5
22C
100
AcDbEntity
  8
ASSI
100
AcDbPolyline
 62
7
  6
CONTINUOUS
 90
3
 70
0
 10
24.9569864472
 20
-62.8203986741
 10
25.0028005296
 20
-62.825819347
 10
25.0114257203
 20
-62.8261553768
  0
LINE
  5
22D
100
AcDbEntity
  8
ASSI
100
AcDbLine
 62
7
  6
CONTINUOUS
 10
-53.998856675
 20
53.0635676663
 11
-53.998856675
 21
102.0748864815
  0
LINE
  5
22E
100
AcDbEntity
  8
ASSI
100
AcDbLine
 62
7
  6
CONTINUOUS
 10
-52.5846431126
 20
52.2470184796
 11
-52.5846431126
 21
101.2583372948
  0
LWPOLYLINE
  5
22F
100
AcDbEntity
  8
ASSI
100
AcDbPolyline
 62
7
  6
CONTINUOUS
 90
27
 70
0
 10
-52.5846431126
 20
101.2583372948
 10
-52.5827569127
 20
101.5216153868
 10
-52.5770434327
 20
101.7792971111
 10
-52.5674860634
 20
102.0311371502
 10
-52.554099335
 20
102.2768726827
 10
-52.5368541438
 20
102.516282877
 10
-52.5156762854
 20
102.7491880194
 10
-52.490601071
 20
102.9752520638
 10
-52.4616184676
 20
103.1943462074
 10
-52.4285684743
 20
103.4065834581
 10
-52.3914485694
 20
103.6118048306
 10
-52.3502618326
 20
103.8096663182
 10
-52.3048455257
 20
103.9999893031
 10
-52.2552680617
 20
104.1824455784
 10
-52.2015248605
 20
104.3568977755
 10
-52.1433369898
 20
104.523439626
 10
-52.0807050132
 20
104.6819138404
 10
-52.0136782688
 20
104.8319685884
 10
-51.9420590066
 20
104.9734088346
 10
-51.8659721931
 20
105.105944446
 10
-51.7854400339
 20
105.229442152
 10
-51.7001315931
 20
105.3439602611
 10
-51.6100820248
 20
105.4493440793
 10
-51.5154191276
 20
105.5453153057
 10
-51.4159820009
 20
105.6317856172
 10
-51.3119858833
 20
105.7085474439
 10
-51.2201616759
 20
105.7660412376
  0
LWPOLYLINE
  5
230
100
AcDbEntity
  8
ASSI
100
AcDbPolyline
 62
7
  6
CONTINUOUS
 90
27
 70
0
 10
-53.998856675
 20
102.0748864815
 10
-53.9963494447
 20
102.3861938803
 10
-53.9887703113
 20
102.6912042335
 10
-53.9760996456
 20
102.9896276207
 10
-53.958350177
 20
103.2811559999
 10
-53.935491953
 20
103.565525823
 10
-53.9074506056
 20
103.8425170056
 10
-53.8742661883
 20
104.1117333712
 10
-53.8359285219
 20
104.3730217294
 10
-53.7922668772
 20
104.6265050327
 10
-53.7432725625
 20
104.8719986867
 10
-53.688954929
 20
105.1090928409
 10
-53.6291571469
 20
105.3375559054
 10
-53.5639594534
 20
105.5570003543
 10
-53.4933570503
 20
105.7672634881
 10
-53.4170576301
 20
105.9684345209
 10
-53.3350528232
 20
106.1603327821
 10
-53.2474099741
 20
106.3425372553
 10
-53.1539598255
 20
106.5147802329
 10
-53.0548504872
 20
106.6767185869
 10
-52.9501077802
 20
106.8281950591
 10
-52.8394037792
 20
106.9692420799
 10
-52.7227701195
 20
107.0996825513
 10
-52.6003677465
 20
107.21918185
 10
-52.4720994176
 20
107.3275819474
 10
-52.3382247738
 20
107.4246344918
 10
-52.2202097051
 20
107.4980643146
  0
LINE
  5
231
100
AcDbEntity
  8
0
100
AcDbLine
 62
7
  6
CONTINUOUS
 10
-21.3966999477
 20
64.8401629064
 11
-21.3837875307
 21
64.8603761673
  0
LWPOLYLINE
  5
232
100
AcDbEntity
  8
0
100
AcDbPolyline
 62
7
  6
CONTINUOUS
 90
4
 70
0
 10
-13.9836839277
 20
60.2669100668
 10
-13.9561932213
 20
60.2906789104
 10
-13.926881932
 20
60.3111027948
 10
-13.9180187818
 20
60.3164129617
  0
LWPOLYLINE
  5
233
100
AcDbEntity
  8
0
100
AcDbPolyline
 62
7
  6
CONTINUOUS
 90
4
 70
0
 10
-14.1150068929
 20
60.1678915937
 10
-14.0771198998
 20
60.1915068052
 10
-14.0290944139
 20
60.2269060349
 10
-13.9836839277
 20
60.2669100668
  0
LWPOLYLINE
  5
234
100
AcDbEntity
  8
0
100
AcDbPolyline
 62
7
  6
CONTINUOUS
 90
45
 70
0
 10
-20.865761764
 20
48.8345380739
 10
-20.8546129603
 20
48.8410872865
 10
-20.7959967041
 20
48.8795569907
 10
-20.7405080631
 20
48.9230493451
 10
-20.6881251373
 20
48.97152923
 10
-20.6392161115
 20
49.0246552194
 10
-20.5938054705
 20
49.0824600244
 10
-20.5518687295
 20
49.1449109338
 10
-20.5137006188
 20
49.2115683886
 10
-20.4793276919
 20
49.2824620031
 10
-20.4487233952
 20
49.3575621628
 10
-20.4221027979
 20
49.4363404651
 10
-20.3994939632
 20
49.5188228048
 10
-20.3808688279
 20
49.6049832871
 10
-20.3663582718
 20
49.6942158239
 10
-20.3559912765
 20
49.7865420461
 10
-20.3497388604
 20
49.8819403229
 10
-20.3476449583
 20
49.9797396736
 10
-20.3497388604
 20
50.0799570099
 10
-20.3559912765
 20
50.1825754201
 10
-20.3663582718
 20
50.2868731887
 10
-20.3808688279
 20
50.392862152
 10
-20.3994939632
 20
50.5005304736
 10
-20.4221027979
 20
50.609120929
 10
-20.4487233952
 20
50.7186400297
 10
-20.4793276919
 20
50.8290812641
 10
-20.5137006188
 20
50.939667873
 10
-20.5518687295
 20
51.0504009053
 10
-20.5938054705
 20
51.1612793121
 10
-20.6392161115
 20
51.2715231871
 10
-20.6881251373
 20
51.3811280935
 10
-20.7405080631
 20
51.490098468
 10
-20.7959967041
 20
51.5976677142
 10
-20.8546129603
 20
51.7038260018
 10
-20.9163349318
 20
51.8085831611
 10
-20.9807287341
 20
51.9112020858
 10
-21.0478132202
 20
52.0116677578
 10
-21.1175695371
 20
52.1099951953
 10
-21.1895072417
 20
52.205492347
 10
-21.2636417417
 20
52.2981393211
 10
-21.3399576293
 20
52.3879560093
 10
-21.4179182379
 20
52.4743100366
 10
-21.4973446786
 20
52.5569906111
 10
-21.5784158402
 20
52.6362085245
 10
-21.6611317228
 20
52.7119637769
  0
LWPOLYLINE
  5
235
100
AcDbEntity
  8
0
100
AcDbPolyline
 62
7
  6
CONTINUOUS
 90
45
 70
0
 10
-20.1586549828
 20
49.2428126672
 10
-20.1475061791
 20
49.2493618798
 10
-20.0888899229
 20
49.2878315841
 10
-20.0334012819
 20
49.3313239384
 10
-19.9810183561
 20
49.3798038233
 10
-19.9321093303
 20
49.4329298127
 10
-19.8866986893
 20
49.4907346177
 10
-19.8447619483
 20
49.5531855272
 10
-19.8065938376
 20
49.6198429819
 10
-19.7722209107
 20
49.6907365964
 10
-19.741616614
 20
49.7658367562
 10
-19.7149960168
 20
49.8446150584
 10
-19.692387182
 20
49.9270973982
 10
-19.6737620467
 20
50.0132578804
 10
-19.6592514906
 20
50.1024904172
 10
-19.6488844953
 20
50.1948166394
 10
-19.6426320792
 20
50.2902149162
 10
-19.6405381772
 20
50.388014267
 10
-19.6426320792
 20
50.4882316032
 10
-19.6488844953
 20
50.5908500135
 10
-19.6592514906
 20
50.695147782
 10
-19.6737620467
 20
50.8011367453
 10
-19.692387182
 20
50.9088050669
 10
-19.7149960168
 20
51.0173955223
 10
-19.741616614
 20
51.126914623
 10
-19.7722209107
 20
51.2373558574
 10
-19.8065938376
 20
51.3479424663
 10
-19.8447619483
 20
51.4586754987
 10
-19.8866986893
 20
51.5695539055
 10
-19.9321093303
 20
51.6797977804
 10
-19.9810183561
 20
51.7894026868
 10
-20.0334012819
 20
51.8983730614
 10
-20.0888899229
 20
52.0059423075
 10
-20.1475061791
 20
52.1121005952
 10
-20.2092281506
 20
52.2168577544
 10
-20.2736219529
 20
52.3194766792
 10
-20.340706439
 20
52.4199423511
 10
-20.4104627559
 20
52.5182697886
 10
-20.4824004605
 20
52.6137669404
 10
-20.5565349605
 20
52.7064139144
 10
-20.6328508481
 20
52.7962306027
 10
-20.7108114567
 20
52.8825846299
 10
-20.7902378974
 20
52.9652652044
 10
-20.871309059
 20
53.0444831178
 10
-20.9540249416
 20
53.1202383703
  0
LINE
  5
236
100
AcDbEntity
  8
0
100
AcDbLine
 62
253
  6
CONTINUOUS
 10
-13.9836839277
 20
60.2669100668
 11
-13.844107825
 21
60.3474995592
  0
LINE
  5
237
100
AcDbEntity
  8
ASSI
100
AcDbLine
 62
7
  6
CONTINUOUS
 10
-13.7819001106
 20
60.3602222692
 11
-14.1150064573
 21
60.1678908394
  0
LINE
  5
238
100
AcDbEntity
  8
0
100
AcDbLine
 62
253
  6
CONTINUOUS
 10
-22.1861225894
 20
53.8040133801
 11
-21.4790158082
 21
54.2122879734
  0
LINE
  5
239
100
AcDbEntity
  8
0
100
AcDbLine
 62
253
  6
CONTINUOUS
 10
-21.6611317228
 20
52.7119637769
 11
-20.9540249416
 21
53.1202383703
  0
LINE
  5
23A
100
AcDbEntity
  8
0
100
AcDbLine
 62
253
  6
CONTINUOUS
 10
-22.1861225894
 20
48.2784938525
 11
-21.4790158082
 21
48.6867684458
  0
LINE
  5
23B
100
AcDbEntity
  8
ASSI
100
AcDbLine
 62
7
  6
CONTINUOUS
 10
-20.1586429656
 20
49.2427918509
 11
-20.8657497468
 21
48.8345172576
  0
LWPOLYLINE
  5
23C
100
AcDbEntity
  8
0
100
AcDbPolyline
 62
7
  6
CONTINUOUS
 90
10
 70
0
 10
-21.979034273
 20
48.7362208433
 10
-21.966009158
 20
48.7433466741
 10
-21.933006741
 20
48.7582879064
 10
-21.8983764212
 20
48.7697373277
 10
-21.8620992406
 20
48.7776542736
 10
-21.8241941571
 20
48.7820794085
 10
-21.7851008915
 20
48.7829613982
 10
-21.7449660174
 20
48.7802831314
 10
-21.7036429611
 20
48.7740617194
 10
-21.6611317228
 20
48.7642971622
  0
LWPOLYLINE
  5
23D
100
AcDbEntity
  8
0
100
AcDbPolyline
 62
7
  6
CONTINUOUS
 90
13
 70
0
 10
-4.353141094
 20
56.0782739804
 10
-4.3278216867
 20
56.0910177029
 10
-4.3009191728
 20
56.1009775582
 10
-4.2727585833
 20
56.1080369661
 10
-4.2433238023
 20
56.1121587726
 10
-4.2126309457
 20
56.1133801318
 10
-4.1810715114
 20
56.1116854648
 10
-4.1486343989
 20
56.1070374179
 10
-4.1153307087
 20
56.0994733448
 10
-4.0815852411
 20
56.089089728
 10
-4.0475395961
 20
56.0759187282
 10
-4.0130521737
 20
56.0599281845
 10
-3.9781229739
 20
56.0411180972
  0
LWPOLYLINE
  5
23E
100
AcDbEntity
  8
0
100
AcDbPolyline
 62
7
  6
CONTINUOUS
 90
21
 70
0
 10
-46.9984995413
 20
-63.7091704372
 10
-46.9955935497
 20
-63.8723141967
 10
-46.9870008754
 20
-64.0313772554
 10
-46.9727215184
 20
-64.1863596133
 10
-46.952713915
 20
-64.3374991571
 10
-46.9270196288
 20
-64.4845580001
 10
-46.8957633515
 20
-64.6268224821
 10
-46.8589180476
 20
-64.7642692992
 10
-46.8165107524
 20
-64.8969217553
 10
-46.7687472639
 20
-65.0241361031
 10
-46.715601547
 20
-65.1458859093
 10
-46.6570996367
 20
-65.2621976071
 10
-46.5935254362
 20
-65.372506749
 10
-46.5248542905
 20
-65.476784158
 10
-46.4511108546
 20
-65.5750590111
 10
-46.3726529972
 20
-65.6668543914
 10
-46.2894578027
 20
-65.7521388038
 10
-46.2015481866
 20
-65.8309437434
 10
-46.1093507645
 20
-65.9028867787
 10
-46.0128446943
 20
-65.9679345557
 10
-45.9630739608
 20
-65.9978331365
  0
LINE
  5
23F
100
AcDbEntity
  8
0
100
AcDbLine
 62
7
  6
CONTINUOUS
 10
-48.4127131036
 20
-62.8926212505
 11
-48.4127131036
 21
34.5818752917
  0
LINE
  5
240
100
AcDbEntity
  8
ASSI
100
AcDbLine
 62
253
  6
CONTINUOUS
 10
-47.1752762366
 20
106.0137104789
 11
-47.1752762366
 21
104.3807699253
  0
LINE
  5
241
100
AcDbEntity
  8
0
100
AcDbLine
 62
7
  6
CONTINUOUS
 10
-46.9984995413
 20
-63.7091704372
 11
-46.9984995413
 21
33.7653261051
  0
LWPOLYLINE
  5
242
100
AcDbEntity
  8
0
100
AcDbPolyline
 62
7
  6
CONTINUOUS
 90
13
 70
0
 10
-4.6637650256
 20
55.3916686887
 10
-4.6401035965
 20
55.4072004212
 10
-4.618025274
 20
55.425516021
 10
-4.5978297948
 20
55.4463714047
 10
-4.5795412778
 20
55.4697991067
 10
-4.5631356041
 20
55.4957665926
 10
-4.5488220338
 20
55.5239426383
 10
-4.5366273665
 20
55.5543555348
 10
-4.5265248025
 20
55.5869769911
 10
-4.5186432037
 20
55.621390909
 10
-4.5130255239
 20
55.6574585892
 10
-4.5096288093
 20
55.6953187311
 10
-4.5072773103
 20
55.774623938
  0
LWPOLYLINE
  5
243
100
AcDbEntity
  8
0
100
AcDbPolyline
 62
7
  6
CONTINUOUS
 90
13
 70
0
 10
-3.9495871766
 20
55.3957908896
 10
-3.9259257475
 20
55.4113226221
 10
-3.903847425
 20
55.4296382218
 10
-3.8836519458
 20
55.4504936056
 10
-3.8653634288
 20
55.4739213075
 10
-3.8489577551
 20
55.4998887935
 10
-3.8346441848
 20
55.5280648391
 10
-3.8224495175
 20
55.5584777357
 10
-3.8123469535
 20
55.591099192
 10
-3.8044653547
 20
55.6255131099
 10
-3.7988476749
 20
55.6615807901
 10
-3.7954509603
 20
55.6994409319
 10
-3.7930994613
 20
55.7787461389
  0
LINE
  5
244
100
AcDbEntity
  8
0
100
AcDbLine
 62
253
  6
CONTINUOUS
 10
-4.5084530598
 20
55.7349713346
 11
-3.9781486014
 21
56.0411624825
  0
LINE
  5
245
100
AcDbEntity
  8
0
100
AcDbLine
 62
7
  6
CONTINUOUS
 10
-4.6637650256
 20
55.3916686887
 11
-3.9566582444
 21
55.799943282
  0
LINE
  5
246
100
AcDbEntity
  8
0
100
AcDbLine
 62
253
  6
CONTINUOUS
 10
-3.7942752108
 20
55.7390935354
 11
-3.6246550002
 21
55.8370301192
  0
LINE
  5
247
100
AcDbEntity
  8
0
100
AcDbLine
 62
7
  6
CONTINUOUS
 10
-3.9495871766
 20
55.3957908896
 11
-3.4050213246
 21
55.7102163875
  0
LINE
  5
248
100
AcDbEntity
  8
ASSI
100
AcDbLine
 62
253
  6
CONTINUOUS
 10
43.9354325193
 20
74.5153256037
 11
25.6567222256
 21
63.9614273661
  0
LWPOLYLINE
  5
249
100
AcDbEntity
  8
0
100
AcDbPolyline
 62
253
  6
CONTINUOUS
 90
18
 70
0
 10
43.9354325193
 20
74.5153256037
 10
44.0363690053
 20
74.570830714
 10
44.1370768378
 20
74.620661384
 10
44.2373278809
 20
74.6647047313
 10
44.336895034
 20
74.7028609835
 10
44.4355527454
 20
74.7350437044
 10
44.5330775236
 20
74.7611799897
 10
44.6292484436
 20
74.7812106325
 10
44.7238476474
 20
74.7950902568
 10
44.8166608374
 20
74.8027874208
 10
44.9074777618
 20
74.8042846881
 10
44.9960926911
 20
74.7995786667
 10
45.0823048839
 20
74.7886800173
 10
45.165919042
 20
74.771613429
 10
45.2467457523
 20
74.7484175629
 10
45.3246019164
 20
74.7191449653
 10
45.399311165
 20
74.6838619479
 10
45.4355049997
 20
74.6639491367
  0
LWPOLYLINE
  5
24A
100
AcDbEntity
  8
0
100
AcDbPolyline
 62
7
  6
CONTINUOUS
 90
9
 70
0
 10
34.3213223351
 20
-44.2099018503
 10
34.2433617265
 20
-44.2062289209
 10
34.1670458389
 20
-44.2079179351
 10
34.0929113389
 20
-44.2149562468
 10
34.0209736344
 20
-44.2273815404
 10
33.9512173174
 20
-44.2451561316
 10
33.8841328313
 20
-44.2681543206
 10
33.819739029
 20
-44.2964128965
 10
33.7691658613
 20
-44.3233458576
  0
LWPOLYLINE
  5
24B
100
AcDbEntity
  8
ASSI
100
AcDbPolyline
 62
7
  6
CONTINUOUS
 90
3
 70
0
 10
-10.7519060028
 20
-42.202531711
 10
-10.7060919204
 20
-42.207952384
 10
-10.6974667296
 20
-42.2082884137
  0
LINE
  5
24C
100
AcDbEntity
  8
0
100
AcDbLine
 62
7
  6
CONTINUOUS
 10
-37.3889183849
 20
97.1386840981
 11
-37.3889183849
 21
-63.0596192845
  0
LWPOLYLINE
  5
24D
100
AcDbEntity
  8
ASSI
100
AcDbPolyline
 62
7
  6
CONTINUOUS
 90
9
 70
0
 10
-11.8174292344
 20
67.5049282489
 10
-11.8212606838
 20
67.497653108
 10
-11.8394753472
 20
67.455270185
 10
-11.85497083
 20
67.4101744701
 10
-11.8677743965
 20
67.3623931632
 10
-11.8777568063
 20
67.3124085732
 10
-11.8848749793
 20
67.2603814696
 10
-11.8891719957
 20
67.2061510827
 10
-11.8906478554
 20
67.1497174126
  0
LINE
  5
24E
100
AcDbEntity
  8
RACCORDO
100
AcDbLine
 62
253
  6
CONTINUOUS
 10
46.8345703222
 20
73.7399905347
 11
46.8274889519
 21
73.7359018402
  0
LINE
  5
24F
100
AcDbEntity
  8
0
100
AcDbLine
 62
7
  6
CONTINUOUS
 10
34.3777822556
 20
-44.2163272447
 11
34.3213223351
 21
-44.2099018503
  0
LWPOLYLINE
  5
250
100
AcDbEntity
  8
0
100
AcDbPolyline
 62
7
  6
CONTINUOUS
 90
12
 70
0
 10
33.8574290388
 20
-44.6613795393
 10
33.7747131562
 20
-44.6416165638
 10
33.6936419946
 20
-44.6272155319
 10
33.6142155539
 20
-44.6181764436
 10
33.5362549454
 20
-44.6145035142
 10
33.4599390578
 20
-44.6161925284
 10
33.3858045578
 20
-44.6232308401
 10
33.3138668532
 20
-44.6356561338
 10
33.2441105362
 20
-44.6534307249
 10
33.1770260501
 20
-44.6764289139
 10
33.1126322478
 20
-44.7046874898
 10
33.0620590801
 20
-44.731620451
  0
LWPOLYLINE
  5
251
100
AcDbEntity
  8
0
100
AcDbPolyline
 62
7
  6
CONTINUOUS
 90
10
 70
0
 10
26.3214026
 20
-55.7556862866
 10
26.3653624375
 20
-55.779459117
 10
26.4088253981
 20
-55.799887062
 10
26.4517914816
 20
-55.8169701217
 10
26.4944206333
 20
-55.830747902
 10
26.536552908
 20
-55.8411807969
 10
26.5777084698
 20
-55.8481499884
 10
26.6178761528
 20
-55.8516158786
 10
26.6570671228
 20
-55.8516180654
 10
26.6853042078
 20
-55.8490300529
  0
LWPOLYLINE
  5
252
100
AcDbEntity
  8
0
100
AcDbPolyline
 62
7
  6
CONTINUOUS
 90
10
 70
0
 10
-16.1050042712
 20
-31.259210687
 10
-16.0610444337
 20
-31.2829835174
 10
-16.0175814731
 20
-31.3034114624
 10
-15.9746153896
 20
-31.320494522
 10
-15.9319862379
 20
-31.3342723023
 10
-15.8898539632
 20
-31.3447051972
 10
-15.8486984014
 20
-31.3516743887
 10
-15.8085307184
 20
-31.3551402789
 10
-15.7693397484
 20
-31.3551424657
 10
-15.7411026634
 20
-31.3525544533
  0
LINE
  5
253
100
AcDbEntity
  8
0
100
AcDbLine
 62
7
  6
CONTINUOUS
 10
33.6753131243
 20
-60.8182912439
 11
29.0084083685
 21
-58.1236789279
  0
LINE
  5
254
100
AcDbEntity
  8
0
100
AcDbLine
 62
7
  6
CONTINUOUS
 10
25.6142958188
 20
-56.16396088
 11
-13.4179985027
 21
-33.6272033283
  0
LINE
  5
255
100
AcDbEntity
  8
0
100
AcDbLine
 62
7
  6
CONTINUOUS
 10
-16.8121110524
 20
-31.6674852803
 11
-21.4790158082
 21
-28.9728729643
  0
LINE
  5
256
100
AcDbEntity
  8
0
100
AcDbLine
 62
7
  6
CONTINUOUS
 10
34.3824199055
 20
-60.4100166506
 11
29.7155151497
 21
-57.7154043346
  0
LINE
  5
257
100
AcDbEntity
  8
0
100
AcDbLine
 62
7
  6
CONTINUOUS
 10
26.3214026
 20
-55.7556862866
 11
-12.7108917215
 21
-33.218928735
  0
LINE
  5
258
100
AcDbEntity
  8
0
100
AcDbLine
 62
7
  6
CONTINUOUS
 10
-16.1050042712
 20
-31.259210687
 11
-20.7719090271
 21
-28.564598371
  0
LINE
  5
259
100
AcDbEntity
  8
0
100
AcDbLine
 62
7
  6
CONTINUOUS
 10
34.3824199055
 20
-59.1769879238
 11
-20.0577311781
 21
-27.7439269835
  0
LWPOLYLINE
  5
25A
100
AcDbEntity
  8
0
100
AcDbPolyline
 62
7
  6
CONTINUOUS
 90
28
 70
0
 10
-21.4790158082
 20
-28.9728729643
 10
-21.5203596146
 20
-28.9475814678
 10
-21.5612888826
 20
-28.9198147488
 10
-21.6018036122
 20
-28.8895728071
 10
-21.6420377844
 20
-28.8567368315
 10
-21.6818574183
 20
-28.8214256333
 10
-21.7208605709
 20
-28.7839956468
 10
-21.7590389729
 20
-28.7444254126
 10
-21.7964008937
 20
-28.7027363902
 10
-21.8325691988
 20
-28.659349392
 10
-21.8675317992
 20
-28.6142472208
 10
-21.9013007839
 20
-28.567447074
 10
-21.9335352859
 20
-28.5194213561
 10
-21.9642197637
 20
-28.4701576546
 10
-21.9933697588
 20
-28.419668382
 10
-22.0206910287
 20
-28.3684631817
 10
-22.0461650516
 20
-28.3165348024
 10
-22.0698103492
 20
-28.2638904952
 10
-22.0913882439
 20
-28.2110616564
 10
-22.1108777967
 20
-28.1580464169
 10
-22.1282999465
 20
-28.1048466458
 10
-22.1434788326
 20
-28.051999346
 10
-22.156391735
 20
-27.9995080876
 10
-22.1670613737
 20
-27.9473693006
 10
-22.1753800486
 20
-27.8961092784
 10
-22.1813118594
 20
-27.8459034522
 10
-22.1848927064
 20
-27.7965763908
 10
-22.1861225894
 20
-27.7481280942
  0
LWPOLYLINE
  5
25B
100
AcDbEntity
  8
0
100
AcDbPolyline
 62
7
  6
CONTINUOUS
 90
15
 70
0
 10
-13.4179985027
 20
-33.6272033283
 10
-13.4619583403
 20
-33.6002124401
 10
-13.5054213008
 20
-33.5704504478
 10
-13.5483873843
 20
-33.5379173512
 10
-13.591016536
 20
-33.5024680556
 10
-13.6331488108
 20
-33.4642476558
 10
-13.6743043726
 20
-33.423691436
 10
-13.7144720555
 20
-33.3807726928
 10
-13.7536630256
 20
-33.3355181297
 10
-13.7914309448
 20
-33.2884431417
 10
-13.8277595446
 20
-33.2395269172
 10
-13.8626650936
 20
-33.1887902678
 10
-13.8957500596
 20
-33.1368110227
 10
-13.926881932
 20
-33.0837817917
 10
-13.9561932213
 20
-33.0295099651
  0
LWPOLYLINE
  5
25C
100
AcDbEntity
  8
0
100
AcDbPolyline
 62
7
  6
CONTINUOUS
 90
15
 70
0
 10
29.0084083685
 20
-58.1236789279
 10
28.9644485309
 20
-58.0966880398
 10
28.9209855704
 20
-58.0669260474
 10
28.8780194869
 20
-58.0343929508
 10
28.8353903351
 20
-57.9989436552
 10
28.7932580604
 20
-57.9607232554
 10
28.7521024986
 20
-57.9201670357
 10
28.7119348157
 20
-57.8772482925
 10
28.6727438456
 20
-57.8319937294
 10
28.6349759264
 20
-57.7849187413
 10
28.5986473266
 20
-57.7360025169
 10
28.5637417776
 20
-57.6852658674
 10
28.5306568116
 20
-57.6332866223
 10
28.4995249392
 20
-57.5802573914
 10
28.4702136499
 20
-57.5259855648
  0
LWPOLYLINE
  5
25D
100
AcDbEntity
  8
ASSI
100
AcDbPolyline
 62
7
  6
CONTINUOUS
 90
7
 70
0
 10
-12.0638576822
 20
67.5968228123
 10
-12.0697998914
 20
67.5782999661
 10
-12.0841778272
 20
67.5210430728
 10
-12.0953849352
 20
67.4613444307
 10
-12.1033777704
 20
67.3993770508
 10
-12.1081997778
 20
67.3349679221
 10
-12.1098509575
 20
67.2681170446
  0
LWPOLYLINE
  5
25E
100
AcDbEntity
  8
ASSI
100
AcDbPolyline
 62
7
  6
CONTINUOUS
 90
16
 70
0
 10
23.2025660434
 20
46.928567968
 10
23.1923840871
 20
46.9225202633
 10
23.1527161171
 20
46.8956685669
 10
23.1155849747
 20
46.8650722644
 10
23.081013726
 20
46.830697308
 10
23.0489793048
 20
46.7925777454
 10
23.019772103
 20
46.75105913
 10
22.9934178268
 20
46.7061105562
 10
22.9698907699
 20
46.6577629296
 10
22.9494042049
 20
46.6064545211
 10
22.9319857773
 20
46.5521584097
 10
22.9176078416
 20
46.4949015164
 10
22.9064007335
 20
46.4352028743
 10
22.8984078984
 20
46.3732354944
 10
22.8935858909
 20
46.3088263658
 10
22.8919347112
 20
46.2419754883
  0
LWPOLYLINE
  5
25F
100
AcDbEntity
  8
ASSI
100
AcDbPolyline
 62
7
  6
CONTINUOUS
 90
16
 70
0
 10
24.7026237226
 20
44.3305592285
 10
24.7128056789
 20
44.3366069332
 10
24.7524736489
 20
44.3634586296
 10
24.7896047912
 20
44.3940549321
 10
24.82417604
 20
44.4284298885
 10
24.8562104612
 20
44.4665494511
 10
24.885417663
 20
44.5080680665
 10
24.9117719392
 20
44.5530166403
 10
24.935298996
 20
44.6013642669
 10
24.955785561
 20
44.6526726754
 10
24.9732039886
 20
44.7069687868
 10
24.9875819244
 20
44.7642256801
 10
24.9987890325
 20
44.8239243222
 10
25.0067818676
 20
44.8858917021
 10
25.011603875
 20
44.9503008308
 10
25.0132550548
 20
45.0171517083
  0
LINE
  5
260
100
AcDbEntity
  8
ASSI
100
AcDbLine
 62
253
  6
CONTINUOUS
 10
23.5990414924
 20
46.6502500816
 11
22.8919347112
 21
46.2419754883
  0
LINE
  5
261
100
AcDbEntity
  8
ASSI
100
AcDbLine
 62
253
  6
CONTINUOUS
 10
24.1465088962
 20
46.7213861432
 11
23.8182445946
 21
46.5318504495
  0
LINE
  5
262
100
AcDbEntity
  8
RACCORDO
100
AcDbLine
 62
253
  6
CONTINUOUS
 10
53.9056381341
 20
61.4925418335
 11
53.8987460863
 21
61.4885624514
  0
LWPOLYLINE
  5
263
100
AcDbEntity
  8
0
100
AcDbPolyline
 62
7
  6
CONTINUOUS
 90
15
 70
0
 10
-13.2490864401
 20
-32.6212353718
 10
-13.2197751508
 20
-32.6755071984
 10
-13.1886432785
 20
-32.7285364294
 10
-13.1555583124
 20
-32.7805156744
 10
-13.1206527634
 20
-32.8312523239
 10
-13.0843241636
 20
-32.8801685483
 10
-13.0465562444
 20
-32.9272435364
 10
-13.0073652743
 20
-32.9724980995
 10
-12.9671975914
 20
-33.0154168427
 10
-12.9260420296
 20
-33.0559730624
 10
-12.8839097549
 20
-33.0941934622
 10
-12.8412806031
 20
-33.1296427578
 10
-12.7983145196
 20
-33.1621758544
 10
-12.7548515591
 20
-33.1919378468
 10
-12.7108917215
 20
-33.218928735
  0
LWPOLYLINE
  5
264
100
AcDbEntity
  8
0
100
AcDbPolyline
 62
7
  6
CONTINUOUS
 90
35
 70
0
 10
-13.9561932213
 20
-33.0295099651
 10
-14.0290944139
 20
-32.8815526197
 10
-14.0771198998
 20
-32.7906947627
 10
-14.1277603854
 20
-32.7014219718
 10
-14.1811635849
 20
-32.613506309
 10
-14.2371817842
 20
-32.5271757124
 10
-14.2953718408
 20
-32.4431139957
 10
-14.3557510076
 20
-32.361339064
 10
-14.4183020317
 20
-32.2818330122
 10
-14.4825300128
 20
-32.2052259381
 10
-14.5484483052
 20
-32.1315407306
 10
-14.6160435546
 20
-32.0607545007
 10
-14.6847807972
 20
-31.9934286795
 10
-14.7546691714
 20
-31.9295906043
 10
-14.8256995389
 20
-31.8692129378
 10
-14.8973095211
 20
-31.8127750994
 10
-14.9695048634
 20
-31.7603078201
 10
-15.0422798205
 20
-31.7117803689
 10
-15.1150547776
 20
-31.6675799721
 10
-15.1878297347
 20
-31.6277416726
 10
-15.2606046917
 20
-31.5922304276
 10
-15.3328000341
 20
-31.5613283352
 10
-15.4044100163
 20
-31.5350727611
 10
-15.4754403837
 20
-31.5134263397
 10
-15.5453287579
 20
-31.4965590722
 10
-15.6140660006
 20
-31.4845088485
 10
-15.6816612499
 20
-31.4772377788
 10
-15.7475795424
 20
-31.4748021945
 10
-15.8118075234
 20
-31.477240406
 10
-15.8743585476
 20
-31.484514103
 10
-15.9347377143
 20
-31.4965646864
 10
-15.992927771
 20
-31.5134299843
 10
-16.0489459702
 20
-31.5350721686
 10
-16.1023491697
 20
-31.5613191551
 10
-16.1151026623
 20
-31.5684983711
  0
LWPOLYLINE
  5
265
100
AcDbEntity
  8
0
100
AcDbPolyline
 62
7
  6
CONTINUOUS
 90
35
 70
0
 10
-13.2490864401
 20
-32.6212353718
 10
-13.3219876327
 20
-32.4732780264
 10
-13.3700131186
 20
-32.3824201694
 10
-13.4206536042
 20
-32.2931473784
 10
-13.4740568037
 20
-32.2052317157
 10
-13.530075003
 20
-32.1189011191
 10
-13.5882650596
 20
-32.0348394023
 10
-13.6486442264
 20
-31.9530644707
 10
-13.7111952505
 20
-31.8735584189
 10
-13.7754232316
 20
-31.7969513448
 10
-13.841341524
 20
-31.7232661372
 10
-13.9089367734
 20
-31.6524799073
 10
-13.977674016
 20
-31.5851540862
 10
-14.0475623902
 20
-31.521316011
 10
-14.1185927577
 20
-31.4609383445
 10
-14.1902027399
 20
-31.4045005061
 10
-14.2623980822
 20
-31.3520332268
 10
-14.3351730393
 20
-31.3035057756
 10
-14.4079479964
 20
-31.2593053788
 10
-14.4807229535
 20
-31.2194670793
 10
-14.5534979105
 20
-31.1839558343
 10
-14.6256932529
 20
-31.1530537419
 10
-14.6973032351
 20
-31.1267981678
 10
-14.7683336026
 20
-31.1051517464
 10
-14.8382219767
 20
-31.0882844788
 10
-14.9069592194
 20
-31.0762342552
 10
-14.9745544688
 20
-31.0689631854
 10
-15.0404727612
 20
-31.0665276012
 10
-15.1047007423
 20
-31.0689658127
 10
-15.1672517664
 20
-31.0762395097
 10
-15.2276309331
 20
-31.088290093
 10
-15.2858209898
 20
-31.105155391
 10
-15.341839189
 20
-31.1267975753
 10
-15.3952423885
 20
-31.1530445618
 10
-15.4079958811
 20
-31.1602237778
  0
LWPOLYLINE
  5
266
100
AcDbEntity
  8
0
100
AcDbPolyline
 62
7
  6
CONTINUOUS
 90
22
 70
0
 10
-21.4790158082
 20
-11.10533417
 10
-21.4775954114
 20
-11.1573913564
 10
-21.4734780679
 20
-11.2104159081
 10
-21.4666637776
 20
-11.2644078252
 10
-21.45710515
 20
-11.3195842075
 10
-21.4448495756
 20
-11.3757279551
 10
-21.4300392262
 20
-11.4321877684
 10
-21.4126443498
 20
-11.488967328
 10
-21.3926946985
 20
-11.5460629532
 10
-21.3704216994
 20
-11.6028123021
 10
-21.345798296
 20
-11.6592113419
 10
-21.3188515449
 20
-11.7152641052
 10
-21.289894044
 20
-11.7703203479
 10
-21.2589023768
 20
-11.8243684648
 10
-21.2258999598
 20
-11.8774200611
 10
-21.19126964
 20
-11.9288597077
 10
-21.1549924594
 20
-11.9786686325
 10
-21.1170873759
 20
-12.0268656076
 10
-21.0779941103
 20
-12.0728915205
 10
-21.0378592362
 20
-12.1165600003
 10
-20.99653618
 20
-12.1580574179
 10
-20.9540249416
 20
-12.1973837732
  0
LWPOLYLINE
  5
267
100
AcDbEntity
  8
0
100
AcDbPolyline
 62
7
  6
CONTINUOUS
 90
22
 70
0
 10
-21.4790158082
 20
54.2122879734
 10
-21.4775954114
 20
54.160230787
 10
-21.4734780679
 20
54.1072062353
 10
-21.4666637776
 20
54.0532143182
 10
-21.45710515
 20
53.9980379359
 10
-21.4448495756
 20
53.9418941883
 10
-21.4300392262
 20
53.8854343751
 10
-21.4126443498
 20
53.8286548154
 10
-21.3926946985
 20
53.7715591902
 10
-21.3704216994
 20
53.7148098414
 10
-21.345798296
 20
53.6584108016
 10
-21.3188515449
 20
53.6023580382
 10
-21.289894044
 20
53.5473017955
 10
-21.2589023768
 20
53.4932536786
 10
-21.2258999598
 20
53.4402020823
 10
-21.19126964
 20
53.3887624357
 10
-21.1549924594
 20
53.3389535109
 10
-21.1170873759
 20
53.2907565358
 10
-21.0779941103
 20
53.2447306229
 10
-21.0378592362
 20
53.2010621431
 10
-20.99653618
 20
53.1595647255
 10
-20.9540249416
 20
53.1202383703
  0
LWPOLYLINE
  5
268
100
AcDbEntity
  8
0
100
AcDbPolyline
 62
7
  6
CONTINUOUS
 90
28
 70
0
 10
-21.4790158082
 20
-27.3398535009
 10
-21.4777859252
 20
-27.3883017974
 10
-21.4742050782
 20
-27.4376288588
 10
-21.4682732674
 20
-27.487834685
 10
-21.4599545925
 20
-27.5390947072
 10
-21.4492849538
 20
-27.5912334943
 10
-21.4363720514
 20
-27.6437247527
 10
-21.4211931653
 20
-27.6965720525
 10
-21.4037710155
 20
-27.7497718236
 10
-21.3842814628
 20
-27.8027870631
 10
-21.3627035681
 20
-27.8556159019
 10
-21.3390582704
 20
-27.9082602091
 10
-21.3135842475
 20
-27.9601885883
 10
-21.2862629776
 20
-28.0113937887
 10
-21.2571129825
 20
-28.0618830612
 10
-21.2264285047
 20
-28.1111467628
 10
-21.1941940027
 20
-28.1591724806
 10
-21.160425018
 20
-28.2059726275
 10
-21.1254624177
 20
-28.2510747987
 10
-21.0892941125
 20
-28.2944617968
 10
-21.0519321917
 20
-28.3361508193
 10
-21.0137537897
 20
-28.3757210535
 10
-20.9747506371
 20
-28.41315104
 10
-20.9349310032
 20
-28.4484622382
 10
-20.894696831
 20
-28.4812982138
 10
-20.8541821014
 20
-28.5115401554
 10
-20.8132528334
 20
-28.5393068745
 10
-20.7719090271
 20
-28.564598371
  0
LINE
  5
269
100
AcDbEntity
  8
0
100
AcDbLine
 62
7
  6
CONTINUOUS
 10
-22.1861225894
 20
-27.7481280942
 11
-22.1861225894
 21
-17.039128291
  0
LINE
  5
26A
100
AcDbEntity
  8
0
100
AcDbLine
 62
7
  6
CONTINUOUS
 10
-22.1861225894
 20
-11.5136087633
 11
-22.1861225894
 21
48.2784938525
  0
LINE
  5
26B
100
AcDbEntity
  8
0
100
AcDbLine
 62
7
  6
CONTINUOUS
 10
-22.1861225894
 20
53.8040133801
 11
-22.1861225894
 21
64.5130131834
  0
LINE
  5
26C
100
AcDbEntity
  8
0
100
AcDbLine
 62
7
  6
CONTINUOUS
 10
-21.4790158082
 20
-27.3398535009
 11
-21.4790158082
 21
-16.6308536976
  0
LINE
  5
26D
100
AcDbEntity
  8
0
100
AcDbLine
 62
7
  6
CONTINUOUS
 10
-21.4790158082
 20
-11.10533417
 11
-21.4790158082
 21
48.6867684458
  0
LINE
  5
26E
100
AcDbEntity
  8
0
100
AcDbLine
 62
7
  6
CONTINUOUS
 10
-21.4790158082
 20
54.2122879734
 11
-21.4790158082
 21
64.9212877767
  0
LINE
  5
26F
100
AcDbEntity
  8
0
100
AcDbLine
 62
7
  6
CONTINUOUS
 10
-21.4719447404
 20
-27.4567599689
 11
-21.4719447404
 21
-16.5903796165
  0
LINE
  5
270
100
AcDbEntity
  8
0
100
AcDbLine
 62
7
  6
CONTINUOUS
 10
-21.4719447404
 20
-11.2225649778
 11
-21.4719447404
 21
48.727242527
  0
LINE
  5
271
100
AcDbEntity
  8
0
100
AcDbLine
 62
7
  6
CONTINUOUS
 10
-21.4719447404
 20
54.0950571656
 11
-21.4719447404
 21
64.5171353842
  0
LINE
  5
272
100
AcDbEntity
  8
0
100
AcDbLine
 62
7
  6
CONTINUOUS
 10
-20.0577311781
 20
-27.7439269835
 11
-20.0577311781
 21
-16.0053681344
  0
LINE
  5
273
100
AcDbEntity
  8
0
100
AcDbLine
 62
7
  6
CONTINUOUS
 10
-20.0577311781
 20
-13.3720835985
 11
-20.0577311781
 21
49.3122540091
  0
LINE
  5
274
100
AcDbEntity
  8
0
100
AcDbLine
 62
7
  6
CONTINUOUS
 10
-20.0577311781
 20
51.945538545
 11
-20.0577311781
 21
64.1005769342
  0
LWPOLYLINE
  5
275
100
AcDbEntity
  8
0
100
AcDbPolyline
 62
7
  6
CONTINUOUS
 90
15
 70
0
 10
-22.1861225894
 20
64.5130131834
 10
-22.1848927064
 20
64.5600412418
 10
-22.1813118594
 20
64.6052332309
 10
-22.1753800486
 20
64.6485891506
 10
-22.1670613737
 20
64.6902429756
 10
-22.156391735
 20
64.7300607313
 10
-22.1434788326
 20
64.7676404937
 10
-22.1282999465
 20
64.8029595962
 10
-22.1108777967
 20
64.8360407055
 10
-22.0913882439
 20
64.866549898
 10
-22.0698103492
 20
64.8944611249
 10
-22.0461650516
 20
64.919800435
 10
-22.0206910287
 20
64.9423120511
 10
-21.9933697588
 20
64.9619673339
 10
-21.9790291214
 20
64.9707312582
  0
LWPOLYLINE
  5
276
100
AcDbEntity
  8
0
100
AcDbPolyline
 62
7
  6
CONTINUOUS
 90
9
 70
0
 10
-21.4719447404
 20
64.5171353842
 10
-21.4707148574
 20
64.5641634426
 10
-21.4671340104
 20
64.6093554317
 10
-21.4612021996
 20
64.6527113515
 10
-21.4528835247
 20
64.6943651765
 10
-21.442213886
 20
64.7341829321
 10
-21.4293009836
 20
64.7717626946
 10
-21.4141220975
 20
64.8070817971
 10
-21.3966999477
 20
64.8401629064
  0
LWPOLYLINE
  5
277
100
AcDbEntity
  8
0
100
AcDbPolyline
 62
7
  6
CONTINUOUS
 90
14
 70
0
 10
-22.1861225894
 20
48.2784938525
 10
-22.1847021926
 20
48.3289108002
 10
-22.1805848491
 20
48.3771807468
 10
-22.1737705588
 20
48.4233036922
 10
-22.1642119311
 20
48.467442011
 10
-22.1519563568
 20
48.5094333285
 10
-22.1371460074
 20
48.5487905215
 10
-22.119751131
 20
48.585482914
 10
-22.0998014796
 20
48.6195411818
 10
-22.0775284806
 20
48.6505702297
 10
-22.0529050772
 20
48.6785347804
 10
-22.0259583261
 20
48.703470111
 10
-21.9970008252
 20
48.7250869575
 10
-21.979034273
 20
48.7362208433
  0
LINE
  5
278
100
AcDbEntity
  8
0
100
AcDbLine
 62
7
  6
CONTINUOUS
 10
-21.4778565772
 20
48.7279153207
 11
-21.4790158082
 21
48.6867684458
  0
LWPOLYLINE
  5
279
100
AcDbEntity
  8
0
100
AcDbPolyline
 62
7
  6
CONTINUOUS
 90
14
 70
0
 10
-22.1861225894
 20
-17.039128291
 10
-22.1847021926
 20
-16.9887113432
 10
-22.1805848491
 20
-16.9404413966
 10
-22.1737705588
 20
-16.8943184512
 10
-22.1642119311
 20
-16.8501801325
 10
-22.1519563568
 20
-16.8081888149
 10
-22.1371460074
 20
-16.7688316219
 10
-22.119751131
 20
-16.7321392295
 10
-22.0998014796
 20
-16.6980809616
 10
-22.0775284806
 20
-16.6670519137
 10
-22.0529050772
 20
-16.639087363
 10
-22.0259583261
 20
-16.6141520324
 10
-21.9970008252
 20
-16.5925351859
 10
-21.979034273
 20
-16.5814013001
  0
LINE
  5
27A
100
AcDbEntity
  8
0
100
AcDbLine
 62
7
  6
CONTINUOUS
 10
-21.4778565772
 20
-16.5897068227
 11
-21.4790158082
 21
-16.6308536976
  0
LWPOLYLINE
  5
27B
100
AcDbEntity
  8
0
100
AcDbPolyline
 62
7
  6
CONTINUOUS
 90
8
 70
0
 10
-3.8319016934
 20
55.9566917624
 10
-3.8417152526
 20
55.9322172316
 10
-3.8560288229
 20
55.904041186
 10
-3.8724344966
 20
55.8780737
 10
-3.8907230136
 20
55.8546459981
 10
-3.9109184928
 20
55.8337906143
 10
-3.9329968153
 20
55.8154750146
 10
-3.9566582444
 20
55.799943282
  0
LWPOLYLINE
  5
27C
100
AcDbEntity
  8
0
100
AcDbPolyline
 62
253
  6
CONTINUOUS
 90
18
 70
0
 10
53.1278206747
 20
58.5936422921
 10
53.2263544243
 20
58.653309064
 10
53.3198594904
 20
58.7156152913
 10
53.408124054
 20
58.7804198303
 10
53.4909481673
 20
58.8475758779
 10
53.5681442072
 20
58.9169313041
 10
53.6395372999
 20
58.9883289965
 10
53.7049657169
 20
59.0616072163
 10
53.7642812419
 20
59.136599965
 10
53.8173495062
 20
59.2131373596
 10
53.864050293
 20
59.2910460185
 10
53.9042778101
 20
59.3701494534
 10
53.9379409291
 20
59.4502684697
 10
53.9649633923
 20
59.531221572
 10
53.9852839852
 20
59.6128253754
 10
53.998856675
 20
59.6948950212
 10
54.0056507153
 20
59.7772445951
 10
54.0065003312
 20
59.8184660721
  0
LINE
  5
27D
100
AcDbEntity
  8
ASSI
100
AcDbLine
 62
253
  6
CONTINUOUS
 10
53.1278206747
 20
58.5936422921
 11
37.217918098
 21
49.4074639422
  0
LINE
  5
27E
100
AcDbEntity
  8
0
100
AcDbLine
 62
253
  6
CONTINUOUS
 10
28.4427229435
 20
35.7704344672
 11
28.5822990462
 21
35.8510239596
  0
LINE
  5
27F
100
AcDbEntity
  8
ASSI
100
AcDbLine
 62
7
  6
CONTINUOUS
 10
28.6445067606
 20
35.8637466695
 11
28.3114004139
 21
35.6714152397
  0
LWPOLYLINE
  5
280
100
AcDbEntity
  8
0
100
AcDbPolyline
 62
7
  6
CONTINUOUS
 90
14
 70
0
 10
28.5083880894
 20
35.8199373621
 10
28.5306568116
 20
35.8317061203
 10
28.5637417776
 20
35.8454796759
 10
28.5986473266
 20
35.8559082723
 10
28.6349759264
 20
35.8628731403
 10
28.6727438456
 20
35.8663346819
 10
28.7119348157
 20
35.8663324952
 10
28.7521024986
 20
35.8628666049
 10
28.7932580604
 20
35.8558974135
 10
28.8353903351
 20
35.8454645186
 10
28.8780194869
 20
35.8316867383
 10
28.9209855704
 20
35.8146036786
 10
28.9644485309
 20
35.7941757336
 10
29.0084083685
 20
35.7704029032
  0
LWPOLYLINE
  5
281
100
AcDbEntity
  8
0
100
AcDbPolyline
 62
7
  6
CONTINUOUS
 90
12
 70
0
 10
-21.6611317228
 20
-16.5533249812
 10
-21.5784158402
 20
-16.5730879567
 10
-21.4973446786
 20
-16.5874889886
 10
-21.4179182379
 20
-16.5965280769
 10
-21.3399576293
 20
-16.6002010063
 10
-21.2636417417
 20
-16.5985119921
 10
-21.1895072417
 20
-16.5914736804
 10
-21.1175695371
 20
-16.5790483867
 10
-21.0478132202
 20
-16.5612737956
 10
-20.9807287341
 20
-16.5382756066
 10
-20.9163349318
 20
-16.5100170307
 10
-20.865761764
 20
-16.4830840695
  0
LWPOLYLINE
  5
282
100
AcDbEntity
  8
0
100
AcDbPolyline
 62
7
  6
CONTINUOUS
 90
22
 70
0
 10
-21.6611317228
 20
-12.6056583665
 10
-21.7036429611
 20
-12.5663320112
 10
-21.7449660174
 20
-12.5248345937
 10
-21.7851008915
 20
-12.4811661139
 10
-21.8241941571
 20
-12.435140201
 10
-21.8620992406
 20
-12.3869432258
 10
-21.8983764212
 20
-12.337134301
 10
-21.933006741
 20
-12.2856946544
 10
-21.966009158
 20
-12.2326430582
 10
-21.9970008252
 20
-12.1785949412
 10
-22.0259583261
 20
-12.1235386985
 10
-22.0529050772
 20
-12.0674859352
 10
-22.0775284806
 20
-12.0110868954
 10
-22.0998014796
 20
-11.9543375466
 10
-22.119751131
 20
-11.8972419213
 10
-22.1371460074
 20
-11.8404623617
 10
-22.1519563568
 20
-11.7840025484
 10
-22.1642119311
 20
-11.7278588008
 10
-22.1737705588
 20
-11.6726824185
 10
-22.1805848491
 20
-11.6186905015
 10
-22.1847021926
 20
-11.5656659497
 10
-22.1861225894
 20
-11.5136087633
  0
LINE
  5
283
100
AcDbEntity
  8
ASSI
100
AcDbLine
 62
7
  6
CONTINUOUS
 10
-49.8439814268
 20
40.9138191311
 11
-52.2097712711
 21
45.1486378671
  0
LINE
  5
284
100
AcDbEntity
  8
ASSI
100
AcDbLine
 62
7
  6
CONTINUOUS
 10
-48.4297678644
 20
40.0972699444
 11
-50.7955577087
 21
44.3320886805
  0
LWPOLYLINE
  5
285
100
AcDbEntity
  8
ASSI
100
AcDbPolyline
 62
7
  6
CONTINUOUS
 90
19
 70
0
 10
-52.2097712711
 20
45.1486378671
 10
-52.4002458105
 20
45.5044659186
 10
-52.5802839057
 20
45.871107231
 10
-52.7498855568
 20
46.2485618044
 10
-52.9091452448
 20
46.6370831577
 10
-53.0579684886
 20
47.036417772
 10
-53.1960718453
 20
47.4458050901
 10
-53.3234348854
 20
47.8652642702
 10
-53.4400780383
 20
48.2947761542
 10
-53.5457791502
 20
48.7335227106
 10
-53.6405173681
 20
49.1815215385
 10
-53.7243135449
 20
49.6387550387
 10
-53.7970080857
 20
50.1043523823
 10
-53.8585798334
 20
50.5783295088
 10
-53.9090499451
 20
51.0606704786
 10
-53.9483222975
 20
51.550456644
 10
-53.9763648494
 20
52.0473817892
 10
-53.9932096419
 20
52.5517521299
 10
-53.998856675
 20
53.0635676663
  0
LWPOLYLINE
  5
286
100
AcDbEntity
  8
ASSI
100
AcDbPolyline
 62
7
  6
CONTINUOUS
 90
19
 70
0
 10
-49.8439814268
 20
40.9138191311
 10
-49.6916017953
 20
40.6291566899
 10
-49.5475713191
 20
40.33584364
 10
-49.4118899982
 20
40.0338799813
 10
-49.2844822478
 20
39.7230628986
 10
-49.1654236528
 20
39.4035952072
 10
-49.0549409674
 20
39.0760853527
 10
-48.9530505354
 20
38.7405180086
 10
-48.859736013
 20
38.3969085014
 10
-48.7751751235
 20
38.0459112563
 10
-48.6993845492
 20
37.687512194
 10
-48.6323476078
 20
37.3217253938
 10
-48.5741919751
 20
36.949247519
 10
-48.5249345769
 20
36.5700658178
 10
-48.4845584876
 20
36.1841930419
 10
-48.4531406057
 20
35.7923641096
 10
-48.4307065642
 20
35.3948239935
 10
-48.4172307302
 20
34.9913277208
 10
-48.4127131036
 20
34.5818752917
  0
LWPOLYLINE
  5
287
100
AcDbEntity
  8
ASSI
100
AcDbPolyline
 62
7
  6
CONTINUOUS
 90
19
 70
0
 10
-50.7955577087
 20
44.3320886805
 10
-50.9860322481
 20
44.6879167319
 10
-51.1660703434
 20
45.0545580444
 10
-51.3356719945
 20
45.4320126177
 10
-51.4949316824
 20
45.8205339711
 10
-51.6437549262
 20
46.2198685853
 10
-51.781858283
 20
46.6292559034
 10
-51.909221323
 20
47.0487150836
 10
-52.0258644759
 20
47.4782269676
 10
-52.1315655879
 20
47.9169735239
 10
-52.2263038057
 20
48.3649723518
 10
-52.3100999825
 20
48.8222058521
 10
-52.3827945233
 20
49.2878031956
 10
-52.444366271
 20
49.7617803221
 10
-52.4948363827
 20
50.2441212919
 10
-52.5341087351
 20
50.7339074574
 10
-52.562151287
 20
51.2308326025
 10
-52.5789960795
 20
51.7352029433
 10
-52.5846431126
 20
52.2470184796
  0
LWPOLYLINE
  5
288
100
AcDbEntity
  8
ASSI
100
AcDbPolyline
 62
7
  6
CONTINUOUS
 90
19
 70
0
 10
-48.4297678644
 20
40.0972699444
 10
-48.2773882329
 20
39.8126075032
 10
-48.1333577567
 20
39.5192944533
 10
-47.9976764358
 20
39.2173307946
 10
-47.8702686854
 20
38.906513712
 10
-47.7512100904
 20
38.5870460206
 10
-47.640727405
 20
38.2595361661
 10
-47.538836973
 20
37.9239688219
 10
-47.4455224506
 20
37.5803593147
 10
-47.3609615611
 20
37.2293620697
 10
-47.2851709868
 20
36.8709630073
 10
-47.2181340454
 20
36.5051762072
 10
-47.1599784127
 20
36.1326983323
 10
-47.1107210146
 20
35.7535166311
 10
-47.0703449252
 20
35.3676438553
 10
-47.0389270433
 20
34.9758149229
 10
-47.0164930018
 20
34.5782748068
 10
-47.0030171678
 20
34.1747785342
 10
-46.9984995413
 20
33.7653261051
  0
LWPOLYLINE
  5
289
100
AcDbEntity
  8
ASSI
100
AcDbPolyline
 62
7
  6
CONTINUOUS
 90
34
 70
0
 10
-11.8906478554
 20
-40.6243591241
 10
-11.8891719957
 20
-40.6824970799
 10
-11.8848749793
 20
-40.7416895536
 10
-11.8777568063
 20
-40.8019365451
 10
-11.8677743965
 20
-40.8634485717
 10
-11.85497083
 20
-40.9260151161
 10
-11.8394753472
 20
-40.9890046263
 10
-11.8212606838
 20
-41.052421386
 10
-11.8003541041
 20
-41.1162611113
 10
-11.7769666408
 20
-41.1798793987
 10
-11.7510731671
 20
-41.2432740053
 10
-11.7226988099
 20
-41.3064471739
 10
-11.6921299824
 20
-41.368761229
 10
-11.6593444586
 20
-41.4302074695
 10
-11.6243644645
 20
-41.4907945965
 10
-11.5875430911
 20
-41.5499110384
 10
-11.5488616887
 20
-41.6075418998
 10
-11.5083389071
 20
-41.663702076
 10
-11.4663837866
 20
-41.7178246815
 10
-11.4229818205
 20
-41.7698890792
 10
-11.3781475155
 20
-41.8199159062
 10
-11.3323334331
 20
-41.8674001872
 10
-11.2855296499
 20
-41.912316171
 10
-11.2377460893
 20
-41.9546896088
 10
-11.1894650827
 20
-41.9940927796
 10
-11.1406815918
 20
-42.0304955999
 10
-11.0914006549
 20
-42.0639281531
 10
-11.0421197179
 20
-42.0940529682
 10
-10.992838781
 20
-42.1208365438
 10
-10.9435578441
 20
-42.1443123813
 10
-10.8947743532
 20
-42.1642435135
 10
-10.8464933465
 20
-42.180594039
 10
-10.7987097859
 20
-42.1933998592
 10
-10.7519060028
 20
-42.202531711
  0
LWPOLYLINE
  5
28A
100
AcDbEntity
  8
ASSI
100
AcDbPolyline
 62
7
  6
CONTINUOUS
 90
34
 70
0
 10
-11.8906478554
 20
67.1497174126
 10
-11.8891719957
 20
67.0915794567
 10
-11.8848749793
 20
67.0323869831
 10
-11.8777568063
 20
66.9721399916
 10
-11.8677743965
 20
66.910627965
 10
-11.85497083
 20
66.8480614205
 10
-11.8394753472
 20
66.7850719104
 10
-11.8212606838
 20
66.7216551507
 10
-11.8003541041
 20
66.6578154253
 10
-11.7769666408
 20
66.5941971379
 10
-11.7510731671
 20
66.5308025314
 10
-11.7226988099
 20
66.4676293628
 10
-11.6921299824
 20
66.4053153076
 10
-11.6593444586
 20
66.3438690672
 10
-11.6243644645
 20
66.2832819402
 10
-11.5875430911
 20
66.2241654983
 10
-11.5488616887
 20
66.1665346369
 10
-11.5083389071
 20
66.1103744606
 10
-11.4663837866
 20
66.0562518552
 10
-11.4229818205
 20
66.0041874574
 10
-11.3781475155
 20
65.9541606305
 10
-11.3323334331
 20
65.9066763495
 10
-11.2855296499
 20
65.8617603657
 10
-11.2377460893
 20
65.8193869278
 10
-11.1894650827
 20
65.7799837571
 10
-11.1406815918
 20
65.7435809368
 10
-11.0914006549
 20
65.7101483835
 10
-11.0421197179
 20
65.6800235684
 10
-10.992838781
 20
65.6532399928
 10
-10.9435578441
 20
65.6297641554
 10
-10.8947743532
 20
65.6098330232
 10
-10.8464933465
 20
65.5934824977
 10
-10.7987097859
 20
65.5806766775
 10
-10.7519060028
 20
65.5715448256
  0
LWPOLYLINE
  5
28B
100
AcDbEntity
  8
ASSI
100
AcDbPolyline
 62
7
  6
CONTINUOUS
 90
44
 70
0
 10
-12.8169577387
 20
-40.9142340854
 10
-12.815306559
 20
-40.9829917038
 10
-12.8104845515
 20
-41.0529691658
 10
-12.8024917164
 20
-41.1241664713
 10
-12.7912846084
 20
-41.196806801
 10
-12.7769066726
 20
-41.2706669741
 10
-12.759488245
 20
-41.345077449
 10
-12.73900168
 20
-41.4200432293
 10
-12.7154746231
 20
-41.4955593114
 10
-12.689120347
 20
-41.5709411428
 10
-12.6599131451
 20
-41.6461875027
 10
-12.6278787239
 20
-41.7212996119
 10
-12.5933074752
 20
-41.7955965798
 10
-12.5561763328
 20
-41.8690709948
 10
-12.5165083628
 20
-41.9417302686
 10
-12.474663155
 20
-42.0129157455
 10
-12.4306209129
 20
-42.0826140251
 10
-12.384401433
 20
-42.1508385078
 10
-12.3364236943
 20
-42.2169707394
 10
-12.28667171
 20
-42.2809916962
 10
-12.235161467
 20
-42.3429204019
 10
-12.182359905
 20
-42.4021954734
 10
-12.128255283
 20
-42.4587927825
 10
-12.0728593421
 20
-42.5127364575
 10
-12.0166742459
 20
-42.5635374994
 10
-11.9596928191
 20
-42.6111673339
 10
-11.9019222371
 20
-42.6556545353
 10
-11.8438861897
 20
-42.6965958276
 10
-11.785582263
 20
-42.7339589697
 10
-11.7270128709
 20
-42.7677762027
 10
-11.6687089442
 20
-42.7977409737
 10
-11.6106728967
 20
-42.8238182543
 10
-11.5529023147
 20
-42.8460430728
 10
-11.495920888
 20
-42.8642139617
 10
-11.4397357918
 20
-42.8782940605
 10
-11.3843398509
 20
-42.8883202296
 10
-11.3302352288
 20
-42.8942015818
 10
-11.2774336669
 20
-42.8959004305
 10
-11.2259234239
 20
-42.8934544623
 10
-11.1761714396
 20
-42.8868858499
 10
-11.1281937009
 20
-42.8761571083
 10
-11.0819742209
 20
-42.8613057225
 10
-11.0379319788
 20
-42.8424663202
 10
-11.0062687273
 20
-42.8256503451
  0
LWPOLYLINE
  5
28C
100
AcDbEntity
  8
ASSI
100
AcDbPolyline
 62
7
  6
CONTINUOUS
 90
35
 70
0
 10
-12.1098509575
 20
-40.505959492
 10
-12.1081997778
 20
-40.5747171105
 10
-12.1033777704
 20
-40.6446945725
 10
-12.0953849352
 20
-40.715891878
 10
-12.0841778272
 20
-40.7885322076
 10
-12.0697998914
 20
-40.8623923808
 10
-12.0523814638
 20
-40.9368028557
 10
-12.0318948988
 20
-41.011768636
 10
-12.0083678419
 20
-41.0872847181
 10
-11.9820135658
 20
-41.1626665494
 10
-11.9528063639
 20
-41.2379129094
 10
-11.9207719428
 20
-41.3130250186
 10
-11.886200694
 20
-41.3873219865
 10
-11.8490695516
 20
-41.4607964015
 10
-11.8094015817
 20
-41.5334556753
 10
-11.7675563738
 20
-41.6046411522
 10
-11.7235141317
 20
-41.6743394318
 10
-11.6772946518
 20
-41.7425639145
 10
-11.6293169131
 20
-41.8086961461
 10
-11.5795649288
 20
-41.8727171029
 10
-11.5280546858
 20
-41.9346458086
 10
-11.4752531239
 20
-41.99392088
 10
-11.4211485018
 20
-42.0505181892
 10
-11.3657525609
 20
-42.1044618642
 10
-11.3095674647
 20
-42.1552629061
 10
-11.2525860379
 20
-42.2028927406
 10
-11.194815456
 20
-42.247379942
 10
-11.1367794085
 20
-42.2883212343
 10
-11.0784754818
 20
-42.3256843764
 10
-11.0199060897
 20
-42.3595016094
 10
-10.961602163
 20
-42.3894663803
 10
-10.9035661155
 20
-42.4155436609
 10
-10.8457955335
 20
-42.4377684795
 10
-10.7888141068
 20
-42.4559393683
 10
-10.7416306705
 20
-42.467763633
  0
LWPOLYLINE
  5
28D
100
AcDbEntity
  8
ASSI
100
AcDbPolyline
 62
7
  6
CONTINUOUS
 90
44
 70
0
 10
-10.6956373952
 20
-42.1390578653
 10
-10.6972885749
 20
-42.0703002469
 10
-10.7021105823
 20
-42.0003227849
 10
-10.7101034174
 20
-41.9291254793
 10
-10.7213105255
 20
-41.8564851497
 10
-10.7356884613
 20
-41.7826249766
 10
-10.7531068889
 20
-41.7082145017
 10
-10.7735934539
 20
-41.6332487214
 10
-10.7971205107
 20
-41.5577326393
 10
-10.8234747869
 20
-41.4823508079
 10
-10.8526819888
 20
-41.407104448
 10
-10.8847164099
 20
-41.3319923388
 10
-10.9192876587
 20
-41.2576953709
 10
-10.956418801
 20
-41.1842209558
 10
-10.996086771
 20
-41.1115616821
 10
-11.0379319788
 20
-41.0403762052
 10
-11.0819742209
 20
-40.9706779256
 10
-11.1281937009
 20
-40.9024534429
 10
-11.1761714396
 20
-40.8363212112
 10
-11.2259234239
 20
-40.7723002545
 10
-11.2774336669
 20
-40.7103715488
 10
-11.3302352288
 20
-40.6510964773
 10
-11.3843398509
 20
-40.5944991681
 10
-11.4397357918
 20
-40.5405554932
 10
-11.495920888
 20
-40.4897544513
 10
-11.5529023147
 20
-40.4421246168
 10
-11.6106728967
 20
-40.3976374154
 10
-11.6687089442
 20
-40.3566961231
 10
-11.7270128709
 20
-40.319332981
 10
-11.785582263
 20
-40.285515748
 10
-11.8438861897
 20
-40.255550977
 10
-11.9019222371
 20
-40.2294736964
 10
-11.9596928191
 20
-40.2072488778
 10
-12.0166742459
 20
-40.189077989
 10
-12.0728593421
 20
-40.1749978902
 10
-12.128255283
 20
-40.1649717211
 10
-12.182359905
 20
-40.1590903689
 10
-12.235161467
 20
-40.1573915202
 10
-12.28667171
 20
-40.1598374884
 10
-12.3364236943
 20
-40.1664061008
 10
-12.384401433
 20
-40.1771348424
 10
-12.4306209129
 20
-40.1919862282
 10
-12.474663155
 20
-40.2108256305
 10
-12.5063264066
 20
-40.2276416056
  0
LWPOLYLINE
  5
28E
100
AcDbEntity
  8
ASSI
100
AcDbPolyline
 62
7
  6
CONTINUOUS
 90
44
 70
0
 10
-12.8169577387
 20
66.8598424513
 10
-12.815306559
 20
66.7910848328
 10
-12.8104845515
 20
66.7211073708
 10
-12.8024917164
 20
66.6499100653
 10
-12.7912846084
 20
66.5772697357
 10
-12.7769066726
 20
66.5034095626
 10
-12.759488245
 20
66.4289990876
 10
-12.73900168
 20
66.3540333073
 10
-12.7154746231
 20
66.2785172252
 10
-12.689120347
 20
66.2031353939
 10
-12.6599131451
 20
66.1278890339
 10
-12.6278787239
 20
66.0527769248
 10
-12.5933074752
 20
65.9784799568
 10
-12.5561763328
 20
65.9050055418
 10
-12.5165083628
 20
65.8323462681
 10
-12.474663155
 20
65.7611607912
 10
-12.4306209129
 20
65.6914625116
 10
-12.384401433
 20
65.6232380288
 10
-12.3364236943
 20
65.5571057972
 10
-12.28667171
 20
65.4930848404
 10
-12.235161467
 20
65.4311561347
 10
-12.182359905
 20
65.3718810633
 10
-12.128255283
 20
65.3152837541
 10
-12.0728593421
 20
65.2613400791
 10
-12.0166742459
 20
65.2105390373
 10
-11.9596928191
 20
65.1629092028
 10
-11.9019222371
 20
65.1184220014
 10
-11.8438861897
 20
65.0774807091
 10
-11.785582263
 20
65.040117567
 10
-11.7270128709
 20
65.006300334
 10
-11.6687089442
 20
64.976335563
 10
-11.6106728967
 20
64.9502582824
 10
-11.5529023147
 20
64.9280334638
 10
-11.495920888
 20
64.909862575
 10
-11.4397357918
 20
64.8957824761
 10
-11.3843398509
 20
64.8857563071
 10
-11.3302352288
 20
64.8798749549
 10
-11.2774336669
 20
64.8781761062
 10
-11.2259234239
 20
64.8806220743
 10
-11.1761714396
 20
64.8871906867
 10
-11.1281937009
 20
64.8979194283
 10
-11.0819742209
 20
64.9127708141
 10
-11.0379319788
 20
64.9316102165
 10
-11.0062687273
 20
64.9484261915
  0
LWPOLYLINE
  5
28F
100
AcDbEntity
  8
ASSI
100
AcDbPolyline
 62
7
  6
CONTINUOUS
 90
35
 70
0
 10
-12.1098509575
 20
67.2681170446
 10
-12.1081997778
 20
67.1993594262
 10
-12.1033777704
 20
67.1293819642
 10
-12.0953849352
 20
67.0581846586
 10
-12.0841778272
 20
66.985544329
 10
-12.0697998914
 20
66.9116841559
 10
-12.0523814638
 20
66.837273681
 10
-12.0318948988
 20
66.7623079007
 10
-12.0083678419
 20
66.6867918186
 10
-11.9820135658
 20
66.6114099872
 10
-11.9528063639
 20
66.5361636273
 10
-11.9207719428
 20
66.4610515181
 10
-11.886200694
 20
66.3867545502
 10
-11.8490695516
 20
66.3132801351
 10
-11.8094015817
 20
66.2406208614
 10
-11.7675563738
 20
66.1694353845
 10
-11.7235141317
 20
66.0997371049
 10
-11.6772946518
 20
66.0315126222
 10
-11.6293169131
 20
65.9653803905
 10
-11.5795649288
 20
65.9013594337
 10
-11.5280546858
 20
65.8394307281
 10
-11.4752531239
 20
65.7801556566
 10
-11.4211485018
 20
65.7235583474
 10
-11.3657525609
 20
65.6696146725
 10
-11.3095674647
 20
65.6188136306
 10
-11.2525860379
 20
65.5711837961
 10
-11.194815456
 20
65.5266965947
 10
-11.1367794085
 20
65.4857553024
 10
-11.0784754818
 20
65.4483921603
 10
-11.0199060897
 20
65.4145749273
 10
-10.961602163
 20
65.3846101563
 10
-10.9035661155
 20
65.3585328757
 10
-10.8457955335
 20
65.3363080571
 10
-10.7888141068
 20
65.3181371683
 10
-10.7416306705
 20
65.3063129037
  0
LWPOLYLINE
  5
290
100
AcDbEntity
  8
ASSI
100
AcDbPolyline
 62
7
  6
CONTINUOUS
 90
44
 70
0
 10
-10.6956373952
 20
65.6350186713
 10
-10.6972885749
 20
65.7037762898
 10
-10.7021105823
 20
65.7737537518
 10
-10.7101034174
 20
65.8449510573
 10
-10.7213105255
 20
65.9175913869
 10
-10.7356884613
 20
65.9914515601
 10
-10.7531068889
 20
66.065862035
 10
-10.7735934539
 20
66.1408278153
 10
-10.7971205107
 20
66.2163438974
 10
-10.8234747869
 20
66.2917257287
 10
-10.8526819888
 20
66.3669720887
 10
-10.8847164099
 20
66.4420841979
 10
-10.9192876587
 20
66.5163811658
 10
-10.956418801
 20
66.5898555808
 10
-10.996086771
 20
66.6625148546
 10
-11.0379319788
 20
66.7337003315
 10
-11.0819742209
 20
66.8033986111
 10
-11.1281937009
 20
66.8716230938
 10
-11.1761714396
 20
66.9377553254
 10
-11.2259234239
 20
67.0017762822
 10
-11.2774336669
 20
67.0637049879
 10
-11.3302352288
 20
67.1229800593
 10
-11.3843398509
 20
67.1795773685
 10
-11.4397357918
 20
67.2335210435
 10
-11.495920888
 20
67.2843220853
 10
-11.5529023147
 20
67.3319519199
 10
-11.6106728967
 20
67.3764391213
 10
-11.6687089442
 20
67.4173804136
 10
-11.7270128709
 20
67.4547435557
 10
-11.785582263
 20
67.4885607886
 10
-11.8438861897
 20
67.5185255596
 10
-11.9019222371
 20
67.5446028402
 10
-11.9596928191
 20
67.5668276588
 10
-12.0166742459
 20
67.5849985476
 10
-12.0728593421
 20
67.5990786465
 10
-12.128255283
 20
67.6091048156
 10
-12.182359905
 20
67.6149861678
 10
-12.235161467
 20
67.6166850165
 10
-12.28667171
 20
67.6142390483
 10
-12.3364236943
 20
67.6076704359
 10
-12.384401433
 20
67.5969416943
 10
-12.4306209129
 20
67.5820903085
 10
-12.474663155
 20
67.5632509061
 10
-12.5063264066
 20
67.5464349311
  0
LWPOLYLINE
  5
291
100
AcDbEntity
  8
0
100
AcDbPolyline
 62
7
  6
CONTINUOUS
 90
12
 70
0
 10
-4.5072773103
 20
55.774623938
 10
-4.5038805956
 20
55.8124840799
 10
-4.4982629159
 20
55.8485517601
 10
-4.4903813171
 20
55.882965678
 10
-4.4802787531
 20
55.9155871343
 10
-4.4680840857
 20
55.9460000308
 10
-4.4537705155
 20
55.9741760765
 10
-4.4373648418
 20
56.0001435624
 10
-4.4190763248
 20
56.0235712644
 10
-4.3988808456
 20
56.0444266481
 10
-4.376802523
 20
56.0627422479
 10
-4.353141094
 20
56.0782739804
  0
LWPOLYLINE
  5
292
100
AcDbEntity
  8
0
100
AcDbPolyline
 62
7
  6
CONTINUOUS
 90
5
 70
0
 10
-3.7930994613
 20
55.7787461389
 10
-3.7897027467
 20
55.8166062808
 10
-3.7840850669
 20
55.852673961
 10
-3.7762034681
 20
55.8870878789
 10
-3.7663662782
 20
55.918852435
  0
LWPOLYLINE
  5
293
100
AcDbEntity
  8
0
100
AcDbPolyline
 62
7
  6
CONTINUOUS
 90
4
 70
0
 10
28.4427229435
 20
35.7704344672
 10
28.4702136499
 20
35.7942033108
 10
28.4995249392
 20
35.8146271951
 10
28.5083880894
 20
35.8199373621
  0
LWPOLYLINE
  5
294
100
AcDbEntity
  8
0
100
AcDbPolyline
 62
7
  6
CONTINUOUS
 90
4
 70
0
 10
28.3113999783
 20
35.671415994
 10
28.3492869714
 20
35.6950312055
 10
28.3973124573
 20
35.7304304352
 10
28.4427229435
 20
35.7704344672
  0
LWPOLYLINE
  5
295
100
AcDbEntity
  8
0
100
AcDbPolyline
 62
7
  6
CONTINUOUS
 90
22
 70
0
 10
33.8574290388
 20
-48.609046154
 10
33.8999402772
 20
-48.6483725093
 10
33.9412633334
 20
-48.6898699268
 10
33.9813982076
 20
-48.7335384066
 10
34.0204914731
 20
-48.7795643195
 10
34.0583965566
 20
-48.8277612947
 10
34.0946737372
 20
-48.8775702195
 10
34.1293040571
 20
-48.9290098661
 10
34.1623064741
 20
-48.9820614623
 10
34.1932981412
 20
-49.0361095793
 10
34.2222556422
 20
-49.091165822
 10
34.2492023932
 20
-49.1472185853
 10
34.2738257967
 20
-49.2036176251
 10
34.2960987957
 20
-49.2603669739
 10
34.3160484471
 20
-49.3174625992
 10
34.3334433234
 20
-49.3742421588
 10
34.3482536728
 20
-49.4307019721
 10
34.3605092472
 20
-49.4868457197
 10
34.3700678748
 20
-49.542022102
 10
34.3768821651
 20
-49.596014019
 10
34.3809995087
 20
-49.6490385708
 10
34.3824199055
 20
-49.7010957572
  0
LWPOLYLINE
  5
296
100
AcDbEntity
  8
ASSI
100
AcDbPolyline
 62
7
  6
CONTINUOUS
 90
7
 70
0
 10
-12.0638576822
 20
-40.1772537244
 10
-12.0697998914
 20
-40.1957765705
 10
-12.0841778272
 20
-40.2530334638
 10
-12.0953849352
 20
-40.312732106
 10
-12.1033777704
 20
-40.3746994858
 10
-12.1081997778
 20
-40.4391086145
 10
-12.1098509575
 20
-40.505959492
  0
LWPOLYLINE
  5
297
100
AcDbEntity
  8
ASSI
100
AcDbPolyline
 62
7
  6
CONTINUOUS
 90
9
 70
0
 10
23.8914632155
 20
46.8870612859
 10
23.8876317661
 20
46.8797861449
 10
23.8694171027
 20
46.837403222
 10
23.8539216199
 20
46.792307507
 10
23.8411180534
 20
46.7445262002
 10
23.8311356436
 20
46.6945416102
 10
23.8240174706
 20
46.6425145065
 10
23.8197204542
 20
46.5882841196
 10
23.8182445946
 20
46.5318504495
  0
LWPOLYLINE
  5
298
100
AcDbEntity
  8
0
100
AcDbPolyline
 62
7
  6
CONTINUOUS
 90
45
 70
0
 10
33.0620590801
 20
20.5860016925
 10
33.0509102764
 20
20.5794524799
 10
32.9922940202
 20
20.5409827756
 10
32.9368053791
 20
20.4974904212
 10
32.8844224534
 20
20.4490105364
 10
32.8355134276
 20
20.395884547
 10
32.7901027866
 20
20.338079742
 10
32.7481660456
 20
20.2756288325
 10
32.7099979348
 20
20.2089713778
 10
32.6756250079
 20
20.1380777633
 10
32.6450207113
 20
20.0629776035
 10
32.618400114
 20
19.9841993013
 10
32.5957912793
 20
19.9017169615
 10
32.577166144
 20
19.8155564793
 10
32.5626555878
 20
19.7263239425
 10
32.5522885925
 20
19.6339977202
 10
32.5460361764
 20
19.5385994434
 10
32.5439422744
 20
19.4408000927
 10
32.5460361764
 20
19.3405827564
 10
32.5522885925
 20
19.2379643462
 10
32.5626555878
 20
19.1336665776
 10
32.577166144
 20
19.0276776144
 10
32.5957912793
 20
18.9200092927
 10
32.618400114
 20
18.8114188373
 10
32.6450207113
 20
18.7018997367
 10
32.6756250079
 20
18.5914585022
 10
32.7099979348
 20
18.4808718934
 10
32.7481660456
 20
18.370138861
 10
32.7901027866
 20
18.2592604542
 10
32.8355134276
 20
18.1490165793
 10
32.8844224534
 20
18.0394116729
 10
32.9368053791
 20
17.9304412983
 10
32.9922940202
 20
17.8228720521
 10
33.0509102764
 20
17.7167137645
 10
33.1126322478
 20
17.6119566053
 10
33.1770260501
 20
17.5093376805
 10
33.2441105362
 20
17.4088720085
 10
33.3138668532
 20
17.3105445711
 10
33.3858045578
 20
17.2150474193
 10
33.4599390578
 20
17.1224004453
 10
33.5362549454
 20
17.032583757
 10
33.6142155539
 20
16.9462297298
 10
33.6936419946
 20
16.8635491553
 10
33.7747131562
 20
16.7843312418
 10
33.8574290388
 20
16.7085759894
  0
LINE
  5
299
100
AcDbEntity
  8
ASSI
100
AcDbLine
 62
7
  6
CONTINUOUS
 10
33.769153844
 20
20.9942971021
 11
33.0620470628
 21
20.5860225088
  0
LINE
  5
29A
100
AcDbEntity
  8
0
100
AcDbLine
 62
253
  6
CONTINUOUS
 10
-22.1861225894
 20
-11.5136087633
 11
-21.4790158082
 21
-11.10533417
  0
LINE
  5
29B
100
AcDbEntity
  8
0
100
AcDbLine
 62
253
  6
CONTINUOUS
 10
33.8574290388
 20
20.6562426042
 11
34.3582687656
 21
20.9454211854
  0
LINE
  5
29C
100
AcDbEntity
  8
0
100
AcDbLine
 62
253
  6
CONTINUOUS
 10
-21.6611317228
 20
-12.6056583665
 11
-20.9540249416
 21
-12.1973837732
  0
LWPOLYLINE
  5
29D
100
AcDbEntity
  8
0
100
AcDbPolyline
 62
7
  6
CONTINUOUS
 90
10
 70
0
 10
34.175331589
 20
20.684318923
 10
34.1623064741
 20
20.6771930923
 10
34.1293040571
 20
20.66225186
 10
34.0946737372
 20
20.6508024387
 10
34.0583965566
 20
20.6428854927
 10
34.0204914731
 20
20.6384603579
 10
33.9813982076
 20
20.6375783681
 10
33.9412633334
 20
20.640256635
 10
33.8999402772
 20
20.646478047
 10
33.8574290388
 20
20.6562426042
  0
LWPOLYLINE
  5
29E
100
AcDbEntity
  8
0
100
AcDbPolyline
 62
7
  6
CONTINUOUS
 90
15
 70
0
 10
29.1773204311
 20
-57.1177109715
 10
29.2066317204
 20
-57.1719827981
 10
29.2377635927
 20
-57.225012029
 10
29.2708485588
 20
-57.2769912741
 10
29.3057541077
 20
-57.3277279235
 10
29.3420827076
 20
-57.376644148
 10
29.3798506268
 20
-57.4237191361
 10
29.4190415969
 20
-57.4689736992
 10
29.4592092798
 20
-57.5118924424
 10
29.5003648416
 20
-57.5524486621
 10
29.5424971163
 20
-57.5906690619
 10
29.5851262681
 20
-57.6261183575
 10
29.6280923516
 20
-57.6586514541
 10
29.6715553121
 20
-57.6884134465
 10
29.7155151497
 20
-57.7154043346
  0
LWPOLYLINE
  5
29F
100
AcDbEntity
  8
0
100
AcDbPolyline
 62
7
  6
CONTINUOUS
 90
35
 70
0
 10
28.4702136499
 20
-57.5259855648
 10
28.3973124573
 20
-57.3780282194
 10
28.3492869714
 20
-57.2871703624
 10
28.2986464858
 20
-57.1978975714
 10
28.2452432863
 20
-57.1099819087
 10
28.189225087
 20
-57.0236513121
 10
28.1310350304
 20
-56.9395895953
 10
28.0706558636
 20
-56.8578146637
 10
28.0081048395
 20
-56.7783086119
 10
27.9438768584
 20
-56.7017015378
 10
27.877958566
 20
-56.6280163302
 10
27.8103633166
 20
-56.5572301003
 10
27.741626074
 20
-56.4899042792
 10
27.6717376998
 20
-56.426066204
 10
27.6007073323
 20
-56.3656885375
 10
27.5290973501
 20
-56.3092506991
 10
27.4569020078
 20
-56.2567834198
 10
27.3841270507
 20
-56.2082559686
 10
27.3113520936
 20
-56.1640555718
 10
27.2385771365
 20
-56.1242172723
 10
27.1658021795
 20
-56.0887060272
 10
27.0936068371
 20
-56.0578039349
 10
27.0219968549
 20
-56.0315483608
 10
26.9509664875
 20
-56.0099019393
 10
26.8810781133
 20
-55.9930346718
 10
26.8123408706
 20
-55.9809844482
 10
26.7447456213
 20
-55.9737133784
 10
26.6788273288
 20
-55.9712777942
 10
26.6145993477
 20
-55.9737160057
 10
26.5520483236
 20
-55.9809897027
 10
26.4916691569
 20
-55.993040286
 10
26.4334791002
 20
-56.009905584
 10
26.377460901
 20
-56.0315477683
 10
26.3240577015
 20
-56.0577947548
 10
26.3113042089
 20
-56.0649739708
  0
LWPOLYLINE
  5
2A0
100
AcDbEntity
  8
0
100
AcDbPolyline
 62
7
  6
CONTINUOUS
 90
35
 70
0
 10
29.1773204311
 20
-57.1177109715
 10
29.1044192385
 20
-56.9697536261
 10
29.0563937526
 20
-56.878895769
 10
29.0057532669
 20
-56.7896229781
 10
28.9523500674
 20
-56.7017073154
 10
28.8963318682
 20
-56.6153767188
 10
28.8381418116
 20
-56.531315002
 10
28.7777626448
 20
-56.4495400704
 10
28.7152116207
 20
-56.3700340186
 10
28.6509836396
 20
-56.2934269445
 10
28.5850653472
 20
-56.2197417369
 10
28.5174700978
 20
-56.148955507
 10
28.4487328552
 20
-56.0816296858
 10
28.378844481
 20
-56.0177916106
 10
28.3078141135
 20
-55.9574139442
 10
28.2362041313
 20
-55.9009761058
 10
28.164008789
 20
-55.8485088265
 10
28.0912338319
 20
-55.7999813752
 10
28.0184588748
 20
-55.7557809785
 10
27.9456839177
 20
-55.715942679
 10
27.8729089606
 20
-55.6804314339
 10
27.8007136183
 20
-55.6495293415
 10
27.7291036361
 20
-55.6232737674
 10
27.6580732686
 20
-55.601627346
 10
27.5881848944
 20
-55.5847600785
 10
27.5194476518
 20
-55.5727098548
 10
27.4518524024
 20
-55.5654387851
 10
27.38593411
 20
-55.5630032009
 10
27.3217061289
 20
-55.5654414124
 10
27.2591551048
 20
-55.5727151094
 10
27.1987759381
 20
-55.5847656927
 10
27.1405858814
 20
-55.6016309907
 10
27.0845676822
 20
-55.6232731749
 10
27.0311644827
 20
-55.6495201615
 10
27.0184109901
 20
-55.6566993774
  0
LWPOLYLINE
  5
2A1
100
AcDbEntity
  8
ASSI
100
AcDbPolyline
 62
7
  6
CONTINUOUS
 90
7
 70
0
 10
23.6450347678
 20
46.9789558492
 10
23.6390925585
 20
46.9604330031
 10
23.6247146227
 20
46.9031761098
 10
23.6135075147
 20
46.8434774676
 10
23.6055146796
 20
46.7815100878
 10
23.6006926721
 20
46.7171009591
 10
23.5990414924
 20
46.6502500816
  0
LWPOLYLINE
  5
2A2
100
AcDbEntity
  8
ASSI
100
AcDbPolyline
 62
7
  6
CONTINUOUS
 90
9
 70
0
 10
-11.8174292344
 20
-40.2691482877
 10
-11.8212606838
 20
-40.2764234287
 10
-11.8394753472
 20
-40.3188063516
 10
-11.85497083
 20
-40.3639020666
 10
-11.8677743965
 20
-40.4116833734
 10
-11.8777568063
 20
-40.4616679634
 10
-11.8848749793
 20
-40.5136950671
 10
-11.8891719957
 20
-40.567925454
 10
-11.8906478554
 20
-40.6243591241
  0
LWPOLYLINE
  5
2A3
100
AcDbEntity
  8
0
100
AcDbPolyline
 62
7
  6
CONTINUOUS
 90
45
 70
0
 10
-20.865761764
 20
-16.4830840695
 10
-20.8546129603
 20
-16.4765348569
 10
-20.7959967041
 20
-16.4380651527
 10
-20.7405080631
 20
-16.3945727983
 10
-20.6881251373
 20
-16.3460929134
 10
-20.6392161115
 20
-16.2929669241
 10
-20.5938054705
 20
-16.2351621191
 10
-20.5518687295
 20
-16.1727112096
 10
-20.5137006188
 20
-16.1060537548
 10
-20.4793276919
 20
-16.0351601403
 10
-20.4487233952
 20
-15.9600599806
 10
-20.4221027979
 20
-15.8812816783
 10
-20.3994939632
 20
-15.7987993386
 10
-20.3808688279
 20
-15.7126388564
 10
-20.3663582718
 20
-15.6234063196
 10
-20.3559912765
 20
-15.5310800973
 10
-20.3497388604
 20
-15.4356818205
 10
-20.3476449583
 20
-15.3378824698
 10
-20.3497388604
 20
-15.2376651335
 10
-20.3559912765
 20
-15.1350467233
 10
-20.3663582718
 20
-15.0307489547
 10
-20.3808688279
 20
-14.9247599915
 10
-20.3994939632
 20
-14.8170916698
 10
-20.4221027979
 20
-14.7085012144
 10
-20.4487233952
 20
-14.5989821138
 10
-20.4793276919
 20
-14.4885408793
 10
-20.5137006188
 20
-14.3779542705
 10
-20.5518687295
 20
-14.2672212381
 10
-20.5938054705
 20
-14.1563428313
 10
-20.6392161115
 20
-14.0460989564
 10
-20.6881251373
 20
-13.9364940499
 10
-20.7405080631
 20
-13.8275236754
 10
-20.7959967041
 20
-13.7199544292
 10
-20.8546129603
 20
-13.6137961416
 10
-20.9163349318
 20
-13.5090389823
 10
-20.9807287341
 20
-13.4064200576
 10
-21.0478132202
 20
-13.3059543856
 10
-21.1175695371
 20
-13.2076269481
 10
-21.1895072417
 20
-13.1121297964
 10
-21.2636417417
 20
-13.0194828224
 10
-21.3399576293
 20
-12.9296661341
 10
-21.4179182379
 20
-12.8433121068
 10
-21.4973446786
 20
-12.7606315324
 10
-21.5784158402
 20
-12.6814136189
 10
-21.6611317228
 20
-12.6056583665
  0
LWPOLYLINE
  5
2A4
100
AcDbEntity
  8
0
100
AcDbPolyline
 62
7
  6
CONTINUOUS
 90
45
 70
0
 10
-20.1586549828
 20
-16.0748094762
 10
-20.1475061791
 20
-16.0682602636
 10
-20.0888899229
 20
-16.0297905594
 10
-20.0334012819
 20
-15.986298205
 10
-19.9810183561
 20
-15.9378183201
 10
-19.9321093303
 20
-15.8846923307
 10
-19.8866986893
 20
-15.8268875257
 10
-19.8447619483
 20
-15.7644366163
 10
-19.8065938376
 20
-15.6977791615
 10
-19.7722209107
 20
-15.626885547
 10
-19.741616614
 20
-15.5517853873
 10
-19.7149960168
 20
-15.473007085
 10
-19.692387182
 20
-15.3905247453
 10
-19.6737620467
 20
-15.304364263
 10
-19.6592514906
 20
-15.2151317262
 10
-19.6488844953
 20
-15.122805504
 10
-19.6426320792
 20
-15.0274072272
 10
-19.6405381772
 20
-14.9296078765
 10
-19.6426320792
 20
-14.8293905402
 10
-19.6488844953
 20
-14.72677213
 10
-19.6592514906
 20
-14.6224743614
 10
-19.6737620467
 20
-14.5164853981
 10
-19.692387182
 20
-14.4088170765
 10
-19.7149960168
 20
-14.3002266211
 10
-19.741616614
 20
-14.1907075204
 10
-19.7722209107
 20
-14.080266286
 10
-19.8065938376
 20
-13.9696796771
 10
-19.8447619483
 20
-13.8589466448
 10
-19.8866986893
 20
-13.748068238
 10
-19.9321093303
 20
-13.637824363
 10
-19.9810183561
 20
-13.5282194566
 10
-20.0334012819
 20
-13.419249082
 10
-20.0888899229
 20
-13.3116798359
 10
-20.1475061791
 20
-13.2055215483
 10
-20.2092281506
 20
-13.100764389
 10
-20.2736219529
 20
-12.9981454643
 10
-20.340706439
 20
-12.8976797923
 10
-20.4104627559
 20
-12.7993523548
 10
-20.4824004605
 20
-12.7038552031
 10
-20.5565349605
 20
-12.611208229
 10
-20.6328508481
 20
-12.5213915408
 10
-20.7108114567
 20
-12.4350375135
 10
-20.7902378974
 20
-12.352356939
 10
-20.871309059
 20
-12.2731390256
 10
-20.9540249416
 20
-12.1973837732
  0
LINE
  5
2A5
100
AcDbEntity
  8
0
100
AcDbLine
 62
253
  6
CONTINUOUS
 10
-22.1861225894
 20
-17.039128291
 11
-21.4790158082
 21
-16.6308536976
  0
LINE
  5
2A6
100
AcDbEntity
  8
ASSI
100
AcDbLine
 62
7
  6
CONTINUOUS
 10
-20.1586429656
 20
-16.0748302925
 11
-20.8657497468
 21
-16.4831048859
  0
LWPOLYLINE
  5
2A7
100
AcDbEntity
  8
0
100
AcDbPolyline
 62
7
  6
CONTINUOUS
 90
10
 70
0
 10
-21.979034273
 20
-16.5814013001
 10
-21.966009158
 20
-16.5742754694
 10
-21.933006741
 20
-16.559334237
 10
-21.8983764212
 20
-16.5478848158
 10
-21.8620992406
 20
-16.5399678698
 10
-21.8241941571
 20
-16.5355427349
 10
-21.7851008915
 20
-16.5346607452
 10
-21.7449660174
 20
-16.5373390121
 10
-21.7036429611
 20
-16.5435604241
 10
-21.6611317228
 20
-16.5533249812
  0
LINE
  5
2A8
100
AcDbEntity
  8
ASSI
100
AcDbLine
 62
253
  6
CONTINUOUS
 10
-48.4127131036
 20
34.5818752917
 11
-46.9984995413
 21
33.7653261051
  0
LINE
  5
2A9
100
AcDbEntity
  8
ASSI
100
AcDbLine
 62
253
  6
CONTINUOUS
 10
42.8040616694
 20
-18.0855472475
 11
41.389848107
 21
-17.2689980609
  0
LWPOLYLINE
  5
2AA
100
AcDbEntity
  8
0
100
AcDbPolyline
 62
7
  6
CONTINUOUS
 90
25
 70
0
 10
16.7035746263
 20
43.5277438643
 10
16.7059261253
 20
43.4457232052
 10
16.7093228399
 20
43.4039406224
 10
16.7149405197
 20
43.3613857864
 10
16.7228221185
 20
43.3178703958
 10
16.7329246825
 20
43.2735827519
 10
16.7451193499
 20
43.2290877591
 10
16.7594329201
 20
43.1843827613
 10
16.7758385938
 20
43.1394704146
 10
16.7941271108
 20
43.0949235917
 10
16.81432259
 20
43.0507469747
 10
16.8364009125
 20
43.0069358815
 10
16.8600804617
 20
42.9640491379
 10
16.8853817489
 20
42.9220985844
 10
16.9122842628
 20
42.8810723805
 10
16.9404448523
 20
42.8414938296
 10
16.9698796333
 20
42.8033814759
 10
17.0005724899
 20
42.7667167752
 10
17.0321319242
 20
42.7319673985
 10
17.0645690367
 20
42.6991578809
 10
17.0978727269
 20
42.6682636874
 10
17.1316181945
 20
42.6396788841
 10
17.1656638395
 20
42.6135348265
 10
17.2001512619
 20
42.5897001592
 10
17.2350804617
 20
42.5681748821
  0
LWPOLYLINE
  5
2AB
100
AcDbEntity
  8
0
100
AcDbPolyline
 62
7
  6
CONTINUOUS
 90
4
 70
0
 10
-16.2464256275
 20
-31.6675168443
 10
-16.2739163338
 20
-31.6912856879
 10
-16.3032276232
 20
-31.7117095722
 10
-16.3120907734
 20
-31.7170197392
  0
LWPOLYLINE
  5
2AC
100
AcDbEntity
  8
0
100
AcDbPolyline
 62
7
  6
CONTINUOUS
 90
4
 70
0
 10
-16.1151026623
 20
-31.5684983711
 10
-16.1529896554
 20
-31.5921135826
 10
-16.2010151413
 20
-31.6275128123
 10
-16.2464256275
 20
-31.6675168443
  0
LINE
  5
2AD
100
AcDbEntity
  8
0
100
AcDbLine
 62
253
  6
CONTINUOUS
 10
-21.4790158082
 20
-27.3398535009
 11
-22.1861225894
 21
-27.7481280942
  0
LINE
  5
2AE
100
AcDbEntity
  8
0
100
AcDbLine
 62
7
  6
CONTINUOUS
 10
-20.0577311781
 20
-27.7439269835
 11
-21.0626719717
 21
-28.3241672029
  0
LINE
  5
2AF
100
AcDbEntity
  8
0
100
AcDbLine
 62
253
  6
CONTINUOUS
 10
-20.7719090271
 20
-28.564598371
 11
-21.4790158082
 21
-28.9728729643
  0
LINE
  5
2B0
100
AcDbEntity
  8
ASSI
100
AcDbLine
 62
253
  6
CONTINUOUS
 10
-49.8439814268
 20
40.9138191311
 11
-48.4297678644
 21
40.0972699444
  0
LINE
  5
2B1
100
AcDbEntity
  8
ASSI
100
AcDbLine
 62
253
  6
CONTINUOUS
 10
41.3727933463
 20
-11.7536034082
 11
39.9585797839
 21
-10.9370542215
  0
LINE
  5
2B2
100
AcDbEntity
  8
ASSI
100
AcDbLine
 62
253
  6
CONTINUOUS
 10
-52.2097712711
 20
45.1486378671
 11
-50.7955577087
 21
44.3320886805
  0
LINE
  5
2B3
100
AcDbEntity
  8
ASSI
100
AcDbLine
 62
253
  6
CONTINUOUS
 10
39.007003502
 20
-7.5187846722
 11
37.5927899396
 21
-6.7022354855
  0
LWPOLYLINE
  5
2B4
100
AcDbEntity
  8
0
100
AcDbPolyline
 62
7
  6
CONTINUOUS
 90
35
 70
0
 10
-16.2739163338
 20
61.6289031877
 10
-16.2010151413
 20
61.4809458423
 10
-16.1529896554
 20
61.3900879853
 10
-16.1023491697
 20
61.3008151943
 10
-16.0489459702
 20
61.2128995316
 10
-15.992927771
 20
61.126568935
 10
-15.9347377143
 20
61.0425072182
 10
-15.8743585476
 20
60.9607322866
 10
-15.8118075234
 20
60.8812262348
 10
-15.7475795424
 20
60.8046191607
 10
-15.6816612499
 20
60.7309339531
 10
-15.6140660006
 20
60.6601477232
 10
-15.5453287579
 20
60.5928219021
 10
-15.4754403837
 20
60.5289838269
 10
-15.4044100163
 20
60.4686061604
 10
-15.3328000341
 20
60.412168322
 10
-15.2606046917
 20
60.3597010427
 10
-15.1878297347
 20
60.3111735915
 10
-15.1150547776
 20
60.2669731947
 10
-15.0422798205
 20
60.2271348952
 10
-14.9695048634
 20
60.1916236502
 10
-14.8973095211
 20
60.1607215578
 10
-14.8256995389
 20
60.1344659837
 10
-14.7546691714
 20
60.1128195623
 10
-14.6847807972
 20
60.0959522948
 10
-14.6160435546
 20
60.0839020711
 10
-14.5484483052
 20
60.0766310013
 10
-14.4825300128
 20
60.0741954171
 10
-14.4183020317
 20
60.0766336286
 10
-14.3557510076
 20
60.0839073256
 10
-14.2953718408
 20
60.0959579089
 10
-14.2371817842
 20
60.1128232069
 10
-14.1811635849
 20
60.1344653912
 10
-14.1277603854
 20
60.1607123777
 10
-14.1150068929
 20
60.1678915937
  0
LWPOLYLINE
  5
2B5
100
AcDbEntity
  8
ASSI
100
AcDbPolyline
 62
7
  6
CONTINUOUS
 90
34
 70
0
 10
23.8182445946
 20
-61.2422260871
 10
23.8197204542
 20
-61.300364043
 10
23.8240174706
 20
-61.3595565167
 10
23.8311356436
 20
-61.4198035081
 10
23.8411180534
 20
-61.4813155347
 10
23.8539216199
 20
-61.5438820792
 10
23.8694171027
 20
-61.6068715893
 10
23.8876317661
 20
-61.670288349
 10
23.9085383459
 20
-61.7341280744
 10
23.9319258092
 20
-61.7977463618
 10
23.9578192828
 20
-61.8611409684
 10
23.98619364
 20
-61.9243141369
 10
24.0167624675
 20
-61.9866281921
 10
24.0495479913
 20
-62.0480744325
 10
24.0845279854
 20
-62.1086615595
 10
24.1213493588
 20
-62.1677780014
 10
24.1600307612
 20
-62.2254088628
 10
24.2005535428
 20
-62.2815690391
 10
24.2425086633
 20
-62.3356916445
 10
24.2859106295
 20
-62.3877560423
 10
24.3307449344
 20
-62.4377828692
 10
24.3765590168
 20
-62.4852671503
 10
24.4233628
 20
-62.530183134
 10
24.4711463606
 20
-62.5725565719
 10
24.5194273672
 20
-62.6119597426
 10
24.5682108581
 20
-62.6483625629
 10
24.6174917951
 20
-62.6817951162
 10
24.666772732
 20
-62.7119199313
 10
24.7160536689
 20
-62.7387035069
 10
24.7653346059
 20
-62.7621793443
 10
24.8141180967
 20
-62.7821104765
 10
24.8623991034
 20
-62.798461002
 10
24.910182664
 20
-62.8112668222
 10
24.9569864472
 20
-62.8203986741
  0
LWPOLYLINE
  5
2B6
100
AcDbEntity
  8
ASSI
100
AcDbPolyline
 62
7
  6
CONTINUOUS
 90
34
 70
0
 10
23.8182445946
 20
46.5318504495
 10
23.8197204542
 20
46.4737124937
 10
23.8240174706
 20
46.41452002
 10
23.8311356436
 20
46.3542730285
 10
23.8411180534
 20
46.2927610019
 10
23.8539216199
 20
46.2301944575
 10
23.8694171027
 20
46.1672049473
 10
23.8876317661
 20
46.1037881876
 10
23.9085383459
 20
46.0399484623
 10
23.9319258092
 20
45.9763301749
 10
23.9578192828
 20
45.9129355683
 10
23.98619364
 20
45.8497623997
 10
24.0167624675
 20
45.7874483446
 10
24.0495479913
 20
45.7260021041
 10
24.0845279854
 20
45.6654149771
 10
24.1213493588
 20
45.6062985352
 10
24.1600307612
 20
45.5486676738
 10
24.2005535428
 20
45.4925074976
 10
24.2425086633
 20
45.4383848922
 10
24.2859106295
 20
45.3863204944
 10
24.3307449344
 20
45.3362936674
 10
24.3765590168
 20
45.2888093864
 10
24.4233628
 20
45.2438934026
 10
24.4711463606
 20
45.2015199648
 10
24.5194273672
 20
45.162116794
 10
24.5682108581
 20
45.1257139737
 10
24.6174917951
 20
45.0922814205
 10
24.666772732
 20
45.0621566054
 10
24.7160536689
 20
45.0353730298
 10
24.7653346059
 20
45.0118971923
 10
24.8141180967
 20
44.9919660602
 10
24.8623991034
 20
44.9756155346
 10
24.910182664
 20
44.9628097144
 10
24.9569864472
 20
44.9536778626
  0
LWPOLYLINE
  5
2B7
100
AcDbEntity
  8
ASSI
100
AcDbPolyline
 62
7
  6
CONTINUOUS
 90
44
 70
0
 10
22.8919347112
 20
-61.5321010484
 10
22.8935858909
 20
-61.6008586669
 10
22.8984078984
 20
-61.6708361289
 10
22.9064007335
 20
-61.7420334344
 10
22.9176078416
 20
-61.814673764
 10
22.9319857773
 20
-61.8885339371
 10
22.9494042049
 20
-61.9629444121
 10
22.9698907699
 20
-62.0379101924
 10
22.9934178268
 20
-62.1134262745
 10
23.019772103
 20
-62.1888081058
 10
23.0489793048
 20
-62.2640544658
 10
23.081013726
 20
-62.3391665749
 10
23.1155849747
 20
-62.4134635429
 10
23.1527161171
 20
-62.4869379579
 10
23.1923840871
 20
-62.5595972316
 10
23.2342292949
 20
-62.6307827085
 10
23.278271537
 20
-62.7004809881
 10
23.324491017
 20
-62.7687054709
 10
23.3724687556
 20
-62.8348377025
 10
23.4222207399
 20
-62.8988586593
 10
23.473730983
 20
-62.960787365
 10
23.5265325449
 20
-63.0200624364
 10
23.5806371669
 20
-63.0766597456
 10
23.6360331079
 20
-63.1306034206
 10
23.692218204
 20
-63.1814044624
 10
23.7491996308
 20
-63.2290342969
 10
23.8069702128
 20
-63.2735214983
 10
23.8650062602
 20
-63.3144627906
 10
23.9233101869
 20
-63.3518259327
 10
23.9818795791
 20
-63.3856431657
 10
24.0401835057
 20
-63.4156079367
 10
24.0982195532
 20
-63.4416852173
 10
24.1559901352
 20
-63.4639100359
 10
24.2129715619
 20
-63.4820809247
 10
24.2691566581
 20
-63.4961610236
 10
24.324552599
 20
-63.5061871927
 10
24.3786572211
 20
-63.5120685448
 10
24.431458783
 20
-63.5137673936
 10
24.482969026
 20
-63.5113214254
 10
24.5327210103
 20
-63.504752813
 10
24.580698749
 20
-63.4940240714
 10
24.626918229
 20
-63.4791726856
 10
24.6709604711
 20
-63.4603332832
 10
24.7026237226
 20
-63.4435173082
  0
LWPOLYLINE
  5
2B8
100
AcDbEntity
  8
ASSI
100
AcDbPolyline
 62
7
  6
CONTINUOUS
 90
35
 70
0
 10
23.5990414924
 20
-61.1238264551
 10
23.6006926721
 20
-61.1925840735
 10
23.6055146796
 20
-61.2625615355
 10
23.6135075147
 20
-61.3337588411
 10
23.6247146227
 20
-61.4063991707
 10
23.6390925585
 20
-61.4802593438
 10
23.6565109861
 20
-61.5546698187
 10
23.6769975511
 20
-61.629635599
 10
23.700524608
 20
-61.7051516811
 10
23.7268788841
 20
-61.7805335125
 10
23.756086086
 20
-61.8557798724
 10
23.7881205072
 20
-61.9308919816
 10
23.8226917559
 20
-62.0051889495
 10
23.8598228983
 20
-62.0786633646
 10
23.8994908683
 20
-62.1513226383
 10
23.9413360761
 20
-62.2225081152
 10
23.9853783182
 20
-62.2922063948
 10
24.0315977981
 20
-62.3604308775
 10
24.0795755368
 20
-62.4265631092
 10
24.1293275211
 20
-62.490584066
 10
24.1808377642
 20
-62.5525127716
 10
24.2336393261
 20
-62.6117878431
 10
24.2877439481
 20
-62.6683851523
 10
24.3431398891
 20
-62.7223288272
 10
24.3993249852
 20
-62.7731298691
 10
24.456306412
 20
-62.8207597036
 10
24.514076994
 20
-62.865246905
 10
24.5721130414
 20
-62.9061881973
 10
24.6304169681
 20
-62.9435513394
 10
24.6889863603
 20
-62.9773685724
 10
24.7472902869
 20
-63.0073333434
 10
24.8053263344
 20
-63.033410624
 10
24.8630969164
 20
-63.0556354426
 10
24.9200783431
 20
-63.0738063314
 10
24.9672617794
 20
-63.085630596
  0
LWPOLYLINE
  5
2B9
100
AcDbEntity
  8
ASSI
100
AcDbPolyline
 62
7
  6
CONTINUOUS
 90
44
 70
0
 10
25.0132550548
 20
-62.7569248284
 10
25.011603875
 20
-62.6881672099
 10
25.0067818676
 20
-62.6181897479
 10
24.9987890325
 20
-62.5469924424
 10
24.9875819244
 20
-62.4743521128
 10
24.9732039886
 20
-62.4004919396
 10
24.955785561
 20
-62.3260814647
 10
24.935298996
 20
-62.2511156844
 10
24.9117719392
 20
-62.1755996023
 10
24.885417663
 20
-62.100217771
 10
24.8562104612
 20
-62.024971411
 10
24.82417604
 20
-61.9498593018
 10
24.7896047912
 20
-61.8755623339
 10
24.7524736489
 20
-61.8020879189
 10
24.7128056789
 20
-61.7294286451
 10
24.6709604711
 20
-61.6582431682
 10
24.626918229
 20
-61.5885448887
 10
24.580698749
 20
-61.5203204059
 10
24.5327210103
 20
-61.4541881743
 10
24.482969026
 20
-61.3901672175
 10
24.431458783
 20
-61.3282385118
 10
24.3786572211
 20
-61.2689634404
 10
24.324552599
 20
-61.2123661312
 10
24.2691566581
 20
-61.1584224562
 10
24.2129715619
 20
-61.1076214144
 10
24.1559901352
 20
-61.0599915799
 10
24.0982195532
 20
-61.0155043784
 10
24.0401835057
 20
-60.9745630861
 10
23.9818795791
 20
-60.937199944
 10
23.9233101869
 20
-60.9033827111
 10
23.8650062602
 20
-60.8734179401
 10
23.8069702128
 20
-60.8473406595
 10
23.7491996308
 20
-60.8251158409
 10
23.692218204
 20
-60.8069449521
 10
23.6360331079
 20
-60.7928648532
 10
23.5806371669
 20
-60.7828386841
 10
23.5265325449
 20
-60.7769573319
 10
23.473730983
 20
-60.7752584832
 10
23.4222207399
 20
-60.7777044514
 10
23.3724687556
 20
-60.7842730638
 10
23.324491017
 20
-60.7950018054
 10
23.278271537
 20
-60.8098531912
 10
23.2342292949
 20
-60.8286925936
 10
23.2025660434
 20
-60.8455085686
  0
LWPOLYLINE
  5
2BA
100
AcDbEntity
  8
ASSI
100
AcDbPolyline
 62
7
  6
CONTINUOUS
 90
44
 70
0
 10
22.8919347112
 20
46.2419754883
 10
22.8935858909
 20
46.1732178698
 10
22.8984078984
 20
46.1032404078
 10
22.9064007335
 20
46.0320431023
 10
22.9176078416
 20
45.9594027726
 10
22.9319857773
 20
45.8855425995
 10
22.9494042049
 20
45.8111321246
 10
22.9698907699
 20
45.7361663443
 10
22.9934178268
 20
45.6606502622
 10
23.019772103
 20
45.5852684308
 10
23.0489793048
 20
45.5100220709
 10
23.081013726
 20
45.4349099617
 10
23.1155849747
 20
45.3606129938
 10
23.1527161171
 20
45.2871385788
 10
23.1923840871
 20
45.214479305
 10
23.2342292949
 20
45.1432938281
 10
23.278271537
 20
45.0735955485
 10
23.324491017
 20
45.0053710658
 10
23.3724687556
 20
44.9392388342
 10
23.4222207399
 20
44.8752178774
 10
23.473730983
 20
44.8132891717
 10
23.5265325449
 20
44.7540141002
 10
23.5806371669
 20
44.6974167911
 10
23.6360331079
 20
44.6434731161
 10
23.692218204
 20
44.5926720742
 10
23.7491996308
 20
44.5450422397
 10
23.8069702128
 20
44.5005550383
 10
23.8650062602
 20
44.459613746
 10
23.9233101869
 20
44.4222506039
 10
23.9818795791
 20
44.3884333709
 10
24.0401835057
 20
44.3584685999
 10
24.0982195532
 20
44.3323913193
 10
24.1559901352
 20
44.3101665008
 10
24.2129715619
 20
44.2919956119
 10
24.2691566581
 20
44.2779155131
 10
24.324552599
 20
44.267889344
 10
24.3786572211
 20
44.2620079918
 10
24.431458783
 20
44.2603091431
 10
24.482969026
 20
44.2627551113
 10
24.5327210103
 20
44.2693237237
 10
24.580698749
 20
44.2800524653
 10
24.626918229
 20
44.2949038511
 10
24.6709604711
 20
44.3137432534
 10
24.7026237226
 20
44.3305592285
  0
LWPOLYLINE
  5
2BB
100
AcDbEntity
  8
ASSI
100
AcDbPolyline
 62
7
  6
CONTINUOUS
 90
35
 70
0
 10
23.5990414924
 20
46.6502500816
 10
23.6006926721
 20
46.5814924631
 10
23.6055146796
 20
46.5115150011
 10
23.6135075147
 20
46.4403176956
 10
23.6247146227
 20
46.367677366
 10
23.6390925585
 20
46.2938171928
 10
23.6565109861
 20
46.2194067179
 10
23.6769975511
 20
46.1444409376
 10
23.700524608
 20
46.0689248555
 10
23.7268788841
 20
45.9935430242
 10
23.756086086
 20
45.9182966642
 10
23.7881205072
 20
45.843184555
 10
23.8226917559
 20
45.7688875871
 10
23.8598228983
 20
45.6954131721
 10
23.8994908683
 20
45.6227538983
 10
23.9413360761
 20
45.5515684214
 10
23.9853783182
 20
45.4818701418
 10
24.0315977981
 20
45.4136456591
 10
24.0795755368
 20
45.3475134275
 10
24.1293275211
 20
45.2834924707
 10
24.1808377642
 20
45.221563765
 10
24.2336393261
 20
45.1622886936
 10
24.2877439481
 20
45.1056913844
 10
24.3431398891
 20
45.0517477094
 10
24.3993249852
 20
45.0009466676
 10
24.456306412
 20
44.953316833
 10
24.514076994
 20
44.9088296316
 10
24.5721130414
 20
44.8678883393
 10
24.6304169681
 20
44.8305251972
 10
24.6889863603
 20
44.7967079643
 10
24.7472902869
 20
44.7667431933
 10
24.8053263344
 20
44.7406659127
 10
24.8630969164
 20
44.7184410941
 10
24.9200783431
 20
44.7002702053
 10
24.9672617794
 20
44.6884459406
  0
LWPOLYLINE
  5
2BC
100
AcDbEntity
  8
ASSI
100
AcDbPolyline
 62
7
  6
CONTINUOUS
 90
44
 70
0
 10
25.0132550548
 20
45.0171517083
 10
25.011603875
 20
45.0859093267
 10
25.0067818676
 20
45.1558867887
 10
24.9987890325
 20
45.2270840943
 10
24.9875819244
 20
45.2997244239
 10
24.9732039886
 20
45.373584597
 10
24.955785561
 20
45.4479950719
 10
24.935298996
 20
45.5229608522
 10
24.9117719392
 20
45.5984769343
 10
24.885417663
 20
45.6738587657
 10
24.8562104612
 20
45.7491051256
 10
24.82417604
 20
45.8242172348
 10
24.7896047912
 20
45.8985142027
 10
24.7524736489
 20
45.9719886178
 10
24.7128056789
 20
46.0446478915
 10
24.6709604711
 20
46.1158333684
 10
24.626918229
 20
46.185531648
 10
24.580698749
 20
46.2537561307
 10
24.5327210103
 20
46.3198883624
 10
24.482969026
 20
46.3839093191
 10
24.431458783
 20
46.4458380248
 10
24.3786572211
 20
46.5051130963
 10
24.324552599
 20
46.5617104055
 10
24.2691566581
 20
46.6156540804
 10
24.2129715619
 20
46.6664551223
 10
24.1559901352
 20
46.7140849568
 10
24.0982195532
 20
46.7585721582
 10
24.0401835057
 20
46.7995134505
 10
23.9818795791
 20
46.8368765926
 10
23.9233101869
 20
46.8706938256
 10
23.8650062602
 20
46.9006585966
 10
23.8069702128
 20
46.9267358772
 10
23.7491996308
 20
46.9489606958
 10
23.692218204
 20
46.9671315846
 10
23.6360331079
 20
46.9812116834
 10
23.5806371669
 20
46.9912378525
 10
23.5265325449
 20
46.9971192047
 10
23.473730983
 20
46.9988180534
 10
23.4222207399
 20
46.9963720852
 10
23.3724687556
 20
46.9898034728
 10
23.324491017
 20
46.9790747312
 10
23.278271537
 20
46.9642233454
 10
23.2342292949
 20
46.9453839431
 10
23.2025660434
 20
46.928567968
  0
LINE
  5
2BD
100
AcDbEntity
  8
ASSI
100
AcDbLine
 62
253
  6
CONTINUOUS
 10
25.6567222256
 20
63.9614273661
 11
25.6567222256
 21
62.3284868125
  0
LINE
  5
2BE
100
AcDbEntity
  8
0
100
AcDbLine
 62
253
  6
CONTINUOUS
 10
-16.8121110524
 20
-31.6674852803
 11
-16.1050042712
 21
-31.259210687
  0
LINE
  5
2BF
100
AcDbEntity
  8
ASSI
100
AcDbLine
 62
7
  6
CONTINUOUS
 10
-15.4079963167
 20
-31.1602230235
 11
-16.1151030978
 21
-31.5684976168
  0
LINE
  5
2C0
100
AcDbEntity
  8
0
100
AcDbLine
 62
253
  6
CONTINUOUS
 10
-13.9836839277
 20
-32.9739955429
 11
-13.2765771465
 21
-32.5657209496
  0
LINE
  5
2C1
100
AcDbEntity
  8
0
100
AcDbLine
 62
253
  6
CONTINUOUS
 10
-13.4179985027
 20
-33.6272033283
 11
-12.7108917215
 21
-33.218928735
  0
LWPOLYLINE
  5
2C2
100
AcDbEntity
  8
0
100
AcDbPolyline
 62
7
  6
CONTINUOUS
 90
14
 70
0
 10
-16.3120907734
 20
-31.7170197392
 10
-16.3343594955
 20
-31.7287884974
 10
-16.3674444615
 20
-31.742562053
 10
-16.4023500105
 20
-31.7529906494
 10
-16.4386786103
 20
-31.7599555174
 10
-16.4764465296
 20
-31.763417059
 10
-16.5156374996
 20
-31.7634148723
 10
-16.5558051826
 20
-31.759948982
 10
-16.5969607444
 20
-31.7529797906
 10
-16.6390930191
 20
-31.7425468956
 10
-16.6817221708
 20
-31.7287691153
 10
-16.7246882543
 20
-31.7116860557
 10
-16.7681512148
 20
-31.6912581107
 10
-16.8121110524
 20
-31.6674852803
  0
LWPOLYLINE
  5
2C3
100
AcDbEntity
  8
0
100
AcDbPolyline
 62
7
  6
CONTINUOUS
 90
9
 70
0
 10
34.3213223351
 20
21.1077202931
 10
34.2433617265
 20
21.1113932225
 10
34.1670458389
 20
21.1097042083
 10
34.0929113389
 20
21.1026658967
 10
34.0209736344
 20
21.090240603
 10
33.9512173174
 20
21.0724660118
 10
33.8841328313
 20
21.0494678229
 10
33.819739029
 20
21.0212092469
 10
33.7691658613
 20
20.9942762858
  0
LINE
  5
2C4
100
AcDbEntity
  8
0
100
AcDbLine
 62
7
  6
CONTINUOUS
 10
34.3777822556
 20
21.1012948987
 11
34.3213223351
 21
21.1077202931
  0
LINE
  5
2C5
100
AcDbEntity
  8
ASSI
100
AcDbLine
 62
253
  6
CONTINUOUS
 10
-53.998856675
 20
53.0635676663
 11
-52.5846431126
 21
52.2470184796
  0
LINE
  5
2C6
100
AcDbEntity
  8
ASSI
100
AcDbLine
 62
253
  6
CONTINUOUS
 10
37.217918098
 20
0.396145127
 11
35.8037045357
 21
1.2126943137
  0
LWPOLYLINE
  5
2C7
100
AcDbEntity
  8
0
100
AcDbPolyline
 62
7
  6
CONTINUOUS
 90
22
 70
0
 10
-21.6611317228
 20
52.7119637769
 10
-21.7036429611
 20
52.7512901322
 10
-21.7449660174
 20
52.7927875498
 10
-21.7851008915
 20
52.8364560295
 10
-21.8241941571
 20
52.8824819425
 10
-21.8620992406
 20
52.9306789176
 10
-21.8983764212
 20
52.9804878424
 10
-21.933006741
 20
53.031927489
 10
-21.966009158
 20
53.0849790853
 10
-21.9970008252
 20
53.1390272022
 10
-22.0259583261
 20
53.1940834449
 10
-22.0529050772
 20
53.2501362082
 10
-22.0775284806
 20
53.306535248
 10
-22.0998014796
 20
53.3632845969
 10
-22.119751131
 20
53.4203802221
 10
-22.1371460074
 20
53.4771597817
 10
-22.1519563568
 20
53.533619595
 10
-22.1642119311
 20
53.5897633426
 10
-22.1737705588
 20
53.6449397249
 10
-22.1805848491
 20
53.698931642
 10
-22.1847021926
 20
53.7519561937
 10
-22.1861225894
 20
53.8040133801
  0
LINE
  5
2C8
100
AcDbEntity
  8
0
100
AcDbLine
 62
7
  6
CONTINUOUS
 10
34.3824199055
 20
31.8510457171
 11
34.3824199055
 21
21.1420459139
  0
LINE
  5
2C9
100
AcDbEntity
  8
0
100
AcDbLine
 62
7
  6
CONTINUOUS
 10
34.3824199055
 20
15.6165263862
 11
34.3824199055
 21
-44.1755762296
  0
LINE
  5
2CA
100
AcDbEntity
  8
0
100
AcDbLine
 62
7
  6
CONTINUOUS
 10
34.3824199055
 20
-49.7010957572
 11
34.3824199055
 21
-60.4100955604
  0
LWPOLYLINE
  5
2CB
100
AcDbEntity
  8
0
100
AcDbPolyline
 62
7
  6
CONTINUOUS
 90
14
 70
0
 10
34.3824199055
 20
21.1420459139
 10
34.3809995087
 20
21.0916289661
 10
34.3768821651
 20
21.0433590195
 10
34.3700678748
 20
20.9972360741
 10
34.3605092472
 20
20.9530977554
 10
34.3482536728
 20
20.9111064378
 10
34.3334433234
 20
20.8717492448
 10
34.3160484471
 20
20.8350568524
 10
34.2960987957
 20
20.8009985845
 10
34.2738257967
 20
20.7699695367
 10
34.2492023932
 20
20.742004986
 10
34.2222556422
 20
20.7170696553
 10
34.1932981412
 20
20.6954528088
 10
34.175331589
 20
20.684318923
  0
LWPOLYLINE
  5
2CC
100
AcDbEntity
  8
0
100
AcDbPolyline
 62
7
  6
CONTINUOUS
 90
14
 70
0
 10
34.3824199055
 20
-44.1755762296
 10
34.3809995087
 20
-44.2259931773
 10
34.3768821651
 20
-44.2742631239
 10
34.3700678748
 20
-44.3203860693
 10
34.3605092472
 20
-44.3645243881
 10
34.3482536728
 20
-44.4065157056
 10
34.3334433234
 20
-44.4458728986
 10
34.3160484471
 20
-44.482565291
 10
34.2960987957
 20
-44.5166235589
 10
34.2738257967
 20
-44.5476526068
 10
34.2492023932
 20
-44.5756171575
 10
34.2222556422
 20
-44.6005524881
 10
34.1932981412
 20
-44.6221693346
 10
34.175331589
 20
-44.6333032204
  0
LWPOLYLINE
  5
2CD
100
AcDbEntity
  8
ASSI
100
AcDbPolyline
 62
7
  6
CONTINUOUS
 90
16
 70
0
 10
-12.5063264066
 20
-40.2276416056
 10
-12.5165083628
 20
-40.2336893103
 10
-12.5561763328
 20
-40.2605410067
 10
-12.5933074752
 20
-40.2911373092
 10
-12.6278787239
 20
-40.3255122656
 10
-12.6599131451
 20
-40.3636318282
 10
-12.689120347
 20
-40.4051504436
 10
-12.7154746231
 20
-40.4500990174
 10
-12.73900168
 20
-40.498446644
 10
-12.759488245
 20
-40.5497550525
 10
-12.7769066726
 20
-40.6040511639
 10
-12.7912846084
 20
-40.6613080572
 10
-12.8024917164
 20
-40.7210066993
 10
-12.8104845515
 20
-40.7829740792
 10
-12.815306559
 20
-40.8473832079
 10
-12.8169577387
 20
-40.9142340854
  0
LWPOLYLINE
  5
2CE
100
AcDbEntity
  8
ASSI
100
AcDbPolyline
 62
7
  6
CONTINUOUS
 90
16
 70
0
 10
-11.0062687273
 20
-42.8256503451
 10
-10.996086771
 20
-42.8196026404
 10
-10.956418801
 20
-42.792750944
 10
-10.9192876587
 20
-42.7621546415
 10
-10.8847164099
 20
-42.7277796851
 10
-10.8526819888
 20
-42.6896601225
 10
-10.8234747869
 20
-42.6481415071
 10
-10.7971205107
 20
-42.6031929333
 10
-10.7735934539
 20
-42.5548453067
 10
-10.7531068889
 20
-42.5035368982
 10
-10.7356884613
 20
-42.4492407868
 10
-10.7213105255
 20
-42.3919838935
 10
-10.7101034174
 20
-42.3322852514
 10
-10.7021105823
 20
-42.2703178715
 10
-10.6972885749
 20
-42.2059087428
 10
-10.6956373952
 20
-42.1390578653
  0
LINE
  5
2CF
100
AcDbEntity
  8
ASSI
100
AcDbLine
 62
253
  6
CONTINUOUS
 10
-12.1098509575
 20
-40.505959492
 11
-12.8169577387
 21
-40.9142340854
  0
LINE
  5
2D0
100
AcDbEntity
  8
ASSI
100
AcDbLine
 62
253
  6
CONTINUOUS
 10
-11.5623835537
 20
-40.4348234304
 11
-11.8906478554
 21
-40.6243591241
  0
LINE
  5
2D1
100
AcDbEntity
  8
0
100
AcDbLine
 62
7
  6
CONTINUOUS
 10
-43.4629656353
 20
-65.7501488545
 11
-37.3889183849
 21
-62.2430700978
  0
LWPOLYLINE
  5
2D2
100
AcDbEntity
  8
0
100
AcDbPolyline
 62
7
  6
CONTINUOUS
 90
12
 70
0
 10
33.8574290388
 20
20.6562426042
 10
33.7747131562
 20
20.6760055796
 10
33.6936419946
 20
20.6904066115
 10
33.6142155539
 20
20.6994456998
 10
33.5362549454
 20
20.7031186292
 10
33.4599390578
 20
20.701429615
 10
33.3858045578
 20
20.6943913033
 10
33.3138668532
 20
20.6819660097
 10
33.2441105362
 20
20.6641914185
 10
33.1770260501
 20
20.6411932295
 10
33.1126322478
 20
20.6129346536
 10
33.0620590801
 20
20.5860016925
  0
LWPOLYLINE
  5
2D3
100
AcDbEntity
  8
0
100
AcDbPolyline
 62
7
  6
CONTINUOUS
 90
22
 70
0
 10
33.8574290388
 20
16.7085759894
 10
33.8999402772
 20
16.6692496341
 10
33.9412633334
 20
16.6277522166
 10
33.9813982076
 20
16.5840837368
 10
34.0204914731
 20
16.5380578239
 10
34.0583965566
 20
16.4898608487
 10
34.0946737372
 20
16.4400519239
 10
34.1293040571
 20
16.3886122773
 10
34.1623064741
 20
16.3355606811
 10
34.1932981412
 20
16.2815125642
 10
34.2222556422
 20
16.2264563215
 10
34.2492023932
 20
16.1704035581
 10
34.2738257967
 20
16.1140045183
 10
34.2960987957
 20
16.0572551695
 10
34.3160484471
 20
16.0001595442
 10
34.3334433234
 20
15.9433799846
 10
34.3482536728
 20
15.8869201714
 10
34.3605092472
 20
15.8307764237
 10
34.3700678748
 20
15.7756000414
 10
34.3768821651
 20
15.7216081244
 10
34.3809995087
 20
15.6685835726
 10
34.3824199055
 20
15.6165263862
  0
LINE
  5
2D4
100
AcDbEntity
  8
ASSI
100
AcDbLine
 62
7
  6
CONTINUOUS
 10
39.9585797839
 20
-10.9370542215
 11
37.5927899396
 21
-6.7022354855
  0
LINE
  5
2D5
100
AcDbEntity
  8
ASSI
100
AcDbLine
 62
7
  6
CONTINUOUS
 10
41.3727933463
 20
-11.7536034082
 11
39.007003502
 21
-7.5187846722
  0
LWPOLYLINE
  5
2D6
100
AcDbEntity
  8
ASSI
100
AcDbPolyline
 62
7
  6
CONTINUOUS
 90
19
 70
0
 10
37.5927899396
 20
-6.7022354855
 10
37.4023154002
 20
-6.346407434
 10
37.222277305
 20
-5.9797661216
 10
37.0526756538
 20
-5.6023115482
 10
36.8934159659
 20
-5.2137901949
 10
36.7445927221
 20
-4.8144555807
 10
36.6064893654
 20
-4.4050682625
 10
36.4791263253
 20
-3.9856090824
 10
36.3624831724
 20
-3.5560971984
 10
36.2567820605
 20
-3.117350642
 10
36.1620438426
 20
-2.6693518141
 10
36.0782476658
 20
-2.2121183139
 10
36.005553125
 20
-1.7465209703
 10
35.9439813773
 20
-1.2725438439
 10
35.8935112656
 20
-0.790202874
 10
35.8542389132
 20
-0.3004167086
 10
35.8261963613
 20
0.1965084365
 10
35.8093515688
 20
0.7008787773
 10
35.8037045357
 20
1.2126943137
  0
LWPOLYLINE
  5
2D7
100
AcDbEntity
  8
ASSI
100
AcDbPolyline
 62
7
  6
CONTINUOUS
 90
19
 70
0
 10
39.9585797839
 20
-10.9370542215
 10
40.1109594154
 20
-11.2217166627
 10
40.2549898916
 20
-11.5150297127
 10
40.3906712125
 20
-11.8169933714
 10
40.5180789629
 20
-12.127810454
 10
40.6371375579
 20
-12.4472781454
 10
40.7476202433
 20
-12.7747879999
 10
40.8495106753
 20
-13.110355344
 10
40.9428251977
 20
-13.4539648512
 10
41.0273860872
 20
-13.8049620963
 10
41.1031766615
 20
-14.1633611586
 10
41.1702136029
 20
-14.5291479588
 10
41.2283692356
 20
-14.9016258337
 10
41.2776266337
 20
-15.2808075349
 10
41.3180027231
 20
-15.6666803107
 10
41.349420605
 20
-16.0585092431
 10
41.3718546465
 20
-16.4560493592
 10
41.3853304805
 20
-16.8595456318
 10
41.389848107
 20
-17.2689980609
  0
LWPOLYLINE
  5
2D8
100
AcDbEntity
  8
ASSI
100
AcDbPolyline
 62
7
  6
CONTINUOUS
 90
19
 70
0
 10
39.007003502
 20
-7.5187846722
 10
38.8165289626
 20
-7.1629566207
 10
38.6364908673
 20
-6.7963153082
 10
38.4668892162
 20
-6.4188607349
 10
38.3076295283
 20
-6.0303393816
 10
38.1588062845
 20
-5.6310047673
 10
38.0207029277
 20
-5.2216174492
 10
37.8933398877
 20
-4.8021582691
 10
37.7766967348
 20
-4.372646385
 10
37.6709956228
 20
-3.9338998287
 10
37.576257405
 20
-3.4859010008
 10
37.4924612282
 20
-3.0286675006
 10
37.4197666874
 20
-2.563070157
 10
37.3581949397
 20
-2.0890930305
 10
37.307724828
 20
-1.6067520607
 10
37.2684524756
 20
-1.1169658953
 10
37.2404099237
 20
-0.6200407501
 10
37.2235651312
 20
-0.1156704094
 10
37.217918098
 20
0.396145127
  0
LWPOLYLINE
  5
2D9
100
AcDbEntity
  8
ASSI
100
AcDbPolyline
 62
7
  6
CONTINUOUS
 90
19
 70
0
 10
41.3727933463
 20
-11.7536034082
 10
41.5251729778
 20
-12.0382658494
 10
41.669203454
 20
-12.3315788993
 10
41.8048847749
 20
-12.633542558
 10
41.9322925252
 20
-12.9443596407
 10
42.0513511203
 20
-13.2638273321
 10
42.1618338057
 20
-13.5913371866
 10
42.2637242377
 20
-13.9269045307
 10
42.3570387601
 20
-14.2705140379
 10
42.4415996496
 20
-14.621511283
 10
42.5173902239
 20
-14.9799103453
 10
42.5844271653
 20
-15.3456971455
 10
42.642582798
 20
-15.7181750203
 10
42.6918401961
 20
-16.0973567215
 10
42.7322162855
 20
-16.4832294974
 10
42.7636341674
 20
-16.8750584297
 10
42.7860682089
 20
-17.2725985458
 10
42.7995440429
 20
-17.6760948184
 10
42.8040616694
 20
-18.0855472475
  0
LWPOLYLINE
  5
2DA
100
AcDbEntity
  8
0
100
AcDbPolyline
 62
7
  6
CONTINUOUS
 90
21
 70
0
 10
42.8040616694
 20
-115.5600437898
 10
42.806967661
 20
-115.7231875494
 10
42.8155603353
 20
-115.8822506081
 10
42.8298396923
 20
-116.037232966
 10
42.8498472957
 20
-116.1883725097
 10
42.8755415818
 20
-116.3354313527
 10
42.9067978592
 20
-116.4776958348
 10
42.9436431631
 20
-116.6151426518
 10
42.9860504583
 20
-116.7477951079
 10
43.0338139467
 20
-116.8750094557
 10
43.0869596637
 20
-116.9967592619
 10
43.145461574
 20
-117.1130709598
 10
43.2090357744
 20
-117.2233801016
 10
43.2777069202
 20
-117.3276575107
 10
43.351450356
 20
-117.4259323637
 10
43.4299082135
 20
-117.517727744
 10
43.513103408
 20
-117.6030121564
 10
43.6010130241
 20
-117.681817096
 10
43.6932104462
 20
-117.7537601313
 10
43.7897165164
 20
-117.8188079084
 10
43.8394872499
 20
-117.8487064892
  0
LINE
  5
2DB
100
AcDbEntity
  8
ASSI
100
AcDbLine
 62
7
  6
CONTINUOUS
 10
35.8037045357
 20
1.2126943137
 11
35.8037045357
 21
50.2240131289
  0
LINE
  5
2DC
100
AcDbEntity
  8
ASSI
100
AcDbLine
 62
7
  6
CONTINUOUS
 10
37.217918098
 20
0.396145127
 11
37.217918098
 21
49.4074639422
  0
LINE
  5
2DD
100
AcDbEntity
  8
0
100
AcDbLine
 62
7
  6
CONTINUOUS
 10
41.389848107
 20
-114.7434946032
 11
41.389848107
 21
-17.2689980609
  0
LINE
  5
2DE
100
AcDbEntity
  8
0
100
AcDbLine
 62
7
  6
CONTINUOUS
 10
42.8040616694
 20
-115.5600437898
 11
42.8040616694
 21
-18.0855472475
  0
LWPOLYLINE
  5
2DF
100
AcDbEntity
  8
0
100
AcDbPolyline
 62
7
  6
CONTINUOUS
 90
15
 70
0
 10
34.3824199055
 20
-60.4100955604
 10
34.3811900224
 20
-60.4571236189
 10
34.3776091755
 20
-60.5023156079
 10
34.3716773646
 20
-60.5456715277
 10
34.3633586898
 20
-60.5873253527
 10
34.3526890511
 20
-60.6271431084
 10
34.3397761487
 20
-60.6647228708
 10
34.3245972625
 20
-60.7000419733
 10
34.3071751127
 20
-60.7331230826
 10
34.28768556
 20
-60.7636322751
 10
34.2661076653
 20
-60.791543502
 10
34.2424623676
 20
-60.8168828121
 10
34.2169883447
 20
-60.8393944282
 10
34.1896670749
 20
-60.859049711
 10
34.1753264375
 20
-60.8678136353
  0
LWPOLYLINE
  5
2E0
100
AcDbEntity
  8
ASSI
100
AcDbPolyline
 62
7
  6
CONTINUOUS
 90
7
 70
0
 10
23.6450347678
 20
-60.7951206874
 10
23.6390925585
 20
-60.8136435336
 10
23.6247146227
 20
-60.8709004269
 10
23.6135075147
 20
-60.930599069
 10
23.6055146796
 20
-60.9925664489
 10
23.6006926721
 20
-61.0569755776
 10
23.5990414924
 20
-61.1238264551
  0
LWPOLYLINE
  5
2E1
100
AcDbEntity
  8
0
100
AcDbPolyline
 62
7
  6
CONTINUOUS
 90
12
 70
0
 10
-21.6611317228
 20
48.7642971622
 10
-21.5784158402
 20
48.7445341867
 10
-21.4973446786
 20
48.7301331549
 10
-21.4179182379
 20
48.7210940665
 10
-21.3399576293
 20
48.7174211372
 10
-21.2636417417
 20
48.7191101513
 10
-21.1895072417
 20
48.726148463
 10
-21.1175695371
 20
48.7385737567
 10
-21.0478132202
 20
48.7563483479
 10
-20.9807287341
 20
48.7793465368
 10
-20.9163349318
 20
48.8076051128
 10
-20.865761764
 20
48.8345380739
  0
LWPOLYLINE
  5
2E2
100
AcDbEntity
  8
0
100
AcDbPolyline
 62
7
  6
CONTINUOUS
 90
15
 70
0
 10
-16.8121110524
 20
62.2265965509
 10
-16.7681512148
 20
62.1996056627
 10
-16.7246882543
 20
62.1698436703
 10
-16.6817221708
 20
62.1373105737
 10
-16.6390930191
 20
62.1018612782
 10
-16.5969607444
 20
62.0636408783
 10
-16.5558051826
 20
62.0230846586
 10
-16.5156374996
 20
61.9801659154
 10
-16.4764465296
 20
61.9349113523
 10
-16.4386786103
 20
61.8878363642
 10
-16.4023500105
 20
61.8389201398
 10
-16.3674444615
 20
61.7881834903
 10
-16.3343594955
 20
61.7362042453
 10
-16.3032276232
 20
61.6831750143
 10
-16.2739163338
 20
61.6289031877
  0
LWPOLYLINE
  5
2E3
100
AcDbEntity
  8
0
100
AcDbPolyline
 62
7
  6
CONTINUOUS
 90
35
 70
0
 10
26.1524905374
 20
37.1324275881
 10
26.2253917299
 20
36.9844702427
 10
26.2734172158
 20
36.8936123856
 10
26.3240577015
 20
36.8043395947
 10
26.377460901
 20
36.716423932
 10
26.4334791002
 20
36.6300933353
 10
26.4916691569
 20
36.5460316186
 10
26.5520483236
 20
36.4642566869
 10
26.6145993477
 20
36.3847506352
 10
26.6788273288
 20
36.308143561
 10
26.7447456213
 20
36.2344583535
 10
26.8123408706
 20
36.1636721236
 10
26.8810781133
 20
36.0963463024
 10
26.9509664875
 20
36.0325082272
 10
27.0219968549
 20
35.9721305607
 10
27.0936068371
 20
35.9156927224
 10
27.1658021795
 20
35.863225443
 10
27.2385771365
 20
35.8146979918
 10
27.3113520936
 20
35.7704975951
 10
27.3841270507
 20
35.7306592955
 10
27.4569020078
 20
35.6951480505
 10
27.5290973501
 20
35.6642459581
 10
27.6007073323
 20
35.637990384
 10
27.6717376998
 20
35.6163439626
 10
27.741626074
 20
35.5994766951
 10
27.8103633166
 20
35.5874264714
 10
27.877958566
 20
35.5801554017
 10
27.9438768584
 20
35.5777198174
 10
28.0081048395
 20
35.5801580289
 10
28.0706558636
 20
35.5874317259
 10
28.1310350304
 20
35.5994823093
 10
28.189225087
 20
35.6163476072
 10
28.2452432863
 20
35.6379897915
 10
28.2986464858
 20
35.6642367781
 10
28.3113999783
 20
35.671415994
  0
LWPOLYLINE
  5
2E4
100
AcDbEntity
  8
ASSI
100
AcDbPolyline
 62
7
  6
CONTINUOUS
 90
9
 70
0
 10
23.8914632155
 20
-60.8870152508
 10
23.8876317661
 20
-60.8942903917
 10
23.8694171027
 20
-60.9366733147
 10
23.8539216199
 20
-60.9817690297
 10
23.8411180534
 20
-61.0295503365
 10
23.8311356436
 20
-61.0795349265
 10
23.8240174706
 20
-61.1315620301
 10
23.8197204542
 20
-61.185792417
 10
23.8182445946
 20
-61.2422260871
  0
LWPOLYLINE
  5
2E5
100
AcDbEntity
  8
ASSI
100
AcDbPolyline
 62
7
  6
CONTINUOUS
 90
3
 70
0
 10
24.9569864472
 20
44.9536778626
 10
25.0028005296
 20
44.9482571896
 10
25.0114257203
 20
44.9479211599
  0
LWPOLYLINE
  5
2E6
100
AcDbEntity
  8
0
100
AcDbPolyline
 62
7
  6
CONTINUOUS
 90
13
 70
0
 10
-5.0387831457
 20
55.428824572
 10
-5.0038539458
 20
55.4100144846
 10
-4.9693665234
 20
55.394023941
 10
-4.9353208784
 20
55.3808529411
 10
-4.9015754108
 20
55.3704693243
 10
-4.8682717207
 20
55.3629052512
 10
-4.8358346081
 20
55.3582572043
 10
-4.8042751739
 20
55.3565625373
 10
-4.7735823172
 20
55.3577838965
 10
-4.7441475363
 20
55.361905703
 10
-4.7159869467
 20
55.3689651109
 10
-4.6890844329
 20
55.3789249662
 10
-4.6637650256
 20
55.3916686887
  0
LWPOLYLINE
  5
2E7
100
AcDbEntity
  8
0
100
AcDbPolyline
 62
7
  6
CONTINUOUS
 90
13
 70
0
 10
-4.3246052967
 20
55.4329467728
 10
-4.2896760968
 20
55.4141366854
 10
-4.2551886744
 20
55.3981461418
 10
-4.2211430294
 20
55.384975142
 10
-4.1873975618
 20
55.3745915251
 10
-4.1540938717
 20
55.3670274521
 10
-4.1216567591
 20
55.3623794052
 10
-4.0900973249
 20
55.3606847382
 10
-4.0594044682
 20
55.3619060973
 10
-4.0299696873
 20
55.3660279038
 10
-4.0018090977
 20
55.3730873118
 10
-3.9749065839
 20
55.3830471671
 10
-3.9495871766
 20
55.3957908896
  0
LINE
  5
2E8
100
AcDbEntity
  8
0
100
AcDbLine
 62
7
  6
CONTINUOUS
 10
-21.4790158082
 20
64.9212088668
 11
-16.8121110524
 21
62.2265965509
  0
LINE
  5
2E9
100
AcDbEntity
  8
0
100
AcDbLine
 62
7
  6
CONTINUOUS
 10
-13.4179985027
 20
60.2668785029
 11
-5.0387831457
 21
55.428824572
  0
LINE
  5
2EA
100
AcDbEntity
  8
0
100
AcDbLine
 62
7
  6
CONTINUOUS
 10
17.2350804617
 20
42.5681748821
 11
25.6142958188
 21
37.7301209512
  0
LINE
  5
2EB
100
AcDbEntity
  8
0
100
AcDbLine
 62
7
  6
CONTINUOUS
 10
29.0084083685
 20
35.7704029032
 11
33.6753131243
 21
33.0757905873
  0
LINE
  5
2EC
100
AcDbEntity
  8
0
100
AcDbLine
 62
7
  6
CONTINUOUS
 10
-4.4584395947
 20
55.5102210192
 11
-4.3246052967
 21
55.4329467728
  0
LINE
  5
2ED
100
AcDbEntity
  8
0
100
AcDbLine
 62
7
  6
CONTINUOUS
 10
-3.9781229739
 20
56.0411180972
 11
16.1744202899
 21
44.4052921873
  0
LWPOLYLINE
  5
2EE
100
AcDbEntity
  8
0
100
AcDbPolyline
 62
7
  6
CONTINUOUS
 90
28
 70
0
 10
33.6753131243
 20
33.0757905873
 10
33.7166569307
 20
33.0504990908
 10
33.7575861986
 20
33.0227323717
 10
33.7981009283
 20
32.99249043
 10
33.8383351005
 20
32.9596544544
 10
33.8781547343
 20
32.9243432562
 10
33.917157887
 20
32.8869132697
 10
33.9553362889
 20
32.8473430356
 10
33.9926982097
 20
32.8056540131
 10
34.0288665149
 20
32.7622670149
 10
34.0638291153
 20
32.7171648437
 10
34.0975981
 20
32.6703646969
 10
34.129832602
 20
32.622338979
 10
34.1605170798
 20
32.5730752775
 10
34.1896670749
 20
32.522586005
 10
34.2169883447
 20
32.4713808046
 10
34.2424623676
 20
32.4194524253
 10
34.2661076653
 20
32.3668081182
 10
34.28768556
 20
32.3139792793
 10
34.3071751127
 20
32.2609640399
 10
34.3245972625
 20
32.2077642687
 10
34.3397761487
 20
32.154916969
 10
34.3526890511
 20
32.1024257105
 10
34.3633586898
 20
32.0502869235
 10
34.3716773646
 20
31.9990269013
 10
34.3776091755
 20
31.9488210751
 10
34.3811900224
 20
31.8994940137
 10
34.3824199055
 20
31.8510457171
  0
LWPOLYLINE
  5
2EF
100
AcDbEntity
  8
0
100
AcDbPolyline
 62
7
  6
CONTINUOUS
 90
15
 70
0
 10
25.6142958188
 20
37.7301209512
 10
25.6582556563
 20
37.703130063
 10
25.7017186169
 20
37.6733680707
 10
25.7446847004
 20
37.6408349741
 10
25.7873138521
 20
37.6053856785
 10
25.8294461268
 20
37.5671652787
 10
25.8706016886
 20
37.5266090589
 10
25.9107693716
 20
37.4836903158
 10
25.9499603416
 20
37.4384357526
 10
25.9877282609
 20
37.3913607646
 10
26.0240568607
 20
37.3424445401
 10
26.0589624097
 20
37.2917078907
 10
26.0920473757
 20
37.2397286456
 10
26.123179248
 20
37.1866994147
 10
26.1524905374
 20
37.1324275881
  0
LWPOLYLINE
  5
2F0
100
AcDbEntity
  8
0
100
AcDbPolyline
 62
7
  6
CONTINUOUS
 90
24
 70
0
 10
16.1744202899
 20
44.4052921873
 10
16.2093494898
 20
44.3837669103
 10
16.2438369122
 20
44.3599322429
 10
16.2778825572
 20
44.3337881853
 10
16.3116280248
 20
44.3052033821
 10
16.3449317149
 20
44.2743091885
 10
16.3773688275
 20
44.2414996709
 10
16.4089282617
 20
44.2067502943
 10
16.4396211184
 20
44.1700855936
 10
16.4690558993
 20
44.1319732399
 10
16.4972164889
 20
44.092394689
 10
16.5241190027
 20
44.051368485
 10
16.5494202899
 20
44.0094179316
 10
16.5730998391
 20
43.9665311879
 10
16.5951781616
 20
43.9227200947
 10
16.6153736408
 20
43.8785434778
 10
16.6336621578
 20
43.8339966548
 10
16.6500678315
 20
43.7890843082
 10
16.6643814018
 20
43.7443793104
 10
16.6765760691
 20
43.6998843176
 10
16.6866786331
 20
43.6555966737
 10
16.6945602319
 20
43.612081283
 10
16.7001779117
 20
43.569526447
 10
16.7035746263
 20
43.5277438643
  0
LINE
  5
2F1
100
AcDbEntity
  8
0
100
AcDbLine
 62
253
  6
CONTINUOUS
 10
53.1278206747
 20
58.5936422921
 11
53.1278206747
 21
-113.6815861112
  0
LINE
  5
2F2
100
AcDbEntity
  8
RACCORDO
100
AcDbLine
 62
7
  6
CONTINUOUS
 10
53.9056381341
 20
61.4925418335
 11
53.9056381341
 21
61.4339682404
  0
LINE
  5
2F3
100
AcDbEntity
  8
0
100
AcDbLine
 62
7
  6
CONTINUOUS
 10
54.0065003312
 20
59.8184660721
 11
54.0065003312
 21
-112.4567623312
  0
LWPOLYLINE
  5
2F4
100
AcDbEntity
  8
0
100
AcDbPolyline
 62
7
  6
CONTINUOUS
 90
4
 70
0
 10
26.1799812437
 20
-56.1639924439
 10
26.1524905374
 20
-56.1877612875
 10
26.123179248
 20
-56.2081851719
 10
26.1143160978
 20
-56.2134953388
  0
LWPOLYLINE
  5
2F5
100
AcDbEntity
  8
0
100
AcDbPolyline
 62
7
  6
CONTINUOUS
 90
4
 70
0
 10
26.3113042089
 20
-56.0649739708
 10
26.2734172158
 20
-56.0885891822
 10
26.2253917299
 20
-56.123988412
 10
26.1799812437
 20
-56.1639924439
  0
LWPOLYLINE
  5
2F6
100
AcDbEntity
  8
0
100
AcDbPolyline
 62
7
  6
CONTINUOUS
 90
45
 70
0
 10
33.0620590801
 20
-44.731620451
 10
33.0509102764
 20
-44.7381696636
 10
32.9922940202
 20
-44.7766393678
 10
32.9368053791
 20
-44.8201317222
 10
32.8844224534
 20
-44.8686116071
 10
32.8355134276
 20
-44.9217375965
 10
32.7901027866
 20
-44.9795424014
 10
32.7481660456
 20
-45.0419933109
 10
32.7099979348
 20
-45.1086507657
 10
32.6756250079
 20
-45.1795443802
 10
32.6450207113
 20
-45.2546445399
 10
32.618400114
 20
-45.3334228422
 10
32.5957912793
 20
-45.4159051819
 10
32.577166144
 20
-45.5020656642
 10
32.5626555878
 20
-45.5912982009
 10
32.5522885925
 20
-45.6836244232
 10
32.5460361764
 20
-45.7790227
 10
32.5439422744
 20
-45.8768220507
 10
32.5460361764
 20
-45.977039387
 10
32.5522885925
 20
-46.0796577972
 10
32.5626555878
 20
-46.1839555658
 10
32.577166144
 20
-46.2899445291
 10
32.5957912793
 20
-46.3976128507
 10
32.618400114
 20
-46.5062033061
 10
32.6450207113
 20
-46.6157224068
 10
32.6756250079
 20
-46.7261636412
 10
32.7099979348
 20
-46.8367502501
 10
32.7481660456
 20
-46.9474832824
 10
32.7901027866
 20
-47.0583616892
 10
32.8355134276
 20
-47.1686055641
 10
32.8844224534
 20
-47.2782104706
 10
32.9368053791
 20
-47.3871808451
 10
32.9922940202
 20
-47.4947500913
 10
33.0509102764
 20
-47.6009083789
 10
33.1126322478
 20
-47.7056655382
 10
33.1770260501
 20
-47.8082844629
 10
33.2441105362
 20
-47.9087501349
 10
33.3138668532
 20
-48.0070775724
 10
33.3858045578
 20
-48.1025747241
 10
33.4599390578
 20
-48.1952216981
 10
33.5362549454
 20
-48.2850383864
 10
33.6142155539
 20
-48.3713924137
 10
33.6936419946
 20
-48.4540729881
 10
33.7747131562
 20
-48.5332909016
 10
33.8574290388
 20
-48.609046154
  0
LINE
  5
2F7
100
AcDbEntity
  8
ASSI
100
AcDbLine
 62
7
  6
CONTINUOUS
 10
33.769153844
 20
-44.3233250413
 11
33.0620470628
 21
-44.7315996347
  0
LINE
  5
2F8
100
AcDbEntity
  8
0
100
AcDbLine
 62
253
  6
CONTINUOUS
 10
33.8574290388
 20
-44.6613795393
 11
34.3582687656
 21
-44.372200958
  0
LINE
  5
2F9
100
AcDbEntity
  8
0
100
AcDbLine
 62
253
  6
CONTINUOUS
 10
25.6142958188
 20
-56.16396088
 11
26.3214026
 21
-55.7556862866
  0
LINE
  5
2FA
100
AcDbEntity
  8
ASSI
100
AcDbLine
 62
7
  6
CONTINUOUS
 10
27.0184105545
 20
-55.6566986231
 11
26.3113037733
 21
-56.0649732165
  0
LWPOLYLINE
  5
2FB
100
AcDbEntity
  8
0
100
AcDbPolyline
 62
7
  6
CONTINUOUS
 90
10
 70
0
 10
34.175331589
 20
-44.6333032204
 10
34.1623064741
 20
-44.6404290511
 10
34.1293040571
 20
-44.6553702835
 10
34.0946737372
 20
-44.6668197047
 10
34.0583965566
 20
-44.6747366507
 10
34.0204914731
 20
-44.6791617856
 10
33.9813982076
 20
-44.6800437753
 10
33.9412633334
 20
-44.6773655085
 10
33.8999402772
 20
-44.6711440964
 10
33.8574290388
 20
-44.6613795393
  0
LINE
  5
2FC
100
AcDbEntity
  8
ASSI
100
AcDbLine
 62
253
  6
CONTINUOUS
 10
-53.998856675
 20
102.0748864815
 11
-52.5846431126
 21
101.2583372948
  0
LINE
  5
2FD
100
AcDbEntity
  8
ASSI
100
AcDbLine
 62
253
  6
CONTINUOUS
 10
37.217918098
 20
49.4074639422
 11
35.8037045357
 21
50.2240131289
  0
LWPOLYLINE
  5
2FE
100
AcDbEntity
  8
ASSI
100
AcDbPolyline
 62
7
  6
CONTINUOUS
 90
16
 70
0
 10
23.2025660434
 20
-60.8455085686
 10
23.1923840871
 20
-60.8515562734
 10
23.1527161171
 20
-60.8784079697
 10
23.1155849747
 20
-60.9090042723
 10
23.081013726
 20
-60.9433792287
 10
23.0489793048
 20
-60.9814987913
 10
23.019772103
 20
-61.0230174066
 10
22.9934178268
 20
-61.0679659805
 10
22.9698907699
 20
-61.116313607
 10
22.9494042049
 20
-61.1676220156
 10
22.9319857773
 20
-61.2219181269
 10
22.9176078416
 20
-61.2791750202
 10
22.9064007335
 20
-61.3388736623
 10
22.8984078984
 20
-61.4008410422
 10
22.8935858909
 20
-61.4652501709
 10
22.8919347112
 20
-61.5321010484
  0
LWPOLYLINE
  5
2FF
100
AcDbEntity
  8
ASSI
100
AcDbPolyline
 62
7
  6
CONTINUOUS
 90
16
 70
0
 10
24.7026237226
 20
-63.4435173082
 10
24.7128056789
 20
-63.4374696034
 10
24.7524736489
 20
-63.4106179071
 10
24.7896047912
 20
-63.3800216045
 10
24.82417604
 20
-63.3456466481
 10
24.8562104612
 20
-63.3075270855
 10
24.885417663
 20
-63.2660084702
 10
24.9117719392
 20
-63.2210598963
 10
24.935298996
 20
-63.1727122698
 10
24.955785561
 20
-63.1214038612
 10
24.9732039886
 20
-63.0671077499
 10
24.9875819244
 20
-63.0098508566
 10
24.9987890325
 20
-62.9501522145
 10
25.0067818676
 20
-62.8881848346
 10
25.011603875
 20
-62.8237757059
 10
25.0132550548
 20
-62.7569248284
  0
LINE
  5
300
100
AcDbEntity
  8
0
100
AcDbLine
 62
253
  6
CONTINUOUS
 10
28.4427229435
 20
-57.4704711426
 11
29.1498297247
 21
-57.0621965492
  0
LINE
  5
301
100
AcDbEntity
  8
ASSI
100
AcDbLine
 62
253
  6
CONTINUOUS
 10
23.5990414924
 20
-61.1238264551
 11
22.8919347112
 21
-61.5321010484
  0
LINE
  5
302
100
AcDbEntity
  8
0
100
AcDbLine
 62
253
  6
CONTINUOUS
 10
29.0084083685
 20
-58.1236789279
 11
29.7155151497
 21
-57.7154043346
  0
LINE
  5
303
100
AcDbEntity
  8
ASSI
100
AcDbLine
 62
253
  6
CONTINUOUS
 10
24.1465088962
 20
-61.0526903935
 11
23.8182445946
 21
-61.2422260871
  0
LINE
  5
304
100
AcDbEntity
  8
0
100
AcDbLine
 62
253
  6
CONTINUOUS
 10
34.3824199055
 20
-60.4100166506
 11
33.6753131243
 21
-60.8182912439
  0
LWPOLYLINE
  5
305
100
AcDbEntity
  8
0
100
AcDbPolyline
 62
7
  6
CONTINUOUS
 90
15
 70
0
 10
34.1753264375
 20
-60.8678136353
 10
34.1605170798
 20
-60.8758772998
 10
34.129832602
 20
-60.8897073356
 10
34.0975981
 20
-60.9005094585
 10
34.0638291153
 20
-60.9083140282
 10
34.0288665149
 20
-60.9130422649
 10
33.9926982097
 20
-60.9146630109
 10
33.9553362889
 20
-60.9132074237
 10
33.917157887
 20
-60.9086901962
 10
33.8781547343
 20
-60.9010803197
 10
33.8383351005
 20
-60.8904088028
 10
33.7981009283
 20
-60.8767833649
 10
33.7575861986
 20
-60.8602399123
 10
33.7166569307
 20
-60.8407425387
 10
33.6753131243
 20
-60.8182912439
  0
LWPOLYLINE
  5
306
100
AcDbEntity
  8
0
100
AcDbPolyline
 62
7
  6
CONTINUOUS
 90
14
 70
0
 10
26.1143160978
 20
-56.2134953388
 10
26.0920473757
 20
-56.225264097
 10
26.0589624097
 20
-56.2390376527
 10
26.0240568607
 20
-56.2494662491
 10
25.9877282609
 20
-56.2564311171
 10
25.9499603416
 20
-56.2598926587
 10
25.9107693716
 20
-56.2598904719
 10
25.8706016886
 20
-56.2564245817
 10
25.8294461268
 20
-56.2494553902
 10
25.7873138521
 20
-56.2390224953
 10
25.7446847004
 20
-56.225244715
 10
25.7017186169
 20
-56.2081616554
 10
25.6582556563
 20
-56.1877337104
 10
25.6142958188
 20
-56.16396088
  0
LWPOLYLINE
  5
307
100
AcDbEntity
  8
ASSI
100
AcDbPolyline
 62
7
  6
CONTINUOUS
 90
3
 70
0
 10
-10.7519060028
 20
65.5715448256
 10
-10.7060919204
 20
65.5661241527
 10
-10.6974667296
 20
65.5657881229
  0
LWPOLYLINE
  5
308
100
AcDbEntity
  8
ASSI
100
AcDbPolyline
 62
7
  6
CONTINUOUS
 90
52
 70
0
 10
25.6567222256
 20
62.3284868125
 10
25.9369905115
 20
62.2111454008
 10
26.2200201721
 20
62.0859638813
 10
26.5055808601
 20
61.9529761263
 10
26.793692939
 20
61.8121536795
 10
27.0838574369
 20
61.6636152348
 10
27.3750636558
 20
61.5076838672
 10
27.6671021477
 20
61.3445123336
 10
27.9596963688
 20
61.1742176197
 10
28.2517501229
 20
60.9971825984
 10
28.5429178079
 20
60.8137179635
 10
28.8330842218
 20
60.6239359224
 10
29.1215173224
 20
60.4279928265
 10
29.4078541663
 20
60.226249911
 10
29.6920241885
 20
60.0188337329
 10
29.9737339365
 20
59.8055507141
 10
30.2528458045
 20
59.5865879397
 10
30.5290581956
 20
59.3622331067
 10
30.8018226973
 20
59.1324289502
 10
31.0710713423
 20
58.8973116034
 10
31.3364407323
 20
58.6572469591
 10
31.5969568589
 20
58.412544595
 10
31.8524410194
 20
58.1634856429
 10
32.1027013722
 20
57.9103612469
 10
32.3467874771
 20
57.6535339854
 10
32.5844106369
 20
57.3934585554
 10
32.8155702862
 20
57.1302981193
 10
33.0397711245
 20
56.8639899177
 10
33.2570037413
 20
56.5946565207
 10
33.4670024061
 20
56.3227799493
 10
33.6689175674
 20
56.0488426552
 10
33.8625147876
 20
55.7733303914
 10
34.0478667905
 20
55.4963761475
 10
34.2246147805
 20
55.2179357829
 10
34.3927428748
 20
54.938162005
 10
34.5521201544
 20
54.6574930596
 10
34.7022359915
 20
54.3763069524
 10
34.8429416967
 20
54.095069578
 10
34.9743365846
 20
53.8138795302
 10
35.0962901539
 20
53.532557685
 10
35.2088006136
 20
53.2512385261
 10
35.3118062138
 20
52.9703247861
 10
35.4050798704
 20
52.6900335775
 10
35.4885557298
 20
52.4107486932
 10
35.5622994157
 20
52.1325879776
 10
35.6262699022
 20
51.8553684259
 10
35.6804589989
 20
51.5792162968
 10
35.7248495531
 20
51.3044975976
 10
35.7593692833
 20
51.0313913711
 10
35.7839984803
 20
50.7601125972
 10
35.7987713859
 20
50.4909114091
 10
35.8037045357
 20
50.2240131289
  0
LWPOLYLINE
  5
309
100
AcDbEntity
  8
ASSI
100
AcDbPolyline
 62
7
  6
CONTINUOUS
 90
28
 70
0
 10
25.6567222256
 20
62.3284868125
 10
22.5979131949
 20
63.6583562839
 10
19.5647771545
 20
65.0068467237
 10
16.5573141044
 20
66.3739581318
 10
13.5751812826
 20
67.7598533432
 10
10.6187214512
 20
69.1643695231
 10
7.6889628963
 20
70.5870181665
 10
4.7859149062
 20
72.027805581
 10
1.9095681927
 20
73.4867254591
 10
-0.939076822
 20
74.9632703739
 10
-3.7600105018
 20
76.4574464562
 10
-6.5532424829
 20
77.9692475753
 10
-9.3178012512
 20
79.4981479115
 10
-12.0536768328
 20
81.0441534128
 10
-14.7608792015
 20
82.6072581313
 10
-17.4384667654
 20
84.1869184035
 10
-20.0864292229
 20
85.7831399882
 10
-22.7047768756
 20
87.3959171267
 10
-25.2925990359
 20
89.0246888789
 10
-27.8498850856
 20
90.6694608084
 10
-30.376645643
 20
92.3302273517
 10
-32.8720018754
 20
94.0064108775
 10
-35.335942859
 20
95.6980167485
 10
-37.7684795176
 20
97.4050396021
 10
-40.1687657907
 20
99.1268857185
 10
-42.5365196581
 20
100.8633571912
 10
-44.8720231401
 20
102.6146519268
 10
-47.1752762366
 20
104.3807699253
  0
LWPOLYLINE
  5
30A
100
AcDbEntity
  8
ASSI
100
AcDbPolyline
 62
7
  6
CONTINUOUS
 90
28
 70
0
 10
25.6567222256
 20
63.9614273661
 10
22.5979131949
 20
65.2912968375
 10
19.5647771545
 20
66.6397872772
 10
16.5573141044
 20
68.0068986854
 10
13.5751812826
 20
69.3927938968
 10
10.6187214512
 20
70.7973100767
 10
7.6889628963
 20
72.2199587201
 10
4.7859149062
 20
73.6607461346
 10
1.9095681927
 20
75.1196660127
 10
-0.939076822
 20
76.5962109274
 10
-3.7600105018
 20
78.0903870098
 10
-6.5532424829
 20
79.6021881288
 10
-9.3178012512
 20
81.1310884651
 10
-12.0536768328
 20
82.6770939664
 10
-14.7608792015
 20
84.2401986849
 10
-17.4384667654
 20
85.8198589571
 10
-20.0864292229
 20
87.4160805418
 10
-22.7047768756
 20
89.0288576803
 10
-25.2925990359
 20
90.6576294324
 10
-27.8498850856
 20
92.302401362
 10
-30.376645643
 20
93.9631679053
 10
-32.8720018754
 20
95.6393514311
 10
-35.335942859
 20
97.3309573021
 10
-37.7684795176
 20
99.0379801557
 10
-40.1687657907
 20
100.7598262721
 10
-42.5365196581
 20
102.4962977448
 10
-44.8720231401
 20
104.2475924804
 10
-47.4158130743
 20
106.1965606267
  0
LWPOLYLINE
  5
30B
100
AcDbEntity
  8
ASSI
100
AcDbPolyline
 62
7
  6
CONTINUOUS
 90
52
 70
0
 10
25.6567222256
 20
63.9614273661
 10
25.9802820316
 20
63.8183246978
 10
26.3067522378
 20
63.6657526052
 10
26.6358606158
 20
63.5037511193
 10
26.9676156716
 20
63.3322776258
 10
27.301443271
 20
63.1514813834
 10
27.6361956324
 20
62.9617711602
 10
27.9716187522
 20
62.7633237491
 10
28.30739228
 20
62.5562811439
 10
28.6422868131
 20
62.3411339971
 10
28.9758940301
 20
62.1182495603
 10
29.3080776658
 20
61.8877603743
 10
29.6380383275
 20
61.6498891802
 10
29.9653503218
 20
61.4050647629
 10
30.2899270141
 20
61.1534348193
 10
30.6114776251
 20
60.8948029252
 10
30.9298343295
 20
60.6293871786
 10
31.2446458949
 20
60.3575305876
 10
31.5553358271
 20
60.0792068337
 10
31.8618157867
 20
59.7945721741
 10
32.1636643176
 20
59.5040636549
 10
32.4598259916
 20
59.2081023813
 10
32.7500887112
 20
58.907020078
 10
33.0342266581
 20
58.6011613462
 10
33.3112149676
 20
58.2910114927
 10
33.5807195147
 20
57.9771119645
 10
33.8427325687
 20
57.659651512
 10
34.0967459696
 20
57.3386005366
 10
34.3427436236
 20
57.014101023
 10
34.580416458
 20
56.6867255032
 10
34.8088525698
 20
56.3570973322
 10
35.0277846985
 20
56.0257962412
 10
35.2372889885
 20
55.6929737401
 10
35.4370041153
 20
55.3586138691
 10
35.6269107953
 20
55.0228968041
 10
35.8068548192
 20
54.6863407683
 10
35.9762969635
 20
54.3494295905
 10
36.135070546
 20
54.0127190937
 10
36.2832838969
 20
53.6763205776
 10
36.4208199086
 20
53.3400437834
 10
36.5476770564
 20
53.0040479882
 10
36.6637817711
 20
52.6688088068
 10
36.7689010249
 20
52.3346032341
 10
36.8629626962
 20
52.0018881379
 10
36.9460386351
 20
51.6707994944
 10
37.0180985849
 20
51.3411315504
 10
37.079134516
 20
51.0130344732
 10
37.129124507
 20
50.6869398644
 10
37.167996414
 20
50.3630669873
 10
37.1957313706
 20
50.0416724648
 10
37.2123654179
 20
49.7230493532
 10
37.217918098
 20
49.4074639422
  0
LINE
  5
30C
100
AcDbEntity
  8
0
100
AcDbLine
 62
253
  6
CONTINUOUS
 10
-28.8965659429
 20
116.5676087164
 11
43.9354325193
 21
74.5153256037
  0
LINE
  5
30D
100
AcDbEntity
  8
RACCORDO
100
AcDbLine
 62
7
  6
CONTINUOUS
 10
46.7827507854
 20
73.7699104857
 11
46.8345703222
 21
73.7399905347
  0
LINE
  5
30E
100
AcDbEntity
  8
0
100
AcDbLine
 62
7
  6
CONTINUOUS
 10
-27.3964934625
 20
116.7162322494
 11
45.4355049997
 21
74.6639491367
  0
LWPOLYLINE
  5
30F
100
AcDbEntity
  8
0
100
AcDbPolyline
 62
253
  6
CONTINUOUS
 90
49
 70
0
 10
43.9354325193
 20
74.5153256037
 10
44.2361990287
 20
74.3359838613
 10
44.5366434698
 20
74.1454683038
 10
44.8364441191
 20
73.9439829402
 10
45.1352799427
 20
73.7317435258
 10
45.4328309395
 20
73.5089773321
 10
45.7287784847
 20
73.2759229026
 10
46.02280567
 20
73.0328297979
 10
46.3145976439
 20
72.7799583281
 10
46.6038419482
 20
72.5175792744
 10
46.8902288529
 20
72.2459735988
 10
47.1734516876
 20
71.9654321434
 10
47.4532071703
 20
71.6762553192
 10
47.7291957318
 20
71.3787527838
 10
48.0011218366
 20
71.0732431105
 10
48.2686942994
 20
70.7600534466
 10
48.531626597
 20
70.4395191635
 10
48.7896371749
 20
70.1119834973
 10
49.0424497488
 20
69.7777971815
 10
49.2897936008
 20
69.4373180711
 10
49.5314038688
 20
69.0909107596
 10
49.7670218305
 20
68.7389461887
 10
49.9963951804
 20
68.3818012509
 10
50.2192782996
 20
68.0198583859
 10
50.4354325193
 20
67.6535051711
 10
50.6446263763
 20
67.2831339069
 10
50.8466358604
 20
66.909141196
 10
51.0412446548
 20
66.5319275192
 10
51.2282443677
 20
66.1518968063
 10
51.4074347549
 20
65.7694560037
 10
51.578623935
 20
65.3850146387
 10
51.7416285943
 20
64.9989843807
 10
51.8962741834
 20
64.6117786005
 10
52.0423951037
 20
64.2238119278
 10
52.1798348855
 20
63.835499807
 10
52.3084463547
 20
63.4472580525
 10
52.428091791
 20
63.0595024032
 10
52.538643075
 20
62.6726480777
 10
52.6399818257
 20
62.2871093292
 10
52.731999527
 20
61.9032990022
 10
52.8145976439
 20
61.5216280906
 10
52.8876877285
 20
61.142505297
 10
52.9511915139
 20
60.7663365957
 10
53.0050409988
 20
60.3935247974
 10
53.0491785198
 20
60.0244691185
 10
53.0835568132
 20
59.659564753
 10
53.1081390661
 20
59.2992024496
 10
53.122898955
 20
58.9437680933
 10
53.1278206747
 20
58.5936422921
  0
LWPOLYLINE
  5
310
100
AcDbEntity
  8
0
100
AcDbPolyline
 62
7
  6
CONTINUOUS
 90
46
 70
0
 10
45.4355049997
 20
74.6639491367
 10
45.7563537966
 20
74.4722906672
 10
46.0744163873
 20
74.2695308081
 10
46.3895153863
 20
74.0559164469
 10
46.7017377065
 20
73.8314942586
 10
47.0106525574
 20
73.596666225
 10
47.3153100328
 20
73.3522982157
 10
47.6154220111
 20
73.0988096177
 10
47.9109557851
 20
72.8364041192
 10
48.201345918
 20
72.565766332
 10
48.4862440621
 20
72.28743232
 10
48.7656996357
 20
72.0015545704
 10
49.0397214283
 20
71.7082895675
 10
49.3082262387
 20
71.4078644947
 10
49.5709669493
 20
71.1006845329
 10
49.8276819563
 20
70.7871887504
 10
50.0781383136
 20
70.4677999399
 10
50.3222573833
 20
70.1427482509
 10
50.5599944095
 20
69.8121985172
 10
50.7911816334
 20
69.476470951
 10
51.0156611721
 20
69.1358730294
 10
51.2333791641
 20
68.7905440987
 10
51.4441922934
 20
68.4407450788
 10
51.6479036031
 20
68.0868260205
 10
51.8443661097
 20
67.729055104
 10
52.0333914933
 20
67.3677764302
 10
52.2148343952
 20
67.0032563357
 10
52.388603642
 20
66.6356375754
 10
52.5545243076
 20
66.2652212038
 10
52.7124230288
 20
65.8923067946
 10
52.8621954794
 20
65.5170171888
 10
53.0036983012
 20
65.1395370053
 10
53.1367013146
 20
64.7602754057
 10
53.2609755407
 20
64.3796714876
 10
53.3763331088
 20
63.9980682885
 10
53.4826148039
 20
63.6157150358
 10
53.5796507881
 20
63.2328814263
 10
53.6672751805
 20
62.8498001623
 10
53.7452915576
 20
62.4668209837
 10
53.8134974894
 20
62.0843491146
 10
53.871725124
 20
61.7026045127
 10
53.9197811297
 20
61.3219368512
 10
53.9574576268
 20
60.9428928966
 10
53.9845822855
 20
60.5658212728
 10
54.0009900764
 20
60.1909149708
 10
54.0065003312
 20
59.8184660721
  0
LWPOLYLINE
  5
311
100
AcDbEntity
  8
RACCORDO
100
AcDbPolyline
 62
7
  6
CONTINUOUS
 90
46
 70
0
 10
46.8345703222
 20
73.7399905347
 10
47.081846055
 20
73.5921924994
 10
47.3282220057
 20
73.4350290813
 10
47.5736981742
 20
73.2685002803
 10
47.8185712019
 20
73.0923805694
 10
48.0625444474
 20
72.9068954756
 10
48.3047279868
 20
72.7127215797
 10
48.545115284
 20
72.5098271497
 10
48.7837128751
 20
72.2982439176
 10
49.0196504444
 20
72.0787436607
 10
49.2529182775
 20
71.8512974654
 10
49.483526089
 20
71.6159342452
 10
49.7106327069
 20
71.3735125179
 10
49.9342253448
 20
71.1240065054
 10
50.1543167892
 20
70.8674419859
 10
50.3701042281
 20
70.6047548115
 10
50.581571943
 20
70.3359226219
 10
50.7887356524
 20
70.0609677775
 10
50.9908397
 20
69.7808932116
 10
51.1878656073
 20
69.4956802266
 10
51.3798318528
 20
69.2053475202
 10
51.5660382147
 20
68.9109541183
 10
51.7464636576
 20
68.6124851912
 10
51.9211292168
 20
68.3099555686
 10
52.0893977772
 20
68.0044687665
 10
52.2512459765
 20
67.6960139851
 10
52.406697177
 20
67.3846020243
 10
52.5551843504
 20
67.0713687993
 10
52.6966820634
 20
66.7563076589
 10
52.8312157494
 20
66.4394252544
 10
52.9582946791
 20
66.1218774553
 10
53.0778916274
 20
65.8036618316
 10
53.1900338196
 20
65.4847808133
 10
53.2943122024
 20
65.1663975602
 10
53.3906980567
 20
64.8485138902
 10
53.4792201017
 20
64.5311279854
 10
53.5595554418
 20
64.2153975518
 10
53.6316741786
 20
63.9013286355
 10
53.6956062104
 20
63.5889151905
 10
53.751118337
 20
63.2792967852
 10
53.7981798082
 20
62.9724836273
 10
53.8368213742
 20
62.6684655092
 10
53.8669020847
 20
62.3683513762
 10
53.8883749565
 20
62.0725108768
 10
53.901286973
 20
61.7805743626
 10
53.9056381341
 20
61.4925418335
  0
LWPOLYLINE
  5
312
100
AcDbEntity
  8
0
100
AcDbPolyline
 62
7
  6
CONTINUOUS
 90
18
 70
0
 10
53.1278206747
 20
-113.6815861112
 10
53.2266873715
 20
-113.6216748905
 10
53.3201218313
 20
-113.5594157111
 10
53.408124054
 20
-113.494808573
 10
53.4908685176
 20
-113.4276967196
 10
53.5681807443
 20
-113.3582369075
 10
53.6395372999
 20
-113.2868994068
 10
53.704897771
 20
-113.2136714762
 10
53.764302571
 20
-113.138565857
 10
53.8173495062
 20
-113.0620910437
 10
53.863995434
 20
-112.9842377453
 10
53.9042834969
 20
-112.9050152529
 10
53.9379409291
 20
-112.8249599336
 10
53.964922737
 20
-112.7440661362
 10
53.9852739141
 20
-112.6623395119
 10
53.998856675
 20
-112.5803333821
 10
54.0056250912
 20
-112.49804585
 10
54.0064711433
 20
-112.4567623312
  0
LINE
  5
313
100
AcDbEntity
  8
0
100
AcDbLine
 62
7
  6
CONTINUOUS
 10
53.1278206747
 20
-113.6815861112
 11
46.3395955754
 21
-117.6010222071
  0
ENDSEC
  0
SECTION
  2
OBJECTS
  0
DICTIONARY
  5
C
100
AcDbDictionary
280
0
281
1
  3
ACAD_GROUP
350
D
  3
ACAD_MLINESTYLE
350
17
  3
ACAD_LAYOUT
350
1A
  3
ACAD_PLOTSETTINGS
350
19
  3
ACAD_PLOTSTYLENAME
350
E
  0
DICTIONARY
  5
D
102
{ACAD_REACTORS
330
C
102
}
100
AcDbDictionary
280
0
281
1
  0
ACDBDICTIONARYWDFLT
  5
E
102
{ACAD_REACTORS
330
C
102
}
100
AcDbDictionary
281
1
  3
Normal
350
F
100
AcDbDictionaryWithDefault
340
F
  0
DICTIONARY
  5
17
102
{ACAD_REACTORS
330
C
102
}
100
AcDbDictionary
280
0
281
1
  3
Standard
350
18
  0
DICTIONARY
  5
19
102
{ACAD_REACTORS
330
C
102
}
100
AcDbDictionary
281
1
  0
DICTIONARY
  5
1A
102
{ACAD_REACTORS
330
C
102
}
100
AcDbDictionary
281
1
  3
Model
350
314
  3
Layout1
350
315
  0
ACDBPLACEHOLDER
  5
F
102
{ACAD_REACTORS
330
E
102
}
  0
MLINESTYLE
  5
18
102
{ACAD_REACTORS
330
17
102
}
100
AcDbMlineStyle
  2
STANDARD
 70
0
  3

 62
256
 51
90.0
 52
90.0
 71
2
 49
0.5
 62
256
  6
BYLAYER
 49
-0.5
 62
256
  6
BYLAYER
  0
LAYOUT
  5
314
102
{ACAD_REACTORS
330
1A
102
}
100
AcDbPlotSettings
  1

  2
none_device
  4
ISO_A4_(297.00_x_210.00_MM)
  6

 40
0.0
 41
0.0
 42
0.0
 43
0.0
 44
297.0
 45
210.0
 46
0.0
 47
0.0
 48
0.0
 49
0.0
140
0.0
141
0.0
142
1.0
143
1.0
 70
1024
 72
1
 73
0
 74
0
  7

 75
0
147
1.0
148
0.0
149
0.0
100
AcDbLayout
  1
Model
 70
0
 71
0
 10
0.0
 20
0.0
 11
297.0
 21
210.0
 12
0.0
 22
0.0
 32
0.0
 14
0.0
 24
0.0
 34
0.0
 15
0.0
 25
0.0
 35
0.0
146
0.0
 13
0.0
 23
0.0
 33
0.0
 16
1.0
 26
0.0
 36
0.0
 17
0.0
 27
1.0
 37
0.0
 76
0
330
210
345
0
346
0
  0
LAYOUT
  5
315
102
{ACAD_REACTORS
330
1A
102
}
100
AcDbPlotSettings
  1

  2
none_device
  4
ISO_A4_(297.00_x_210.00_MM)
  6

 40
0.0
 41
0.0
 42
0.0
 43
0.0
 44
297.0
 45
210.0
 46
0.0
 47
0.0
 48
0.0
 49
0.0
140
0.0
141
0.0
142
1.0
143
1.0
 70
0
 72
1
 73
0
 74
0
  7

 75
0
147
1.0
148
0.0
149
0.0
100
AcDbLayout
  1
Layout1
 70
0
 71
1
 10
0.0
 20
0.0
 11
297.0
 21
210.0
 12
0.0
 22
0.0
 32
0.0
 14
0.0
 24
0.0
 34
0.0
 15
0.0
 25
0.0
 35
0.0
146
0.0
 13
0.0
 23
0.0
 33
0.0
 16
1.0
 26
0.0
 36
0.0
 17
0.0
 27
1.0
 37
0.0
 76
0
330
211
345
0
346
0
  0
ENDSEC
  0
EOF
